  0
SECTION
  2
HEADER
  9
$ACADVER
  1
AC1015
  9
$ACADMAINTVER
 70
    20
  9
$DWGCODEPAGE
  3
ANSI_932
  9
$INSBASE
 10
0.0
 20
0.0
 30
0.0
  9
$EXTMIN
 10
0.0076899281673946
 20
-175.0369871619539
 30
-0.0015258207003583
  9
$EXTMAX
 10
469.6333496116039
 20
207.8108421739034
 30
0.0000000349246037
  9
$LIMMIN
 10
0.0
 20
0.0
  9
$LIMMAX
 10
12.0
 20
9.0
  9
$ORTHOMODE
 70
     0
  9
$REGENMODE
 70
     1
  9
$FILLMODE
 70
     1
  9
$QTEXTMODE
 70
     0
  9
$MIRRTEXT
 70
     1
  9
$LTSCALE
 40
1.0
  9
$ATTMODE
 70
     1
  9
$TEXTSIZE
 40
0.2
  9
$TRACEWID
 40
0.05
  9
$TEXTSTYLE
  7
Standard
  9
$CLAYER
  8
0
  9
$CELTYPE
  6
ByBlock
  9
$CECOLOR
 62
   256
  9
$CELTSCALE
 40
1.0
  9
$DISPSILH
 70
     0
  9
$DIMSCALE
 40
1.0
  9
$DIMASZ
 40
0.18
  9
$DIMEXO
 40
0.0625
  9
$DIMDLI
 40
0.38
  9
$DIMRND
 40
0.0
  9
$DIMDLE
 40
0.0
  9
$DIMEXE
 40
0.18
  9
$DIMTP
 40
0.0
  9
$DIMTM
 40
0.0
  9
$DIMTXT
 40
0.18
  9
$DIMCEN
 40
0.09
  9
$DIMTSZ
 40
0.0
  9
$DIMTOL
 70
     0
  9
$DIMLIM
 70
     0
  9
$DIMTIH
 70
     1
  9
$DIMTOH
 70
     1
  9
$DIMSE1
 70
     0
  9
$DIMSE2
 70
     0
  9
$DIMTAD
 70
     0
  9
$DIMZIN
 70
     0
  9
$DIMBLK
  1

  9
$DIMASO
 70
     1
  9
$DIMSHO
 70
     1
  9
$DIMPOST
  1

  9
$DIMAPOST
  1

  9
$DIMALT
 70
     0
  9
$DIMALTD
 70
     2
  9
$DIMALTF
 40
25.4
  9
$DIMLFAC
 40
1.0
  9
$DIMTOFL
 70
     0
  9
$DIMTVP
 40
0.0
  9
$DIMTIX
 70
     0
  9
$DIMSOXD
 70
     0
  9
$DIMSAH
 70
     0
  9
$DIMBLK1
  1

  9
$DIMBLK2
  1

  9
$DIMSTYLE
  2
Standard
  9
$DIMCLRD
 70
     0
  9
$DIMCLRE
 70
     0
  9
$DIMCLRT
 70
     0
  9
$DIMTFAC
 40
1.0
  9
$DIMGAP
 40
0.09
  9
$DIMJUST
 70
     0
  9
$DIMSD1
 70
     0
  9
$DIMSD2
 70
     0
  9
$DIMTOLJ
 70
     1
  9
$DIMTZIN
 70
     0
  9
$DIMALTZ
 70
     0
  9
$DIMALTTZ
 70
     0
  9
$DIMUPT
 70
     0
  9
$DIMDEC
 70
     4
  9
$DIMTDEC
 70
     4
  9
$DIMALTU
 70
     2
  9
$DIMALTTD
 70
     2
  9
$DIMTXSTY
  7
Standard
  9
$DIMAUNIT
 70
     0
  9
$DIMADEC
 70
     0
  9
$DIMALTRND
 40
0.0
  9
$DIMAZIN
 70
     0
  9
$DIMDSEP
 70
    46
  9
$DIMATFIT
 70
     3
  9
$DIMFRAC
 70
     0
  9
$DIMLDRBLK
  1

  9
$DIMLUNIT
 70
     2
  9
$DIMLWD
 70
    -2
  9
$DIMLWE
 70
    -2
  9
$DIMTMOVE
 70
     2
  9
$LUNITS
 70
     2
  9
$LUPREC
 70
     4
  9
$SKETCHINC
 40
0.1
  9
$FILLETRAD
 40
0.5
  9
$AUNITS
 70
     0
  9
$AUPREC
 70
     0
  9
$MENU
  1
.
  9
$ELEVATION
 40
0.0
  9
$PELEVATION
 40
0.0
  9
$THICKNESS
 40
0.0
  9
$LIMCHECK
 70
     0
  9
$CHAMFERA
 40
0.5
  9
$CHAMFERB
 40
0.5
  9
$CHAMFERC
 40
1.0
  9
$CHAMFERD
 40
0.0
  9
$SKPOLY
 70
     0
  9
$TDCREATE
 40
2456646.695744537
  9
$TDUCREATE
 40
2456646.320744537
  9
$TDUPDATE
 40
2457020.758886308
  9
$TDUUPDATE
 40
2457020.383886308
  9
$TDINDWG
 40
0.0104517130
  9
$TDUSRTIMER
 40
0.0104517130
  9
$USRTIMER
 70
     1
  9
$ANGBASE
 50
0.0
  9
$ANGDIR
 70
     0
  9
$PDMODE
 70
     0
  9
$PDSIZE
 40
0.0
  9
$PLINEWID
 40
0.0
  9
$SPLFRAME
 70
     0
  9
$SPLINETYPE
 70
     6
  9
$SPLINESEGS
 70
     8
  9
$HANDSEED
  5
8D1
  9
$SURFTAB1
 70
     6
  9
$SURFTAB2
 70
     6
  9
$SURFTYPE
 70
     6
  9
$SURFU
 70
     6
  9
$SURFV
 70
     6
  9
$UCSBASE
  2

  9
$UCSNAME
  2

  9
$UCSORG
 10
0.0
 20
0.0
 30
0.0
  9
$UCSXDIR
 10
1.0
 20
0.0
 30
0.0
  9
$UCSYDIR
 10
0.0
 20
1.0
 30
0.0
  9
$UCSORTHOREF
  2

  9
$UCSORTHOVIEW
 70
     0
  9
$UCSORGTOP
 10
0.0
 20
0.0
 30
0.0
  9
$UCSORGBOTTOM
 10
0.0
 20
0.0
 30
0.0
  9
$UCSORGLEFT
 10
0.0
 20
0.0
 30
0.0
  9
$UCSORGRIGHT
 10
0.0
 20
0.0
 30
0.0
  9
$UCSORGFRONT
 10
0.0
 20
0.0
 30
0.0
  9
$UCSORGBACK
 10
0.0
 20
0.0
 30
0.0
  9
$PUCSBASE
  2

  9
$PUCSNAME
  2

  9
$PUCSORG
 10
0.0
 20
0.0
 30
0.0
  9
$PUCSXDIR
 10
1.0
 20
0.0
 30
0.0
  9
$PUCSYDIR
 10
0.0
 20
1.0
 30
0.0
  9
$PUCSORTHOREF
  2

  9
$PUCSORTHOVIEW
 70
     0
  9
$PUCSORGTOP
 10
0.0
 20
0.0
 30
0.0
  9
$PUCSORGBOTTOM
 10
0.0
 20
0.0
 30
0.0
  9
$PUCSORGLEFT
 10
0.0
 20
0.0
 30
0.0
  9
$PUCSORGRIGHT
 10
0.0
 20
0.0
 30
0.0
  9
$PUCSORGFRONT
 10
0.0
 20
0.0
 30
0.0
  9
$PUCSORGBACK
 10
0.0
 20
0.0
 30
0.0
  9
$USERI1
 70
     0
  9
$USERI2
 70
     0
  9
$USERI3
 70
     0
  9
$USERI4
 70
     0
  9
$USERI5
 70
     0
  9
$USERR1
 40
0.0
  9
$USERR2
 40
0.0
  9
$USERR3
 40
0.0
  9
$USERR4
 40
0.0
  9
$USERR5
 40
0.0
  9
$WORLDVIEW
 70
     1
  9
$SHADEDGE
 70
     3
  9
$SHADEDIF
 70
    70
  9
$TILEMODE
 70
     1
  9
$MAXACTVP
 70
    64
  9
$PINSBASE
 10
0.0
 20
0.0
 30
0.0
  9
$PLIMCHECK
 70
     0
  9
$PEXTMIN
 10
1.000000000000000E+20
 20
1.000000000000000E+20
 30
1.000000000000000E+20
  9
$PEXTMAX
 10
-1.000000000000000E+20
 20
-1.000000000000000E+20
 30
-1.000000000000000E+20
  9
$PLIMMIN
 10
0.0
 20
0.0
  9
$PLIMMAX
 10
12.0
 20
9.0
  9
$UNITMODE
 70
     0
  9
$VISRETAIN
 70
     1
  9
$PLINEGEN
 70
     0
  9
$PSLTSCALE
 70
     1
  9
$TREEDEPTH
 70
  3020
  9
$CMLSTYLE
  2
Standard
  9
$CMLJUST
 70
     0
  9
$CMLSCALE
 40
1.0
  9
$PROXYGRAPHICS
 70
     1
  9
$MEASUREMENT
 70
     0
  9
$CELWEIGHT
370
    -1
  9
$ENDCAPS
280
     0
  9
$JOINSTYLE
280
     0
  9
$LWDISPLAY
290
     0
  9
$INSUNITS
 70
     0
  9
$HYPERLINKBASE
  1

  9
$STYLESHEET
  1

  9
$XEDIT
290
     1
  9
$CEPSNTYPE
380
     0
  9
$PSTYLEMODE
290
     1
  9
$FINGERPRINTGUID
  2
{E1930CC7-451E-41E2-899C-129B5A28C804}
  9
$VERSIONGUID
  2
{3927C264-8368-44BE-A67E-6D534C968FF2}
  9
$EXTNAMES
290
     1
  9
$PSVPSCALE
 40
0.0
  9
$OLESTARTUP
290
     0
  0
ENDSEC
  0
SECTION
  2
CLASSES
  0
CLASS
  1
ACDBDICTIONARYWDFLT
  2
AcDbDictionaryWithDefault
  3
ObjectDBX Classes
 90
        0
280
     0
281
     0
  0
CLASS
  1
SCALE
  2
AcDbScale
  3
ObjectDBX Classes
 90
     1153
280
     0
281
     0
  0
CLASS
  1
DICTIONARYVAR
  2
AcDbDictionaryVar
  3
ObjectDBX Classes
 90
        0
280
     0
281
     0
  0
CLASS
  1
ACDBPLACEHOLDER
  2
AcDbPlaceHolder
  3
ObjectDBX Classes
 90
        0
280
     0
281
     0
  0
CLASS
  1
LAYOUT
  2
AcDbLayout
  3
ObjectDBX Classes
 90
        0
280
     0
281
     0
  0
CLASS
  1
MATERIAL
  2
AcDbMaterial
  3
ObjectDBX Classes
 90
     1153
280
     0
281
     0
  0
CLASS
  1
VISUALSTYLE
  2
AcDbVisualStyle
  3
ObjectDBX Classes
 90
     4095
280
     0
281
     0
  0
CLASS
  1
TABLESTYLE
  2
AcDbTableStyle
  3
ObjectDBX Classes
 90
     4095
280
     0
281
     0
  0
CLASS
  1
MLEADERSTYLE
  2
AcDbMLeaderStyle
  3
ACDB_MLEADERSTYLE_CLASS
 90
     4095
280
     0
281
     0
  0
CLASS
  1
ACDBSECTIONVIEWSTYLE
  2
AcDbSectionViewStyle
  3
ObjectDBX Classes
 90
     1025
280
     0
281
     0
  0
CLASS
  1
ACDBDETAILVIEWSTYLE
  2
AcDbDetailViewStyle
  3
ObjectDBX Classes
 90
     1025
280
     0
281
     0
  0
CLASS
  1
ACME_DOCUMENT
  2
AcMeDbDoc
  3
AcMeServices
 90
     1024
280
     0
281
     0
  0
CLASS
  1
AMGSETTINGSOBJ
  2
AmgSettingsObj
  3
"AcadM|Product Description: AutoCAD Mechanical|Company: Autodesk, Inc."
 90
     1024
280
     0
281
     0
  0
CLASS
  1
ACMESCOPE
  2
AcMeScope
  3
AcMeServices
 90
     1024
280
     0
281
     0
  0
CLASS
  1
ACMECOMMANDHISTORY
  2
AcMeCommandHistory
  3
AcMeServices
 90
     1024
280
     0
281
     0
  0
CLASS
  1
ACIMSYSVARMAN
  2
AcImSysVarManager
  3
AcMeServices
 90
     1024
280
     0
281
     0
  0
CLASS
  1
ACIMINTSYSVAR
  2
AcImIntSysVar
  3
AcMeServices
 90
     1024
280
     0
281
     0
  0
CLASS
  1
ACMESTATEMGR
  2
AcMeStateMgr
  3
AcMeServices
 90
     1024
280
     0
281
     0
  0
CLASS
  1
ACDBENTITYCACHE
  2
AcMeEntityCache
  3
AcMeServices
 90
     1024
280
     0
281
     0
  0
CLASS
  1
ACGREFMASTER
  2
AcGrefMaster
  3
AcAttribServices
 90
     1024
280
     0
281
     0
  0
CLASS
  1
ACME_DATABASE
  2
AcMeDbDatabase
  3
AcMeServices
 90
     1024
280
     0
281
     0
  0
CLASS
  1
ACRFINSADJUSTERMGR
  2
AcRfInsAdjusterMgr
  3
AcMeServices
 90
     1024
280
     0
281
     0
  0
CLASS
  1
ACGREFACADMASTER
  2
AcGrefacadMaster
  3
AcGrefServices
 90
     1024
280
     0
281
     0
  0
CLASS
  1
AMDTMENUSTATEMGR
  2
AmdtMenuStateMgr
  3
McadcomServices
 90
     1024
280
     0
281
     0
  0
CLASS
  1
AMDTMCOMMENUSTATE
  2
AmdtMcomMenuState
  3
McadcomServices
 90
     1024
280
     0
281
     0
  0
CLASS
  1
AMIMASTER
  2
AmiMaster
  3
AmiServices
 90
     1024
280
     0
281
     0
  0
CLASS
  1
MAPIAMMOUDLE
  2
MApiAmModule
  3
MApiAmServices
 90
     1024
280
     0
281
     0
  0
CLASS
  1
ACIMSTRSYSVAR
  2
AcImStrSysVar
  3
AcMeServices
 90
     1024
280
     0
281
     0
  0
CLASS
  1
AMDTAMMENUSTATE
  2
AmdtAmMenuState
  3
DesignerAssemblies
 90
     1024
280
     0
281
     0
  0
CLASS
  1
ACAMPROJECT
  2
AcAmProject
  3
DesignerAssemblies
 90
     1024
280
     0
281
     0
  0
CLASS
  1
ACAMGRCOMPDEF
  2
AcAmGrCompDef
  3
DesignerAssemblies
 90
     1024
280
     0
281
     0
  0
CLASS
  1
ACAMCOMPDEF
  2
AcAmCompDef
  3
DesignerAssemblies
 90
     1024
280
     0
281
     0
  0
CLASS
  1
ACAMCOMPDEFMGR
  2
AcAmCompDefMgr
  3
DesignerAssemblies
 90
     1024
280
     0
281
     0
  0
CLASS
  1
AMCONTEXTMGR
  2
AcAmContextMgr
  3
DesignerAssemblies
 90
     1024
280
     0
281
     0
  0
CLASS
  1
ACAMCONTEXTMODELER
  2
AcAmContextModeler
  3
DesignerAssemblies
 90
     1024
280
     0
281
     0
  0
CLASS
  1
ACMDATADICTIONARY
  2
AcmDataDictionary
  3
"AcmSymBB|Product Description: AutoCAD Mechanical|Company: Autodesk, Inc."
 90
     1024
280
     0
281
     0
  0
CLASS
  1
ACAMGRCOMPDEFSET
  2
AcAmGrCompDefSet
  3
DesignerAssemblies
 90
     1024
280
     0
281
     0
  0
CLASS
  1
AMDTBROWSERDBTAB
  2
AmdtBrowserDbTab
  3
McadcomServices
 90
     1024
280
     0
281
     0
  0
CLASS
  1
CBROWSERAPPOBJECT
  2
CBrowserAppObject
  3
McadcomServices
 90
     1024
280
     0
281
     0
  0
CLASS
  1
DM_PLACEHOLDER
  2
AcDmSelsetPlaceholder
  3
McadcomServices
 90
     1024
280
     0
281
     0
  0
CLASS
  1
ACMSTANDARDANSI
  2
AcmStandardANSI
  3
"Amdt_StdImp|Product Description: AutoCAD Mechanical|Company: Autodesk, Inc."
 90
     1024
280
     0
281
     0
  0
CLASS
  1
ACMSURFSTANDARDANSI
  2
AcmSurfTextStdANSI
  3
"Amdt_StdImp|Product Description: AutoCAD Mechanical|Company: Autodesk, Inc."
 90
     1024
280
     0
281
     0
  0
CLASS
  1
ACMFCFSTANDARDANSI
  2
AcmFCFStdANSI
  3
"Amdt_StdImp|Product Description: AutoCAD Mechanical|Company: Autodesk, Inc."
 90
     1024
280
     0
281
     0
  0
CLASS
  1
ACMWELDSTANDARDANSI
  2
AcmWeldingStdANSI
  3
"Amdt_StdImp|Product Description: AutoCAD Mechanical|Company: Autodesk, Inc."
 90
     1024
280
     0
281
     0
  0
CLASS
  1
ACMIDSTANDARDANSI
  2
AcmIdStdANSI
  3
"Amdt_StdImp|Product Description: AutoCAD Mechanical|Company: Autodesk, Inc."
 90
     1024
280
     0
281
     0
  0
CLASS
  1
ACMDATUMSTANDARDANSI
  2
AcmDatumStdANSI
  3
"Amdt_StdImp|Product Description: AutoCAD Mechanical|Company: Autodesk, Inc."
 90
     1024
280
     0
281
     0
  0
CLASS
  1
ACMBOMSTANDARDANSI
  2
AcmBOMStdANSI
  3
"Amdt_StdImp|Product Description: AutoCAD Mechanical|Company: Autodesk, Inc."
 90
     1024
280
     0
281
     0
  0
CLASS
  1
ACMDETAILSTANDARDANSI
  2
AmdtDetailSymStdANSI
  3
"Amdt_StdImp|Product Description: AutoCAD Mechanical|Company: Autodesk, Inc."
 90
     1024
280
     0
281
     0
  0
CLASS
  1
ACMSECTIONSTANDARDANSI
  2
AmdtSectionSymStdANSI
  3
"Amdt_StdImp|Product Description: AutoCAD Mechanical|Company: Autodesk, Inc."
 90
     1024
280
     0
281
     0
  0
CLASS
  1
ACMCENTERLINESTANDARDANSI
  2
AmdtCenterLineStdANSI
  3
"Amdt_StdImp|Product Description: AutoCAD Mechanical|Company: Autodesk, Inc."
 90
     1024
280
     0
281
     0
  0
CLASS
  1
ACMTHREADLINESTANDARDANSI
  2
AmdtThreadLineStdANSI
  3
"Amdt_StdImp|Product Description: AutoCAD Mechanical|Company: Autodesk, Inc."
 90
     1024
280
     0
281
     0
  0
CLASS
  1
ACMNOTESTANDARDANSI
  2
AmdtNoteStdANSI
  3
"Amdt_StdImp|Product Description: AutoCAD Mechanical|Company: Autodesk, Inc."
 90
     1024
280
     0
281
     0
  0
CLASS
  1
ACMTAPERSTANDARDANSI
  2
AcmTaperStdANSI
  3
"Amdt_StdImp|Product Description: AutoCAD Mechanical|Company: Autodesk, Inc."
 90
     1024
280
     0
281
     0
  0
CLASS
  1
ACMANOOTATIONVIEWSTANDARDANSI
  2
AmdtAnViewStdANSI
  3
"Amdt_StdImp|Product Description: AutoCAD Mechanical|Company: Autodesk, Inc."
 90
     1024
280
     0
281
     0
  0
CLASS
  1
ACAMGLAYSTD
  2
AcAmgLayStd
  3
"AmgLay|Product Description: AutoCAD Mechanical|Company: Autodesk, Inc."
 90
     1024
280
     0
281
     0
  0
CLASS
  1
ACAMGDIMSTD
  2
AcAmgDimStd
  3
"AmgDim|Product Description: AutoCAD Mechanical|Company: Autodesk, Inc."
 90
     1024
280
     0
281
     0
  0
CLASS
  1
AMGOBJPROPCFG
  2
AmgObjPropCfg
  3
"AmgLay|Product Description: AutoCAD Mechanical|Company: Autodesk, Inc."
 90
     1024
280
     0
281
     0
  0
CLASS
  1
ACAMGHOLECHARTSTDANSI
  2
AcAmgHoleChartStdANSI
  3
AmgDim|Product Description: AutoCAD Mechanical|Company: Autodesk, Inc.
 90
     1024
280
     0
281
     0
  0
CLASS
  1
ACAMGTITLESTD
  2
AcAmgTitleStd
  3
"AmgTitle|Product Description: AutoCAD Mechanical|Company: Autodesk, Inc."
 90
     1024
280
     0
281
     0
  0
CLASS
  1
AMDTNOTETEMPLATEDB
  2
AmdtNoteTemplateDB
  3
AcmSymBB|Product Description: AutoCAD Mechanical|Company: Autodesk, Inc.
 90
     1024
280
     0
281
     0
  0
CLASS
  1
ACAMGFILTERDAT
  2
AcAmgFilterDat
  3
"AcadM|Product Description: AutoCAD Mechanical|Company: Autodesk, Inc."
 90
     1024
280
     0
281
     0
  0
CLASS
  1
SORTENTSTABLE
  2
AcDbSortentsTable
  3
ObjectDBX Classes
 90
        0
280
     0
281
     0
  0
CLASS
  1
CAMSSTRUCTBTNSTATE
  2
StructBtnState
  3
DesignerAssemblies
 90
     1024
280
     0
281
     0
  0
CLASS
  1
CELLSTYLEMAP
  2
AcDbCellStyleMap
  3
ObjectDBX Classes
 90
     1152
280
     0
281
     0
  0
ENDSEC
  0
SECTION
  2
TABLES
  0
TABLE
  2
VPORT
  5
8
330
0
100
AcDbSymbolTable
 70
     1
  0
VPORT
  5
1C7
330
8
100
AcDbSymbolTableRecord
100
AcDbViewportTableRecord
  2
*Active
 70
     0
 10
0.0
 20
0.0
 11
1.0
 21
1.0
 12
271.7042961647137
 22
34.18911861068625
 13
0.0
 23
0.0
 14
0.5
 24
0.5
 15
0.5
 25
0.5
 16
0.0
 26
0.0
 36
1.0
 17
0.0
 27
0.0
 37
0.0
 40
616.3810649910388
 41
1.681623931623931
 42
50.0
 43
0.0
 44
0.0
 50
0.0
 51
0.0
 71
    16
 72
   100
 73
     1
 74
     3
 75
     0
 76
     0
 77
     0
 78
     0
281
     0
 65
     1
110
0.0
120
0.0
130
0.0
111
1.0
121
0.0
131
0.0
112
0.0
122
1.0
132
0.0
 79
     0
146
0.0
1001
ACAD_NAV_VCDISPLAY
1070
     3
  0
ENDTAB
  0
TABLE
  2
LTYPE
  5
5
330
0
100
AcDbSymbolTable
 70
     8
  0
LTYPE
  5
14
330
5
100
AcDbSymbolTableRecord
100
AcDbLinetypeTableRecord
  2
ByBlock
 70
     0
  3

 72
    65
 73
     0
 40
0.0
  0
LTYPE
  5
15
330
5
100
AcDbSymbolTableRecord
100
AcDbLinetypeTableRecord
  2
ByLayer
 70
     0
  3

 72
    65
 73
     0
 40
0.0
  0
LTYPE
  5
16
330
5
100
AcDbSymbolTableRecord
100
AcDbLinetypeTableRecord
  2
Continuous
 70
     0
  3
Solid line
 72
    65
 73
     0
 40
0.0
  0
LTYPE
  5
22F
330
5
100
AcDbSymbolTableRecord
100
AcDbLinetypeTableRecord
  2
PHANTOM2
 70
     0
  3
Phantom (.5x) ___ _ _ ___ _ _ ___ _ _ ___ _ _
 72
    65
 73
     6
 40
1.25
 49
0.625
 74
     0
 49
-0.125
 74
     0
 49
0.125
 74
     0
 49
-0.125
 74
     0
 49
0.125
 74
     0
 49
-0.125
 74
     0
  0
LTYPE
  5
243
330
5
100
AcDbSymbolTableRecord
100
AcDbLinetypeTableRecord
  2
HIDDEN
 70
     0
  3
Hidden __ __ __ __ __ __ __ __ __ __ __ __ __ _
 72
    65
 73
     2
 40
0.375
 49
0.25
 74
     0
 49
-0.125
 74
     0
  0
LTYPE
  5
244
330
5
100
AcDbSymbolTableRecord
100
AcDbLinetypeTableRecord
  2
CENTER
 70
     0
  3
Center ____ _ ____ _ ____ _ ____ _ ____ _ ____
 72
    65
 73
     4
 40
2.0
 49
1.25
 74
     0
 49
-0.25
 74
     0
 49
0.25
 74
     0
 49
-0.25
 74
     0
  0
LTYPE
  5
27E
330
5
100
AcDbSymbolTableRecord
100
AcDbLinetypeTableRecord
  2
CENTER2
 70
     0
  3
Center (.5x) ___ _ ___ _ ___ _ ___ _ ___ _ ___
 72
    65
 73
     4
 40
1.125
 49
0.75
 74
     0
 49
-0.125
 74
     0
 49
0.125
 74
     0
 49
-0.125
 74
     0
  0
LTYPE
  5
27F
330
5
100
AcDbSymbolTableRecord
100
AcDbLinetypeTableRecord
  2
HIDDEN2
 70
     0
  3
Hidden (.5x) _ _ _ _ _ _ _ _ _ _ _ _ _ _ _ _ _
 72
    65
 73
     2
 40
0.1875
 49
0.125
 74
     0
 49
-0.0625
 74
     0
  0
LTYPE
  5
28D
330
5
100
AcDbSymbolTableRecord
100
AcDbLinetypeTableRecord
  2
ACANSTGB
 70
     0
  3
__ . . __ . .
 72
    65
 73
     6
 40
0.35433070866
 49
0.15748031496
 74
     0
 49
-0.03937007874
 74
     0
 49
0.03937007874
 74
     0
 49
-0.03937007874
 74
     0
 49
0.03937007874
 74
     0
 49
-0.03937007874
 74
     0
  0
LTYPE
  5
28E
330
5
100
AcDbSymbolTableRecord
100
AcDbLinetypeTableRecord
  2
ACANSTGL
 70
     0
  3
_ _ _ _ _
 72
    65
 73
     2
 40
0.11811023622
 49
0.07874015748
 74
     0
 49
-0.03937007874
 74
     0
  0
ENDTAB
  0
TABLE
  2
LAYER
  5
2
102
{ACAD_XDICTIONARY
360
870
102
}
330
0
100
AcDbSymbolTable
 70
     2
  0
LAYER
  5
10
102
{ACAD_XDICTIONARY
360
869
102
}
330
2
100
AcDbSymbolTableRecord
100
AcDbLayerTableRecord
  2
0
 70
     0
 62
     7
  6
Continuous
370
    -3
390
F
  0
LAYER
  5
85B
102
{ACAD_XDICTIONARY
360
86B
102
}
330
2
100
AcDbSymbolTableRecord
100
AcDbLayerTableRecord
  2
AM_CL
 70
     0
 62
     1
  6
Continuous
370
    15
390
F
1001
AcAecLayerStandard
1000

1000

  0
ENDTAB
  0
TABLE
  2
STYLE
  5
3
330
0
100
AcDbSymbolTable
 70
     3
  0
STYLE
  5
11
330
3
100
AcDbSymbolTableRecord
100
AcDbTextStyleTableRecord
  2
Standard
 70
     0
 40
0.0
 41
1.0
 50
0.0
 71
     0
 42
0.2
  3
txt
  4

  0
STYLE
  5
28B
330
3
100
AcDbSymbolTableRecord
100
AcDbTextStyleTableRecord
  2
ACANSTS
 70
     0
 40
1.0
 41
1.0
 50
0.0
 71
     0
 42
0.2
  3
romans.shx
  4
extfont.shx
  0
STYLE
  5
28C
330
3
100
AcDbSymbolTableRecord
100
AcDbTextStyleTableRecord
  2
ACANSGDT
 70
     0
 40
0.0
 41
1.0
 50
0.0
 71
     0
 42
0.2
  3
amgdt.shx
  4

  0
ENDTAB
  0
TABLE
  2
VIEW
  5
6
330
0
100
AcDbSymbolTable
 70
     1
  0
ENDTAB
  0
TABLE
  2
UCS
  5
7
330
0
100
AcDbSymbolTable
 70
     0
  0
ENDTAB
  0
TABLE
  2
APPID
  5
9
330
0
100
AcDbSymbolTable
 70
    14
  0
APPID
  5
12
330
9
100
AcDbSymbolTableRecord
100
AcDbRegAppTableRecord
  2
ACAD
 70
     0
  0
APPID
  5
23C
330
9
100
AcDbSymbolTableRecord
100
AcDbRegAppTableRecord
  2
MCAD_NO_VIS
 70
     0
  0
APPID
  5
23D
330
9
100
AcDbSymbolTableRecord
100
AcDbRegAppTableRecord
  2
ACAD_TEMP_GRAPHIC
 70
     0
  0
APPID
  5
249
330
9
100
AcDbSymbolTableRecord
100
AcDbRegAppTableRecord
  2
ACATTRIBSERVICES
 70
     0
  0
APPID
  5
261
330
9
100
AcDbSymbolTableRecord
100
AcDbRegAppTableRecord
  2
DESIGNERASSEMBLIES
 70
     0
  0
APPID
  5
27B
330
9
100
AcDbSymbolTableRecord
100
AcDbRegAppTableRecord
  2
ACAD_DSTYLE_DIMJAG
 70
     0
  0
APPID
  5
27C
330
9
100
AcDbSymbolTableRecord
100
AcDbRegAppTableRecord
  2
ACAD_DSTYLE_DIMBREAK
 70
     0
  0
APPID
  5
296
330
9
100
AcDbSymbolTableRecord
100
AcDbRegAppTableRecord
  2
ACAD_NAV_VCDISPLAY
 70
     0
  0
APPID
  5
85C
330
9
100
AcDbSymbolTableRecord
100
AcDbRegAppTableRecord
  2
AcAecLayerStandard
 70
     0
  0
APPID
  5
8CA
330
9
100
AcDbSymbolTableRecord
100
AcDbRegAppTableRecord
  2
ACAD_MLEADERVER
 70
     0
  0
APPID
  5
8CD
330
9
100
AcDbSymbolTableRecord
100
AcDbRegAppTableRecord
  2
ACAD_DSTYLE_DIMARC_LENGTH_SYMBOL
 70
     0
  0
APPID
  5
8CE
330
9
100
AcDbSymbolTableRecord
100
AcDbRegAppTableRecord
  2
ACAD_DSTYLE_DIM_LINETYPE
 70
     0
  0
APPID
  5
8CF
330
9
100
AcDbSymbolTableRecord
100
AcDbRegAppTableRecord
  2
ACAD_DSTYLE_DIM_EXT1_LINETYPE
 70
     0
  0
APPID
  5
8D0
330
9
100
AcDbSymbolTableRecord
100
AcDbRegAppTableRecord
  2
ACAD_DSTYLE_DIM_EXT2_LINETYPE
 70
     0
  0
ENDTAB
  0
TABLE
  2
DIMSTYLE
  5
A
330
0
100
AcDbSymbolTable
 70
     7
100
AcDbDimStyleTable
 71
     0
  0
DIMSTYLE
105
20
330
A
100
AcDbSymbolTableRecord
100
AcDbDimStyleTableRecord
  2
Standard
 70
     0
340
11
  0
DIMSTYLE
105
27A
102
{ACAD_REACTORS
330
26A
102
}
330
A
100
AcDbSymbolTableRecord
100
AcDbDimStyleTableRecord
  2
AM_ANSI
 70
     0
  4
mm
 41
0.12
 42
0.05
 43
0.5
 44
0.1
 47
0.1
 48
0.1
 78
     7
 79
     2
140
0.12
141
0.0
146
0.71
147
0.06
176
   256
177
   256
178
     2
274
     4
284
     7
340
11
371
    -1
372
    -1
1001
ACAD_DSTYLE_DIMJAG
1070
   388
1040
1.5
1001
ACAD_DSTYLE_DIMBREAK
1070
   391
1040
0.125
1001
ACAD_DSTYLE_DIMARC_LENGTH_SYMBOL
1070
   379
1070
     1
1001
ACAD_DSTYLE_DIM_LINETYPE
1070
   380
1005
14
1001
ACAD_DSTYLE_DIM_EXT1_LINETYPE
1070
   381
1005
14
1001
ACAD_DSTYLE_DIM_EXT2_LINETYPE
1070
   382
1005
14
  0
DIMSTYLE
105
280
330
A
100
AcDbSymbolTableRecord
100
AcDbDimStyleTableRecord
  2
AM_ANSI$3
 70
     0
  4
mm
 41
0.12
 42
0.05
 43
0.5
 44
0.1
 47
0.1
 48
0.1
 78
     7
 79
     2
140
0.12
141
0.0
146
0.71
147
0.06
176
   256
177
   256
178
     2
274
     4
284
     7
288
     1
289
     0
340
11
371
    -1
372
    -1
1001
ACAD_DSTYLE_DIMBREAK
1070
   391
1040
0.125
1001
ACAD_DSTYLE_DIMJAG
1070
   388
1040
1.5
1001
ACAD_DSTYLE_DIMARC_LENGTH_SYMBOL
1070
   379
1070
     1
1001
ACAD_DSTYLE_DIM_LINETYPE
1070
   380
1005
14
1001
ACAD_DSTYLE_DIM_EXT1_LINETYPE
1070
   381
1005
14
1001
ACAD_DSTYLE_DIM_EXT2_LINETYPE
1070
   382
1005
14
  0
DIMSTYLE
105
281
330
A
100
AcDbSymbolTableRecord
100
AcDbDimStyleTableRecord
  2
AM_ANSI$4
 70
     0
  4
mm
 41
0.12
 42
0.05
 43
0.5
 44
0.1
 47
0.1
 48
0.1
 78
     7
 79
     2
140
0.12
141
0.0
146
0.71
147
0.06
176
   256
177
   256
178
     2
274
     4
284
     7
288
     1
289
     0
340
11
371
    -1
372
    -1
1001
ACAD_DSTYLE_DIMBREAK
1070
   391
1040
0.125
1001
ACAD_DSTYLE_DIMJAG
1070
   388
1040
1.5
1001
ACAD_DSTYLE_DIMARC_LENGTH_SYMBOL
1070
   379
1070
     1
1001
ACAD_DSTYLE_DIM_LINETYPE
1070
   380
1005
14
1001
ACAD_DSTYLE_DIM_EXT1_LINETYPE
1070
   381
1005
14
1001
ACAD_DSTYLE_DIM_EXT2_LINETYPE
1070
   382
1005
14
  0
DIMSTYLE
105
282
330
A
100
AcDbSymbolTableRecord
100
AcDbDimStyleTableRecord
  2
AM_ANSI$7
 70
     0
  4
mm
 41
0.12
 42
0.05
 43
0.5
 44
0.1
 47
0.1
 48
0.1
 78
     7
 79
     2
140
0.12
141
0.0
146
0.71
147
0.06
176
   256
177
   256
178
     2
274
     4
284
     7
340
11
371
    -1
372
    -1
1001
ACAD_DSTYLE_DIMBREAK
1070
   391
1040
0.125
1001
ACAD_DSTYLE_DIMJAG
1070
   388
1040
1.5
1001
ACAD_DSTYLE_DIMARC_LENGTH_SYMBOL
1070
   379
1070
     1
1001
ACAD_DSTYLE_DIM_LINETYPE
1070
   380
1005
14
1001
ACAD_DSTYLE_DIM_EXT1_LINETYPE
1070
   381
1005
14
1001
ACAD_DSTYLE_DIM_EXT2_LINETYPE
1070
   382
1005
14
  0
DIMSTYLE
105
283
330
A
100
AcDbSymbolTableRecord
100
AcDbDimStyleTableRecord
  2
AM_ANSI$SF
 70
     0
  4
mm
 41
0.12
 42
0.05
 43
0.5
 44
0.1
 47
0.1
 48
0.1
 75
     1
 76
     1
 78
     7
 79
     2
140
0.12
141
0.0
146
0.71
147
0.06
176
   256
177
   256
178
     2
274
     4
284
     7
340
11
371
    -1
372
    -1
1001
ACAD_DSTYLE_DIMBREAK
1070
   391
1040
0.125
1001
ACAD_DSTYLE_DIMJAG
1070
   388
1040
1.5
1001
ACAD_DSTYLE_DIMARC_LENGTH_SYMBOL
1070
   379
1070
     1
1001
ACAD_DSTYLE_DIM_LINETYPE
1070
   380
1005
14
1001
ACAD_DSTYLE_DIM_EXT1_LINETYPE
1070
   381
1005
14
1001
ACAD_DSTYLE_DIM_EXT2_LINETYPE
1070
   382
1005
14
  0
DIMSTYLE
105
288
330
A
100
AcDbSymbolTableRecord
100
AcDbDimStyleTableRecord
  2
AM_ANSI$SH
 70
     0
  4
mm
 41
0.12
 42
0.05
 43
0.5
 44
0.1
 47
0.1
 48
0.1
 75
     1
 76
     1
 78
     7
 79
     2
140
0.12
141
0.0
146
0.71
147
0.06
173
     1
176
   256
177
   256
178
     2
274
     4
284
     7
340
11
343
284
371
    -1
372
    -1
1001
ACAD_DSTYLE_DIMBREAK
1070
   391
1040
0.125
1001
ACAD_DSTYLE_DIMJAG
1070
   388
1040
1.5
1001
ACAD_DSTYLE_DIMARC_LENGTH_SYMBOL
1070
   379
1070
     1
1001
ACAD_DSTYLE_DIM_LINETYPE
1070
   380
1005
14
1001
ACAD_DSTYLE_DIM_EXT1_LINETYPE
1070
   381
1005
14
1001
ACAD_DSTYLE_DIM_EXT2_LINETYPE
1070
   382
1005
14
  0
ENDTAB
  0
TABLE
  2
BLOCK_RECORD
  5
1
330
0
100
AcDbSymbolTable
 70
     4
  0
BLOCK_RECORD
  5
1D
102
{ACAD_XDICTIONARY
360
85E
102
}
330
1
100
AcDbSymbolTableRecord
100
AcDbBlockTableRecord
  2
*Model_Space
340
1E
  0
BLOCK_RECORD
  5
1B
330
1
100
AcDbSymbolTableRecord
100
AcDbBlockTableRecord
  2
*Paper_Space
340
1C
  0
BLOCK_RECORD
  5
284
330
1
100
AcDbSymbolTableRecord
100
AcDbBlockTableRecord
  2
GENAXEH
340
0
  0
ENDTAB
  0
ENDSEC
  0
SECTION
  2
BLOCKS
  0
BLOCK
  5
1CA
330
1D
100
AcDbEntity
  8
0
100
AcDbBlockBegin
  2
*Model_Space
 70
     0
 10
0.0
 20
0.0
 30
0.0
  3
*Model_Space
  1

  0
ENDBLK
  5
1CB
330
1D
100
AcDbEntity
  8
0
100
AcDbBlockEnd
  0
BLOCK
  5
1C8
330
1B
100
AcDbEntity
 67
     1
  8
0
100
AcDbBlockBegin
  2
*Paper_Space
 70
     0
 10
0.0
 20
0.0
 30
0.0
  3
*Paper_Space
  1

  0
ENDBLK
  5
1C9
330
1B
100
AcDbEntity
 67
     1
  8
0
100
AcDbBlockEnd
  0
BLOCK
  5
286
330
284
100
AcDbEntity
  8
0
100
AcDbBlockBegin
  2
GENAXEH
 70
     0
 10
0.0
 20
0.0
 30
0.0
  3
GENAXEH
  1

  0
LINE
  5
285
330
284
100
AcDbEntity
  8
0
100
AcDbLine
 10
-1.0
 20
0.0
 30
0.0
 11
1.0
 21
0.0
 31
0.0
  0
ENDBLK
  5
287
330
284
100
AcDbEntity
  8
0
100
AcDbBlockEnd
  0
ENDSEC
  0
SECTION
  2
ENTITIES
  0
LINE
  5
21
330
1D
100
AcDbEntity
  8
0
100
AcDbLine
 10
29.4345
 20
0.2764999999999889
 30
0.0
 11
34.0005
 21
0.195499999999989
 31
0.0
  0
LINE
  5
22
330
1D
100
AcDbEntity
  8
0
100
AcDbLine
 10
25.7635
 20
0.6064999999999891
 30
0.0
 11
26.9435
 21
0.449499999999989
 31
0.0
  0
LINE
  5
23
330
1D
100
AcDbEntity
  8
0
100
AcDbLine
 10
24.1015
 20
0.986499999999989
 30
0.0
 11
25.7635
 21
0.6064999999999891
 31
0.0
  0
LINE
  5
24
330
1D
100
AcDbEntity
  8
0
100
AcDbLine
 10
22.6005
 20
1.58449999999999
 30
0.0
 11
24.1015
 21
0.986499999999989
 31
0.0
  0
LINE
  5
25
330
1D
100
AcDbEntity
  8
0
100
AcDbLine
 10
26.9435
 20
0.449499999999989
 30
0.0
 11
29.4345
 21
0.2764999999999889
 31
0.0
  0
LINE
  5
26
330
1D
100
AcDbEntity
  8
0
100
AcDbLine
 10
22.5215
 20
1.613499999999989
 30
0.0
 11
22.6005
 21
1.58449999999999
 31
0.0
  0
LINE
  5
27
330
1D
100
AcDbEntity
  8
0
100
AcDbLine
 10
21.0535
 20
2.60449999999999
 30
0.0
 11
22.5215
 21
1.613499999999989
 31
0.0
  0
LINE
  5
28
330
1D
100
AcDbEntity
  8
0
100
AcDbLine
 10
19.8855
 20
3.972499999999989
 30
0.0
 11
21.0535
 21
2.60449999999999
 31
0.0
  0
LINE
  5
29
330
1D
100
AcDbEntity
  8
0
100
AcDbLine
 10
18.9695
 20
5.81449999999999
 30
0.0
 11
19.8155
 21
4.092499999999989
 31
0.0
  0
LINE
  5
2A
330
1D
100
AcDbEntity
  8
0
100
AcDbLine
 10
19.8155
 20
4.092499999999989
 30
0.0
 11
19.8855
 21
3.972499999999989
 31
0.0
  0
LINE
  5
2B
330
1D
100
AcDbEntity
  8
0
100
AcDbLine
 10
18.4385
 20
7.859499999999989
 30
0.0
 11
18.9695
 21
5.81449999999999
 31
0.0
  0
LINE
  5
2C
330
1D
100
AcDbEntity
  8
0
100
AcDbLine
 10
18.2490277777778
 20
9.150902777777769
 30
0.0
 11
18.4125
 21
7.98749999999999
 31
0.0
  0
LINE
  5
2D
330
1D
100
AcDbEntity
  8
0
100
AcDbLine
 10
18.2490277777778
 20
9.15090277777778
 30
0.0
 11
18.4125
 21
7.98749999999999
 31
0.0
  0
LINE
  5
2E
330
1D
100
AcDbEntity
  8
0
100
AcDbLine
 10
18.1985
 20
9.510499999999989
 30
0.0
 11
18.2490277777778
 21
9.15090277777778
 31
0.0
  0
LINE
  5
2F
330
1D
100
AcDbEntity
  8
0
100
AcDbLine
 10
18.4125
 20
7.98749999999999
 30
0.0
 11
18.4385
 21
7.859499999999989
 31
0.0
  0
LINE
  5
30
330
1D
100
AcDbEntity
  8
0
100
AcDbLine
 10
18.0885
 20
11.3925
 30
0.0
 11
18.1985
 21
9.510499999999989
 31
0.0
  0
LINE
  5
31
330
1D
100
AcDbEntity
  8
0
100
AcDbLine
 10
18.0105
 20
12.8225
 30
0.0
 11
18.0885
 21
11.3925
 31
0.0
  0
LINE
  5
32
330
1D
100
AcDbEntity
  8
0
100
AcDbLine
 10
17.9815
 20
14.5525
 30
0.0
 11
18.0105
 21
12.8225
 31
0.0
  0
LINE
  5
33
330
1D
100
AcDbEntity
  8
0
100
AcDbLine
 10
16.3285
 20
149.8235
 30
0.0
 11
16.8575
 21
104.7325
 31
0.0
  0
LINE
  5
34
330
1D
100
AcDbEntity
  8
0
100
AcDbLine
 10
11.3765
 20
198.1135
 30
0.0
 11
11.7105
 21
198.1135
 31
0.0
  0
LINE
  5
35
330
1D
100
AcDbEntity
  8
0
100
AcDbLine
 10
12.4945
 20
198.1155
 30
0.0
 11
12.7860340167754
 21
198.116137465051
 31
0.0
  0
LINE
  5
36
330
1D
100
AcDbEntity
  8
0
100
AcDbLine
 10
11.8153683274022
 20
198.113877224199
 30
0.0
 11
12.4945
 21
198.1155
 31
0.0
  0
LINE
  5
37
330
1D
100
AcDbEntity
  8
0
100
AcDbLine
 10
11.7105
 20
198.1135
 30
0.0
 11
12.2665
 21
198.1155
 31
0.0
  0
LINE
  5
38
330
1D
100
AcDbEntity
  8
0
100
AcDbLine
 10
12.2665
 20
198.1155
 30
0.0
 11
13.0815
 21
198.1165
 31
0.0
  0
LINE
  5
39
330
1D
100
AcDbEntity
  8
0
100
AcDbLine
 10
13.0815
 20
198.1165
 30
0.0
 11
14.1465
 21
198.1185
 31
0.0
  0
LINE
  5
3A
330
1D
100
AcDbEntity
  8
0
100
AcDbLine
 10
0.746500000000019
 20
198.3375
 30
0.0
 11
0.985500000000019
 21
198.2725
 31
0.0
  0
LINE
  5
3B
330
1D
100
AcDbEntity
  8
0
100
AcDbLine
 10
0.985500000000019
 20
198.2725
 30
0.0
 11
11.3922062216997
 21
198.1174525591029
 31
0.0
  0
LINE
  5
3C
330
1D
100
AcDbEntity
  8
0
100
AcDbLine
 10
0.985500000000019
 20
198.2725
 30
0.0
 11
11.3922062216997
 21
198.1174525591029
 31
0.0
  0
LINE
  5
3D
330
1D
100
AcDbEntity
  8
0
100
AcDbLine
 10
0.568500000000019
 20
198.5095
 30
0.0
 11
0.746500000000019
 21
198.3375
 31
0.0
  0
LINE
  5
44
330
1D
100
AcDbEntity
  8
0
100
AcDbLine
 10
0.494500000000019
 20
198.7465
 30
0.0
 11
0.568500000000019
 21
198.5095
 31
0.0
  0
LINE
  5
4A
330
1D
100
AcDbEntity
  8
0
100
AcDbLine
 10
15.4115
 20
198.1194999999999
 30
0.0
 11
17.8615
 21
198.1215
 31
0.0
  0
LINE
  5
4B
330
1D
100
AcDbEntity
  8
0
100
AcDbLine
 10
14.1465
 20
198.1185
 30
0.0
 11
15.4115
 21
198.1194999999999
 31
0.0
  0
LINE
  5
4D
330
1D
100
AcDbEntity
  8
0
100
AcDbLine
 10
15.7618390826117
 20
198.119785991088
 30
0.0
 11
16.3275
 21
149.8875
 31
0.0
  0
LINE
  5
4E
330
1D
100
AcDbEntity
  8
0
100
AcDbLine
 10
16.3275
 20
149.8875
 30
0.0
 11
16.3285
 21
149.8235
 31
0.0
  0
LINE
  5
4F
330
1D
100
AcDbEntity
  8
0
100
AcDbLine
 10
24.0725
 20
198.1185
 30
0.0
 11
27.6545
 21
198.1125
 31
0.0
  0
LINE
  5
50
330
1D
100
AcDbEntity
  8
0
100
AcDbLine
 10
27.6545
 20
198.1125
 30
0.0
 11
30.5125
 21
198.1045
 31
0.0
  0
LINE
  5
51
330
1D
100
AcDbEntity
  8
0
100
AcDbLine
 10
30.5125
 20
198.1045
 30
0.0
 11
33.4285
 21
198.0935
 31
0.0
  0
LINE
  5
54
330
1D
100
AcDbEntity
  8
0
100
AcDbLine
 10
20.7765
 20
198.1215
 30
0.0
 11
24.0725
 21
198.1185
 31
0.0
  0
LINE
  5
55
330
1D
100
AcDbEntity
  8
0
100
AcDbLine
 10
17.8615
 20
198.1215
 30
0.0
 11
20.7765
 21
198.1215
 31
0.0
  0
LINE
  5
56
330
1D
100
AcDbEntity
  8
0
100
AcDbLine
 10
17.2195
 20
74.6718
 30
0.0
 11
17.9815
 21
14.5525
 31
0.0
  0
LINE
  5
57
330
1D
100
AcDbEntity
  8
0
100
AcDbLine
 10
17.2195
 20
74.6718
 30
0.0
 11
17.9815
 21
14.5525
 31
0.0
  0
LINE
  5
58
330
1D
100
AcDbEntity
  8
0
100
AcDbLine
 10
16.8575
 20
104.7325
 30
0.0
 11
17.2195
 21
74.6718
 31
0.0
  0
LINE
  5
59
330
1D
100
AcDbEntity
  8
0
100
AcDbLine
 10
34.0005
 20
0.195499999999989
 30
0.0
 11
38.5755
 21
0.274499999999989
 31
0.0
  0
LINE
  5
5A
330
1D
100
AcDbEntity
  8
0
100
AcDbLine
 10
38.5755
 20
0.274499999999989
 30
0.0
 11
41.05649999999999
 21
0.449499999999989
 31
0.0
  0
LINE
  5
5C
330
1D
100
AcDbEntity
  8
0
100
AcDbLine
 10
44.6370324215996
 20
1.27887656213191
 30
0.0
 11
45.4725
 21
1.60649999999999
 31
0.0
  0
LINE
  5
5D
330
1D
100
AcDbEntity
  8
0
100
AcDbLine
 10
44.6370324215996
 20
1.27887656213191
 30
0.0
 11
45.4725
 21
1.60649999999999
 31
0.0
  0
LINE
  5
5E
330
1D
100
AcDbEntity
  8
0
100
AcDbLine
 10
42.2365
 20
0.6064999999999891
 30
0.0
 11
43.8985
 21
0.986499999999989
 31
0.0
  0
LINE
  5
5F
330
1D
100
AcDbEntity
  8
0
100
AcDbLine
 10
41.05649999999999
 20
0.449499999999989
 30
0.0
 11
42.2365
 21
0.6064999999999891
 31
0.0
  0
LINE
  5
60
330
1D
100
AcDbEntity
  8
0
100
AcDbLine
 10
45.4725
 20
1.60649999999999
 30
0.0
 11
46.9465
 21
2.60449999999999
 31
0.0
  0
LINE
  5
61
330
1D
100
AcDbEntity
  8
0
100
AcDbLine
 10
46.9465
 20
2.60449999999999
 30
0.0
 11
48.1145
 21
3.972499999999989
 31
0.0
  0
LINE
  5
62
330
1D
100
AcDbEntity
  8
0
100
AcDbLine
 10
48.1845
 20
4.092499999999989
 30
0.0
 11
49.0305
 21
5.81449999999999
 31
0.0
  0
LINE
  5
63
330
1D
100
AcDbEntity
  8
0
100
AcDbLine
 10
48.1145
 20
3.972499999999989
 30
0.0
 11
48.1845
 21
4.092499999999989
 31
0.0
  0
LINE
  5
64
330
1D
100
AcDbEntity
  8
0
100
AcDbLine
 10
49.0305
 20
5.81449999999999
 30
0.0
 11
49.5795
 21
7.90849999999999
 31
0.0
  0
LINE
  5
65
330
1D
100
AcDbEntity
  8
0
100
AcDbLine
 10
49.5795
 20
7.90849999999999
 30
0.0
 11
49.7905
 21
9.41349999999999
 31
0.0
  0
LINE
  5
66
330
1D
100
AcDbEntity
  8
0
100
AcDbLine
 10
49.7905
 20
9.41349999999999
 30
0.0
 11
49.8025
 21
9.510499999999989
 31
0.0
  0
LINE
  5
67
330
1D
100
AcDbEntity
  8
0
100
AcDbLine
 10
33.4285
 20
198.0935
 30
0.0
 11
36.3545
 21
198.0775
 31
0.0
  0
LINE
  5
68
330
1D
100
AcDbEntity
  8
0
100
AcDbLine
 10
39.2405
 20
198.0575
 30
0.0
 11
42.0385
 21
198.0325
 31
0.0
  0
LINE
  5
69
330
1D
100
AcDbEntity
  8
0
100
AcDbLine
 10
36.3545
 20
198.0775
 30
0.0
 11
39.2405
 21
198.0575
 31
0.0
  0
LINE
  5
6A
330
1D
100
AcDbEntity
  8
0
100
AcDbLine
 10
42.0385
 20
198.0325
 30
0.0
 11
44.7025
 21
198.0045
 31
0.0
  0
LINE
  5
6B
330
1D
100
AcDbEntity
  8
0
100
AcDbLine
 10
47.7765
 20
197.9665
 30
0.0
 11
50.4885
 21
197.9255
 31
0.0
  0
LINE
  5
6C
330
1D
100
AcDbEntity
  8
0
100
AcDbLine
 10
44.7025
 20
198.0045
 30
0.0
 11
47.7765
 21
197.9665
 31
0.0
  0
LINE
  5
6D
330
1D
100
AcDbEntity
  8
0
100
AcDbLine
 10
50.0195
 20
14.6015
 30
0.0
 11
50.78050000000001
 21
74.67249999999999
 31
0.0
  0
LINE
  5
6E
330
1D
100
AcDbEntity
  8
0
100
AcDbLine
 10
50.4885
 20
197.9255
 30
0.0
 11
52.7705
 21
197.8865
 31
0.0
  0
LINE
  5
6F
330
1D
100
AcDbEntity
  8
0
100
AcDbLine
 10
50.78050000000001
 20
74.67249999999999
 30
0.0
 11
51.1435
 21
104.7335
 31
0.0
  0
LINE
  5
70
330
1D
100
AcDbEntity
  8
0
100
AcDbLine
 10
50.0195
 20
14.6015
 30
0.0
 11
50.78050000000001
 21
74.67249999999999
 31
0.0
  0
LINE
  5
71
330
1D
100
AcDbEntity
  8
0
100
AcDbLine
 10
49.9905
 20
12.8225
 30
0.0
 11
50.0195
 21
14.6015
 31
0.0
  0
LINE
  5
72
330
1D
100
AcDbEntity
  8
0
100
AcDbLine
 10
49.8025
 20
9.510499999999989
 30
0.0
 11
49.9905
 21
12.8225
 31
0.0
  0
LINE
  5
73
330
1D
100
AcDbEntity
  8
0
100
AcDbLine
 10
130.1445
 20
114.4465
 30
0.0
 11
134.0005
 21
114.4285
 31
0.0
  0
LINE
  5
74
330
1D
100
AcDbEntity
  8
0
100
AcDbLine
 10
134.0005
 20
114.4285
 30
0.0
 11
137.8555
 21
114.4465
 31
0.0
  0
LINE
  5
75
330
1D
100
AcDbEntity
  8
0
100
AcDbLine
 10
126.3015
 20
114.5025
 30
0.0
 11
130.1445
 21
114.4465
 31
0.0
  0
LINE
  5
76
330
1D
100
AcDbEntity
  8
0
100
AcDbLine
 10
114.2175
 20
117.4185
 30
0.0
 11
114.3035
 21
117.2535
 31
0.0
  0
LINE
  5
77
330
1D
100
AcDbEntity
  8
0
100
AcDbLine
 10
114.3035
 20
117.2535
 30
0.0
 11
114.6525
 21
116.7875
 31
0.0
  0
LINE
  5
78
330
1D
100
AcDbEntity
  8
0
100
AcDbLine
 10
114.6525
 20
116.7875
 30
0.0
 11
114.8065
 21
116.5995
 31
0.0
  0
LINE
  5
79
330
1D
100
AcDbEntity
  8
0
100
AcDbLine
 10
114.0665
 20
117.7395
 30
0.0
 11
114.2175
 21
117.4185
 31
0.0
  0
LINE
  5
7A
330
1D
100
AcDbEntity
  8
0
100
AcDbLine
 10
113.7985
 20
118.7385
 30
0.0
 11
113.834984440421
 21
118.596036946928
 31
0.0
  0
LINE
  5
7E
330
1D
100
AcDbEntity
  8
0
100
AcDbLine
 10
115.8445
 20
115.8425
 30
0.0
 11
116.2245
 21
115.6595
 31
0.0
  0
LINE
  5
7F
330
1D
100
AcDbEntity
  8
0
100
AcDbLine
 10
116.6525
 20
115.4935
 30
0.0
 11
117.2365
 21
115.3105
 31
0.0
  0
LINE
  5
80
330
1D
100
AcDbEntity
  8
0
100
AcDbLine
 10
116.2245
 20
115.6595
 30
0.0
 11
116.6525
 21
115.4935
 31
0.0
  0
LINE
  5
81
330
1D
100
AcDbEntity
  8
0
100
AcDbLine
 10
115.5145
 20
116.0395
 30
0.0
 11
115.8445
 21
115.8425
 31
0.0
  0
LINE
  5
82
330
1D
100
AcDbEntity
  8
0
100
AcDbLine
 10
115.3305
 20
116.1675
 30
0.0
 11
115.5145
 21
116.0395
 31
0.0
  0
LINE
  5
83
330
1D
100
AcDbEntity
  8
0
100
AcDbLine
 10
115.0445
 20
116.3775
 30
0.0
 11
115.3305
 21
116.1675
 31
0.0
  0
LINE
  5
84
330
1D
100
AcDbEntity
  8
0
100
AcDbLine
 10
114.8065
 20
116.5995
 30
0.0
 11
115.0445
 21
116.3775
 31
0.0
  0
LINE
  5
85
330
1D
100
AcDbEntity
  8
0
100
AcDbLine
 10
117.2365
 20
115.3105
 30
0.0
 11
117.6705
 21
115.1945
 31
0.0
  0
LINE
  5
86
330
1D
100
AcDbEntity
  8
0
100
AcDbLine
 10
120.034469218907
 20
114.81952817152
 30
0.0
 11
122.6705
 21
114.6165
 31
0.0
  0
LINE
  5
88
330
1D
100
AcDbEntity
  8
0
100
AcDbLine
 10
122.6705
 20
114.6165
 30
0.0
 11
123.3575
 21
114.5855
 31
0.0
  0
LINE
  5
8A
330
1D
100
AcDbEntity
  8
0
100
AcDbLine
 10
118.2185
 20
115.0775
 30
0.0
 11
118.8705
 21
114.9635
 31
0.0
  0
LINE
  5
8B
330
1D
100
AcDbEntity
  8
0
100
AcDbLine
 10
118.8705
 20
114.9635
 30
0.0
 11
119.5735
 21
114.8655
 31
0.0
  0
LINE
  5
8C
330
1D
100
AcDbEntity
  8
0
100
AcDbLine
 10
119.5735
 20
114.8655
 30
0.0
 11
120.034469218907
 21
114.81952817152
 31
0.0
  0
LINE
  5
8D
330
1D
100
AcDbEntity
  8
0
100
AcDbLine
 10
117.6705
 20
115.1945
 30
0.0
 11
118.2185
 21
115.0775
 31
0.0
  0
LINE
  5
8E
330
1D
100
AcDbEntity
  8
0
100
AcDbLine
 10
113.4675
 20
120.4205
 30
0.0
 11
113.7985
 21
118.7385
 31
0.0
  0
LINE
  5
8F
330
1D
100
AcDbEntity
  8
0
100
AcDbLine
 10
113.1295
 20
122.4555
 30
0.0
 11
113.4675
 21
120.4205
 31
0.0
  0
LINE
  5
90
330
1D
100
AcDbEntity
  8
0
100
AcDbLine
 10
112.8725
 20
124.3435
 30
0.0
 11
113.1295
 21
122.4555
 31
0.0
  0
LINE
  5
91
330
1D
100
AcDbEntity
  8
0
100
AcDbLine
 10
112.6215
 20
126.3705
 30
0.0
 11
112.8725
 21
124.3435
 31
0.0
  0
LINE
  5
92
330
1D
100
AcDbEntity
  8
0
100
AcDbLine
 10
111.8955
 20
131.9085
 30
0.0
 11
112.1475
 21
130.0935
 31
0.0
  0
LINE
  5
93
330
1D
100
AcDbEntity
  8
0
100
AcDbLine
 10
112.1475
 20
130.0935
 30
0.0
 11
112.6215
 21
126.3705
 31
0.0
  0
LINE
  5
94
330
1D
100
AcDbEntity
  8
0
100
AcDbLine
 10
111.8035
 20
132.6575
 30
0.0
 11
111.8955
 21
131.9085
 31
0.0
  0
LINE
  5
95
330
1D
100
AcDbEntity
  8
0
100
AcDbLine
 10
111.7285
 20
133.4975
 30
0.0
 11
111.8035
 21
132.6575
 31
0.0
  0
LINE
  5
96
330
1D
100
AcDbEntity
  8
0
100
AcDbLine
 10
111.6835
 20
134.1735
 30
0.0
 11
111.7285
 21
133.4975
 31
0.0
  0
LINE
  5
97
330
1D
100
AcDbEntity
  8
0
100
AcDbLine
 10
111.6775
 20
134.2755
 30
0.0
 11
111.6835
 21
134.1735
 31
0.0
  0
LINE
  5
98
330
1D
100
AcDbEntity
  8
0
100
AcDbLine
 10
111.6685
 20
134.8705
 30
0.0
 11
111.7605
 21
139.0415
 31
0.0
  0
LINE
  5
99
330
1D
100
AcDbEntity
  8
0
100
AcDbLine
 10
111.6685
 20
134.8705
 30
0.0
 11
111.6775
 21
134.2755
 31
0.0
  0
LINE
  5
9A
330
1D
100
AcDbEntity
  8
0
100
AcDbLine
 10
111.7605
 20
139.0415
 30
0.0
 11
111.7785
 21
143.5415
 31
0.0
  0
LINE
  5
9B
330
1D
100
AcDbEntity
  8
0
100
AcDbLine
 10
123.3575
 20
114.5855
 30
0.0
 11
124.5945
 21
114.5425
 31
0.0
  0
LINE
  5
9C
330
1D
100
AcDbEntity
  8
0
100
AcDbLine
 10
124.5945
 20
114.5425
 30
0.0
 11
126.3015
 21
114.5025
 31
0.0
  0
LINE
  5
9D
330
1D
100
AcDbEntity
  8
0
100
AcDbLine
 10
51.1435
 20
104.7335
 30
0.0
 11
51.6725
 21
149.8235
 31
0.0
  0
LINE
  5
9E
330
1D
100
AcDbEntity
  8
0
100
AcDbLine
 10
111.6795
 20
157.2055
 30
0.0
 11
111.6955
 21
158.1005
 31
0.0
  0
LINE
  5
9F
330
1D
100
AcDbEntity
  8
0
100
AcDbLine
 10
111.6795
 20
157.2055
 30
0.0
 11
111.7565
 21
143.5395
 31
0.0
  0
LINE
  5
A0
330
1D
100
AcDbEntity
  8
0
100
AcDbLine
 10
111.6955
 20
158.1005
 30
0.0
 11
111.6975
 21
158.1505
 31
0.0
  0
LINE
  5
A2
330
1D
100
AcDbEntity
  8
0
100
AcDbLine
 10
111.8065
 20
159.6535
 30
0.0
 11
111.9925
 21
160.8015
 31
0.0
  0
LINE
  5
A3
330
1D
100
AcDbEntity
  8
0
100
AcDbLine
 10
111.6975
 20
158.1505
 30
0.0
 11
111.8065
 21
159.6535
 31
0.0
  0
LINE
  5
A4
330
1D
100
AcDbEntity
  8
0
100
AcDbLine
 10
112.0525
 20
161.0395
 30
0.0
 11
112.1375
 21
161.1565
 31
0.0
  0
LINE
  5
A7
330
1D
100
AcDbEntity
  8
0
100
AcDbLine
 10
112.0295
 20
160.9935
 30
0.0
 11
112.0525
 21
161.0395
 31
0.0
  0
LINE
  5
A8
330
1D
100
AcDbEntity
  8
0
100
AcDbLine
 10
111.9925
 20
160.8015
 30
0.0
 11
112.0295
 21
160.9935
 31
0.0
  0
LINE
  5
AF
330
1D
100
AcDbEntity
  8
0
100
AcDbLine
 10
113.1475
 20
159.4725
 30
0.0
 11
113.9165
 21
158.4695
 31
0.0
  0
LINE
  5
B0
330
1D
100
AcDbEntity
  8
0
100
AcDbLine
 10
112.6835
 20
160.5045
 30
0.0
 11
113.1475
 21
159.4725
 31
0.0
  0
LINE
  5
BF
330
1D
100
AcDbEntity
  8
0
100
AcDbLine
 10
124.0995
 20
153.8345
 30
0.0
 11
126.4495
 21
153.4105
 31
0.0
  0
LINE
  5
C0
330
1D
100
AcDbEntity
  8
0
100
AcDbLine
 10
126.4495
 20
153.4105
 30
0.0
 11
128.9235
 21
153.1025
 31
0.0
  0
LINE
  5
C2
330
1D
100
AcDbEntity
  8
0
100
AcDbLine
 10
128.9235
 20
153.1025
 30
0.0
 11
130.9035
 21
152.9465
 31
0.0
  0
LINE
  5
C4
330
1D
100
AcDbEntity
  8
0
100
AcDbLine
 10
114.4665
 20
161.1845
 30
0.0
 11
115.6925
 21
158.0775
 31
0.0
  0
LINE
  5
C5
330
1D
100
AcDbEntity
  8
0
100
AcDbLine
 10
115.6925
 20
158.0775
 30
0.0
 11
116.457203972401
 21
156.538841603919
 31
0.0
  0
LINE
  5
C6
330
1D
100
AcDbEntity
  8
0
100
AcDbLine
 10
113.9165
 20
158.4695
 30
0.0
 11
114.9895
 21
157.5035
 31
0.0
  0
LINE
  5
C7
330
1D
100
AcDbEntity
  8
0
100
AcDbLine
 10
114.9895
 20
157.5035
 30
0.0
 11
116.3525
 21
156.5925
 31
0.0
  0
LINE
  5
C8
330
1D
100
AcDbEntity
  8
0
100
AcDbLine
 10
116.3525
 20
156.5925
 30
0.0
 11
117.9955
 21
155.7505
 31
0.0
  0
LINE
  5
C9
330
1D
100
AcDbEntity
  8
0
100
AcDbLine
 10
117.9955
 20
155.7505
 30
0.0
 11
119.8975
 21
154.9915
 31
0.0
  0
LINE
  5
CA
330
1D
100
AcDbEntity
  8
0
100
AcDbLine
 10
119.8975
 20
154.9915
 30
0.0
 11
121.9055
 21
154.3645
 31
0.0
  0
LINE
  5
CB
330
1D
100
AcDbEntity
  8
0
100
AcDbLine
 10
121.9055
 20
154.3645
 30
0.0
 11
124.0995
 21
153.8345
 31
0.0
  0
LINE
  5
D9
330
1D
100
AcDbEntity
  8
0
100
AcDbLine
 10
134.9875
 20
152.8885
 30
0.0
 11
135.0705
 21
152.8895
 31
0.0
  0
LINE
  5
DA
330
1D
100
AcDbEntity
  8
0
100
AcDbLine
 10
134.0005
 20
152.8855
 30
0.0
 11
134.9875
 21
152.8885
 31
0.0
  0
LINE
  5
DC
330
1D
100
AcDbEntity
  8
0
100
AcDbLine
 10
132.9305
 20
152.8895
 30
0.0
 11
133.0135
 21
152.8885
 31
0.0
  0
LINE
  5
DE
330
1D
100
AcDbEntity
  8
0
100
AcDbLine
 10
133.0135
 20
152.8885
 30
0.0
 11
134.0005
 21
152.8855
 31
0.0
  0
LINE
  5
E3
330
1D
100
AcDbEntity
  8
0
100
AcDbLine
 10
135.0865
 20
152.8675
 30
0.0
 11
136.6715
 21
152.9235
 31
0.0
  0
LINE
  5
E4
330
1D
100
AcDbEntity
  8
0
100
AcDbLine
 10
130.9035
 20
152.9465
 30
0.0
 11
132.9145
 21
152.8675
 31
0.0
  0
LINE
  5
EA
330
1D
100
AcDbEntity
  8
0
100
AcDbLine
 10
112.1375
 20
161.1565
 30
0.0
 11
112.2995
 21
161.2655
 31
0.0
  0
LINE
  5
EB
330
1D
100
AcDbEntity
  8
0
100
AcDbLine
 10
111.4175
 20
197.8085
 30
0.0
 11
111.7625
 21
197.8165
 31
0.0
  0
LINE
  5
EC
330
1D
100
AcDbEntity
  8
0
100
AcDbLine
 10
111.4175
 20
197.8085
 30
0.0
 11
111.5255
 21
197.8115
 31
0.0
  0
LINE
  5
ED
330
1D
100
AcDbEntity
  8
0
100
AcDbLine
 10
111.4175
 20
197.8085
 30
0.0
 11
111.477273745865
 21
197.82465506645
 31
0.0
  0
LINE
  5
EE
330
1D
100
AcDbEntity
  8
0
100
AcDbLine
 10
84.0005
 20
197.7915
 30
0.0
 11
111.4175
 21
197.8085
 31
0.0
  0
LINE
  5
EF
330
1D
100
AcDbEntity
  8
0
100
AcDbLine
 10
52.7705
 20
197.8865
 30
0.0
 11
54.5605
 21
197.8525
 31
0.0
  0
LINE
  5
F0
330
1D
100
AcDbEntity
  8
0
100
AcDbLine
 10
54.5605
 20
197.8525
 30
0.0
 11
55.8135
 21
197.8265
 31
0.0
  0
LINE
  5
F1
330
1D
100
AcDbEntity
  8
0
100
AcDbLine
 10
55.8135
 20
197.8265
 30
0.0
 11
56.4965
 21
197.8115
 31
0.0
  0
LINE
  5
F2
330
1D
100
AcDbEntity
  8
0
100
AcDbLine
 10
111.5255
 20
197.8115
 30
0.0
 11
112.1775
 21
197.8255
 31
0.0
  0
LINE
  5
F3
330
1D
100
AcDbEntity
  8
0
100
AcDbLine
 10
56.5497814954136
 20
197.828694190429
 30
0.0
 11
56.62449999999999
 21
197.8085
 31
0.0
  0
LINE
  5
F4
330
1D
100
AcDbEntity
  8
0
100
AcDbLine
 10
112.1775
 20
197.8255
 30
0.0
 11
113.4015
 21
197.8515
 31
0.0
  0
LINE
  5
F5
330
1D
100
AcDbEntity
  8
0
100
AcDbLine
 10
111.7625
 20
197.8165
 30
0.0
 11
111.83909782609
 21
197.818233695652
 31
0.0
  0
LINE
  5
F6
330
1D
100
AcDbEntity
  8
0
100
AcDbLine
 10
56.4965
 20
197.8115
 30
0.0
 11
56.62449999999999
 21
197.8085
 31
0.0
  0
LINE
  5
F7
330
1D
100
AcDbEntity
  8
0
100
AcDbLine
 10
56.62449999999999
 20
197.8085
 30
0.0
 11
84.0005
 21
197.7915
 31
0.0
  0
LINE
  5
F8
330
1D
100
AcDbEntity
  8
0
100
AcDbLine
 10
112.2535
 20
197.827114379085
 30
0.0
 11
112.2535
 21
174.3045
 31
0.0
  0
LINE
  5
F9
330
1D
100
AcDbEntity
  8
0
100
AcDbLine
 10
112.2535
 20
174.3045
 30
0.0
 11
112.3925
 21
170.9665
 31
0.0
  0
LINE
  5
FA
330
1D
100
AcDbEntity
  8
0
100
AcDbLine
 10
112.2535
 20
174.3045
 30
0.0
 11
112.2535
 21
197.827114379085
 31
0.0
  0
LINE
  5
FB
330
1D
100
AcDbEntity
  8
0
100
AcDbLine
 10
112.3925
 20
170.9665
 30
0.0
 11
112.8105
 21
167.6515
 31
0.0
  0
LINE
  5
FC
330
1D
100
AcDbEntity
  8
0
100
AcDbLine
 10
112.4905
 20
161.3045
 30
0.0
 11
112.7305
 21
161.3045
 31
0.0
  0
LINE
  5
FD
330
1D
100
AcDbEntity
  8
0
100
AcDbLine
 10
113.2685
 20
161.3045
 30
0.0
 11
113.6395
 21
161.3045
 31
0.0
  0
LINE
  5
FE
330
1D
100
AcDbEntity
  8
0
100
AcDbLine
 10
113.6395
 20
161.3045
 30
0.0
 11
114.1135
 21
161.3045
 31
0.0
  0
LINE
  5
FF
330
1D
100
AcDbEntity
  8
0
100
AcDbLine
 10
114.1135
 20
161.3045
 30
0.0
 11
114.430376211316
 21
161.3045
 31
0.0
  0
LINE
  5
100
330
1D
100
AcDbEntity
  8
0
100
AcDbLine
 10
113.4015
 20
197.8515
 30
0.0
 11
115.1665
 21
197.8845
 31
0.0
  0
LINE
  5
101
330
1D
100
AcDbEntity
  8
0
100
AcDbLine
 10
115.1665
 20
197.8845
 30
0.0
 11
117.4245
 21
197.9235
 31
0.0
  0
LINE
  5
102
330
1D
100
AcDbEntity
  8
0
100
AcDbLine
 10
120.1175
 20
197.9635
 30
0.0
 11
123.1765
 21
198.0025
 31
0.0
  0
LINE
  5
103
330
1D
100
AcDbEntity
  8
0
100
AcDbLine
 10
123.1765
 20
198.0025
 30
0.0
 11
126.1695
 21
198.0345
 31
0.0
  0
LINE
  5
104
330
1D
100
AcDbEntity
  8
0
100
AcDbLine
 10
129.5465
 20
198.0625
 30
0.0
 11
133.0305
 21
198.0845
 31
0.0
  0
LINE
  5
105
330
1D
100
AcDbEntity
  8
0
100
AcDbLine
 10
133.0305
 20
198.0845
 30
0.0
 11
136.5375
 21
198.1005
 31
0.0
  0
LINE
  5
106
330
1D
100
AcDbEntity
  8
0
100
AcDbLine
 10
126.1695
 20
198.0345
 30
0.0
 11
129.5465
 21
198.0625
 31
0.0
  0
LINE
  5
107
330
1D
100
AcDbEntity
  8
0
100
AcDbLine
 10
117.4245
 20
197.9235
 30
0.0
 11
120.1175
 21
197.9635
 31
0.0
  0
LINE
  5
108
330
1D
100
AcDbEntity
  8
0
100
AcDbLine
 10
113.5035
 20
164.3835
 30
0.0
 11
114.4665
 21
161.1845
 31
0.0
  0
LINE
  5
109
330
1D
100
AcDbEntity
  8
0
100
AcDbLine
 10
112.8105
 20
167.6515
 30
0.0
 11
113.5035
 21
164.3835
 31
0.0
  0
LINE
  5
10A
330
1D
100
AcDbEntity
  8
0
100
AcDbLine
 10
112.9515
 20
161.3045
 30
0.0
 11
113.2685
 21
161.3045
 31
0.0
  0
LINE
  5
10C
330
1D
100
AcDbEntity
  8
0
100
AcDbLine
 10
112.7305
 20
161.3045
 30
0.0
 11
112.9515
 21
161.3045
 31
0.0
  0
LINE
  5
10D
330
1D
100
AcDbEntity
  8
0
100
AcDbLine
 10
112.2995
 20
161.2655
 30
0.0
 11
112.4905
 21
161.3045
 31
0.0
  0
LINE
  5
10E
330
1D
100
AcDbEntity
  8
0
100
AcDbLine
 10
51.67349999999999
 20
149.8855
 30
0.0
 11
52.2355429311202
 21
197.895642561651
 31
0.0
  0
LINE
  5
10F
330
1D
100
AcDbEntity
  8
0
100
AcDbLine
 10
51.6725
 20
149.8235
 30
0.0
 11
51.67349999999999
 21
149.8855
 31
0.0
  0
LINE
  5
110
330
1D
100
AcDbEntity
  8
0
100
AcDbLine
 10
0.0195000000000193
 20
207.8045
 30
0.0
 11
0.494500000000019
 21
198.7465
 31
0.0
  0
LINE
  5
111
330
1D
100
AcDbEntity
  8
0
100
AcDbLine
 10
0.0345000000000193
 20
207.8045
 30
0.0
 11
0.0845000000000193
 21
207.8045
 31
0.0
  0
LINE
  5
112
330
1D
100
AcDbEntity
  8
0
100
AcDbLine
 10
0.0845000000000193
 20
207.8045
 30
0.0
 11
0.366500000000019
 21
207.8045
 31
0.0
  0
LINE
  5
113
330
1D
100
AcDbEntity
  8
0
100
AcDbLine
 10
1.083500000000019
 20
207.8045
 30
0.0
 11
1.909500000000019
 21
207.8045
 31
0.0
  0
LINE
  5
114
330
1D
100
AcDbEntity
  8
0
100
AcDbLine
 10
1.909500000000019
 20
207.8045
 30
0.0
 11
2.86350000000002
 21
207.8045
 31
0.0
  0
LINE
  5
115
330
1D
100
AcDbEntity
  8
0
100
AcDbLine
 10
2.86350000000002
 20
207.8045
 30
0.0
 11
3.86850000000002
 21
207.8045
 31
0.0
  0
LINE
  5
116
330
1D
100
AcDbEntity
  8
0
100
AcDbLine
 10
3.86850000000002
 20
207.8045
 30
0.0
 11
4.903500000000019
 21
207.8045
 31
0.0
  0
LINE
  5
117
330
1D
100
AcDbEntity
  8
0
100
AcDbLine
 10
8.693500000000019
 20
207.8045
 30
0.0
 11
12.2425
 21
207.8045
 31
0.0
  0
LINE
  5
118
330
1D
100
AcDbEntity
  8
0
100
AcDbLine
 10
4.903500000000019
 20
207.8045
 30
0.0
 11
6.417500000000019
 21
207.8045
 31
0.0
  0
LINE
  5
119
330
1D
100
AcDbEntity
  8
0
100
AcDbLine
 10
6.417500000000019
 20
207.8045
 30
0.0
 11
8.693500000000019
 21
207.8045
 31
0.0
  0
LINE
  5
11A
330
1D
100
AcDbEntity
  8
0
100
AcDbLine
 10
0.366500000000019
 20
207.8045
 30
0.0
 11
0.708500000000019
 21
207.8045
 31
0.0
  0
LINE
  5
11B
330
1D
100
AcDbEntity
  8
0
100
AcDbLine
 10
0.708500000000019
 20
207.8045
 30
0.0
 11
1.083500000000019
 21
207.8045
 31
0.0
  0
LINE
  5
11C
330
1D
100
AcDbEntity
  8
0
100
AcDbLine
 10
31.5105
 20
207.8045
 30
0.0
 11
39.9075
 21
207.8045
 31
0.0
  0
LINE
  5
11D
330
1D
100
AcDbEntity
  8
0
100
AcDbLine
 10
39.9075
 20
207.8045
 30
0.0
 11
48.6505
 21
207.8045
 31
0.0
  0
LINE
  5
11E
330
1D
100
AcDbEntity
  8
0
100
AcDbLine
 10
23.4185
 20
207.8045
 30
0.0
 11
31.5105
 21
207.8045
 31
0.0
  0
LINE
  5
11F
330
1D
100
AcDbEntity
  8
0
100
AcDbLine
 10
12.2425
 20
207.8045
 30
0.0
 11
16.9085
 21
207.8045
 31
0.0
  0
LINE
  5
120
330
1D
100
AcDbEntity
  8
0
100
AcDbLine
 10
16.9085
 20
207.8045
 30
0.0
 11
23.4185
 21
207.8045
 31
0.0
  0
LINE
  5
121
330
1D
100
AcDbEntity
  8
0
100
AcDbLine
 10
48.6505
 20
207.8045
 30
0.0
 11
84.0005
 21
207.8045
 31
0.0
  0
LINE
  5
122
330
1D
100
AcDbEntity
  8
0
100
AcDbLine
 10
84.0005
 20
207.8045
 30
0.0
 11
101.7345
 21
207.8045
 31
0.0
  0
LINE
  5
123
330
1D
100
AcDbEntity
  8
0
100
AcDbLine
 10
128.0925
 20
207.8045
 30
0.0
 11
136.2705
 21
207.8045
 31
0.0
  0
LINE
  5
124
330
1D
100
AcDbEntity
  8
0
100
AcDbLine
 10
101.7345
 20
207.8045
 30
0.0
 11
128.0925
 21
207.8045
 31
0.0
  0
LINE
  5
125
330
1D
100
AcDbEntity
  8
0
100
AcDbLine
 10
137.8555
 20
114.4465
 30
0.0
 11
141.6985
 21
114.5025
 31
0.0
  0
LINE
  5
126
330
1D
100
AcDbEntity
  8
0
100
AcDbLine
 10
143.6615
 20
114.5505
 30
0.0
 11
144.1795
 21
114.5695
 31
0.0
  0
LINE
  5
127
330
1D
100
AcDbEntity
  8
0
100
AcDbLine
 10
144.1795
 20
114.5695
 30
0.0
 11
145.4095
 21
114.6205
 31
0.0
  0
LINE
  5
128
330
1D
100
AcDbEntity
  8
0
100
AcDbLine
 10
145.4095
 20
114.6205
 30
0.0
 11
146.5935
 21
114.6935
 31
0.0
  0
LINE
  5
129
330
1D
100
AcDbEntity
  8
0
100
AcDbLine
 10
145.40789146063
 20
114.621218244235
 30
0.0
 11
146.5935
 21
114.6935
 31
0.0
  0
LINE
  5
12A
330
1D
100
AcDbEntity
  8
0
100
AcDbLine
 10
146.5935
 20
114.6935
 30
0.0
 11
146.9535
 21
114.7185
 31
0.0
  0
LINE
  5
12B
330
1D
100
AcDbEntity
  8
0
100
AcDbLine
 10
148.4275
 20
114.8655
 30
0.0
 11
149.1305
 21
114.9635
 31
0.0
  0
LINE
  5
12C
330
1D
100
AcDbEntity
  8
0
100
AcDbLine
 10
149.1305
 20
114.9635
 30
0.0
 11
150.7795
 21
115.3115
 31
0.0
  0
LINE
  5
131
330
1D
100
AcDbEntity
  8
0
100
AcDbLine
 10
147.7555
 20
114.7945
 30
0.0
 11
148.4275
 21
114.8655
 31
0.0
  0
LINE
  5
132
330
1D
100
AcDbEntity
  8
0
100
AcDbLine
 10
146.9535
 20
114.7185
 30
0.0
 11
147.7555
 21
114.7945
 31
0.0
  0
LINE
  5
133
330
1D
100
AcDbEntity
  8
0
100
AcDbLine
 10
150.7795
 20
115.3115
 30
0.0
 11
151.3485
 21
115.4935
 31
0.0
  0
LINE
  5
134
330
1D
100
AcDbEntity
  8
0
100
AcDbLine
 10
152.4855
 20
116.0395
 30
0.0
 11
152.9565
 21
116.3775
 31
0.0
  0
LINE
  5
135
330
1D
100
AcDbEntity
  8
0
100
AcDbLine
 10
152.1565
 20
115.8425
 30
0.0
 11
152.4855
 21
116.0395
 31
0.0
  0
LINE
  5
136
330
1D
100
AcDbEntity
  8
0
100
AcDbLine
 10
151.7755
 20
115.6595
 30
0.0
 11
152.1565
 21
115.8425
 31
0.0
  0
LINE
  5
137
330
1D
100
AcDbEntity
  8
0
100
AcDbLine
 10
153.6975
 20
117.2535
 30
0.0
 11
153.7835
 21
117.4185
 31
0.0
  0
LINE
  5
138
330
1D
100
AcDbEntity
  8
0
100
AcDbLine
 10
153.3475
 20
116.7875
 30
0.0
 11
153.6975
 21
117.2535
 31
0.0
  0
LINE
  5
139
330
1D
100
AcDbEntity
  8
0
100
AcDbLine
 10
153.9345
 20
117.7395
 30
0.0
 11
153.9925
 21
117.9185
 31
0.0
  0
LINE
  5
13A
330
1D
100
AcDbEntity
  8
0
100
AcDbLine
 10
153.7835
 20
117.4185
 30
0.0
 11
153.9345
 21
117.7395
 31
0.0
  0
LINE
  5
13B
330
1D
100
AcDbEntity
  8
0
100
AcDbLine
 10
153.9925
 20
117.9185
 30
0.0
 11
154.1865
 21
118.6315
 31
0.0
  0
LINE
  5
13C
330
1D
100
AcDbEntity
  8
0
100
AcDbLine
 10
153.1945
 20
116.5995
 30
0.0
 11
153.3475
 21
116.7875
 31
0.0
  0
LINE
  5
13D
330
1D
100
AcDbEntity
  8
0
100
AcDbLine
 10
152.9565
 20
116.3775
 30
0.0
 11
153.1945
 21
116.5995
 31
0.0
  0
LINE
  5
13E
330
1D
100
AcDbEntity
  8
0
100
AcDbLine
 10
151.3485
 20
115.4935
 30
0.0
 11
151.7755
 21
115.6595
 31
0.0
  0
LINE
  5
13F
330
1D
100
AcDbEntity
  8
0
100
AcDbLine
 10
154.8435
 20
122.3495
 30
0.0
 11
155.1285
 21
124.3435
 31
0.0
  0
LINE
  5
140
330
1D
100
AcDbEntity
  8
0
100
AcDbLine
 10
154.5335
 20
120.4205
 30
0.0
 11
154.8435
 21
122.3495
 31
0.0
  0
LINE
  5
141
330
1D
100
AcDbEntity
  8
0
100
AcDbLine
 10
155.1285
 20
124.3435
 30
0.0
 11
155.3785
 21
126.3705
 31
0.0
  0
LINE
  5
142
330
1D
100
AcDbEntity
  8
0
100
AcDbLine
 10
154.1865
 20
118.6315
 30
0.0
 11
154.5335
 21
120.4205
 31
0.0
  0
LINE
  5
143
330
1D
100
AcDbEntity
  8
0
100
AcDbLine
 10
141.6985
 20
114.5025
 30
0.0
 11
143.6615
 21
114.5505
 31
0.0
  0
LINE
  5
144
330
1D
100
AcDbEntity
  8
0
100
AcDbLine
 10
155.3785
 20
126.3705
 30
0.0
 11
155.8535
 21
130.0935
 31
0.0
  0
LINE
  5
145
330
1D
100
AcDbEntity
  8
0
100
AcDbLine
 10
155.8535
 20
130.0935
 30
0.0
 11
156.0705
 21
131.6625
 31
0.0
  0
LINE
  5
147
330
1D
100
AcDbEntity
  8
0
100
AcDbLine
 10
136.6715
 20
152.9235
 30
0.0
 11
138.2405
 21
153.0275
 31
0.0
  0
LINE
  5
152
330
1D
100
AcDbEntity
  8
0
100
AcDbLine
 10
138.2405
 20
153.0275
 30
0.0
 11
140.7345
 21
153.2945
 31
0.0
  0
LINE
  5
156
330
1D
100
AcDbEntity
  8
0
100
AcDbLine
 10
140.7345
 20
153.2945
 30
0.0
 11
143.1185
 21
153.6775
 31
0.0
  0
LINE
  5
164
330
1D
100
AcDbEntity
  8
0
100
AcDbLine
 10
143.1185
 20
153.6775
 30
0.0
 11
145.3585
 21
154.1705
 31
0.0
  0
LINE
  5
165
330
1D
100
AcDbEntity
  8
0
100
AcDbLine
 10
145.3585
 20
154.1705
 30
0.0
 11
147.4245
 21
154.7625
 31
0.0
  0
LINE
  5
166
330
1D
100
AcDbEntity
  8
0
100
AcDbLine
 10
147.4245
 20
154.7625
 30
0.0
 11
149.1435
 21
155.3835
 31
0.0
  0
LINE
  5
16A
330
1D
100
AcDbEntity
  8
0
100
AcDbLine
 10
149.1435
 20
155.3835
 30
0.0
 11
150.6785
 21
156.0705
 31
0.0
  0
LINE
  5
16B
330
1D
100
AcDbEntity
  8
0
100
AcDbLine
 10
150.6785
 20
156.0705
 30
0.0
 11
152.0155
 21
156.8145
 31
0.0
  0
LINE
  5
16E
330
1D
100
AcDbEntity
  8
0
100
AcDbLine
 10
152.0155
 20
156.8145
 30
0.0
 11
153.1435
 21
157.6065
 31
0.0
  0
LINE
  5
16F
330
1D
100
AcDbEntity
  8
0
100
AcDbLine
 10
152.3085
 20
158.0775
 30
0.0
 11
153.5345
 21
161.1845
 31
0.0
  0
LINE
  5
170
330
1D
100
AcDbEntity
  8
0
100
AcDbLine
 10
153.1435
 20
157.6065
 30
0.0
 11
154.0555
 21
158.4385
 31
0.0
  0
LINE
  5
175
330
1D
100
AcDbEntity
  8
0
100
AcDbLine
 10
154.0555
 20
158.4385
 30
0.0
 11
154.8445
 21
159.4575
 31
0.0
  0
LINE
  5
176
330
1D
100
AcDbEntity
  8
0
100
AcDbLine
 10
153.5345
 20
161.1845
 30
0.0
 11
154.4975
 21
164.3835
 31
0.0
  0
LINE
  5
17C
330
1D
100
AcDbEntity
  8
0
100
AcDbLine
 10
155.7605
 20
161.2365
 30
0.0
 11
155.9425
 21
161.0525
 31
0.0
  0
LINE
  5
180
330
1D
100
AcDbEntity
  8
0
100
AcDbLine
 10
154.8445
 20
159.4575
 30
0.0
 11
155.3165
 21
160.5045
 31
0.0
  0
LINE
  5
181
330
1D
100
AcDbEntity
  8
0
100
AcDbLine
 10
151.552141125782
 20
156.556654822424
 30
0.0
 11
152.3085
 21
158.0775
 31
0.0
  0
LINE
  5
182
330
1D
100
AcDbEntity
  8
0
100
AcDbLine
 10
154.2235
 20
161.3045
 30
0.0
 11
154.8805
 21
161.3045
 31
0.0
  0
LINE
  5
183
330
1D
100
AcDbEntity
  8
0
100
AcDbLine
 10
153.570623788684
 20
161.3045
 30
0.0
 11
154.2235
 21
161.3045
 31
0.0
  0
LINE
  5
184
330
1D
100
AcDbEntity
  8
0
100
AcDbLine
 10
154.8805
 20
161.3045
 30
0.0
 11
155.2705
 21
161.3045
 31
0.0
  0
LINE
  5
185
330
1D
100
AcDbEntity
  8
0
100
AcDbLine
 10
155.2705
 20
161.3045
 30
0.0
 11
155.5105
 21
161.3045
 31
0.0
  0
LINE
  5
186
330
1D
100
AcDbEntity
  8
0
100
AcDbLine
 10
155.6835
 20
161.2725
 30
0.0
 11
155.7605
 21
161.2365
 31
0.0
  0
LINE
  5
187
330
1D
100
AcDbEntity
  8
0
100
AcDbLine
 10
156.0085
 20
160.8015
 30
0.0
 11
156.1635
 21
159.9025
 31
0.0
  0
LINE
  5
188
330
1D
100
AcDbEntity
  8
0
100
AcDbLine
 10
155.9485
 20
161.0395
 30
0.0
 11
156.0085
 21
160.8015
 31
0.0
  0
LINE
  5
189
330
1D
100
AcDbEntity
  8
0
100
AcDbLine
 10
139.9835
 20
198.1115
 30
0.0
 11
143.2855
 21
198.1175
 31
0.0
  0
LINE
  5
18A
330
1D
100
AcDbEntity
  8
0
100
AcDbLine
 10
143.2855
 20
198.1175
 30
0.0
 11
146.4855
 21
198.1205
 31
0.0
  0
LINE
  5
18B
330
1D
100
AcDbEntity
  8
0
100
AcDbLine
 10
146.4855
 20
198.1205
 30
0.0
 11
149.3575
 21
198.1215
 31
0.0
  0
LINE
  5
18C
330
1D
100
AcDbEntity
  8
0
100
AcDbLine
 10
149.3575
 20
198.1215
 30
0.0
 11
151.8275
 21
198.1194999999999
 31
0.0
  0
LINE
  5
18D
330
1D
100
AcDbEntity
  8
0
100
AcDbLine
 10
151.8275
 20
198.1194999999999
 30
0.0
 11
153.8305
 21
198.1175
 31
0.0
  0
LINE
  5
18E
330
1D
100
AcDbEntity
  8
0
100
AcDbLine
 10
153.8305
 20
198.1175
 30
0.0
 11
155.3135
 21
198.1155
 31
0.0
  0
LINE
  5
18F
330
1D
100
AcDbEntity
  8
0
100
AcDbLine
 10
136.5375
 20
198.1005
 30
0.0
 11
139.9835
 21
198.1115
 31
0.0
  0
LINE
  5
190
330
1D
100
AcDbEntity
  8
0
100
AcDbLine
 10
136.2705
 20
207.8045
 30
0.0
 11
146.0485
 21
207.8045
 31
0.0
  0
LINE
  5
192
330
1D
100
AcDbEntity
  8
0
100
AcDbLine
 10
151.4105
 20
207.8045
 30
0.0
 11
156.0225
 21
207.8045
 31
0.0
  0
LINE
  5
193
330
1D
100
AcDbEntity
  8
0
100
AcDbLine
 10
146.0485
 20
207.8045
 30
0.0
 11
151.4105
 21
207.8045
 31
0.0
  0
LINE
  5
197
330
1D
100
AcDbEntity
  8
0
100
AcDbLine
 10
155.3135
 20
198.1155
 30
0.0
 11
156.2385
 21
198.1135
 31
0.0
  0
LINE
  5
198
330
1D
100
AcDbEntity
  8
0
100
AcDbLine
 10
155.7465
 20
174.3045
 30
0.0
 11
155.7465
 21
198.114563783784
 31
0.0
  0
LINE
  5
199
330
1D
100
AcDbEntity
  8
0
100
AcDbLine
 10
156.0225
 20
207.8045
 30
0.0
 11
159.3325
 21
207.8045
 31
0.0
  0
LINE
  5
19B
330
1D
100
AcDbEntity
  8
0
100
AcDbLine
 10
155.7465
 20
198.114563783784
 30
0.0
 11
155.7465
 21
174.3045
 31
0.0
  0
LINE
  5
19C
330
1D
100
AcDbEntity
  8
0
100
AcDbLine
 10
155.6075
 20
170.9665
 30
0.0
 11
155.7465
 21
174.3045
 31
0.0
  0
LINE
  5
19D
330
1D
100
AcDbEntity
  8
0
100
AcDbLine
 10
155.1905
 20
167.6515
 30
0.0
 11
155.6075
 21
170.9665
 31
0.0
  0
LINE
  5
19E
330
1D
100
AcDbEntity
  8
0
100
AcDbLine
 10
154.4975
 20
164.3835
 30
0.0
 11
155.1905
 21
167.6515
 31
0.0
  0
LINE
  5
19F
330
1D
100
AcDbEntity
  8
0
100
AcDbLine
 10
155.5105
 20
161.3045
 30
0.0
 11
155.6835
 21
161.2725
 31
0.0
  0
LINE
  5
1A1
330
1D
100
AcDbEntity
  8
0
100
AcDbLine
 10
156.2445
 20
143.5385
 30
0.0
 11
156.3245
 21
157.3395
 31
0.0
  0
LINE
  5
1A2
330
1D
100
AcDbEntity
  8
0
100
AcDbLine
 10
156.2405
 20
139.0415
 30
0.0
 11
156.2445
 21
143.5385
 31
0.0
  0
LINE
  5
1A3
330
1D
100
AcDbEntity
  8
0
100
AcDbLine
 10
156.2405
 20
139.0415
 30
0.0
 11
156.3345
 21
134.8475
 31
0.0
  0
LINE
  5
1A4
330
1D
100
AcDbEntity
  8
0
100
AcDbLine
 10
156.2385
 20
198.1135
 30
0.0
 11
167.0155
 21
198.2725
 31
0.0
  0
LINE
  5
1A5
330
1D
100
AcDbEntity
  8
0
100
AcDbLine
 10
156.1635
 20
159.9025
 30
0.0
 11
156.2295
 21
159.3015
 31
0.0
  0
LINE
  5
1A6
330
1D
100
AcDbEntity
  8
0
100
AcDbLine
 10
156.2295
 20
159.3015
 30
0.0
 11
156.3055
 21
158.1005
 31
0.0
  0
LINE
  5
1A7
330
1D
100
AcDbEntity
  8
0
100
AcDbLine
 10
156.3055
 20
158.1005
 30
0.0
 11
156.3245
 21
157.3395
 31
0.0
  0
LINE
  5
1AA
330
1D
100
AcDbEntity
  8
0
100
AcDbLine
 10
167.0155
 20
198.2725
 30
0.0
 11
167.2545
 21
198.3375
 31
0.0
  0
LINE
  5
1AC
330
1D
100
AcDbEntity
  8
0
100
AcDbLine
 10
167.2545
 20
198.3375
 30
0.0
 11
167.4325
 21
198.5095
 31
0.0
  0
LINE
  5
1B0
330
1D
100
AcDbEntity
  8
0
100
AcDbLine
 10
167.4325
 20
198.5095
 30
0.0
 11
167.5065
 21
198.7465
 31
0.0
  0
LINE
  5
1B5
330
1D
100
AcDbEntity
  8
0
100
AcDbLine
 10
164.0425
 20
207.8045
 30
0.0
 11
165.0745
 21
207.8045
 31
0.0
  0
LINE
  5
1B6
330
1D
100
AcDbEntity
  8
0
100
AcDbLine
 10
162.7655
 20
207.8045
 30
0.0
 11
164.0425
 21
207.8045
 31
0.0
  0
LINE
  5
1B7
330
1D
100
AcDbEntity
  8
0
100
AcDbLine
 10
161.3895
 20
207.8045
 30
0.0
 11
162.7655
 21
207.8045
 31
0.0
  0
LINE
  5
1B8
330
1D
100
AcDbEntity
  8
0
100
AcDbLine
 10
159.3325
 20
207.8045
 30
0.0
 11
161.3895
 21
207.8045
 31
0.0
  0
LINE
  5
1B9
330
1D
100
AcDbEntity
  8
0
100
AcDbLine
 10
167.6865
 20
207.8045
 30
0.0
 11
167.8455
 21
207.8045
 31
0.0
  0
LINE
  5
1BA
330
1D
100
AcDbEntity
  8
0
100
AcDbLine
 10
167.5065
 20
198.7465
 30
0.0
 11
167.9805
 21
207.8045
 31
0.0
  0
LINE
  5
1BB
330
1D
100
AcDbEntity
  8
0
100
AcDbLine
 10
167.8455
 20
207.8045
 30
0.0
 11
167.9665
 21
207.8045
 31
0.0
  0
LINE
  5
1BC
330
1D
100
AcDbEntity
  8
0
100
AcDbLine
 10
167.3475
 20
207.8045
 30
0.0
 11
167.6865
 21
207.8045
 31
0.0
  0
LINE
  5
1BD
330
1D
100
AcDbEntity
  8
0
100
AcDbLine
 10
166.8005
 20
207.8045
 30
0.0
 11
167.3475
 21
207.8045
 31
0.0
  0
LINE
  5
1BE
330
1D
100
AcDbEntity
  8
0
100
AcDbLine
 10
165.9695
 20
207.8045
 30
0.0
 11
166.8005
 21
207.8045
 31
0.0
  0
LINE
  5
1BF
330
1D
100
AcDbEntity
  8
0
100
AcDbLine
 10
165.0745
 20
207.8045
 30
0.0
 11
165.9695
 21
207.8045
 31
0.0
  0
LINE
  5
1C1
330
1D
100
AcDbEntity
  8
0
100
AcDbLine
 10
156.3235
 20
134.2755
 30
0.0
 11
156.3345
 21
134.8475
 31
0.0
  0
LINE
  5
1C2
330
1D
100
AcDbEntity
  8
0
100
AcDbLine
 10
156.3165
 20
134.1735
 30
0.0
 11
156.3235
 21
134.2755
 31
0.0
  0
LINE
  5
1C3
330
1D
100
AcDbEntity
  8
0
100
AcDbLine
 10
156.2595
 20
133.3285
 30
0.0
 11
156.3165
 21
134.1735
 31
0.0
  0
LINE
  5
1C4
330
1D
100
AcDbEntity
  8
0
100
AcDbLine
 10
156.2225
 20
132.9085
 30
0.0
 11
156.2595
 21
133.3285
 31
0.0
  0
LINE
  5
1C5
330
1D
100
AcDbEntity
  8
0
100
AcDbLine
 10
156.1545
 20
132.2835
 30
0.0
 11
156.2225
 21
132.9085
 31
0.0
  0
LINE
  5
1C6
330
1D
100
AcDbEntity
  8
0
100
AcDbLine
 10
156.0705
 20
131.6625
 30
0.0
 11
156.1545
 21
132.2835
 31
0.0
  0
LINE
  5
1EE
330
1D
100
AcDbEntity
  8
0
100
AcDbLine
 10
43.8985
 20
0.986499999999989
 30
0.0
 11
44.6370324215996
 21
1.27887656213191
 31
0.0
  0
LINE
  5
1EF
330
1D
100
AcDbEntity
  8
0
100
AcDbLine
 10
112.6835
 20
160.5045
 30
0.0
 11
112.4650652888089
 21
161.2756826285279
 31
0.0
  0
LINE
  5
1F0
330
1D
100
AcDbEntity
  8
0
100
AcDbLine
 10
155.3165
 20
160.5045
 30
0.0
 11
155.5105
 21
161.3045
 31
0.0
  0
LINE
  5
1F1
330
1D
100
AcDbEntity
  8
0
100
AcDbLine
 10
113.834984440421
 20
118.596036946928
 30
0.0
 11
114.0665
 21
117.7395
 31
0.0
  0
LINE
  5
367
330
1D
100
AcDbEntity
  8
0
100
AcDbLine
 10
286.9048416019682
 20
-120.7000179438516
 30
0.0
 11
287.1123416019682
 21
-120.6643179438516
 31
0.0
  0
LINE
  5
368
330
1D
100
AcDbEntity
  8
0
100
AcDbLine
 10
287.2742416019682
 20
-120.5299179438516
 30
0.0
 11
289.0770591184242
 21
-118.0086794713917
 31
0.0
  0
LINE
  5
369
330
1D
100
AcDbEntity
  8
0
100
AcDbLine
 10
287.1123416019682
 20
-120.6643179438516
 30
0.0
 11
287.2742416019682
 21
-120.5299179438516
 31
0.0
  0
LINE
  5
36A
330
1D
100
AcDbEntity
  8
0
100
AcDbLine
 10
286.7086416019682
 20
-120.6264179438516
 30
0.0
 11
286.9048416019682
 21
-120.7000179438516
 31
0.0
  0
LINE
  5
36B
330
1D
100
AcDbEntity
  8
0
100
AcDbLine
 10
376.5782416019682
 20
-174.7709179438516
 30
0.0
 11
376.8342416019682
 21
-174.9379179438516
 31
0.0
  0
LINE
  5
36C
330
1D
100
AcDbEntity
  8
0
100
AcDbLine
 10
376.8342416019682
 20
-174.7969179438516
 30
0.0
 11
377.1272416019682
 21
-174.8829179438516
 31
0.0
  0
LINE
  5
36D
330
1D
100
AcDbEntity
  8
0
100
AcDbLine
 10
377.9492416019682
 20
-174.7479179438516
 30
0.0
 11
378.7962416019682
 21
-173.8719179438516
 31
0.0
  0
LINE
  5
36E
330
1D
100
AcDbEntity
  8
0
100
AcDbLine
 10
377.7032416019682
 20
-174.9259179438516
 30
0.0
 11
377.9492416019682
 21
-174.7479179438516
 31
0.0
  0
LINE
  5
36F
330
1D
100
AcDbEntity
  8
0
100
AcDbLine
 10
377.1272416019682
 20
-174.8829179438516
 30
0.0
 11
377.4362416019683
 21
-174.8759179438516
 31
0.0
  0
LINE
  5
370
330
1D
100
AcDbEntity
  8
0
100
AcDbLine
 10
376.2552416019683
 20
-173.9659179438516
 30
0.0
 11
376.4522416019683
 21
-171.4489179438516
 31
0.0
  0
LINE
  5
371
330
1D
100
AcDbEntity
  8
0
100
AcDbLine
 10
376.4522416019683
 20
-171.4489179438516
 30
0.0
 11
376.7122416019682
 21
-168.9439179438515
 31
0.0
  0
LINE
  5
372
330
1D
100
AcDbEntity
  8
0
100
AcDbLine
 10
376.7122416019682
 20
-168.9439179438515
 30
0.0
 11
377.3982416019683
 21
-163.9629179438516
 31
0.0
  0
LINE
  5
373
330
1D
100
AcDbEntity
  8
0
100
AcDbLine
 10
378.2632416019683
 20
-159.0069179438516
 30
0.0
 11
379.2612416019682
 21
-154.0619179438516
 31
0.0
  0
LINE
  5
374
330
1D
100
AcDbEntity
  8
0
100
AcDbLine
 10
377.3982416019683
 20
-163.9629179438516
 30
0.0
 11
378.2632416019683
 21
-159.0069179438516
 31
0.0
  0
LINE
  5
375
330
1D
100
AcDbEntity
  8
0
100
AcDbLine
 10
378.7962416019682
 20
-173.8719179438516
 30
0.0
 11
379.5712416019683
 21
-172.9609179438516
 31
0.0
  0
LINE
  5
376
330
1D
100
AcDbEntity
  8
0
100
AcDbLine
 10
377.9492416019682
 20
-174.7479179438516
 30
0.0
 11
378.7962416019682
 21
-173.8719179438516
 31
0.0
  0
LINE
  5
377
330
1D
100
AcDbEntity
  8
0
100
AcDbLine
 10
380.9322416019682
 20
-171.0479179438516
 30
0.0
 11
382.0802416019683
 21
-169.0329179438516
 31
0.0
  0
LINE
  5
378
330
1D
100
AcDbEntity
  8
0
100
AcDbLine
 10
383.6542416019682
 20
-165.5129179438516
 30
0.0
 11
384.7352416019683
 21
-162.6139179438516
 31
0.0
  0
LINE
  5
379
330
1D
100
AcDbEntity
  8
0
100
AcDbLine
 10
383.0652416019682
 20
-166.9399179438516
 30
0.0
 11
383.6542416019682
 21
-165.5129179438516
 31
0.0
  0
LINE
  5
37A
330
1D
100
AcDbEntity
  8
0
100
AcDbLine
 10
382.0802416019683
 20
-169.0329179438516
 30
0.0
 11
383.0652416019682
 21
-166.9399179438516
 31
0.0
  0
LINE
  5
37B
330
1D
100
AcDbEntity
  8
0
100
AcDbLine
 10
380.2812416019682
 20
-172.0179179438516
 30
0.0
 11
380.9322416019682
 21
-171.0479179438516
 31
0.0
  0
LINE
  5
37C
330
1D
100
AcDbEntity
  8
0
100
AcDbLine
 10
379.5712416019683
 20
-172.9609179438516
 30
0.0
 11
380.2812416019682
 21
-172.0179179438516
 31
0.0
  0
LINE
  5
37D
330
1D
100
AcDbEntity
  8
0
100
AcDbLine
 10
380.8002416019682
 20
-147.1239179438516
 30
0.0
 11
382.5342416019682
 21
-139.8069179438516
 31
0.0
  0
LINE
  5
37E
330
1D
100
AcDbEntity
  8
0
100
AcDbLine
 10
382.5342416019682
 20
-139.8069179438516
 30
0.0
 11
384.4392416019682
 21
-132.1119179438515
 31
0.0
  0
LINE
  5
37F
330
1D
100
AcDbEntity
  8
0
100
AcDbLine
 10
379.2862416019682
 20
-153.9679179438516
 30
0.0
 11
380.8002416019682
 21
-147.1239179438516
 31
0.0
  0
LINE
  5
380
330
1D
100
AcDbEntity
  8
0
100
AcDbLine
 10
379.2612416019682
 20
-154.0619179438516
 30
0.0
 11
379.2862416019682
 21
-153.9679179438516
 31
0.0
  0
LINE
  5
381
330
1D
100
AcDbEntity
  8
0
100
AcDbLine
 10
384.7352416019683
 20
-162.6139179438516
 30
0.0
 11
387.5902416019683
 21
-154.4199179438515
 31
0.0
  0
LINE
  5
382
330
1D
100
AcDbEntity
  8
0
100
AcDbLine
 10
391.0052416019683
 20
-144.5029179438516
 30
0.0
 11
391.9572416019682
 21
-141.7599179438516
 31
0.0
  0
LINE
  5
383
330
1D
100
AcDbEntity
  8
0
100
AcDbLine
 10
387.5902416019683
 20
-154.4199179438515
 30
0.0
 11
391.0052416019683
 21
-144.5029179438516
 31
0.0
  0
LINE
  5
384
330
1D
100
AcDbEntity
  8
0
100
AcDbLine
 10
391.9572416019682
 20
-141.7599179438516
 30
0.0
 11
392.8532416019682
 21
-139.3129179438516
 31
0.0
  0
LINE
  5
385
330
1D
100
AcDbEntity
  8
0
100
AcDbLine
 10
396.2292416019683
 20
-133.0929179438516
 30
0.0
 11
397.2172416019682
 21
-132.1079179438516
 31
0.0
  0
LINE
  5
386
330
1D
100
AcDbEntity
  8
0
100
AcDbLine
 10
395.6432416019683
 20
-133.8209179438516
 30
0.0
 11
396.2292416019683
 21
-133.0929179438516
 31
0.0
  0
LINE
  5
387
330
1D
100
AcDbEntity
  8
0
100
AcDbLine
 10
394.0682416019683
 20
-136.4729179438516
 30
0.0
 11
395.6432416019683
 21
-133.8209179438516
 31
0.0
  0
LINE
  5
388
330
1D
100
AcDbEntity
  8
0
100
AcDbLine
 10
393.4542416019682
 20
-137.8249179438516
 30
0.0
 11
394.0682416019683
 21
-136.4729179438516
 31
0.0
  0
LINE
  5
389
330
1D
100
AcDbEntity
  8
0
100
AcDbLine
 10
392.8532416019682
 20
-139.3129179438516
 30
0.0
 11
393.4542416019682
 21
-137.8249179438516
 31
0.0
  0
LINE
  5
38A
330
1D
100
AcDbEntity
  8
0
100
AcDbLine
 10
460.1942416019682
 20
-140.7099179438516
 30
0.0
 11
460.2912416019681
 21
-140.7869179438516
 31
0.0
  0
LINE
  5
38B
330
1D
100
AcDbEntity
  8
0
100
AcDbLine
 10
460.1192416019682
 20
-140.6109179438516
 30
0.0
 11
460.1942416019682
 21
-140.7099179438516
 31
0.0
  0
LINE
  5
38C
330
1D
100
AcDbEntity
  8
0
100
AcDbLine
 10
399.4912416019682
 20
-130.6599179438516
 30
0.0
 11
400.7712416019682
 21
-130.1789179438516
 31
0.0
  0
LINE
  5
38D
330
1D
100
AcDbEntity
  8
0
100
AcDbLine
 10
400.7712416019682
 20
-130.1789179438516
 30
0.0
 11
401.7872416019683
 21
-129.9129179438516
 31
0.0
  0
LINE
  5
38E
330
1D
100
AcDbEntity
  8
0
100
AcDbLine
 10
401.7872416019683
 20
-129.9129179438516
 30
0.0
 11
402.8482416019682
 21
-129.7179179438515
 31
0.0
  0
LINE
  5
38F
330
1D
100
AcDbEntity
  8
0
100
AcDbLine
 10
402.8482416019682
 20
-129.7179179438515
 30
0.0
 11
405.0832416019682
 21
-129.5049179438516
 31
0.0
  0
LINE
  5
390
330
1D
100
AcDbEntity
  8
0
100
AcDbLine
 10
405.0832416019682
 20
-129.5049179438516
 30
0.0
 11
406.6442416019682
 21
-129.4559179438516
 31
0.0
  0
LINE
  5
391
330
1D
100
AcDbEntity
  8
0
100
AcDbLine
 10
422.6282416019683
 20
-129.5319179438516
 30
0.0
 11
422.8792416019683
 21
-129.4659179438516
 31
0.0
  0
LINE
  5
392
330
1D
100
AcDbEntity
  8
0
100
AcDbLine
 10
422.8792416019683
 20
-129.4659179438516
 30
0.0
 11
423.0632416019682
 21
-129.2829179438516
 31
0.0
  0
LINE
  5
393
330
1D
100
AcDbEntity
  8
0
100
AcDbLine
 10
423.0632416019682
 20
-129.2829179438516
 30
0.0
 11
423.1312416019681
 21
-129.0319179438516
 31
0.0
  0
LINE
  5
394
330
1D
100
AcDbEntity
  8
0
100
AcDbLine
 10
423.1312416019681
 20
-129.0319179438516
 30
0.0
 11
423.1312416019681
 21
-128.5999179438515
 31
0.0
  0
LINE
  5
395
330
1D
100
AcDbEntity
  8
0
100
AcDbLine
 10
423.1312416019681
 20
-126.9060417325356
 30
0.0
 11
426.2102416019683
 21
-127.8329179438516
 31
0.0
  0
LINE
  5
396
330
1D
100
AcDbEntity
  8
0
100
AcDbLine
 10
423.1312416019681
 20
-128.0529179438516
 30
0.0
 11
423.1312416019681
 21
-128.5999179438515
 31
0.0
  0
LINE
  5
397
330
1D
100
AcDbEntity
  8
0
100
AcDbLine
 10
423.1312416019681
 20
-128.0529179438516
 30
0.0
 11
423.1312416019681
 21
-127.3359179438516
 31
0.0
  0
LINE
  5
398
330
1D
100
AcDbEntity
  8
0
100
AcDbLine
 10
423.1312416019681
 20
-127.3359179438516
 30
0.0
 11
423.1312416019681
 21
-128.0529179438516
 31
0.0
  0
LINE
  5
399
330
1D
100
AcDbEntity
  8
0
100
AcDbLine
 10
429.4782416019682
 20
-128.5239179438516
 30
0.0
 11
432.7932416019682
 21
-128.9409179438516
 31
0.0
  0
LINE
  5
39A
330
1D
100
AcDbEntity
  8
0
100
AcDbLine
 10
436.1312416019682
 20
-129.0809179438515
 30
0.0
 11
459.9374840936252
 21
-129.0809179438515
 31
0.0
  0
LINE
  5
39B
330
1D
100
AcDbEntity
  8
0
100
AcDbLine
 10
432.7932416019682
 20
-128.9409179438516
 30
0.0
 11
436.1312416019682
 21
-129.0809179438515
 31
0.0
  0
LINE
  5
39C
330
1D
100
AcDbEntity
  8
0
100
AcDbLine
 10
426.2102416019683
 20
-127.8329179438516
 30
0.0
 11
429.4782416019682
 21
-128.5239179438516
 31
0.0
  0
LINE
  5
39D
330
1D
100
AcDbEntity
  8
0
100
AcDbLine
 10
423.1312416019681
 20
-128.5999179438515
 30
0.0
 11
423.1312416019681
 21
-129.0319179438516
 31
0.0
  0
LINE
  5
39E
330
1D
100
AcDbEntity
  8
0
100
AcDbLine
 10
423.1312416019681
 20
-128.5999179438515
 30
0.0
 11
423.1312416019681
 21
-128.0529179438516
 31
0.0
  0
LINE
  5
39F
330
1D
100
AcDbEntity
  8
0
100
AcDbLine
 10
406.6442416019682
 20
-129.4559179438516
 30
0.0
 11
409.8922416019681
 21
-129.4549179438516
 31
0.0
  0
LINE
  5
3A0
330
1D
100
AcDbEntity
  8
0
100
AcDbLine
 10
398.3052416019682
 20
-131.2989179438516
 30
0.0
 11
399.4912416019682
 21
-130.6599179438516
 31
0.0
  0
LINE
  5
3A1
330
1D
100
AcDbEntity
  8
0
100
AcDbLine
 10
397.2172416019682
 20
-132.1079179438516
 30
0.0
 11
398.3052416019682
 21
-131.2989179438516
 31
0.0
  0
LINE
  5
3A2
330
1D
100
AcDbEntity
  8
0
100
AcDbLine
 10
386.5082416019683
 20
-124.0409179438516
 30
0.0
 11
391.1362416019682
 21
-106.7879179438516
 31
0.0
  0
LINE
  5
3A3
330
1D
100
AcDbEntity
  8
0
100
AcDbLine
 10
384.4392416019682
 20
-132.1119179438515
 30
0.0
 11
386.5082416019683
 21
-124.0409179438516
 31
0.0
  0
LINE
  5
3A4
330
1D
100
AcDbEntity
  8
0
100
AcDbLine
 10
295.7272416019682
 20
-120.1729179438516
 30
0.0
 11
386.3214183741583
 21
-124.7697000954505
 31
0.0
  0
LINE
  5
3A5
330
1D
100
AcDbEntity
  8
0
100
AcDbLine
 10
295.7272416019682
 20
-120.1729179438516
 30
0.0
 11
386.3214183741583
 21
-124.7697000954505
 31
0.0
  0
LINE
  5
3A6
330
1D
100
AcDbEntity
  8
0
100
AcDbLine
 10
267.7094916019683
 20
-106.9750179438516
 30
0.0
 11
267.8421216019682
 21
-107.1368179438516
 31
0.0
  0
LINE
  5
3A7
330
1D
100
AcDbEntity
  8
0
100
AcDbLine
 10
267.7513516019682
 20
-106.5704179438516
 30
0.0
 11
269.2620902789182
 21
-104.4577642629347
 31
0.0
  0
LINE
  5
3A8
330
1D
100
AcDbEntity
  8
0
100
AcDbLine
 10
267.7513516019682
 20
-106.5704179438516
 30
0.0
 11
269.2620902789182
 21
-104.4577642629347
 31
0.0
  0
LINE
  5
3A9
330
1D
100
AcDbEntity
  8
0
100
AcDbLine
 10
267.6761016019682
 20
-106.7670179438516
 30
0.0
 11
267.7513516019682
 21
-106.5704179438516
 31
0.0
  0
LINE
  5
3AA
330
1D
100
AcDbEntity
  8
0
100
AcDbLine
 10
267.6761016019682
 20
-106.7670179438516
 30
0.0
 11
267.7094916019683
 21
-106.9750179438516
 31
0.0
  0
LINE
  5
3AB
330
1D
100
AcDbEntity
  8
0
100
AcDbLine
 10
272.0582416019682
 20
-106.2429179438516
 30
0.0
 11
273.9812416019682
 21
-107.2269179438516
 31
0.0
  0
LINE
  5
3AC
330
1D
100
AcDbEntity
  8
0
100
AcDbLine
 10
262.8192416019682
 20
-98.52491794385159
 30
0.0
 11
265.7142416019682
 21
-101.3969179438516
 31
0.0
  0
LINE
  5
3AD
330
1D
100
AcDbEntity
  8
0
100
AcDbLine
 10
262.8192416019682
 20
-98.52491794385159
 30
0.0
 11
265.7142416019682
 21
-101.3969179438516
 31
0.0
  0
LINE
  5
3AE
330
1D
100
AcDbEntity
  8
0
100
AcDbLine
 10
262.1892416019682
 20
-97.72391794385159
 30
0.0
 11
262.8192416019682
 21
-98.52491794385159
 31
0.0
  0
LINE
  5
3AF
330
1D
100
AcDbEntity
  8
0
100
AcDbLine
 10
262.8182416019682
 20
-95.9509179438516
 30
0.0
 11
263.8112416019682
 21
-95.72791794385159
 31
0.0
  0
LINE
  5
3B0
330
1D
100
AcDbEntity
  8
0
100
AcDbLine
 10
265.7142416019682
 20
-101.3969179438516
 30
0.0
 11
268.7832416019682
 21
-104.1089179438516
 31
0.0
  0
LINE
  5
3B1
330
1D
100
AcDbEntity
  8
0
100
AcDbLine
 10
263.8112416019682
 20
-95.72791794385159
 30
0.0
 11
267.9022416019682
 21
-95.27291794385158
 31
0.0
  0
LINE
  5
3B2
330
1D
100
AcDbEntity
  8
0
100
AcDbLine
 10
263.8112416019682
 20
-95.72791794385159
 30
0.0
 11
267.9022416019682
 21
-95.27291794385158
 31
0.0
  0
LINE
  5
3B3
330
1D
100
AcDbEntity
  8
0
100
AcDbLine
 10
270.0032416019682
 20
-95.11091794385158
 30
0.0
 11
272.0052416019683
 21
-94.96691794385158
 31
0.0
  0
LINE
  5
3B4
330
1D
100
AcDbEntity
  8
0
100
AcDbLine
 10
272.0052416019683
 20
-94.96691794385158
 30
0.0
 11
276.1142416019683
 21
-94.77691794385158
 31
0.0
  0
LINE
  5
3B5
330
1D
100
AcDbEntity
  8
0
100
AcDbLine
 10
268.7832416019682
 20
-104.1089179438516
 30
0.0
 11
268.9382416019682
 21
-104.2219179438516
 31
0.0
  0
LINE
  5
3B6
330
1D
100
AcDbEntity
  8
0
100
AcDbLine
 10
289.3162416019683
 20
-118.2429179438515
 30
0.0
 11
289.3702416019682
 21
-118.2949179438516
 31
0.0
  0
LINE
  5
3B7
330
1D
100
AcDbEntity
  8
0
100
AcDbLine
 10
291.2412416019682
 20
-119.1739179438516
 30
0.0
 11
292.8342416019682
 21
-119.7399179438516
 31
0.0
  0
LINE
  5
3B8
330
1D
100
AcDbEntity
  8
0
100
AcDbLine
 10
292.8342416019682
 20
-119.7399179438516
 30
0.0
 11
293.9072416019683
 21
-119.9919179438516
 31
0.0
  0
LINE
  5
3B9
330
1D
100
AcDbEntity
  8
0
100
AcDbLine
 10
289.3702416019682
 20
-118.2949179438516
 30
0.0
 11
291.2412416019682
 21
-119.1739179438516
 31
0.0
  0
LINE
  5
3BA
330
1D
100
AcDbEntity
  8
0
100
AcDbLine
 10
287.9302416019682
 20
-116.8779179438516
 30
0.0
 11
288.2632416019683
 21
-117.2079179438516
 31
0.0
  0
LINE
  5
3BB
330
1D
100
AcDbEntity
  8
0
100
AcDbLine
 10
287.1492416019682
 20
-116.0949179438516
 30
0.0
 11
287.9302416019682
 21
-116.8779179438516
 31
0.0
  0
LINE
  5
3BC
330
1D
100
AcDbEntity
  8
0
100
AcDbLine
 10
286.2302416019683
 20
-115.1719179438515
 30
0.0
 11
287.1492416019682
 21
-116.0949179438516
 31
0.0
  0
LINE
  5
3BD
330
1D
100
AcDbEntity
  8
0
100
AcDbLine
 10
285.0692416019682
 20
-114.0309179438516
 30
0.0
 11
286.2302416019683
 21
-115.1719179438515
 31
0.0
  0
LINE
  5
3BE
330
1D
100
AcDbEntity
  8
0
100
AcDbLine
 10
281.8402416019683
 20
-111.3049179438516
 30
0.0
 11
283.5692416019682
 21
-112.6599179438516
 31
0.0
  0
LINE
  5
3BF
330
1D
100
AcDbEntity
  8
0
100
AcDbLine
 10
280.5522416019682
 20
-110.4619179438516
 30
0.0
 11
281.8402416019683
 21
-111.3049179438516
 31
0.0
  0
LINE
  5
3C0
330
1D
100
AcDbEntity
  8
0
100
AcDbLine
 10
278.5122416019682
 20
-109.3489179438516
 30
0.0
 11
280.5522416019682
 21
-110.4619179438516
 31
0.0
  0
LINE
  5
3C1
330
1D
100
AcDbEntity
  8
0
100
AcDbLine
 10
285.2662416019682
 20
-94.59191794385159
 30
0.0
 11
335.1550416019683
 21
-94.13391794385159
 31
0.0
  0
LINE
  5
3C2
330
1D
100
AcDbEntity
  8
0
100
AcDbLine
 10
276.1142416019683
 20
-94.77691794385158
 30
0.0
 11
285.2662416019682
 21
-94.59191794385159
 31
0.0
  0
LINE
  5
3C3
330
1D
100
AcDbEntity
  8
0
100
AcDbLine
 10
276.2112416019682
 20
-108.2649179438516
 30
0.0
 11
278.5122416019682
 21
-109.3489179438516
 31
0.0
  0
LINE
  5
3C4
330
1D
100
AcDbEntity
  8
0
100
AcDbLine
 10
273.9812416019682
 20
-107.2269179438516
 30
0.0
 11
276.2112416019682
 21
-108.2649179438516
 31
0.0
  0
LINE
  5
3C5
330
1D
100
AcDbEntity
  8
0
100
AcDbLine
 10
283.5692416019682
 20
-112.6599179438516
 30
0.0
 11
285.0692416019682
 21
-114.0309179438516
 31
0.0
  0
LINE
  5
3C6
330
1D
100
AcDbEntity
  8
0
100
AcDbLine
 10
288.2632416019683
 20
-117.2079179438516
 30
0.0
 11
288.7692416019683
 21
-117.7079179438516
 31
0.0
  0
LINE
  5
3C7
330
1D
100
AcDbEntity
  8
0
100
AcDbLine
 10
288.7692416019683
 20
-117.7079179438516
 30
0.0
 11
289.1182416019682
 21
-118.0489179438516
 31
0.0
  0
LINE
  5
3C8
330
1D
100
AcDbEntity
  8
0
100
AcDbLine
 10
391.1362416019682
 20
-106.7879179438516
 30
0.0
 11
392.3332416019682
 21
-102.5289179438516
 31
0.0
  0
LINE
  5
3C9
330
1D
100
AcDbEntity
  8
0
100
AcDbLine
 10
392.3332416019682
 20
-102.5289179438516
 30
0.0
 11
392.9612416019683
 21
-100.4139179438516
 31
0.0
  0
LINE
  5
3CA
330
1D
100
AcDbEntity
  8
0
100
AcDbLine
 10
392.9612416019683
 20
-100.4139179438516
 30
0.0
 11
393.9682416019682
 21
-97.2709179438516
 31
0.0
  0
LINE
  5
3CB
330
1D
100
AcDbEntity
  8
0
100
AcDbLine
 10
394.7942416019682
 20
-94.94091794385159
 30
0.0
 11
395.6972416019683
 21
-92.63891794385157
 31
0.0
  0
LINE
  5
3CC
330
1D
100
AcDbEntity
  8
0
100
AcDbLine
 10
393.9682416019682
 20
-97.2709179438516
 30
0.0
 11
394.7942416019682
 21
-94.94091794385159
 31
0.0
  0
LINE
  5
3CD
330
1D
100
AcDbEntity
  8
0
100
AcDbLine
 10
423.0632416019682
 20
-107.4729179438516
 30
0.0
 11
423.1312416019681
 21
-107.4499179438516
 31
0.0
  0
LINE
  5
3CE
330
1D
100
AcDbEntity
  8
0
100
AcDbLine
 10
423.1312416019681
 20
-127.3359179438516
 30
0.0
 11
423.1312416019681
 21
-112.9609179438516
 31
0.0
  0
LINE
  5
3CF
330
1D
100
AcDbEntity
  8
0
100
AcDbLine
 10
423.1312416019681
 20
-111.2089179438516
 30
0.0
 11
423.1312416019681
 21
-112.9609179438516
 31
0.0
  0
LINE
  5
3D0
330
1D
100
AcDbEntity
  8
0
100
AcDbLine
 10
423.1312416019681
 20
-111.2089179438516
 30
0.0
 11
423.1312416019681
 21
-109.4409179438516
 31
0.0
  0
LINE
  5
3D1
330
1D
100
AcDbEntity
  8
0
100
AcDbLine
 10
423.1312416019681
 20
-112.9609179438516
 30
0.0
 11
423.1312416019681
 21
-127.3359179438516
 31
0.0
  0
LINE
  5
3D2
330
1D
100
AcDbEntity
  8
0
100
AcDbLine
 10
423.1312416019681
 20
-112.9609179438516
 30
0.0
 11
423.1312416019681
 21
-111.2089179438516
 31
0.0
  0
LINE
  5
3D3
330
1D
100
AcDbEntity
  8
0
100
AcDbLine
 10
423.1312416019681
 20
-107.4499179438516
 30
0.0
 11
423.1312416019681
 21
-109.4409179438516
 31
0.0
  0
LINE
  5
3D4
330
1D
100
AcDbEntity
  8
0
100
AcDbLine
 10
423.1312416019681
 20
-109.4409179438516
 30
0.0
 11
423.1312416019681
 21
-111.2089179438516
 31
0.0
  0
LINE
  5
3D5
330
1D
100
AcDbEntity
  8
0
100
AcDbLine
 10
423.1312416019681
 20
-109.4409179438516
 30
0.0
 11
423.1312416019681
 21
-107.4499179438516
 31
0.0
  0
LINE
  5
3D6
330
1D
100
AcDbEntity
  8
0
100
AcDbLine
 10
423.0942416019683
 20
-107.2629179438516
 30
0.0
 11
423.1312416019681
 21
-107.4499179438516
 31
0.0
  0
LINE
  5
3D7
330
1D
100
AcDbEntity
  8
0
100
AcDbLine
 10
396.4067314790913
 20
-91.06588283368269
 30
0.0
 11
398.0832416019682
 21
-87.58591794385159
 31
0.0
  0
LINE
  5
3D8
330
1D
100
AcDbEntity
  8
0
100
AcDbLine
 10
399.0092416019682
 20
-85.94791794385159
 30
0.0
 11
399.1682416019683
 21
-85.7459179438516
 31
0.0
  0
LINE
  5
3D9
330
1D
100
AcDbEntity
  8
0
100
AcDbLine
 10
399.8572416019682
 20
-85.45891794385159
 30
0.0
 11
413.8712416019682
 21
-85.28591794385159
 31
0.0
  0
LINE
  5
3DA
330
1D
100
AcDbEntity
  8
0
100
AcDbLine
 10
398.0832416019682
 20
-87.58591794385159
 30
0.0
 11
399.0092416019682
 21
-85.94791794385159
 31
0.0
  0
LINE
  5
3DB
330
1D
100
AcDbEntity
  8
0
100
AcDbLine
 10
395.6972416019683
 20
-92.63891794385157
 30
0.0
 11
396.4067314790913
 21
-91.06588283368269
 31
0.0
  0
LINE
  5
3DC
330
1D
100
AcDbEntity
  8
0
100
AcDbLine
 10
395.6972416019683
 20
-92.63891794385157
 30
0.0
 11
396.4067314790913
 21
-91.06588283368269
 31
0.0
  0
LINE
  5
3DD
330
1D
100
AcDbEntity
  8
0
100
AcDbLine
 10
419.9042416019682
 20
-89.0609179438516
 30
0.0
 11
423.0112416019681
 21
-87.83591794385158
 31
0.0
  0
LINE
  5
3DE
330
1D
100
AcDbEntity
  8
0
100
AcDbLine
 10
426.2102416019683
 20
-86.87291794385158
 30
0.0
 11
429.4782416019682
 21
-86.18191794385159
 31
0.0
  0
LINE
  5
3DF
330
1D
100
AcDbEntity
  8
0
100
AcDbLine
 10
423.0112416019681
 20
-87.83591794385158
 30
0.0
 11
426.2102416019683
 21
-86.87291794385158
 31
0.0
  0
LINE
  5
3E0
330
1D
100
AcDbEntity
  8
0
100
AcDbLine
 10
429.4782416019682
 20
-86.18191794385159
 30
0.0
 11
432.7932416019682
 21
-85.76491794385159
 31
0.0
  0
LINE
  5
3E1
330
1D
100
AcDbEntity
  8
0
100
AcDbLine
 10
436.1312416019682
 20
-85.62491794385158
 30
0.0
 11
459.9384785767582
 21
-85.62491794385158
 31
0.0
  0
LINE
  5
3E2
330
1D
100
AcDbEntity
  8
0
100
AcDbLine
 10
432.7932416019682
 20
-85.76491794385159
 30
0.0
 11
436.1312416019682
 21
-85.62491794385158
 31
0.0
  0
LINE
  5
3E3
330
1D
100
AcDbEntity
  8
0
100
AcDbLine
 10
460.1942416019682
 20
-73.99791794385158
 30
0.0
 11
460.2912416019681
 21
-73.91991794385159
 31
0.0
  0
LINE
  5
3E4
330
1D
100
AcDbEntity
  8
0
100
AcDbLine
 10
460.1192416019682
 20
-74.09691794385159
 30
0.0
 11
460.1942416019682
 21
-73.99791794385158
 31
0.0
  0
LINE
  5
3E5
330
1D
100
AcDbEntity
  8
0
100
AcDbLine
 10
460.0532416019682
 20
-74.33491794385159
 30
0.0
 11
460.1192416019682
 21
-74.09691794385159
 31
0.0
  0
LINE
  5
3E6
330
1D
100
AcDbEntity
  8
0
100
AcDbLine
 10
414.1552416019682
 20
-85.36891794385159
 30
0.0
 11
414.3412416019682
 21
-85.59791794385159
 31
0.0
  0
LINE
  5
3E7
330
1D
100
AcDbEntity
  8
0
100
AcDbLine
 10
413.8712416019682
 20
-85.28591794385159
 30
0.0
 11
414.1552416019682
 21
-85.36891794385159
 31
0.0
  0
LINE
  5
3E8
330
1D
100
AcDbEntity
  8
0
100
AcDbLine
 10
383.6652416019682
 20
-93.99791794385158
 30
0.0
 11
395.1546903596533
 21
-94.02203307099389
 31
0.0
  0
LINE
  5
3E9
330
1D
100
AcDbEntity
  8
0
100
AcDbLine
 10
335.1550416019683
 20
-94.13391794385159
 30
0.0
 11
383.6652416019682
 21
-93.99791794385158
 31
0.0
  0
LINE
  5
3EA
330
1D
100
AcDbEntity
  8
0
100
AcDbLine
 10
289.1182416019682
 20
-118.0489179438516
 30
0.0
 11
289.3162416019683
 21
-118.2429179438515
 31
0.0
  0
LINE
  5
3EB
330
1D
100
AcDbEntity
  8
0
100
AcDbLine
 10
289.0766685001117
 20
-118.0092257507063
 30
0.0
 11
289.2302416019683
 21
-118.1589179438516
 31
0.0
  0
LINE
  5
3EC
330
1D
100
AcDbEntity
  8
0
100
AcDbLine
 10
469.6312416019682
 20
-134.7419179438515
 30
0.0
 11
469.6312416019682
 21
-133.3799179438516
 31
0.0
  0
LINE
  5
3ED
330
1D
100
AcDbEntity
  8
0
100
AcDbLine
 10
469.6312416019682
 20
-135.8519179438516
 30
0.0
 11
469.6312416019682
 21
-134.7419179438515
 31
0.0
  0
LINE
  5
3EE
330
1D
100
AcDbEntity
  8
0
100
AcDbLine
 10
469.6312416019682
 20
-136.9649179438516
 30
0.0
 11
469.6312416019682
 21
-135.8519179438516
 31
0.0
  0
LINE
  5
3EF
330
1D
100
AcDbEntity
  8
0
100
AcDbLine
 10
469.6312416019682
 20
-138.8929179438516
 30
0.0
 11
469.6312416019682
 21
-137.9809179438516
 31
0.0
  0
LINE
  5
3F0
330
1D
100
AcDbEntity
  8
0
100
AcDbLine
 10
469.6312416019682
 20
-139.5359179438516
 30
0.0
 11
469.6312416019682
 21
-138.8929179438516
 31
0.0
  0
LINE
  5
3F1
330
1D
100
AcDbEntity
  8
0
100
AcDbLine
 10
469.6312416019682
 20
-140.1009179438515
 30
0.0
 11
469.6312416019682
 21
-139.5359179438516
 31
0.0
  0
LINE
  5
3F2
330
1D
100
AcDbEntity
  8
0
100
AcDbLine
 10
469.6312416019682
 20
-140.8629179438516
 30
0.0
 11
469.6312416019682
 21
-140.5639179438516
 31
0.0
  0
LINE
  5
3F3
330
1D
100
AcDbEntity
  8
0
100
AcDbLine
 10
469.6312416019682
 20
-141.0459179438515
 30
0.0
 11
469.6312416019682
 21
-140.8629179438516
 31
0.0
  0
LINE
  5
3F4
330
1D
100
AcDbEntity
  8
0
100
AcDbLine
 10
469.6312416019682
 20
-137.9809179438516
 30
0.0
 11
469.6312416019682
 21
-136.9649179438516
 31
0.0
  0
LINE
  5
3F5
330
1D
100
AcDbEntity
  8
0
100
AcDbLine
 10
469.6312416019682
 20
-128.0769179438516
 30
0.0
 11
469.6312416019682
 21
-125.8249179438516
 31
0.0
  0
LINE
  5
3F6
330
1D
100
AcDbEntity
  8
0
100
AcDbLine
 10
469.6312416019682
 20
-130.1689179438516
 30
0.0
 11
469.6312416019682
 21
-128.0769179438516
 31
0.0
  0
LINE
  5
3F7
330
1D
100
AcDbEntity
  8
0
100
AcDbLine
 10
469.6312416019682
 20
-131.8719179438516
 30
0.0
 11
469.6312416019682
 21
-130.1689179438516
 31
0.0
  0
LINE
  5
3F8
330
1D
100
AcDbEntity
  8
0
100
AcDbLine
 10
469.6312416019682
 20
-113.5099179438516
 30
0.0
 11
469.6312416019682
 21
-107.3549179438516
 31
0.0
  0
LINE
  5
3F9
330
1D
100
AcDbEntity
  8
0
100
AcDbLine
 10
469.6312416019682
 20
-125.8249179438516
 30
0.0
 11
469.6312416019682
 21
-119.8959179438516
 31
0.0
  0
LINE
  5
3FA
330
1D
100
AcDbEntity
  8
0
100
AcDbLine
 10
469.6312416019682
 20
-107.3549179438516
 30
0.0
 11
469.6312416019682
 21
-101.1969179438516
 31
0.0
  0
LINE
  5
3FB
330
1D
100
AcDbEntity
  8
0
100
AcDbLine
 10
469.6312416019682
 20
-94.79691794385159
 30
0.0
 11
469.6312416019682
 21
-91.58991794385158
 31
0.0
  0
LINE
  5
3FC
330
1D
100
AcDbEntity
  8
0
100
AcDbLine
 10
469.6312416019682
 20
-101.1969179438516
 30
0.0
 11
469.6312416019682
 21
-94.79691794385159
 31
0.0
  0
LINE
  5
3FD
330
1D
100
AcDbEntity
  8
0
100
AcDbLine
 10
469.6312416019682
 20
-91.58991794385158
 30
0.0
 11
469.6312416019682
 21
-87.88191794385159
 31
0.0
  0
LINE
  5
3FE
330
1D
100
AcDbEntity
  8
0
100
AcDbLine
 10
469.6312416019682
 20
-87.88191794385159
 30
0.0
 11
469.6312416019682
 21
-84.52091794385159
 31
0.0
  0
LINE
  5
3FF
330
1D
100
AcDbEntity
  8
0
100
AcDbLine
 10
469.6312416019682
 20
-84.52091794385159
 30
0.0
 11
469.6312416019682
 21
-81.54491794385158
 31
0.0
  0
LINE
  5
400
330
1D
100
AcDbEntity
  8
0
100
AcDbLine
 10
469.6312416019682
 20
-79.58191794385159
 30
0.0
 11
469.6312416019682
 21
-78.14691794385159
 31
0.0
  0
LINE
  5
401
330
1D
100
AcDbEntity
  8
0
100
AcDbLine
 10
469.6312416019682
 20
-78.14691794385159
 30
0.0
 11
469.6312416019682
 21
-77.03191794385158
 31
0.0
  0
LINE
  5
402
330
1D
100
AcDbEntity
  8
0
100
AcDbLine
 10
469.6312416019682
 20
-75.47291794385158
 30
0.0
 11
469.6312416019682
 21
-74.71091794385158
 31
0.0
  0
LINE
  5
403
330
1D
100
AcDbEntity
  8
0
100
AcDbLine
 10
469.6312416019682
 20
-77.03191794385158
 30
0.0
 11
469.6312416019682
 21
-76.2489179438516
 31
0.0
  0
LINE
  5
404
330
1D
100
AcDbEntity
  8
0
100
AcDbLine
 10
469.6312416019682
 20
-76.2489179438516
 30
0.0
 11
469.6312416019682
 21
-75.47291794385158
 31
0.0
  0
LINE
  5
405
330
1D
100
AcDbEntity
  8
0
100
AcDbLine
 10
469.6312416019682
 20
-73.51891794385159
 30
0.0
 11
469.6312416019682
 21
-73.44091794385159
 31
0.0
  0
LINE
  5
406
330
1D
100
AcDbEntity
  8
0
100
AcDbLine
 10
469.6312416019682
 20
-73.77891794385158
 30
0.0
 11
469.6312416019682
 21
-73.51891794385159
 31
0.0
  0
LINE
  5
407
330
1D
100
AcDbEntity
  8
0
100
AcDbLine
 10
469.6312416019682
 20
-74.71091794385158
 30
0.0
 11
469.6312416019682
 21
-74.12791794385158
 31
0.0
  0
LINE
  5
408
330
1D
100
AcDbEntity
  8
0
100
AcDbLine
 10
469.6312416019682
 20
-74.12791794385158
 30
0.0
 11
469.6312416019682
 21
-73.77891794385158
 31
0.0
  0
LINE
  5
409
330
1D
100
AcDbEntity
  8
0
100
AcDbLine
 10
469.6312416019682
 20
-81.54491794385158
 30
0.0
 11
469.6312416019682
 21
-79.58191794385159
 31
0.0
  0
LINE
  5
40A
330
1D
100
AcDbEntity
  8
0
100
AcDbLine
 10
469.6312416019682
 20
-119.8959179438516
 30
0.0
 11
469.6312416019682
 21
-113.5099179438516
 31
0.0
  0
LINE
  5
40B
330
1D
100
AcDbEntity
  8
0
100
AcDbLine
 10
469.6312416019682
 20
-133.3799179438516
 30
0.0
 11
469.6312416019682
 21
-131.8719179438516
 31
0.0
  0
LINE
  5
40C
330
1D
100
AcDbEntity
  8
0
100
AcDbLine
 10
469.6312416019682
 20
-140.5639179438516
 30
0.0
 11
469.6312416019682
 21
-140.1009179438515
 31
0.0
  0
LINE
  5
40D
330
1D
100
AcDbEntity
  8
0
100
AcDbLine
 10
469.6312416019682
 20
-141.1969179438516
 30
0.0
 11
469.6312416019682
 21
-141.0459179438515
 31
0.0
  0
LINE
  5
40E
330
1D
100
AcDbEntity
  8
0
100
AcDbLine
 10
469.6312416019682
 20
-141.2669179438515
 30
0.0
 11
469.6312416019682
 21
-141.1969179438516
 31
0.0
  0
LINE
  5
40F
330
1D
100
AcDbEntity
  8
0
100
AcDbLine
 10
469.6312416019682
 20
-73.44091794385159
 30
0.0
 11
469.6312416019682
 21
-73.37191794385159
 31
0.0
  0
LINE
  5
410
330
1D
100
AcDbEntity
  8
0
100
AcDbLine
 10
262.1892416019682
 20
-97.72391794385159
 30
0.0
 11
262.0581214589697
 21
-97.36189734422291
 31
0.0
  0
LINE
  5
411
330
1D
100
AcDbEntity
  8
0
100
AcDbLine
 10
262.0581214589697
 20
-97.36189734422291
 30
0.0
 11
261.9827399904966
 21
-96.88605182448696
 31
0.0
  0
LINE
  5
412
330
1D
100
AcDbEntity
  8
0
100
AcDbLine
 10
261.9827399904966
 20
-96.88605182448696
 30
0.0
 11
261.9827399904966
 21
-96.4902991150036
 31
0.0
  0
LINE
  5
413
330
1D
100
AcDbEntity
  8
0
100
AcDbLine
 10
261.9827399904966
 20
-96.4902991150036
 30
0.0
 11
262.1664823198996
 21
-96.23117531712757
 31
0.0
  0
LINE
  5
414
330
1D
100
AcDbEntity
  8
0
100
AcDbLine
 10
262.1664823198996
 20
-96.23117531712757
 30
0.0
 11
262.4774308773508
 21
-96.06156701306328
 31
0.0
  0
LINE
  5
415
330
1D
100
AcDbEntity
  8
0
100
AcDbLine
 10
262.4774308773508
 20
-96.06156701306328
 30
0.0
 11
262.8182416019682
 21
-95.9509179438516
 31
0.0
  0
LINE
  5
416
330
1D
100
AcDbEntity
  8
0
100
AcDbLine
 10
267.9022416019682
 20
-95.27291794385158
 30
0.0
 11
270.0032416019682
 21
-95.11091794385158
 31
0.0
  0
LINE
  5
417
330
1D
100
AcDbEntity
  8
0
100
AcDbLine
 10
268.9382416019682
 20
-104.2219179438516
 30
0.0
 11
269.2620902789182
 21
-104.4577642629347
 31
0.0
  0
LINE
  5
418
330
1D
100
AcDbEntity
  8
0
100
AcDbLine
 10
269.2620902789182
 20
-104.4577642629347
 30
0.0
 11
272.0582416019682
 21
-106.2429179438516
 31
0.0
  0
LINE
  5
419
330
1D
100
AcDbEntity
  8
0
100
AcDbLine
 10
267.8421216019682
 20
-107.1368179438516
 30
0.0
 11
286.7086416019682
 21
-120.6264179438516
 31
0.0
  0
LINE
  5
41A
330
1D
100
AcDbEntity
  8
0
100
AcDbLine
 10
293.9072416019683
 20
-119.9919179438516
 30
0.0
 11
295.7272416019682
 21
-120.1729179438516
 31
0.0
  0
LINE
  5
41B
330
1D
100
AcDbEntity
  8
0
100
AcDbLine
 10
377.4362416019683
 20
-174.8759179438516
 30
0.0
 11
377.7032416019682
 21
-174.7849179438516
 31
0.0
  0
LINE
  5
41C
330
1D
100
AcDbEntity
  8
0
100
AcDbLine
 10
376.5782416019682
 20
-174.7709179438516
 30
0.0
 11
376.3911292047481
 21
-174.6095629269972
 31
0.0
  0
LINE
  5
41D
330
1D
100
AcDbEntity
  8
0
100
AcDbLine
 10
376.3911292047481
 20
-174.6095629269972
 30
0.0
 11
376.271685761275
 21
-174.3024226437805
 31
0.0
  0
LINE
  5
41E
330
1D
100
AcDbEntity
  8
0
100
AcDbLine
 10
376.271685761275
 20
-174.3024226437805
 30
0.0
 11
376.2552416019683
 21
-173.9659179438516
 31
0.0
  0
LINE
  5
41F
330
1D
100
AcDbEntity
  8
0
100
AcDbLine
 10
409.8922416019681
 20
-129.4549179438516
 30
0.0
 11
422.6282416019683
 21
-129.5319179438516
 31
0.0
  0
LINE
  5
420
330
1D
100
AcDbEntity
  8
0
100
AcDbLine
 10
423.0942416019683
 20
-107.2629179438516
 30
0.0
 11
414.3412416019682
 21
-85.59791794385159
 31
0.0
  0
LINE
  5
421
330
1D
100
AcDbEntity
  8
0
100
AcDbLine
 10
419.9042416019682
 20
-89.0609179438516
 30
0.0
 11
416.9696663739471
 21
-91.64331463924922
 31
0.0
  0
LINE
  5
422
330
1D
100
AcDbEntity
  8
0
100
AcDbLine
 10
399.1682416019683
 20
-85.7459179438516
 30
0.0
 11
399.4622175411698
 21
-85.54126699115796
 31
0.0
  0
LINE
  5
423
330
1D
100
AcDbEntity
  8
0
100
AcDbLine
 10
399.4622175411698
 20
-85.54126699115796
 30
0.0
 11
399.8572416019682
 21
-85.45891794385159
 31
0.0
  0
LINE
  5
424
330
1D
100
AcDbEntity
  8
0
100
AcDbLine
 10
469.6312416019682
 20
-73.44091794385159
 30
0.0
 11
460.2912416019681
 21
-73.91991794385159
 31
0.0
  0
LINE
  5
425
330
1D
100
AcDbEntity
  8
0
100
AcDbLine
 10
460.0532416019682
 20
-74.33491794385159
 30
0.0
 11
460.0532416019682
 21
-140.2392092650459
 31
0.0
  0
LINE
  5
426
330
1D
100
AcDbEntity
  8
0
100
AcDbLine
 10
460.0532416019682
 20
-140.2392092650459
 30
0.0
 11
460.1192416019682
 21
-140.6109179438516
 31
0.0
  0
LINE
  5
427
330
1D
100
AcDbEntity
  8
0
100
AcDbLine
 10
460.2912416019681
 20
-140.7869179438516
 30
0.0
 11
469.6312416019682
 21
-141.2669179438515
 31
0.0
  0
LINE
  5
644
330
1D
100
AcDbEntity
  8
0
100
AcDbLine
 10
6.611500000000019
 20
-138.458046117529
 30
0.0
 11
8.668500000000019
 21
-139.234046117529
 31
0.0
  0
LINE
  5
645
330
1D
100
AcDbEntity
  8
0
100
AcDbLine
 10
3.95850000000002
 20
-136.560046117529
 30
0.0
 11
5.235500000000019
 21
-137.675046117529
 31
0.0
  0
LINE
  5
646
330
1D
100
AcDbEntity
  8
0
100
AcDbLine
 10
5.235500000000019
 20
-137.675046117529
 30
0.0
 11
6.611500000000019
 21
-138.458046117529
 31
0.0
  0
LINE
  5
647
330
1D
100
AcDbEntity
  8
0
100
AcDbLine
 10
2.92750000000002
 20
-135.125046117529
 30
0.0
 11
3.95850000000002
 21
-136.560046117529
 31
0.0
  0
LINE
  5
648
330
1D
100
AcDbEntity
  8
0
100
AcDbLine
 10
1.20050000000002
 20
-130.186046117529
 30
0.0
 11
2.030500000000019
 21
-133.162046117529
 31
0.0
  0
LINE
  5
649
330
1D
100
AcDbEntity
  8
0
100
AcDbLine
 10
2.030500000000019
 20
-133.162046117529
 30
0.0
 11
2.92750000000002
 21
-135.125046117529
 31
0.0
  0
LINE
  5
64A
330
1D
100
AcDbEntity
  8
0
100
AcDbLine
 10
16.5905
 20
-140.579046117529
 30
0.0
 11
21.9525
 21
-140.928046117529
 31
0.0
  0
LINE
  5
64B
330
1D
100
AcDbEntity
  8
0
100
AcDbLine
 10
11.9785
 20
-139.995046117529
 30
0.0
 11
16.5905
 21
-140.579046117529
 31
0.0
  0
LINE
  5
64C
330
1D
100
AcDbEntity
  8
0
100
AcDbLine
 10
31.7305
 20
-141.187046117529
 30
0.0
 11
39.9075
 21
-141.266046117529
 31
0.0
  0
LINE
  5
64D
330
1D
100
AcDbEntity
  8
0
100
AcDbLine
 10
21.9525
 20
-140.928046117529
 30
0.0
 11
31.7305
 21
-141.187046117529
 31
0.0
  0
LINE
  5
64E
330
1D
100
AcDbEntity
  8
0
100
AcDbLine
 10
39.9075
 20
-141.266046117529
 30
0.0
 11
66.2655
 21
-141.335046117529
 31
0.0
  0
LINE
  5
64F
330
1D
100
AcDbEntity
  8
0
100
AcDbLine
 10
8.668500000000019
 20
-139.234046117529
 30
0.0
 11
11.9785
 21
-139.995046117529
 31
0.0
  0
LINE
  5
650
330
1D
100
AcDbEntity
  8
0
100
AcDbLine
 10
31.68550000000001
 20
-129.551046117529
 30
0.0
 11
35.1505
 21
-129.643046117529
 31
0.0
  0
LINE
  5
651
330
1D
100
AcDbEntity
  8
0
100
AcDbLine
 10
35.1505
 20
-129.643046117529
 30
0.0
 11
38.5865
 21
-129.197046117529
 31
0.0
  0
LINE
  5
652
330
1D
100
AcDbEntity
  8
0
100
AcDbLine
 10
0.6535000000000189
 20
-126.825046117529
 30
0.0
 11
1.20050000000002
 21
-130.186046117529
 31
0.0
  0
LINE
  5
653
330
1D
100
AcDbEntity
  8
0
100
AcDbLine
 10
26.2958232279503
 20
-128.2154894280045
 30
0.0
 11
28.2765
 21
-128.926046117529
 31
0.0
  0
LINE
  5
654
330
1D
100
AcDbEntity
  8
0
100
AcDbLine
 10
23.6835
 20
-125.379046117529
 30
0.0
 11
24.8135
 21
-126.119046117529
 31
0.0
  0
LINE
  5
655
330
1D
100
AcDbEntity
  8
0
100
AcDbLine
 10
24.8135
 20
-126.119046117529
 30
0.0
 11
26.0025
 21
-126.759046117529
 31
0.0
  0
LINE
  5
656
330
1D
100
AcDbEntity
  8
0
100
AcDbLine
 10
27.2355
 20
-127.295046117529
 30
0.0
 11
28.5225
 21
-127.736046117529
 31
0.0
  0
LINE
  5
657
330
1D
100
AcDbEntity
  8
0
100
AcDbLine
 10
26.0025
 20
-126.759046117529
 30
0.0
 11
27.2355
 21
-127.295046117529
 31
0.0
  0
LINE
  5
658
330
1D
100
AcDbEntity
  8
0
100
AcDbLine
 10
28.2765
 20
-128.926046117529
 30
0.0
 11
31.68550000000001
 21
-129.551046117529
 31
0.0
  0
LINE
  5
659
330
1D
100
AcDbEntity
  8
0
100
AcDbLine
 10
32.5305
 20
-128.465046117529
 30
0.0
 11
34.0005
 21
-128.519046117529
 31
0.0
  0
LINE
  5
65A
330
1D
100
AcDbEntity
  8
0
100
AcDbLine
 10
31.1785
 20
-128.318046117529
 30
0.0
 11
32.5305
 21
-128.465046117529
 31
0.0
  0
LINE
  5
65B
330
1D
100
AcDbEntity
  8
0
100
AcDbLine
 10
29.8395
 20
-128.076046117529
 30
0.0
 11
31.1785
 21
-128.318046117529
 31
0.0
  0
LINE
  5
65C
330
1D
100
AcDbEntity
  8
0
100
AcDbLine
 10
28.5225
 20
-127.736046117529
 30
0.0
 11
29.8395
 21
-128.076046117529
 31
0.0
  0
LINE
  5
65D
330
1D
100
AcDbEntity
  8
0
100
AcDbLine
 10
34.0005
 20
-128.519046117529
 30
0.0
 11
36.4075
 21
-128.374046117529
 31
0.0
  0
LINE
  5
65E
330
1D
100
AcDbEntity
  8
0
100
AcDbLine
 10
38.5865
 20
-129.197046117529
 30
0.0
 11
41.9125
 21
-128.2240461175289
 31
0.0
  0
LINE
  5
65F
330
1D
100
AcDbEntity
  8
0
100
AcDbLine
 10
41.9125
 20
-128.2240461175289
 30
0.0
 11
45.0485
 21
-126.748046117529
 31
0.0
  0
LINE
  5
660
330
1D
100
AcDbEntity
  8
0
100
AcDbLine
 10
38.77750000000001
 20
-127.930046117529
 30
0.0
 11
40.6575
 21
-127.336046117529
 31
0.0
  0
LINE
  5
661
330
1D
100
AcDbEntity
  8
0
100
AcDbLine
 10
36.4075
 20
-128.374046117529
 30
0.0
 11
38.77750000000001
 21
-127.930046117529
 31
0.0
  0
LINE
  5
662
330
1D
100
AcDbEntity
  8
0
100
AcDbLine
 10
40.6575
 20
-127.336046117529
 30
0.0
 11
42.4545
 21
-126.529046117529
 31
0.0
  0
LINE
  5
663
330
1D
100
AcDbEntity
  8
0
100
AcDbLine
 10
42.4545
 20
-126.529046117529
 30
0.0
 11
44.09749999999999
 21
-125.535046117529
 31
0.0
  0
LINE
  5
664
330
1D
100
AcDbEntity
  8
0
100
AcDbLine
 10
44.09749999999999
 20
-125.535046117529
 30
0.0
 11
45.6855
 21
-124.268046117529
 31
0.0
  0
LINE
  5
665
330
1D
100
AcDbEntity
  8
0
100
AcDbLine
 10
36.5985
 20
-127.699046117529
 30
0.0
 11
36.6595
 21
-127.630046117529
 31
0.0
  0
LINE
  5
666
330
1D
100
AcDbEntity
  8
0
100
AcDbLine
 10
45.0485
 20
-126.748046117529
 30
0.0
 11
47.6175
 21
-125.040046117529
 31
0.0
  0
LINE
  5
667
330
1D
100
AcDbEntity
  8
0
100
AcDbLine
 10
47.6175
 20
-125.040046117529
 30
0.0
 11
49.9255
 21
-122.995046117529
 31
0.0
  0
LINE
  5
668
330
1D
100
AcDbEntity
  8
0
100
AcDbLine
 10
22.6235
 20
-124.542046117529
 30
0.0
 11
23.6835
 21
-125.379046117529
 31
0.0
  0
LINE
  5
669
330
1D
100
AcDbEntity
  8
0
100
AcDbLine
 10
45.6855
 20
-124.268046117529
 30
0.0
 11
47.0895
 21
-122.800046117529
 31
0.0
  0
LINE
  5
66A
330
1D
100
AcDbEntity
  8
0
100
AcDbLine
 10
21.6435
 20
-123.614046117529
 30
0.0
 11
22.6235
 21
-124.542046117529
 31
0.0
  0
LINE
  5
66B
330
1D
100
AcDbEntity
  8
0
100
AcDbLine
 10
0.3145000000000189
 20
-123.117046117529
 30
0.0
 11
0.6535000000000189
 21
-126.825046117529
 31
0.0
  0
LINE
  5
66C
330
1D
100
AcDbEntity
  8
0
100
AcDbLine
 10
0.1545000000000189
 20
-119.910046117529
 30
0.0
 11
0.3145000000000189
 21
-123.117046117529
 31
0.0
  0
LINE
  5
66D
330
1D
100
AcDbEntity
  8
0
100
AcDbLine
 10
32.5576
 20
-120.652246117529
 30
0.0
 11
33.6776
 21
-120.699146117529
 31
0.0
  0
LINE
  5
66E
330
1D
100
AcDbEntity
  8
0
100
AcDbLine
 10
31.4498
 20
-120.543146117529
 30
0.0
 11
32.5576
 21
-120.652246117529
 31
0.0
  0
LINE
  5
66F
330
1D
100
AcDbEntity
  8
0
100
AcDbLine
 10
30.3642
 20
-120.374746117529
 30
0.0
 11
31.4498
 21
-120.543146117529
 31
0.0
  0
LINE
  5
670
330
1D
100
AcDbEntity
  8
0
100
AcDbLine
 10
29.3119
 20
-120.146046117529
 30
0.0
 11
30.3642
 21
-120.374746117529
 31
0.0
  0
LINE
  5
671
330
1D
100
AcDbEntity
  8
0
100
AcDbLine
 10
28.3019
 20
-119.859846117529
 30
0.0
 11
29.3119
 21
-120.146046117529
 31
0.0
  0
LINE
  5
672
330
1D
100
AcDbEntity
  8
0
100
AcDbLine
 10
31.9664
 20
-119.722146117529
 30
0.0
 11
32.9935
 21
-119.809146117529
 31
0.0
  0
LINE
  5
673
330
1D
100
AcDbEntity
  8
0
100
AcDbLine
 10
32.9935
 20
-119.809146117529
 30
0.0
 11
33.95770000000001
 21
-119.834146117529
 31
0.0
  0
LINE
  5
674
330
1D
100
AcDbEntity
  8
0
100
AcDbLine
 10
27.3424
 20
-119.520146117529
 30
0.0
 11
28.3019
 21
-119.859846117529
 31
0.0
  0
LINE
  5
675
330
1D
100
AcDbEntity
  8
0
100
AcDbLine
 10
29.9858
 20
-119.368946117529
 30
0.0
 11
30.9615
 21
-119.574746117529
 31
0.0
  0
LINE
  5
676
330
1D
100
AcDbEntity
  8
0
100
AcDbLine
 10
30.9615
 20
-119.574746117529
 30
0.0
 11
31.9664
 21
-119.722146117529
 31
0.0
  0
LINE
  5
677
330
1D
100
AcDbEntity
  8
0
100
AcDbLine
 10
30.002
 20
-119.330846117529
 30
0.0
 11
30.9938
 21
-119.539546117529
 31
0.0
  0
LINE
  5
678
330
1D
100
AcDbEntity
  8
0
100
AcDbLine
 10
30.9938
 20
-119.539546117529
 30
0.0
 11
32.0168
 21
-119.685946117529
 31
0.0
  0
LINE
  5
679
330
1D
100
AcDbEntity
  8
0
100
AcDbLine
 10
32.0168
 20
-119.685946117529
 30
0.0
 11
33.0621
 21
-119.771046117529
 31
0.0
  0
LINE
  5
67A
330
1D
100
AcDbEntity
  8
0
100
AcDbLine
 10
33.95770000000001
 20
-120.695346117529
 30
0.0
 11
34.2378
 21
-120.699146117529
 31
0.0
  0
LINE
  5
67B
330
1D
100
AcDbEntity
  8
0
100
AcDbLine
 10
34.2378
 20
-120.699146117529
 30
0.0
 11
35.3578
 21
-120.652246117529
 31
0.0
  0
LINE
  5
67C
330
1D
100
AcDbEntity
  8
0
100
AcDbLine
 10
35.3578
 20
-120.652246117529
 30
0.0
 11
36.4656
 21
-120.543146117529
 31
0.0
  0
LINE
  5
67D
330
1D
100
AcDbEntity
  8
0
100
AcDbLine
 10
36.4656
 20
-120.543146117529
 30
0.0
 11
37.5512
 21
-120.374746117529
 31
0.0
  0
LINE
  5
67E
330
1D
100
AcDbEntity
  8
0
100
AcDbLine
 10
37.5512
 20
-120.374746117529
 30
0.0
 11
38.6035
 21
-120.146046117529
 31
0.0
  0
LINE
  5
67F
330
1D
100
AcDbEntity
  8
0
100
AcDbLine
 10
38.6035
 20
-120.146046117529
 30
0.0
 11
39.6135
 21
-119.859846117529
 31
0.0
  0
LINE
  5
680
330
1D
100
AcDbEntity
  8
0
100
AcDbLine
 10
33.6776
 20
-120.699146117529
 30
0.0
 11
33.95770000000001
 21
-120.695346117529
 31
0.0
  0
LINE
  5
681
330
1D
100
AcDbEntity
  8
0
100
AcDbLine
 10
33.95770000000001
 20
-119.834146117529
 30
0.0
 11
34.9219
 21
-119.809146117529
 31
0.0
  0
LINE
  5
682
330
1D
100
AcDbEntity
  8
0
100
AcDbLine
 10
33.95770000000001
 20
-119.790246117529
 30
0.0
 11
34.8533
 21
-119.771046117529
 31
0.0
  0
LINE
  5
683
330
1D
100
AcDbEntity
  8
0
100
AcDbLine
 10
39.6135
 20
-119.859846117529
 30
0.0
 11
40.573
 21
-119.520146117529
 31
0.0
  0
LINE
  5
684
330
1D
100
AcDbEntity
  8
0
100
AcDbLine
 10
34.9219
 20
-119.809146117529
 30
0.0
 11
35.949
 21
-119.722146117529
 31
0.0
  0
LINE
  5
685
330
1D
100
AcDbEntity
  8
0
100
AcDbLine
 10
36.9539
 20
-119.574746117529
 30
0.0
 11
37.9296
 21
-119.368946117529
 31
0.0
  0
LINE
  5
686
330
1D
100
AcDbEntity
  8
0
100
AcDbLine
 10
35.949
 20
-119.722146117529
 30
0.0
 11
36.9539
 21
-119.574746117529
 31
0.0
  0
LINE
  5
687
330
1D
100
AcDbEntity
  8
0
100
AcDbLine
 10
40.573
 20
-119.520146117529
 30
0.0
 11
41.472
 21
-119.128746117529
 31
0.0
  0
LINE
  5
688
330
1D
100
AcDbEntity
  8
0
100
AcDbLine
 10
37.9296
 20
-119.368946117529
 30
0.0
 11
38.8638
 21
-119.106746117529
 31
0.0
  0
LINE
  5
689
330
1D
100
AcDbEntity
  8
0
100
AcDbLine
 10
37.9134
 20
-119.330846117529
 30
0.0
 11
38.8638
 21
-119.064846117529
 31
0.0
  0
LINE
  5
68A
330
1D
100
AcDbEntity
  8
0
100
AcDbLine
 10
36.9216
 20
-119.539546117529
 30
0.0
 11
37.9134
 21
-119.330846117529
 31
0.0
  0
LINE
  5
68B
330
1D
100
AcDbEntity
  8
0
100
AcDbLine
 10
35.8986
 20
-119.685946117529
 30
0.0
 11
36.9216
 21
-119.539546117529
 31
0.0
  0
LINE
  5
68C
330
1D
100
AcDbEntity
  8
0
100
AcDbLine
 10
34.8533
 20
-119.771046117529
 30
0.0
 11
35.8986
 21
-119.685946117529
 31
0.0
  0
LINE
  5
68D
330
1D
100
AcDbEntity
  8
0
100
AcDbLine
 10
33.0621
 20
-119.771046117529
 30
0.0
 11
33.95770000000001
 21
-119.790246117529
 31
0.0
  0
LINE
  5
68E
330
1D
100
AcDbEntity
  8
0
100
AcDbLine
 10
20.5515
 20
-122.354046117529
 30
0.0
 11
21.6435
 21
-123.614046117529
 31
0.0
  0
LINE
  5
68F
330
1D
100
AcDbEntity
  8
0
100
AcDbLine
 10
19.5985
 20
-120.986046117529
 30
0.0
 11
20.5515
 21
-122.354046117529
 31
0.0
  0
LINE
  5
690
330
1D
100
AcDbEntity
  8
0
100
AcDbLine
 10
17.8805
 20
-117.438046117529
 30
0.0
 11
18.6485
 21
-119.257046117529
 31
0.0
  0
LINE
  5
691
330
1D
100
AcDbEntity
  8
0
100
AcDbLine
 10
0.0345000000000193
 20
-113.509046117529
 30
0.0
 11
0.1545000000000189
 21
-119.910046117529
 31
0.0
  0
LINE
  5
692
330
1D
100
AcDbEntity
  8
0
100
AcDbLine
 10
16.8115
 20
-113.639046117529
 30
0.0
 11
17.2755
 21
-115.558046117529
 31
0.0
  0
LINE
  5
693
330
1D
100
AcDbEntity
  8
0
100
AcDbLine
 10
17.2755
 20
-115.558046117529
 30
0.0
 11
17.8805
 21
-117.438046117529
 31
0.0
  0
LINE
  5
694
330
1D
100
AcDbEntity
  8
0
100
AcDbLine
 10
22.2816
 20
-115.192446117529
 30
0.0
 11
22.5752
 21
-115.830646117529
 31
0.0
  0
LINE
  5
695
330
1D
100
AcDbEntity
  8
0
100
AcDbLine
 10
22.0394
 20
-114.376646117529
 30
0.0
 11
22.2281
 21
-115.032146117529
 31
0.0
  0
LINE
  5
696
330
1D
100
AcDbEntity
  8
0
100
AcDbLine
 10
22.2281
 20
-115.032146117529
 30
0.0
 11
22.2816
 21
-115.192446117529
 31
0.0
  0
LINE
  5
697
330
1D
100
AcDbEntity
  8
0
100
AcDbLine
 10
23.4691
 20
-117.045046117529
 30
0.0
 11
24.0613
 21
-117.608646117529
 31
0.0
  0
LINE
  5
698
330
1D
100
AcDbEntity
  8
0
100
AcDbLine
 10
22.9727
 20
-116.450846117529
 30
0.0
 11
23.4691
 21
-117.045046117529
 31
0.0
  0
LINE
  5
699
330
1D
100
AcDbEntity
  8
0
100
AcDbLine
 10
22.5752
 20
-115.830646117529
 30
0.0
 11
22.9727
 21
-116.450846117529
 31
0.0
  0
LINE
  5
69A
330
1D
100
AcDbEntity
  8
0
100
AcDbLine
 10
23.8031450975197
 20
-114.5736023997554
 30
0.0
 11
23.9675
 21
-115.138346117529
 31
0.0
  0
LINE
  5
69B
330
1D
100
AcDbEntity
  8
0
100
AcDbLine
 10
23.7859
 20
-114.4810639746718
 30
0.0
 11
23.7859
 21
-113.2801925461004
 31
0.0
  0
LINE
  5
69C
330
1D
100
AcDbEntity
  8
0
100
AcDbLine
 10
23.7375
 20
-114.221346117529
 30
0.0
 11
23.8495
 21
-114.822346117529
 31
0.0
  0
LINE
  5
69D
330
1D
100
AcDbEntity
  8
0
100
AcDbLine
 10
23.7921023294509
 20
-114.514346117529
 30
0.0
 11
25.2095
 21
-114.514346117529
 31
0.0
  0
LINE
  5
69E
330
1D
100
AcDbEntity
  8
0
100
AcDbLine
 10
23.8031450975197
 20
-114.5736023997553
 30
0.0
 11
23.9675
 21
-115.138346117529
 31
0.0
  0
LINE
  5
69F
330
1D
100
AcDbEntity
  8
0
100
AcDbLine
 10
23.7335
 20
-113.881746117529
 30
0.0
 11
23.7375
 21
-113.539046117529
 31
0.0
  0
LINE
  5
6A0
330
1D
100
AcDbEntity
  8
0
100
AcDbLine
 10
23.7335
 20
-113.881746117529
 30
0.0
 11
23.7375
 21
-114.221346117529
 31
0.0
  0
LINE
  5
6A1
330
1D
100
AcDbEntity
  8
0
100
AcDbLine
 10
21.9577
 20
-113.713446117529
 30
0.0
 11
22.0394
 21
-114.376646117529
 31
0.0
  0
LINE
  5
6A2
330
1D
100
AcDbEntity
  8
0
100
AcDbLine
 10
21.9577
 20
-113.713446117529
 30
0.0
 11
21.9577
 21
-108.737046117529
 31
0.0
  0
LINE
  5
6A3
330
1D
100
AcDbEntity
  8
0
100
AcDbLine
 10
21.9577
 20
-113.385246117529
 30
0.0
 11
21.9645
 21
-113.549846117529
 31
0.0
  0
LINE
  5
6A4
330
1D
100
AcDbEntity
  8
0
100
AcDbLine
 10
21.9577
 20
-113.385246117529
 30
0.0
 11
21.9577
 21
-108.6614499436159
 31
0.0
  0
LINE
  5
6A5
330
1D
100
AcDbEntity
  8
0
100
AcDbLine
 10
23.7859
 20
-113.2801925461004
 30
0.0
 11
23.7859
 21
-114.4810639746718
 31
0.0
  0
LINE
  5
6A6
330
1D
100
AcDbEntity
  8
0
100
AcDbLine
 10
23.7375
 20
-113.539046117529
 30
0.0
 11
23.8495
 21
-112.940046117529
 31
0.0
  0
LINE
  5
6A7
330
1D
100
AcDbEntity
  8
0
100
AcDbLine
 10
24.0613
 20
-117.608646117529
 30
0.0
 11
24.7434
 21
-118.138846117529
 31
0.0
  0
LINE
  5
6A8
330
1D
100
AcDbEntity
  8
0
100
AcDbLine
 10
24.3822
 20
-115.986046117529
 30
0.0
 11
24.7969
 21
-116.540146117529
 31
0.0
  0
LINE
  5
6A9
330
1D
100
AcDbEntity
  8
0
100
AcDbLine
 10
24.7434
 20
-118.138846117529
 30
0.0
 11
25.5082
 21
-118.628846117529
 31
0.0
  0
LINE
  5
6AA
330
1D
100
AcDbEntity
  8
0
100
AcDbLine
 10
25.3064
 20
-117.064546117529
 30
0.0
 11
25.9057
 21
-117.557446117529
 31
0.0
  0
LINE
  5
6AB
330
1D
100
AcDbEntity
  8
0
100
AcDbLine
 10
24.7969
 20
-116.540146117529
 30
0.0
 11
25.3064
 21
-117.064546117529
 31
0.0
  0
LINE
  5
6AC
330
1D
100
AcDbEntity
  8
0
100
AcDbLine
 10
25.1722
 20
-116.896346117529
 30
0.0
 11
25.7796
 21
-117.420746117529
 31
0.0
  0
LINE
  5
6AD
330
1D
100
AcDbEntity
  8
0
100
AcDbLine
 10
24.6637
 20
-116.336446117529
 30
0.0
 11
25.1722
 21
-116.896346117529
 31
0.0
  0
LINE
  5
6AE
330
1D
100
AcDbEntity
  8
0
100
AcDbLine
 10
24.0644
 20
-115.412846117529
 30
0.0
 11
24.3822
 21
-115.986046117529
 31
0.0
  0
LINE
  5
6AF
330
1D
100
AcDbEntity
  8
0
100
AcDbLine
 10
23.9675
 20
-115.138346117529
 30
0.0
 11
24.2601
 21
-115.748946117529
 31
0.0
  0
LINE
  5
6B0
330
1D
100
AcDbEntity
  8
0
100
AcDbLine
 10
24.2601
 20
-115.748946117529
 30
0.0
 11
24.6637
 21
-116.336446117529
 31
0.0
  0
LINE
  5
6B1
330
1D
100
AcDbEntity
  8
0
100
AcDbLine
 10
25.6121
 20
-118.689446117529
 30
0.0
 11
26.4434
 21
-119.128746117529
 31
0.0
  0
LINE
  5
6B2
330
1D
100
AcDbEntity
  8
0
100
AcDbLine
 10
25.5082
 20
-118.628846117529
 30
0.0
 11
25.6121
 21
-118.689446117529
 31
0.0
  0
LINE
  5
6B3
330
1D
100
AcDbEntity
  8
0
100
AcDbLine
 10
25.9057
 20
-117.557446117529
 30
0.0
 11
26.5857
 21
-118.012946117529
 31
0.0
  0
LINE
  5
6B4
330
1D
100
AcDbEntity
  8
0
100
AcDbLine
 10
25.7796
 20
-117.420746117529
 30
0.0
 11
26.4798
 21
-117.905946117529
 31
0.0
  0
LINE
  5
6B5
330
1D
100
AcDbEntity
  8
0
100
AcDbLine
 10
26.4434
 20
-119.128746117529
 30
0.0
 11
27.3424
 21
-119.520146117529
 31
0.0
  0
LINE
  5
6B6
330
1D
100
AcDbEntity
  8
0
100
AcDbLine
 10
26.5857
 20
-118.012946117529
 30
0.0
 11
27.3424
 21
-118.425446117529
 31
0.0
  0
LINE
  5
6B7
330
1D
100
AcDbEntity
  8
0
100
AcDbLine
 10
26.4798
 20
-117.905946117529
 30
0.0
 11
27.2647
 21
-118.345146117529
 31
0.0
  0
LINE
  5
6B8
330
1D
100
AcDbEntity
  8
0
100
AcDbLine
 10
26.952
 20
-116.960446117529
 30
0.0
 11
27.5482
 21
-117.368046117529
 31
0.0
  0
LINE
  5
6B9
330
1D
100
AcDbEntity
  8
0
100
AcDbLine
 10
27.3424
 20
-118.425446117529
 30
0.0
 11
28.1677
 21
-118.791946117529
 31
0.0
  0
LINE
  5
6BA
330
1D
100
AcDbEntity
  8
0
100
AcDbLine
 10
27.5482
 20
-117.368046117529
 30
0.0
 11
28.2152
 21
-117.737546117529
 31
0.0
  0
LINE
  5
6BB
330
1D
100
AcDbEntity
  8
0
100
AcDbLine
 10
27.2647
 20
-118.345146117529
 30
0.0
 11
28.1254
 21
-118.732746117529
 31
0.0
  0
LINE
  5
6BC
330
1D
100
AcDbEntity
  8
0
100
AcDbLine
 10
26.4314
 20
-116.519246117529
 30
0.0
 11
26.952
 21
-116.960446117529
 31
0.0
  0
LINE
  5
6BD
330
1D
100
AcDbEntity
  8
0
100
AcDbLine
 10
25.9914
 20
-116.048446117529
 30
0.0
 11
26.4314
 21
-116.519246117529
 31
0.0
  0
LINE
  5
6BE
330
1D
100
AcDbEntity
  8
0
100
AcDbLine
 10
25.6393
 20
-115.553646117529
 30
0.0
 11
25.9914
 21
-116.048446117529
 31
0.0
  0
LINE
  5
6BF
330
1D
100
AcDbEntity
  8
0
100
AcDbLine
 10
25.378
 20
-115.040746117529
 30
0.0
 11
25.6393
 21
-115.553646117529
 31
0.0
  0
LINE
  5
6C0
330
1D
100
AcDbEntity
  8
0
100
AcDbLine
 10
23.8495
 20
-114.822346117529
 30
0.0
 11
24.0644
 21
-115.412846117529
 31
0.0
  0
LINE
  5
6C1
330
1D
100
AcDbEntity
  8
0
100
AcDbLine
 10
25.2095
 20
-114.514346117529
 30
0.0
 11
25.2095
 21
-113.165046117529
 31
0.0
  0
LINE
  5
6C2
330
1D
100
AcDbEntity
  8
0
100
AcDbLine
 10
25.2095
 20
-114.514346117529
 30
0.0
 11
25.378
 21
-115.040746117529
 31
0.0
  0
LINE
  5
6C3
330
1D
100
AcDbEntity
  8
0
100
AcDbLine
 10
26.2558
 20
-113.938946117529
 30
0.0
 11
26.7865
 21
-114.425046117529
 31
0.0
  0
LINE
  5
6C4
330
1D
100
AcDbEntity
  8
0
100
AcDbLine
 10
26.7865
 20
-114.425046117529
 30
0.0
 11
27.407
 21
-114.873846117529
 31
0.0
  0
LINE
  5
6C5
330
1D
100
AcDbEntity
  8
0
100
AcDbLine
 10
27.407
 20
-114.873846117529
 30
0.0
 11
28.1102
 21
-115.278746117529
 31
0.0
  0
LINE
  5
6C6
330
1D
100
AcDbEntity
  8
0
100
AcDbLine
 10
29.0516
 20
-119.106746117529
 30
0.0
 11
29.9858
 21
-119.368946117529
 31
0.0
  0
LINE
  5
6C7
330
1D
100
AcDbEntity
  8
0
100
AcDbLine
 10
29.0516
 20
-119.064846117529
 30
0.0
 11
30.002
 21
-119.330846117529
 31
0.0
  0
LINE
  5
6C8
330
1D
100
AcDbEntity
  8
0
100
AcDbLine
 10
28.1677
 20
-118.791946117529
 30
0.0
 11
29.0516
 21
-119.106746117529
 31
0.0
  0
LINE
  5
6C9
330
1D
100
AcDbEntity
  8
0
100
AcDbLine
 10
28.1254
 20
-118.732746117529
 30
0.0
 11
29.0516
 21
-119.064846117529
 31
0.0
  0
LINE
  5
6CA
330
1D
100
AcDbEntity
  8
0
100
AcDbLine
 10
28.2152
 20
-117.737546117529
 30
0.0
 11
28.9446
 21
-118.063846117529
 31
0.0
  0
LINE
  5
6CB
330
1D
100
AcDbEntity
  8
0
100
AcDbLine
 10
28.9446
 20
-118.063846117529
 30
0.0
 11
29.7286
 21
-118.345146117529
 31
0.0
  0
LINE
  5
6CC
330
1D
100
AcDbEntity
  8
0
100
AcDbLine
 10
29.7286
 20
-118.345146117529
 30
0.0
 11
30.6376
 21
-118.595946117529
 31
0.0
  0
LINE
  5
6CD
330
1D
100
AcDbEntity
  8
0
100
AcDbLine
 10
30.6376
 20
-118.595946117529
 30
0.0
 11
31.5901
 21
-118.784446117529
 31
0.0
  0
LINE
  5
6CE
330
1D
100
AcDbEntity
  8
0
100
AcDbLine
 10
31.5901
 20
-118.784446117529
 30
0.0
 11
32.5738
 21
-118.908846117529
 31
0.0
  0
LINE
  5
6CF
330
1D
100
AcDbEntity
  8
0
100
AcDbLine
 10
32.5738
 20
-118.908846117529
 30
0.0
 11
33.5747
 21
-118.968146117529
 31
0.0
  0
LINE
  5
6D0
330
1D
100
AcDbEntity
  8
0
100
AcDbLine
 10
38.8638
 20
-119.106746117529
 30
0.0
 11
39.7477
 21
-118.791946117529
 31
0.0
  0
LINE
  5
6D1
330
1D
100
AcDbEntity
  8
0
100
AcDbLine
 10
38.8638
 20
-119.064846117529
 30
0.0
 11
39.79
 21
-118.732746117529
 31
0.0
  0
LINE
  5
6D2
330
1D
100
AcDbEntity
  8
0
100
AcDbLine
 10
34.3407
 20
-118.968146117529
 30
0.0
 11
35.3416
 21
-118.908846117529
 31
0.0
  0
LINE
  5
6D3
330
1D
100
AcDbEntity
  8
0
100
AcDbLine
 10
39.7477
 20
-118.791946117529
 30
0.0
 11
40.573
 21
-118.425446117529
 31
0.0
  0
LINE
  5
6D4
330
1D
100
AcDbEntity
  8
0
100
AcDbLine
 10
40.573
 20
-118.425446117529
 30
0.0
 11
41.3297
 21
-118.012946117529
 31
0.0
  0
LINE
  5
6D5
330
1D
100
AcDbEntity
  8
0
100
AcDbLine
 10
40.6507
 20
-118.345146117529
 30
0.0
 11
41.43559999999999
 21
-117.905946117529
 31
0.0
  0
LINE
  5
6D6
330
1D
100
AcDbEntity
  8
0
100
AcDbLine
 10
39.79
 20
-118.732746117529
 30
0.0
 11
40.6507
 21
-118.345146117529
 31
0.0
  0
LINE
  5
6D7
330
1D
100
AcDbEntity
  8
0
100
AcDbLine
 10
40.36719999999999
 20
-117.368046117529
 30
0.0
 11
40.9634
 21
-116.960446117529
 31
0.0
  0
LINE
  5
6D8
330
1D
100
AcDbEntity
  8
0
100
AcDbLine
 10
39.7002
 20
-117.737546117529
 30
0.0
 11
40.36719999999999
 21
-117.368046117529
 31
0.0
  0
LINE
  5
6D9
330
1D
100
AcDbEntity
  8
0
100
AcDbLine
 10
38.9708
 20
-118.063846117529
 30
0.0
 11
39.7002
 21
-117.737546117529
 31
0.0
  0
LINE
  5
6DA
330
1D
100
AcDbEntity
  8
0
100
AcDbLine
 10
38.1868
 20
-118.345146117529
 30
0.0
 11
38.9708
 21
-118.063846117529
 31
0.0
  0
LINE
  5
6DB
330
1D
100
AcDbEntity
  8
0
100
AcDbLine
 10
37.2778
 20
-118.595946117529
 30
0.0
 11
38.1868
 21
-118.345146117529
 31
0.0
  0
LINE
  5
6DC
330
1D
100
AcDbEntity
  8
0
100
AcDbLine
 10
36.3253
 20
-118.784446117529
 30
0.0
 11
37.2778
 21
-118.595946117529
 31
0.0
  0
LINE
  5
6DD
330
1D
100
AcDbEntity
  8
0
100
AcDbLine
 10
35.3416
 20
-118.908846117529
 30
0.0
 11
36.3253
 21
-118.784446117529
 31
0.0
  0
LINE
  5
6DE
330
1D
100
AcDbEntity
  8
0
100
AcDbLine
 10
33.95770000000001
 20
-118.965246117529
 30
0.0
 11
34.3407
 21
-118.968146117529
 31
0.0
  0
LINE
  5
6DF
330
1D
100
AcDbEntity
  8
0
100
AcDbLine
 10
41.3297
 20
-118.012946117529
 30
0.0
 11
42.0097
 21
-117.557446117529
 31
0.0
  0
LINE
  5
6E0
330
1D
100
AcDbEntity
  8
0
100
AcDbLine
 10
41.472
 20
-119.128746117529
 30
0.0
 11
42.3033
 21
-118.689446117529
 31
0.0
  0
LINE
  5
6E1
330
1D
100
AcDbEntity
  8
0
100
AcDbLine
 10
42.3033
 20
-118.689446117529
 30
0.0
 11
42.4072
 21
-118.628846117529
 31
0.0
  0
LINE
  5
6E2
330
1D
100
AcDbEntity
  8
0
100
AcDbLine
 10
42.4072
 20
-118.628846117529
 30
0.0
 11
43.17199999999999
 21
-118.138846117529
 31
0.0
  0
LINE
  5
6E3
330
1D
100
AcDbEntity
  8
0
100
AcDbLine
 10
43.17199999999999
 20
-118.138846117529
 30
0.0
 11
43.8541
 21
-117.608646117529
 31
0.0
  0
LINE
  5
6E4
330
1D
100
AcDbEntity
  8
0
100
AcDbLine
 10
43.8541
 20
-117.608646117529
 30
0.0
 11
44.4463
 21
-117.045046117529
 31
0.0
  0
LINE
  5
6E5
330
1D
100
AcDbEntity
  8
0
100
AcDbLine
 10
42.0097
 20
-117.557446117529
 30
0.0
 11
42.609
 21
-117.064546117529
 31
0.0
  0
LINE
  5
6E6
330
1D
100
AcDbEntity
  8
0
100
AcDbLine
 10
41.43559999999999
 20
-117.905946117529
 30
0.0
 11
42.1358
 21
-117.420746117529
 31
0.0
  0
LINE
  5
6E7
330
1D
100
AcDbEntity
  8
0
100
AcDbLine
 10
42.609
 20
-117.064546117529
 30
0.0
 11
43.11849999999999
 21
-116.540146117529
 31
0.0
  0
LINE
  5
6E8
330
1D
100
AcDbEntity
  8
0
100
AcDbLine
 10
44.4463
 20
-117.045046117529
 30
0.0
 11
44.9427
 21
-116.450846117529
 31
0.0
  0
LINE
  5
6E9
330
1D
100
AcDbEntity
  8
0
100
AcDbLine
 10
42.7432
 20
-116.896346117529
 30
0.0
 11
43.25169999999999
 21
-116.336446117529
 31
0.0
  0
LINE
  5
6EA
330
1D
100
AcDbEntity
  8
0
100
AcDbLine
 10
42.1358
 20
-117.420746117529
 30
0.0
 11
42.7432
 21
-116.896346117529
 31
0.0
  0
LINE
  5
6EB
330
1D
100
AcDbEntity
  8
0
100
AcDbLine
 10
40.9634
 20
-116.960446117529
 30
0.0
 11
41.484
 21
-116.519246117529
 31
0.0
  0
LINE
  5
6EC
330
1D
100
AcDbEntity
  8
0
100
AcDbLine
 10
34.4063
 20
-116.562046117529
 30
0.0
 11
35.39
 21
-116.499846117529
 31
0.0
  0
LINE
  5
6ED
330
1D
100
AcDbEntity
  8
0
100
AcDbLine
 10
33.5747
 20
-118.968146117529
 30
0.0
 11
33.95770000000001
 21
-118.965246117529
 31
0.0
  0
LINE
  5
6EE
330
1D
100
AcDbEntity
  8
0
100
AcDbLine
 10
28.8881
 20
-115.636646117529
 30
0.0
 11
29.7286
 21
-115.940046117529
 31
0.0
  0
LINE
  5
6EF
330
1D
100
AcDbEntity
  8
0
100
AcDbLine
 10
29.7286
 20
-115.940046117529
 30
0.0
 11
30.6225
 21
-116.186846117529
 31
0.0
  0
LINE
  5
6F0
330
1D
100
AcDbEntity
  8
0
100
AcDbLine
 10
30.6225
 20
-116.186846117529
 30
0.0
 11
31.55880000000001
 21
-116.374446117529
 31
0.0
  0
LINE
  5
6F1
330
1D
100
AcDbEntity
  8
0
100
AcDbLine
 10
31.55880000000001
 20
-116.374446117529
 30
0.0
 11
32.5254
 21
-116.499846117529
 31
0.0
  0
LINE
  5
6F2
330
1D
100
AcDbEntity
  8
0
100
AcDbLine
 10
38.1868
 20
-115.940046117529
 30
0.0
 11
39.0273
 21
-115.636646117529
 31
0.0
  0
LINE
  5
6F3
330
1D
100
AcDbEntity
  8
0
100
AcDbLine
 10
37.29290000000001
 20
-116.186846117529
 30
0.0
 11
38.1868
 21
-115.940046117529
 31
0.0
  0
LINE
  5
6F4
330
1D
100
AcDbEntity
  8
0
100
AcDbLine
 10
36.3566
 20
-116.374446117529
 30
0.0
 11
37.29290000000001
 21
-116.186846117529
 31
0.0
  0
LINE
  5
6F5
330
1D
100
AcDbEntity
  8
0
100
AcDbLine
 10
35.39
 20
-116.499846117529
 30
0.0
 11
36.3566
 21
-116.374446117529
 31
0.0
  0
LINE
  5
6F6
330
1D
100
AcDbEntity
  8
0
100
AcDbLine
 10
33.95770000000001
 20
-116.560146117529
 30
0.0
 11
34.4063
 21
-116.562046117529
 31
0.0
  0
LINE
  5
6F7
330
1D
100
AcDbEntity
  8
0
100
AcDbLine
 10
41.484
 20
-116.519246117529
 30
0.0
 11
41.924
 21
-116.048446117529
 31
0.0
  0
LINE
  5
6F8
330
1D
100
AcDbEntity
  8
0
100
AcDbLine
 10
41.924
 20
-116.048446117529
 30
0.0
 11
42.2761
 21
-115.553646117529
 31
0.0
  0
LINE
  5
6F9
330
1D
100
AcDbEntity
  8
0
100
AcDbLine
 10
44.9427
 20
-116.450846117529
 30
0.0
 11
45.3402
 21
-115.830646117529
 31
0.0
  0
LINE
  5
6FA
330
1D
100
AcDbEntity
  8
0
100
AcDbLine
 10
43.11849999999999
 20
-116.540146117529
 30
0.0
 11
43.5332
 21
-115.986046117529
 31
0.0
  0
LINE
  5
6FB
330
1D
100
AcDbEntity
  8
0
100
AcDbLine
 10
43.5332
 20
-115.986046117529
 30
0.0
 11
43.851
 21
-115.412846117529
 31
0.0
  0
LINE
  5
6FC
330
1D
100
AcDbEntity
  8
0
100
AcDbLine
 10
43.851
 20
-115.412846117529
 30
0.0
 11
44.0659
 21
-114.822346117529
 31
0.0
  0
LINE
  5
6FD
330
1D
100
AcDbEntity
  8
0
100
AcDbLine
 10
43.65529999999999
 20
-115.748946117529
 30
0.0
 11
43.94789999999999
 21
-115.138346117529
 31
0.0
  0
LINE
  5
6FE
330
1D
100
AcDbEntity
  8
0
100
AcDbLine
 10
43.25169999999999
 20
-116.336446117529
 30
0.0
 11
43.65529999999999
 21
-115.748946117529
 31
0.0
  0
LINE
  5
6FF
330
1D
100
AcDbEntity
  8
0
100
AcDbLine
 10
42.2761
 20
-115.553646117529
 30
0.0
 11
42.53739999999999
 21
-115.040746117529
 31
0.0
  0
LINE
  5
700
330
1D
100
AcDbEntity
  8
0
100
AcDbLine
 10
42.7059
 20
-114.514346117529
 30
0.0
 11
44.12329767054909
 21
-114.514346117529
 31
0.0
  0
LINE
  5
701
330
1D
100
AcDbEntity
  8
0
100
AcDbLine
 10
42.7059
 20
-114.514346117529
 30
0.0
 11
42.7059
 21
-113.165046117529
 31
0.0
  0
LINE
  5
702
330
1D
100
AcDbEntity
  8
0
100
AcDbLine
 10
44.0659
 20
-114.822346117529
 30
0.0
 11
44.1779
 21
-114.221346117529
 31
0.0
  0
LINE
  5
703
330
1D
100
AcDbEntity
  8
0
100
AcDbLine
 10
43.94789999999999
 20
-115.138346117529
 30
0.0
 11
44.1122549024803
 21
-114.5736023997553
 31
0.0
  0
LINE
  5
704
330
1D
100
AcDbEntity
  8
0
100
AcDbLine
 10
44.1295
 20
-114.4810639746719
 30
0.0
 11
44.1295
 21
-113.2801925461004
 31
0.0
  0
LINE
  5
705
330
1D
100
AcDbEntity
  8
0
100
AcDbLine
 10
42.53739999999999
 20
-115.040746117529
 30
0.0
 11
42.7059
 21
-114.514346117529
 31
0.0
  0
LINE
  5
706
330
1D
100
AcDbEntity
  8
0
100
AcDbLine
 10
44.1779
 20
-114.221346117529
 30
0.0
 11
44.1819
 21
-113.881746117529
 31
0.0
  0
LINE
  5
707
330
1D
100
AcDbEntity
  8
0
100
AcDbLine
 10
41.1289
 20
-114.425046117529
 30
0.0
 11
41.6596
 21
-113.938946117529
 31
0.0
  0
LINE
  5
708
330
1D
100
AcDbEntity
  8
0
100
AcDbLine
 10
40.50839999999999
 20
-114.873846117529
 30
0.0
 11
41.1289
 21
-114.425046117529
 31
0.0
  0
LINE
  5
709
330
1D
100
AcDbEntity
  8
0
100
AcDbLine
 10
39.8052
 20
-115.278746117529
 30
0.0
 11
40.50839999999999
 21
-114.873846117529
 31
0.0
  0
LINE
  5
70A
330
1D
100
AcDbEntity
  8
0
100
AcDbLine
 10
39.0273
 20
-115.636646117529
 30
0.0
 11
39.8052
 21
-115.278746117529
 31
0.0
  0
LINE
  5
70B
330
1D
100
AcDbEntity
  8
0
100
AcDbLine
 10
41.6596
 20
-113.938946117529
 30
0.0
 11
42.0934
 21
-113.422146117529
 31
0.0
  0
LINE
  5
70C
330
1D
100
AcDbEntity
  8
0
100
AcDbLine
 10
45.3402
 20
-115.830646117529
 30
0.0
 11
45.6338
 21
-115.192446117529
 31
0.0
  0
LINE
  5
70D
330
1D
100
AcDbEntity
  8
0
100
AcDbLine
 10
45.6873
 20
-115.032146117529
 30
0.0
 11
45.876
 21
-114.376646117529
 31
0.0
  0
LINE
  5
70E
330
1D
100
AcDbEntity
  8
0
100
AcDbLine
 10
45.6338
 20
-115.192446117529
 30
0.0
 11
45.6873
 21
-115.032146117529
 31
0.0
  0
LINE
  5
70F
330
1D
100
AcDbEntity
  8
0
100
AcDbLine
 10
45.876
 20
-114.376646117529
 30
0.0
 11
45.9577
 21
-113.713446117529
 31
0.0
  0
LINE
  5
710
330
1D
100
AcDbEntity
  8
0
100
AcDbLine
 10
42.0934
 20
-113.422146117529
 30
0.0
 11
42.4254
 21
-112.879546117529
 31
0.0
  0
LINE
  5
711
330
1D
100
AcDbEntity
  8
0
100
AcDbLine
 10
45.9577
 20
-113.713446117529
 30
0.0
 11
45.9577
 21
-113.385246117529
 31
0.0
  0
LINE
  5
712
330
1D
100
AcDbEntity
  8
0
100
AcDbLine
 10
45.95089999999999
 20
-113.549846117529
 30
0.0
 11
45.9577
 21
-113.385246117529
 31
0.0
  0
LINE
  5
713
330
1D
100
AcDbEntity
  8
0
100
AcDbLine
 10
44.1779
 20
-113.539046117529
 30
0.0
 11
44.1819
 21
-113.881746117529
 31
0.0
  0
LINE
  5
714
330
1D
100
AcDbEntity
  8
0
100
AcDbLine
 10
32.5254
 20
-116.499846117529
 30
0.0
 11
33.5091
 21
-116.562046117529
 31
0.0
  0
LINE
  5
715
330
1D
100
AcDbEntity
  8
0
100
AcDbLine
 10
33.5091
 20
-116.562046117529
 30
0.0
 11
33.95770000000001
 21
-116.560146117529
 31
0.0
  0
LINE
  5
716
330
1D
100
AcDbEntity
  8
0
100
AcDbLine
 10
28.1102
 20
-115.278746117529
 30
0.0
 11
28.8881
 21
-115.636646117529
 31
0.0
  0
LINE
  5
717
330
1D
100
AcDbEntity
  8
0
100
AcDbLine
 10
44.1295
 20
-113.2801925461004
 30
0.0
 11
44.1295
 21
-114.4810639746719
 31
0.0
  0
LINE
  5
718
330
1D
100
AcDbEntity
  8
0
100
AcDbLine
 10
45.9577
 20
-113.385246117529
 30
0.0
 11
45.9577
 21
-108.5004865356474
 31
0.0
  0
LINE
  5
719
330
1D
100
AcDbEntity
  8
0
100
AcDbLine
 10
45.9577
 20
-113.385246117529
 30
0.0
 11
45.9577
 21
-113.713446117529
 31
0.0
  0
LINE
  5
71A
330
1D
100
AcDbEntity
  8
0
100
AcDbLine
 10
42.7059
 20
-113.165046117529
 30
0.0
 11
44.1079701168615
 21
-113.165046117529
 31
0.0
  0
LINE
  5
71B
330
1D
100
AcDbEntity
  8
0
100
AcDbLine
 10
42.7059
 20
-113.165046117529
 30
0.0
 11
42.7059
 21
-114.514346117529
 31
0.0
  0
LINE
  5
71C
330
1D
100
AcDbEntity
  8
0
100
AcDbLine
 10
25.822
 20
-113.422146117529
 30
0.0
 11
26.2558
 21
-113.938946117529
 31
0.0
  0
LINE
  5
71D
330
1D
100
AcDbEntity
  8
0
100
AcDbLine
 10
23.8074298831386
 20
-113.165046117529
 30
0.0
 11
25.2095
 21
-113.165046117529
 31
0.0
  0
LINE
  5
71E
330
1D
100
AcDbEntity
  8
0
100
AcDbLine
 10
23.8495
 20
-112.940046117529
 30
0.0
 11
24.0644
 21
-112.350546117529
 31
0.0
  0
LINE
  5
71F
330
1D
100
AcDbEntity
  8
0
100
AcDbLine
 10
24.0644
 20
-112.350546117529
 30
0.0
 11
24.3822
 21
-111.774346117529
 31
0.0
  0
LINE
  5
720
330
1D
100
AcDbEntity
  8
0
100
AcDbLine
 10
24.3822
 20
-111.774346117529
 30
0.0
 11
24.7969
 21
-111.222246117529
 31
0.0
  0
LINE
  5
721
330
1D
100
AcDbEntity
  8
0
100
AcDbLine
 10
25.3866004040474
 20
-112.6218283690392
 30
0.0
 11
25.49
 21
-112.879546117529
 31
0.0
  0
LINE
  5
722
330
1D
100
AcDbEntity
  8
0
100
AcDbLine
 10
25.49
 20
-112.879546117529
 30
0.0
 11
25.822
 21
-113.422146117529
 31
0.0
  0
LINE
  5
723
330
1D
100
AcDbEntity
  8
0
100
AcDbLine
 10
42.4254
 20
-112.879546117529
 30
0.0
 11
42.5287995959526
 21
-112.6218283690392
 31
0.0
  0
LINE
  5
724
330
1D
100
AcDbEntity
  8
0
100
AcDbLine
 10
44.0659
 20
-112.940046117529
 30
0.0
 11
44.1779
 21
-113.539046117529
 31
0.0
  0
LINE
  5
725
330
1D
100
AcDbEntity
  8
0
100
AcDbLine
 10
43.851
 20
-112.350546117529
 30
0.0
 11
44.0659
 21
-112.940046117529
 31
0.0
  0
LINE
  5
726
330
1D
100
AcDbEntity
  8
0
100
AcDbLine
 10
42.2761
 20
-112.124746117529
 30
0.0
 11
42.53739999999999
 21
-112.638746117529
 31
0.0
  0
LINE
  5
727
330
1D
100
AcDbEntity
  8
0
100
AcDbLine
 10
42.53739999999999
 20
-112.638746117529
 30
0.0
 11
42.7059
 21
-113.165046117529
 31
0.0
  0
LINE
  5
728
330
1D
100
AcDbEntity
  8
0
100
AcDbLine
 10
43.5332
 20
-111.774346117529
 30
0.0
 11
43.851
 21
-112.350546117529
 31
0.0
  0
LINE
  5
729
330
1D
100
AcDbEntity
  8
0
100
AcDbLine
 10
41.924
 20
-111.630046117529
 30
0.0
 11
42.2761
 21
-112.124746117529
 31
0.0
  0
LINE
  5
72A
330
1D
100
AcDbEntity
  8
0
100
AcDbLine
 10
25.9914
 20
-111.630046117529
 30
0.0
 11
26.4314
 21
-111.160146117529
 31
0.0
  0
LINE
  5
72B
330
1D
100
AcDbEntity
  8
0
100
AcDbLine
 10
25.6393
 20
-112.124746117529
 30
0.0
 11
25.9914
 21
-111.630046117529
 31
0.0
  0
LINE
  5
72C
330
1D
100
AcDbEntity
  8
0
100
AcDbLine
 10
25.378
 20
-112.638746117529
 30
0.0
 11
25.6393
 21
-112.124746117529
 31
0.0
  0
LINE
  5
72D
330
1D
100
AcDbEntity
  8
0
100
AcDbLine
 10
25.2095
 20
-113.165046117529
 30
0.0
 11
25.378
 21
-112.638746117529
 31
0.0
  0
LINE
  5
72E
330
1D
100
AcDbEntity
  8
0
100
AcDbLine
 10
25.2095
 20
-113.165046117529
 30
0.0
 11
25.2095
 21
-114.514346117529
 31
0.0
  0
LINE
  5
72F
330
1D
100
AcDbEntity
  8
0
100
AcDbLine
 10
18.6485
 20
-119.257046117529
 30
0.0
 11
19.5985
 21
-120.986046117529
 31
0.0
  0
LINE
  5
730
330
1D
100
AcDbEntity
  8
0
100
AcDbLine
 10
47.0895
 20
-122.800046117529
 30
0.0
 11
47.8575
 21
-121.804046117529
 31
0.0
  0
LINE
  5
731
330
1D
100
AcDbEntity
  8
0
100
AcDbLine
 10
47.8575
 20
-121.804046117529
 30
0.0
 11
48.54549999999999
 21
-120.752046117529
 31
0.0
  0
LINE
  5
732
330
1D
100
AcDbEntity
  8
0
100
AcDbLine
 10
48.54549999999999
 20
-120.752046117529
 30
0.0
 11
49.69149999999999
 21
-118.513046117529
 31
0.0
  0
LINE
  5
733
330
1D
100
AcDbEntity
  8
0
100
AcDbLine
 10
45.9577
 20
-112.0059663727124
 30
0.0
 11
46.2825
 21
-111.304046117529
 31
0.0
  0
LINE
  5
734
330
1D
100
AcDbEntity
  8
0
100
AcDbLine
 10
49.9255
 20
-122.995046117529
 30
0.0
 11
51.92949999999999
 21
-120.652046117529
 31
0.0
  0
LINE
  5
735
330
1D
100
AcDbEntity
  8
0
100
AcDbLine
 10
49.69149999999999
 20
-118.513046117529
 30
0.0
 11
50.2605
 21
-117.046046117529
 31
0.0
  0
LINE
  5
736
330
1D
100
AcDbEntity
  8
0
100
AcDbLine
 10
53.5915
 20
-118.055046117529
 30
0.0
 11
54.7435
 21
-115.604046117529
 31
0.0
  0
LINE
  5
737
330
1D
100
AcDbEntity
  8
0
100
AcDbLine
 10
54.7435
 20
-115.604046117529
 30
0.0
 11
55.5905
 21
-113.031046117529
 31
0.0
  0
LINE
  5
738
330
1D
100
AcDbEntity
  8
0
100
AcDbLine
 10
51.92949999999999
 20
-120.652046117529
 30
0.0
 11
53.5915
 21
-118.055046117529
 31
0.0
  0
LINE
  5
739
330
1D
100
AcDbEntity
  8
0
100
AcDbLine
 10
50.2605
 20
-117.046046117529
 30
0.0
 11
50.8205
 21
-115.207046117529
 31
0.0
  0
LINE
  5
73A
330
1D
100
AcDbEntity
  8
0
100
AcDbLine
 10
51.2505
 20
-113.334046117529
 30
0.0
 11
51.6445
 21
-110.936046117529
 31
0.0
  0
LINE
  5
73B
330
1D
100
AcDbEntity
  8
0
100
AcDbLine
 10
50.8205
 20
-115.207046117529
 30
0.0
 11
51.2505
 21
-113.334046117529
 31
0.0
  0
LINE
  5
73C
330
1D
100
AcDbEntity
  8
0
100
AcDbLine
 10
84.0005
 20
-141.337046117529
 30
0.0
 11
112.945807398321
 21
-141.3124815002178
 31
0.0
  0
LINE
  5
73D
330
1D
100
AcDbEntity
  8
0
100
AcDbLine
 10
66.2655
 20
-141.335046117529
 30
0.0
 11
84.0005
 21
-141.337046117529
 31
0.0
  0
LINE
  5
73E
330
1D
100
AcDbEntity
  8
0
100
AcDbLine
 10
112.8485
 20
-138.583046117529
 30
0.0
 11
113.1105
 21
-145.932046117529
 31
0.0
  0
LINE
  5
73F
330
1D
100
AcDbEntity
  8
0
100
AcDbLine
 10
116.7285
 20
-170.9910461175289
 30
0.0
 11
117.4695
 21
-171.721046117529
 31
0.0
  0
LINE
  5
740
330
1D
100
AcDbEntity
  8
0
100
AcDbLine
 10
113.7985
 20
-160.816046117529
 30
0.0
 11
113.9805
 21
-163.357046117529
 31
0.0
  0
LINE
  5
741
330
1D
100
AcDbEntity
  8
0
100
AcDbLine
 10
114.4845
 20
-166.455046117529
 30
0.0
 11
115.0175
 21
-168.146046117529
 31
0.0
  0
LINE
  5
742
330
1D
100
AcDbEntity
  8
0
100
AcDbLine
 10
115.0175
 20
-168.146046117529
 30
0.0
 11
115.3615
 21
-168.931046117529
 31
0.0
  0
LINE
  5
743
330
1D
100
AcDbEntity
  8
0
100
AcDbLine
 10
115.3615
 20
-168.931046117529
 30
0.0
 11
115.7615
 21
-169.667046117529
 31
0.0
  0
LINE
  5
744
330
1D
100
AcDbEntity
  8
0
100
AcDbLine
 10
116.2105
 20
-170.345046117529
 30
0.0
 11
116.7135
 21
-170.972046117529
 31
0.0
  0
LINE
  5
745
330
1D
100
AcDbEntity
  8
0
100
AcDbLine
 10
115.7615
 20
-169.667046117529
 30
0.0
 11
116.2105
 21
-170.345046117529
 31
0.0
  0
LINE
  5
746
330
1D
100
AcDbEntity
  8
0
100
AcDbLine
 10
114.1335
 20
-164.628046117529
 30
0.0
 11
114.4845
 21
-166.455046117529
 31
0.0
  0
LINE
  5
747
330
1D
100
AcDbEntity
  8
0
100
AcDbLine
 10
113.9805
 20
-163.357046117529
 30
0.0
 11
114.1335
 21
-164.628046117529
 31
0.0
  0
LINE
  5
748
330
1D
100
AcDbEntity
  8
0
100
AcDbLine
 10
117.4695
 20
-171.721046117529
 30
0.0
 11
118.3135
 21
-172.372046117529
 31
0.0
  0
LINE
  5
749
330
1D
100
AcDbEntity
  8
0
100
AcDbLine
 10
118.3135
 20
-172.372046117529
 30
0.0
 11
119.2405
 21
-172.924046117529
 31
0.0
  0
LINE
  5
74A
330
1D
100
AcDbEntity
  8
0
100
AcDbLine
 10
119.2405
 20
-172.924046117529
 30
0.0
 11
119.9855
 21
-173.276046117529
 31
0.0
  0
LINE
  5
74B
330
1D
100
AcDbEntity
  8
0
100
AcDbLine
 10
119.9855
 20
-173.276046117529
 30
0.0
 11
120.7685
 21
-173.578046117529
 31
0.0
  0
LINE
  5
74C
330
1D
100
AcDbEntity
  8
0
100
AcDbLine
 10
122.4335
 20
-174.048046117529
 30
0.0
 11
123.6025
 21
-174.279046117529
 31
0.0
  0
LINE
  5
74D
330
1D
100
AcDbEntity
  8
0
100
AcDbLine
 10
120.7685
 20
-173.578046117529
 30
0.0
 11
122.4335
 21
-174.048046117529
 31
0.0
  0
LINE
  5
74E
330
1D
100
AcDbEntity
  8
0
100
AcDbLine
 10
123.6025
 20
-174.279046117529
 30
0.0
 11
126.0365
 21
-174.600046117529
 31
0.0
  0
LINE
  5
74F
330
1D
100
AcDbEntity
  8
0
100
AcDbLine
 10
126.0365
 20
-174.600046117529
 30
0.0
 11
130.0135
 21
-174.922046117529
 31
0.0
  0
LINE
  5
750
330
1D
100
AcDbEntity
  8
0
100
AcDbLine
 10
113.4145
 20
-153.353046117529
 30
0.0
 11
113.7985
 21
-160.816046117529
 31
0.0
  0
LINE
  5
751
330
1D
100
AcDbEntity
  8
0
100
AcDbLine
 10
113.1105
 20
-145.932046117529
 30
0.0
 11
113.4145
 21
-153.353046117529
 31
0.0
  0
LINE
  5
752
330
1D
100
AcDbEntity
  8
0
100
AcDbLine
 10
112.222466417343
 20
-118.7112130419055
 30
0.0
 11
112.8485
 21
-138.583046117529
 31
0.0
  0
LINE
  5
753
330
1D
100
AcDbEntity
  8
0
100
AcDbLine
 10
130.0135
 20
-174.922046117529
 30
0.0
 11
134.0005
 21
-175.023046117529
 31
0.0
  0
LINE
  5
754
330
1D
100
AcDbEntity
  8
0
100
AcDbLine
 10
112.1285
 20
-116.448046117529
 30
0.0
 11
112.222466417343
 21
-118.7112130419055
 31
0.0
  0
LINE
  5
755
330
1D
100
AcDbEntity
  8
0
100
AcDbLine
 10
137.9875
 20
-174.922046117529
 30
0.0
 11
141.9645
 21
-174.596046117529
 31
0.0
  0
LINE
  5
756
330
1D
100
AcDbEntity
  8
0
100
AcDbLine
 10
134.0005
 20
-175.023046117529
 30
0.0
 11
137.9875
 21
-174.922046117529
 31
0.0
  0
LINE
  5
757
330
1D
100
AcDbEntity
  8
0
100
AcDbLine
 10
112.0065
 20
-113.502046117529
 30
0.0
 11
112.1285
 21
-116.448046117529
 31
0.0
  0
LINE
  5
758
330
1D
100
AcDbEntity
  8
0
100
AcDbLine
 10
141.9645
 20
-174.596046117529
 30
0.0
 11
144.3975
 21
-174.279046117529
 31
0.0
  0
LINE
  5
759
330
1D
100
AcDbEntity
  8
0
100
AcDbLine
 10
55.5905
 20
-113.031046117529
 30
0.0
 11
56.0395
 21
-110.910046117529
 31
0.0
  0
LINE
  5
75A
330
1D
100
AcDbEntity
  8
0
100
AcDbLine
 10
0.0195000000000193
 20
-107.351046117529
 30
0.0
 11
0.0345000000000193
 21
-113.509046117529
 31
0.0
  0
LINE
  5
75B
330
1D
100
AcDbEntity
  8
0
100
AcDbLine
 10
0.0195000000000193
 20
-107.351046117529
 30
0.0
 11
0.0345000000000193
 21
-101.196046117529
 31
0.0
  0
LINE
  5
75C
330
1D
100
AcDbEntity
  8
0
100
AcDbLine
 10
0.0345000000000193
 20
-101.196046117529
 30
0.0
 11
0.0845000000000194
 21
-97.35804611752902
 31
0.0
  0
LINE
  5
75D
330
1D
100
AcDbEntity
  8
0
100
AcDbLine
 10
0.0845000000000194
 20
-97.35804611752902
 30
0.0
 11
0.3665000000000189
 21
-90.85104611752901
 31
0.0
  0
LINE
  5
75E
330
1D
100
AcDbEntity
  8
0
100
AcDbLine
 10
0.3665000000000189
 20
-90.85104611752901
 30
0.0
 11
0.708500000000019
 21
-87.44804611752901
 31
0.0
  0
LINE
  5
75F
330
1D
100
AcDbEntity
  8
0
100
AcDbLine
 10
0.708500000000019
 20
-87.44804611752901
 30
0.0
 11
1.083500000000019
 21
-85.09604611752902
 31
0.0
  0
LINE
  5
760
330
1D
100
AcDbEntity
  8
0
100
AcDbLine
 10
11.9585
 20
-110.861046117529
 30
0.0
 11
12.4878891714479
 21
-113.0562465484663
 31
0.0
  0
LINE
  5
761
330
1D
100
AcDbEntity
  8
0
100
AcDbLine
 10
12.1645
 20
-102.731046117529
 30
0.0
 11
12.5207730506318
 21
-101.4979147826371
 31
0.0
  0
LINE
  5
762
330
1D
100
AcDbEntity
  8
0
100
AcDbLine
 10
11.7245
 20
-105.950046117529
 30
0.0
 11
12.1645
 21
-102.731046117529
 31
0.0
  0
LINE
  5
763
330
1D
100
AcDbEntity
  8
0
100
AcDbLine
 10
11.6805
 20
-107.352046117529
 30
0.0
 11
11.7245
 21
-105.950046117529
 31
0.0
  0
LINE
  5
764
330
1D
100
AcDbEntity
  8
0
100
AcDbLine
 10
11.6805
 20
-107.352046117529
 30
0.0
 11
11.9585
 21
-110.861046117529
 31
0.0
  0
LINE
  5
765
330
1D
100
AcDbEntity
  8
0
100
AcDbLine
 10
16.3485
 20
-110.874046117529
 30
0.0
 11
16.8115
 21
-113.639046117529
 31
0.0
  0
LINE
  5
766
330
1D
100
AcDbEntity
  8
0
100
AcDbLine
 10
15.9975
 20
-107.220046117529
 30
0.0
 11
16.3485
 21
-110.874046117529
 31
0.0
  0
LINE
  5
767
330
1D
100
AcDbEntity
  8
0
100
AcDbLine
 10
15.7835
 20
-97.00704611752902
 30
0.0
 11
15.8455
 21
-96.77404611752901
 31
0.0
  0
LINE
  5
768
330
1D
100
AcDbEntity
  8
0
100
AcDbLine
 10
15.8455
 20
-96.77404611752901
 30
0.0
 11
16.0395
 21
-96.44904611752901
 31
0.0
  0
LINE
  5
769
330
1D
100
AcDbEntity
  8
0
100
AcDbLine
 10
16.2175
 20
-96.290046117529
 30
0.0
 11
16.4255
 21
-96.17204611752901
 31
0.0
  0
LINE
  5
76A
330
1D
100
AcDbEntity
  8
0
100
AcDbLine
 10
16.4255
 20
-96.17204611752901
 30
0.0
 11
16.8455
 21
-96.03304611752902
 31
0.0
  0
LINE
  5
76B
330
1D
100
AcDbEntity
  8
0
100
AcDbLine
 10
16.8455
 20
-96.03304611752902
 30
0.0
 11
18.6015
 21
-95.62004611752902
 31
0.0
  0
LINE
  5
76C
330
1D
100
AcDbEntity
  8
0
100
AcDbLine
 10
16.0395
 20
-96.44904611752901
 30
0.0
 11
16.2175
 21
-96.290046117529
 31
0.0
  0
LINE
  5
76D
330
1D
100
AcDbEntity
  8
0
100
AcDbLine
 10
15.8345
 20
-103.553046117529
 30
0.0
 11
15.9975
 21
-107.220046117529
 31
0.0
  0
LINE
  5
76E
330
1D
100
AcDbEntity
  8
0
100
AcDbLine
 10
15.7585
 20
-97.44604611752901
 30
0.0
 11
15.8345
 21
-103.553046117529
 31
0.0
  0
LINE
  5
76F
330
1D
100
AcDbEntity
  8
0
100
AcDbLine
 10
15.7585
 20
-97.44604611752901
 30
0.0
 11
15.7835
 21
-97.00704611752902
 31
0.0
  0
LINE
  5
770
330
1D
100
AcDbEntity
  8
0
100
AcDbLine
 10
18.6015
 20
-95.62004611752902
 30
0.0
 11
19.1904781516718
 21
-95.50770152652161
 31
0.0
  0
LINE
  5
771
330
1D
100
AcDbEntity
  8
0
100
AcDbLine
 10
18.5555
 20
-95.630046117529
 30
0.0
 11
21.0205
 21
-95.13404611752902
 31
0.0
  0
LINE
  5
772
330
1D
100
AcDbEntity
  8
0
100
AcDbLine
 10
21.5245
 20
-110.461046117529
 30
0.0
 11
21.5935
 21
-109.348046117529
 31
0.0
  0
LINE
  5
773
330
1D
100
AcDbEntity
  8
0
100
AcDbLine
 10
21.5245
 20
-110.461046117529
 30
0.0
 11
21.7185
 21
-111.304046117529
 31
0.0
  0
LINE
  5
774
330
1D
100
AcDbEntity
  8
0
100
AcDbLine
 10
21.0205
 20
-95.13404611752902
 30
0.0
 11
24.9995
 21
-94.531046117529
 31
0.0
  0
LINE
  5
775
330
1D
100
AcDbEntity
  8
0
100
AcDbLine
 10
21.5935
 20
-109.348046117529
 30
0.0
 11
22.1685
 21
-108.264046117529
 31
0.0
  0
LINE
  5
776
330
1D
100
AcDbEntity
  8
0
100
AcDbLine
 10
24.7969
 20
-111.222246117529
 30
0.0
 11
25.3064
 21
-110.697846117529
 31
0.0
  0
LINE
  5
777
330
1D
100
AcDbEntity
  8
0
100
AcDbLine
 10
43.11849999999999
 20
-111.222246117529
 30
0.0
 11
43.5332
 21
-111.774346117529
 31
0.0
  0
LINE
  5
778
330
1D
100
AcDbEntity
  8
0
100
AcDbLine
 10
41.484
 20
-111.160146117529
 30
0.0
 11
41.924
 21
-111.630046117529
 31
0.0
  0
LINE
  5
779
330
1D
100
AcDbEntity
  8
0
100
AcDbLine
 10
25.3064
 20
-110.697846117529
 30
0.0
 11
25.9057
 21
-110.203946117529
 31
0.0
  0
LINE
  5
77A
330
1D
100
AcDbEntity
  8
0
100
AcDbLine
 10
25.9057
 20
-110.203946117529
 30
0.0
 11
26.5857
 21
-109.749446117529
 31
0.0
  0
LINE
  5
77B
330
1D
100
AcDbEntity
  8
0
100
AcDbLine
 10
26.952
 20
-110.719046117529
 30
0.0
 11
27.5482
 21
-110.310346117529
 31
0.0
  0
LINE
  5
77C
330
1D
100
AcDbEntity
  8
0
100
AcDbLine
 10
27.5482
 20
-110.310346117529
 30
0.0
 11
28.2152
 21
-109.941946117529
 31
0.0
  0
LINE
  5
77D
330
1D
100
AcDbEntity
  8
0
100
AcDbLine
 10
26.5857
 20
-109.749446117529
 30
0.0
 11
27.3424
 21
-109.336946117529
 31
0.0
  0
LINE
  5
77E
330
1D
100
AcDbEntity
  8
0
100
AcDbLine
 10
28.2152
 20
-109.941946117529
 30
0.0
 11
28.9446
 21
-109.614646117529
 31
0.0
  0
LINE
  5
77F
330
1D
100
AcDbEntity
  8
0
100
AcDbLine
 10
42.609
 20
-110.697846117529
 30
0.0
 11
43.11849999999999
 21
-111.222246117529
 31
0.0
  0
LINE
  5
780
330
1D
100
AcDbEntity
  8
0
100
AcDbLine
 10
42.0097
 20
-110.203946117529
 30
0.0
 11
42.609
 21
-110.697846117529
 31
0.0
  0
LINE
  5
781
330
1D
100
AcDbEntity
  8
0
100
AcDbLine
 10
40.36719999999999
 20
-110.310346117529
 30
0.0
 11
40.9634
 21
-110.719046117529
 31
0.0
  0
LINE
  5
782
330
1D
100
AcDbEntity
  8
0
100
AcDbLine
 10
41.3297
 20
-109.749446117529
 30
0.0
 11
42.0097
 21
-110.203946117529
 31
0.0
  0
LINE
  5
783
330
1D
100
AcDbEntity
  8
0
100
AcDbLine
 10
39.7002
 20
-109.941946117529
 30
0.0
 11
40.36719999999999
 21
-110.310346117529
 31
0.0
  0
LINE
  5
784
330
1D
100
AcDbEntity
  8
0
100
AcDbLine
 10
38.9708
 20
-109.614646117529
 30
0.0
 11
39.7002
 21
-109.941946117529
 31
0.0
  0
LINE
  5
785
330
1D
100
AcDbEntity
  8
0
100
AcDbLine
 10
40.9634
 20
-110.719046117529
 30
0.0
 11
41.484
 21
-111.160146117529
 31
0.0
  0
LINE
  5
786
330
1D
100
AcDbEntity
  8
0
100
AcDbLine
 10
28.9446
 20
-109.614646117529
 30
0.0
 11
29.7286
 21
-109.334246117529
 31
0.0
  0
LINE
  5
787
330
1D
100
AcDbEntity
  8
0
100
AcDbLine
 10
26.4314
 20
-111.160146117529
 30
0.0
 11
26.952
 21
-110.719046117529
 31
0.0
  0
LINE
  5
788
330
1D
100
AcDbEntity
  8
0
100
AcDbLine
 10
51.6445
 20
-110.936046117529
 30
0.0
 11
52.0235
 21
-106.910046117529
 31
0.0
  0
LINE
  5
789
330
1D
100
AcDbEntity
  8
0
100
AcDbLine
 10
46.2825
 20
-111.304046117529
 30
0.0
 11
46.47549999999999
 21
-110.461046117529
 31
0.0
  0
LINE
  5
78A
330
1D
100
AcDbEntity
  8
0
100
AcDbLine
 10
21.7185
 20
-111.304046117529
 30
0.0
 11
21.9577
 21
-111.8218033060274
 31
0.0
  0
LINE
  5
78B
330
1D
100
AcDbEntity
  8
0
100
AcDbLine
 10
21.9577
 20
-108.737046117529
 30
0.0
 11
21.9577
 21
-113.713446117529
 31
0.0
  0
LINE
  5
78C
330
1D
100
AcDbEntity
  8
0
100
AcDbLine
 10
21.9577
 20
-108.6614499436159
 30
0.0
 11
21.9577
 21
-113.385246117529
 31
0.0
  0
LINE
  5
78D
330
1D
100
AcDbEntity
  8
0
100
AcDbLine
 10
22.1685
 20
-108.264046117529
 30
0.0
 11
23.2955
 21
-107.226046117529
 31
0.0
  0
LINE
  5
78E
330
1D
100
AcDbEntity
  8
0
100
AcDbLine
 10
23.2955
 20
-107.226046117529
 30
0.0
 11
24.9235
 21
-106.242046117529
 31
0.0
  0
LINE
  5
78F
330
1D
100
AcDbEntity
  8
0
100
AcDbLine
 10
25.5165
 20
-94.49204611752902
 30
0.0
 11
29.6465
 21
-94.12904611752901
 31
0.0
  0
LINE
  5
790
330
1D
100
AcDbEntity
  8
0
100
AcDbLine
 10
24.9995
 20
-94.531046117529
 30
0.0
 11
25.5165
 21
-94.49204611752902
 31
0.0
  0
LINE
  5
791
330
1D
100
AcDbEntity
  8
0
100
AcDbLine
 10
24.9235
 20
-106.242046117529
 30
0.0
 11
26.7365
 21
-105.439046117529
 31
0.0
  0
LINE
  5
792
330
1D
100
AcDbEntity
  8
0
100
AcDbLine
 10
27.3424
 20
-109.336946117529
 30
0.0
 11
28.1677
 21
-108.971446117529
 31
0.0
  0
LINE
  5
793
330
1D
100
AcDbEntity
  8
0
100
AcDbLine
 10
29.7286
 20
-109.334246117529
 30
0.0
 11
30.6376
 21
-109.082546117529
 31
0.0
  0
LINE
  5
794
330
1D
100
AcDbEntity
  8
0
100
AcDbLine
 10
28.1677
 20
-108.971446117529
 30
0.0
 11
29.0516
 21
-108.654646117529
 31
0.0
  0
LINE
  5
795
330
1D
100
AcDbEntity
  8
0
100
AcDbLine
 10
30.6376
 20
-109.082546117529
 30
0.0
 11
31.5901
 21
-108.893946117529
 31
0.0
  0
LINE
  5
796
330
1D
100
AcDbEntity
  8
0
100
AcDbLine
 10
31.5901
 20
-108.893946117529
 30
0.0
 11
32.5738
 21
-108.769646117529
 31
0.0
  0
LINE
  5
797
330
1D
100
AcDbEntity
  8
0
100
AcDbLine
 10
29.9858
 20
-108.393446117529
 30
0.0
 11
30.9615
 21
-108.187646117529
 31
0.0
  0
LINE
  5
798
330
1D
100
AcDbEntity
  8
0
100
AcDbLine
 10
30.9615
 20
-108.187646117529
 30
0.0
 11
31.9664
 21
-108.039246117529
 31
0.0
  0
LINE
  5
799
330
1D
100
AcDbEntity
  8
0
100
AcDbLine
 10
31.9664
 20
-108.039246117529
 30
0.0
 11
32.9935
 21
-107.952246117529
 31
0.0
  0
LINE
  5
79A
330
1D
100
AcDbEntity
  8
0
100
AcDbLine
 10
32.9935
 20
-107.952246117529
 30
0.0
 11
33.95770000000001
 21
-107.928246117529
 31
0.0
  0
LINE
  5
79B
330
1D
100
AcDbEntity
  8
0
100
AcDbLine
 10
29.0516
 20
-108.654646117529
 30
0.0
 11
29.9858
 21
-108.393446117529
 31
0.0
  0
LINE
  5
79C
330
1D
100
AcDbEntity
  8
0
100
AcDbLine
 10
32.5738
 20
-108.769646117529
 30
0.0
 11
33.5747
 21
-108.710246117529
 31
0.0
  0
LINE
  5
79D
330
1D
100
AcDbEntity
  8
0
100
AcDbLine
 10
33.95770000000001
 20
-108.714146117529
 30
0.0
 11
34.3407
 21
-108.710246117529
 31
0.0
  0
LINE
  5
79E
330
1D
100
AcDbEntity
  8
0
100
AcDbLine
 10
40.573
 20
-109.336946117529
 30
0.0
 11
41.3297
 21
-109.749446117529
 31
0.0
  0
LINE
  5
79F
330
1D
100
AcDbEntity
  8
0
100
AcDbLine
 10
39.7477
 20
-108.971446117529
 30
0.0
 11
40.573
 21
-109.336946117529
 31
0.0
  0
LINE
  5
7A0
330
1D
100
AcDbEntity
  8
0
100
AcDbLine
 10
38.1868
 20
-109.334246117529
 30
0.0
 11
38.9708
 21
-109.614646117529
 31
0.0
  0
LINE
  5
7A1
330
1D
100
AcDbEntity
  8
0
100
AcDbLine
 10
37.2778
 20
-109.082546117529
 30
0.0
 11
38.1868
 21
-109.334246117529
 31
0.0
  0
LINE
  5
7A2
330
1D
100
AcDbEntity
  8
0
100
AcDbLine
 10
36.3253
 20
-108.893946117529
 30
0.0
 11
37.2778
 21
-109.082546117529
 31
0.0
  0
LINE
  5
7A3
330
1D
100
AcDbEntity
  8
0
100
AcDbLine
 10
35.3416
 20
-108.769646117529
 30
0.0
 11
36.3253
 21
-108.893946117529
 31
0.0
  0
LINE
  5
7A4
330
1D
100
AcDbEntity
  8
0
100
AcDbLine
 10
36.9539
 20
-108.187646117529
 30
0.0
 11
37.9296
 21
-108.393446117529
 31
0.0
  0
LINE
  5
7A5
330
1D
100
AcDbEntity
  8
0
100
AcDbLine
 10
35.949
 20
-108.039246117529
 30
0.0
 11
36.9539
 21
-108.187646117529
 31
0.0
  0
LINE
  5
7A6
330
1D
100
AcDbEntity
  8
0
100
AcDbLine
 10
34.9219
 20
-107.952246117529
 30
0.0
 11
35.949
 21
-108.039246117529
 31
0.0
  0
LINE
  5
7A7
330
1D
100
AcDbEntity
  8
0
100
AcDbLine
 10
38.8638
 20
-108.654646117529
 30
0.0
 11
39.7477
 21
-108.971446117529
 31
0.0
  0
LINE
  5
7A8
330
1D
100
AcDbEntity
  8
0
100
AcDbLine
 10
37.9296
 20
-108.393446117529
 30
0.0
 11
38.8638
 21
-108.654646117529
 31
0.0
  0
LINE
  5
7A9
330
1D
100
AcDbEntity
  8
0
100
AcDbLine
 10
34.3407
 20
-108.710246117529
 30
0.0
 11
35.3416
 21
-108.769646117529
 31
0.0
  0
LINE
  5
7AA
330
1D
100
AcDbEntity
  8
0
100
AcDbLine
 10
33.95770000000001
 20
-107.928246117529
 30
0.0
 11
34.9219
 21
-107.952246117529
 31
0.0
  0
LINE
  5
7AB
330
1D
100
AcDbEntity
  8
0
100
AcDbLine
 10
33.5747
 20
-108.710246117529
 30
0.0
 11
33.95770000000001
 21
-108.714146117529
 31
0.0
  0
LINE
  5
7AC
330
1D
100
AcDbEntity
  8
0
100
AcDbLine
 10
40.98049999999999
 20
-105.296046117529
 30
0.0
 11
41.2635
 21
-105.439046117529
 31
0.0
  0
LINE
  5
7AD
330
1D
100
AcDbEntity
  8
0
100
AcDbLine
 10
40.98049999999999
 20
-105.296046117529
 30
0.0
 11
43.0775
 21
-106.242046117529
 31
0.0
  0
LINE
  5
7AE
330
1D
100
AcDbEntity
  8
0
100
AcDbLine
 10
43.0775
 20
-106.242046117529
 30
0.0
 11
44.7055
 21
-107.226046117529
 31
0.0
  0
LINE
  5
7AF
330
1D
100
AcDbEntity
  8
0
100
AcDbLine
 10
41.2635
 20
-105.439046117529
 30
0.0
 11
43.0775
 21
-106.242046117529
 31
0.0
  0
LINE
  5
7B0
330
1D
100
AcDbEntity
  8
0
100
AcDbLine
 10
38.7795
 20
-104.667046117529
 30
0.0
 11
41.2635
 21
-105.439046117529
 31
0.0
  0
LINE
  5
7B1
330
1D
100
AcDbEntity
  8
0
100
AcDbLine
 10
38.2915
 20
-104.556046117529
 30
0.0
 11
38.7795
 21
-104.667046117529
 31
0.0
  0
LINE
  5
7B2
330
1D
100
AcDbEntity
  8
0
100
AcDbLine
 10
28.0075
 20
-105.001046117529
 30
0.0
 11
29.7085
 21
-104.556046117529
 31
0.0
  0
LINE
  5
7B3
330
1D
100
AcDbEntity
  8
0
100
AcDbLine
 10
45.9577
 20
-108.5004865356474
 30
0.0
 11
45.9577
 21
-113.385246117529
 31
0.0
  0
LINE
  5
7B4
330
1D
100
AcDbEntity
  8
0
100
AcDbLine
 10
46.40649999999999
 20
-109.348046117529
 30
0.0
 11
46.47549999999999
 21
-110.461046117529
 31
0.0
  0
LINE
  5
7B5
330
1D
100
AcDbEntity
  8
0
100
AcDbLine
 10
52.1065
 20
-105.298046117529
 30
0.0
 11
52.2105
 21
-101.373046117529
 31
0.0
  0
LINE
  5
7B6
330
1D
100
AcDbEntity
  8
0
100
AcDbLine
 10
52.0235
 20
-106.910046117529
 30
0.0
 11
52.1065
 21
-105.298046117529
 31
0.0
  0
LINE
  5
7B7
330
1D
100
AcDbEntity
  8
0
100
AcDbLine
 10
45.8325
 20
-108.264046117529
 30
0.0
 11
46.40649999999999
 21
-109.348046117529
 31
0.0
  0
LINE
  5
7B8
330
1D
100
AcDbEntity
  8
0
100
AcDbLine
 10
44.7055
 20
-107.226046117529
 30
0.0
 11
45.8325
 21
-108.264046117529
 31
0.0
  0
LINE
  5
7B9
330
1D
100
AcDbEntity
  8
0
100
AcDbLine
 10
36.1785
 20
-104.221046117529
 30
0.0
 11
38.2915
 21
-104.556046117529
 31
0.0
  0
LINE
  5
7BA
330
1D
100
AcDbEntity
  8
0
100
AcDbLine
 10
48.7400761755568
 20
-95.4935220503116
 30
0.0
 11
49.24949999999999
 21
-95.58804611752901
 31
0.0
  0
LINE
  5
7BB
330
1D
100
AcDbEntity
  8
0
100
AcDbLine
 10
51.4695
 20
-96.12804611752901
 30
0.0
 11
51.8285
 21
-96.32404611752901
 31
0.0
  0
LINE
  5
7BC
330
1D
100
AcDbEntity
  8
0
100
AcDbLine
 10
51.1545
 20
-96.03304611752902
 30
0.0
 11
51.4695
 21
-96.12804611752901
 31
0.0
  0
LINE
  5
7BD
330
1D
100
AcDbEntity
  8
0
100
AcDbLine
 10
51.8285
 20
-96.32404611752901
 30
0.0
 11
51.9985
 21
-96.49304611752901
 31
0.0
  0
LINE
  5
7BE
330
1D
100
AcDbEntity
  8
0
100
AcDbLine
 10
52.2105
 20
-96.97304611752901
 30
0.0
 11
52.2415
 21
-97.44604611752901
 31
0.0
  0
LINE
  5
7BF
330
1D
100
AcDbEntity
  8
0
100
AcDbLine
 10
51.9985
 20
-96.49304611752901
 30
0.0
 11
52.2005
 21
-96.92504611752902
 31
0.0
  0
LINE
  5
7C0
330
1D
100
AcDbEntity
  8
0
100
AcDbLine
 10
54.2885
 20
-98.037046117529
 30
0.0
 11
55.5245
 21
-101.428046117529
 31
0.0
  0
LINE
  5
7C1
330
1D
100
AcDbEntity
  8
0
100
AcDbLine
 10
52.2105
 20
-101.373046117529
 30
0.0
 11
52.2415
 21
-97.44604611752901
 31
0.0
  0
LINE
  5
7C2
330
1D
100
AcDbEntity
  8
0
100
AcDbLine
 10
49.24949999999999
 20
-95.58804611752901
 30
0.0
 11
49.3312494442687
 21
-95.60714244440541
 31
0.0
  0
LINE
  5
7C3
330
1D
100
AcDbEntity
  8
0
100
AcDbLine
 10
49.34506704462489
 20
-95.6103701778219
 30
0.0
 11
51.1545
 21
-96.03304611752902
 31
0.0
  0
LINE
  5
7C4
330
1D
100
AcDbEntity
  8
0
100
AcDbLine
 10
49.44449999999999
 20
-95.62904611752902
 30
0.0
 11
51.12149999999999
 21
-96.02904611752901
 31
0.0
  0
LINE
  5
7C5
330
1D
100
AcDbEntity
  8
0
100
AcDbLine
 10
49.03649999999999
 20
-95.55404611752901
 30
0.0
 11
49.44449999999999
 21
-95.62904611752902
 31
0.0
  0
LINE
  5
7C6
330
1D
100
AcDbEntity
  8
0
100
AcDbLine
 10
52.5215
 20
-94.89004611752902
 30
0.0
 11
54.2885
 21
-98.037046117529
 31
0.0
  0
LINE
  5
7C7
330
1D
100
AcDbEntity
  8
0
100
AcDbLine
 10
43.0015
 20
-94.531046117529
 30
0.0
 11
46.9795
 21
-95.13404611752902
 31
0.0
  0
LINE
  5
7C8
330
1D
100
AcDbEntity
  8
0
100
AcDbLine
 10
50.2705
 20
-92.06904611752902
 30
0.0
 11
52.5215
 21
-94.89004611752902
 31
0.0
  0
LINE
  5
7C9
330
1D
100
AcDbEntity
  8
0
100
AcDbLine
 10
42.4835
 20
-94.49204611752902
 30
0.0
 11
43.0015
 21
-94.531046117529
 31
0.0
  0
LINE
  5
7CA
330
1D
100
AcDbEntity
  8
0
100
AcDbLine
 10
38.3545
 20
-94.12904611752901
 30
0.0
 11
42.4835
 21
-94.49204611752902
 31
0.0
  0
LINE
  5
7CB
330
1D
100
AcDbEntity
  8
0
100
AcDbLine
 10
46.9795
 20
-95.13404611752902
 30
0.0
 11
49.03649999999999
 21
-95.55404611752901
 31
0.0
  0
LINE
  5
7CC
330
1D
100
AcDbEntity
  8
0
100
AcDbLine
 10
34.0005
 20
-93.997046117529
 30
0.0
 11
38.3545
 21
-94.12904611752901
 31
0.0
  0
LINE
  5
7CD
330
1D
100
AcDbEntity
  8
0
100
AcDbLine
 10
34.0005
 20
-104.108046117529
 30
0.0
 11
36.1785
 21
-104.221046117529
 31
0.0
  0
LINE
  5
7CE
330
1D
100
AcDbEntity
  8
0
100
AcDbLine
 10
31.6545
 20
-104.239046117529
 30
0.0
 11
34.0005
 21
-104.108046117529
 31
0.0
  0
LINE
  5
7CF
330
1D
100
AcDbEntity
  8
0
100
AcDbLine
 10
29.7085
 20
-104.556046117529
 30
0.0
 11
31.6545
 21
-104.239046117529
 31
0.0
  0
LINE
  5
7D0
330
1D
100
AcDbEntity
  8
0
100
AcDbLine
 10
26.7365
 20
-105.439046117529
 30
0.0
 11
28.0075
 21
-105.001046117529
 31
0.0
  0
LINE
  5
7D1
330
1D
100
AcDbEntity
  8
0
100
AcDbLine
 10
47.5945
 20
-89.647046117529
 30
0.0
 11
50.2705
 21
-92.06904611752902
 31
0.0
  0
LINE
  5
7D2
330
1D
100
AcDbEntity
  8
0
100
AcDbLine
 10
56.0395
 20
-110.910046117529
 30
0.0
 11
56.3255
 21
-107.352046117529
 31
0.0
  0
LINE
  5
7D3
330
1D
100
AcDbEntity
  8
0
100
AcDbLine
 10
111.8035
 20
-107.615046117529
 30
0.0
 11
111.8955
 21
-110.563046117529
 31
0.0
  0
LINE
  5
7D4
330
1D
100
AcDbEntity
  8
0
100
AcDbLine
 10
111.8955
 20
-110.563046117529
 30
0.0
 11
112.0065
 21
-113.502046117529
 31
0.0
  0
LINE
  5
7D5
330
1D
100
AcDbEntity
  8
0
100
AcDbLine
 10
56.1985
 20
-104.976046117529
 30
0.0
 11
56.3255
 21
-107.352046117529
 31
0.0
  0
LINE
  5
7D6
330
1D
100
AcDbEntity
  8
0
100
AcDbLine
 10
55.5245
 20
-101.428046117529
 30
0.0
 11
56.1985
 21
-104.976046117529
 31
0.0
  0
LINE
  5
7D7
330
1D
100
AcDbEntity
  8
0
100
AcDbLine
 10
111.7285
 20
-104.342046117529
 30
0.0
 11
111.8035
 21
-107.615046117529
 31
0.0
  0
LINE
  5
7D8
330
1D
100
AcDbEntity
  8
0
100
AcDbLine
 10
111.6835
 20
-101.733046117529
 30
0.0
 11
111.7285
 21
-104.342046117529
 31
0.0
  0
LINE
  5
7D9
330
1D
100
AcDbEntity
  8
0
100
AcDbLine
 10
111.6775
 20
-101.341046117529
 30
0.0
 11
111.6835
 21
-101.733046117529
 31
0.0
  0
LINE
  5
7DA
330
1D
100
AcDbEntity
  8
0
100
AcDbLine
 10
111.6685
 20
-99.011046117529
 30
0.0
 11
111.6775
 21
-101.341046117529
 31
0.0
  0
LINE
  5
7DB
330
1D
100
AcDbEntity
  8
0
100
AcDbLine
 10
111.6685
 20
-99.011046117529
 30
0.0
 11
111.7865
 21
-96.550046117529
 31
0.0
  0
LINE
  5
7DC
330
1D
100
AcDbEntity
  8
0
100
AcDbLine
 10
111.7865
 20
-96.550046117529
 30
0.0
 11
111.9315
 21
-95.48004611752901
 31
0.0
  0
LINE
  5
7DD
330
1D
100
AcDbEntity
  8
0
100
AcDbLine
 10
111.9315
 20
-95.48004611752901
 30
0.0
 11
112.1385
 21
-94.49604611752901
 31
0.0
  0
LINE
  5
7DE
330
1D
100
AcDbEntity
  8
0
100
AcDbLine
 10
112.1385
 20
-94.49604611752901
 30
0.0
 11
112.4335
 21
-93.524046117529
 31
0.0
  0
LINE
  5
7DF
330
1D
100
AcDbEntity
  8
0
100
AcDbLine
 10
112.4335
 20
-93.524046117529
 30
0.0
 11
112.7435
 21
-92.75704611752901
 31
0.0
  0
LINE
  5
7E0
330
1D
100
AcDbEntity
  8
0
100
AcDbLine
 10
112.7435
 20
-92.75704611752901
 30
0.0
 11
113.1235
 21
-92.014046117529
 31
0.0
  0
LINE
  5
7E1
330
1D
100
AcDbEntity
  8
0
100
AcDbLine
 10
113.1235
 20
-92.014046117529
 30
0.0
 11
113.5175
 21
-91.38704611752901
 31
0.0
  0
LINE
  5
7E2
330
1D
100
AcDbEntity
  8
0
100
AcDbLine
 10
113.9665
 20
-90.79204611752901
 30
0.0
 11
114.6965
 21
-90.011046117529
 31
0.0
  0
LINE
  5
7E3
330
1D
100
AcDbEntity
  8
0
100
AcDbLine
 10
114.6965
 20
-90.011046117529
 30
0.0
 11
115.5165
 21
-89.316046117529
 31
0.0
  0
LINE
  5
7E4
330
1D
100
AcDbEntity
  8
0
100
AcDbLine
 10
115.5165
 20
-89.316046117529
 30
0.0
 11
116.4185
 21
-88.70304611752901
 31
0.0
  0
LINE
  5
7E5
330
1D
100
AcDbEntity
  8
0
100
AcDbLine
 10
113.5175
 20
-91.38704611752901
 30
0.0
 11
113.9665
 21
-90.79204611752901
 31
0.0
  0
LINE
  5
7E6
330
1D
100
AcDbEntity
  8
0
100
AcDbLine
 10
116.4185
 20
-88.70304611752901
 30
0.0
 11
117.3735
 21
-88.17804611752901
 31
0.0
  0
LINE
  5
7E7
330
1D
100
AcDbEntity
  8
0
100
AcDbLine
 10
117.3735
 20
-88.17804611752901
 30
0.0
 11
118.4635
 21
-87.69004611752901
 31
0.0
  0
LINE
  5
7E8
330
1D
100
AcDbEntity
  8
0
100
AcDbLine
 10
41.3905
 20
-86.290046117529
 30
0.0
 11
44.56249999999999
 21
-87.687046117529
 31
0.0
  0
LINE
  5
7E9
330
1D
100
AcDbEntity
  8
0
100
AcDbLine
 10
38.0405
 20
-85.400046117529
 30
0.0
 11
41.3905
 21
-86.290046117529
 31
0.0
  0
LINE
  5
7EA
330
1D
100
AcDbEntity
  8
0
100
AcDbLine
 10
27.7405
 20
-85.92804611752901
 30
0.0
 11
31.1335
 21
-85.217046117529
 31
0.0
  0
LINE
  5
7EB
330
1D
100
AcDbEntity
  8
0
100
AcDbLine
 10
26.3461375263697
 20
-86.46779933312782
 30
0.0
 11
27.7405
 21
-85.92804611752901
 31
0.0
  0
LINE
  5
7EC
330
1D
100
AcDbEntity
  8
0
100
AcDbLine
 10
44.56249999999999
 20
-87.687046117529
 30
0.0
 11
47.5945
 21
-89.647046117529
 31
0.0
  0
LINE
  5
7ED
330
1D
100
AcDbEntity
  8
0
100
AcDbLine
 10
119.5795
 20
-87.28004611752901
 30
0.0
 11
120.5905
 21
-86.96404611752901
 31
0.0
  0
LINE
  5
7EE
330
1D
100
AcDbEntity
  8
0
100
AcDbLine
 10
120.5905
 20
-86.96404611752901
 30
0.0
 11
122.0165
 21
-86.57904611752901
 31
0.0
  0
LINE
  5
7EF
330
1D
100
AcDbEntity
  8
0
100
AcDbLine
 10
123.1595
 20
-86.31704611752899
 30
0.0
 11
125.4665
 21
-85.894046117529
 31
0.0
  0
LINE
  5
7F0
330
1D
100
AcDbEntity
  8
0
100
AcDbLine
 10
125.4665
 20
-85.894046117529
 30
0.0
 11
127.5245
 21
-85.62204611752902
 31
0.0
  0
LINE
  5
7F1
330
1D
100
AcDbEntity
  8
0
100
AcDbLine
 10
127.5245
 20
-85.62204611752902
 30
0.0
 11
129.5905
 21
-85.43504611752901
 31
0.0
  0
LINE
  5
7F2
330
1D
100
AcDbEntity
  8
0
100
AcDbLine
 10
122.0165
 20
-86.57904611752901
 30
0.0
 11
123.1595
 21
-86.31704611752899
 31
0.0
  0
LINE
  5
7F3
330
1D
100
AcDbEntity
  8
0
100
AcDbLine
 10
141.4265
 20
-85.73604611752902
 30
0.0
 11
143.3165
 21
-86.023046117529
 31
0.0
  0
LINE
  5
7F4
330
1D
100
AcDbEntity
  8
0
100
AcDbLine
 10
136.9615
 20
-85.35004611752901
 30
0.0
 11
139.1975
 21
-85.497046117529
 31
0.0
  0
LINE
  5
7F5
330
1D
100
AcDbEntity
  8
0
100
AcDbLine
 10
139.1975
 20
-85.497046117529
 30
0.0
 11
141.4265
 21
-85.73604611752902
 31
0.0
  0
LINE
  5
7F6
330
1D
100
AcDbEntity
  8
0
100
AcDbLine
 10
129.5905
 20
-85.43504611752901
 30
0.0
 11
131.6625
 21
-85.32504611752901
 31
0.0
  0
LINE
  5
7F7
330
1D
100
AcDbEntity
  8
0
100
AcDbLine
 10
118.4635
 20
-87.69004611752901
 30
0.0
 11
119.5795
 21
-87.28004611752901
 31
0.0
  0
LINE
  5
7F8
330
1D
100
AcDbEntity
  8
0
100
AcDbLine
 10
144.3975
 20
-174.279046117529
 30
0.0
 11
145.5675
 21
-174.048046117529
 31
0.0
  0
LINE
  5
7F9
330
1D
100
AcDbEntity
  8
0
100
AcDbLine
 10
145.5675
 20
-174.048046117529
 30
0.0
 11
147.2325
 21
-173.578046117529
 31
0.0
  0
LINE
  5
7FA
330
1D
100
AcDbEntity
  8
0
100
AcDbLine
 10
147.2325
 20
-173.578046117529
 30
0.0
 11
148.0155
 21
-173.276046117529
 31
0.0
  0
LINE
  5
7FB
330
1D
100
AcDbEntity
  8
0
100
AcDbLine
 10
148.0155
 20
-173.276046117529
 30
0.0
 11
148.7605
 21
-172.924046117529
 31
0.0
  0
LINE
  5
7FC
330
1D
100
AcDbEntity
  8
0
100
AcDbLine
 10
148.7605
 20
-172.924046117529
 30
0.0
 11
149.6875
 21
-172.372046117529
 31
0.0
  0
LINE
  5
7FD
330
1D
100
AcDbEntity
  8
0
100
AcDbLine
 10
150.5315
 20
-171.721046117529
 30
0.0
 11
151.2705
 21
-170.9910461175289
 31
0.0
  0
LINE
  5
7FE
330
1D
100
AcDbEntity
  8
0
100
AcDbLine
 10
149.6875
 20
-172.372046117529
 30
0.0
 11
150.5315
 21
-171.721046117529
 31
0.0
  0
LINE
  5
7FF
330
1D
100
AcDbEntity
  8
0
100
AcDbLine
 10
151.2705
 20
-170.9910461175289
 30
0.0
 11
151.7905
 21
-170.346046117529
 31
0.0
  0
LINE
  5
800
330
1D
100
AcDbEntity
  8
0
100
AcDbLine
 10
151.7905
 20
-170.346046117529
 30
0.0
 11
152.2395
 21
-169.667046117529
 31
0.0
  0
LINE
  5
801
330
1D
100
AcDbEntity
  8
0
100
AcDbLine
 10
153.5165
 20
-166.455046117529
 30
0.0
 11
153.8675
 21
-164.628046117529
 31
0.0
  0
LINE
  5
802
330
1D
100
AcDbEntity
  8
0
100
AcDbLine
 10
154.0205
 20
-163.357046117529
 30
0.0
 11
154.2065
 21
-160.774046117529
 31
0.0
  0
LINE
  5
803
330
1D
100
AcDbEntity
  8
0
100
AcDbLine
 10
153.8675
 20
-164.628046117529
 30
0.0
 11
154.0205
 21
-163.357046117529
 31
0.0
  0
LINE
  5
804
330
1D
100
AcDbEntity
  8
0
100
AcDbLine
 10
152.9835
 20
-168.146046117529
 30
0.0
 11
153.5165
 21
-166.455046117529
 31
0.0
  0
LINE
  5
805
330
1D
100
AcDbEntity
  8
0
100
AcDbLine
 10
152.6385
 20
-168.931046117529
 30
0.0
 11
152.9835
 21
-168.146046117529
 31
0.0
  0
LINE
  5
806
330
1D
100
AcDbEntity
  8
0
100
AcDbLine
 10
152.2395
 20
-169.667046117529
 30
0.0
 11
152.6385
 21
-168.931046117529
 31
0.0
  0
LINE
  5
807
330
1D
100
AcDbEntity
  8
0
100
AcDbLine
 10
155.096748871387
 20
-140.1359487846889
 30
0.0
 11
155.3925
 21
-140.100046117529
 31
0.0
  0
LINE
  5
808
330
1D
100
AcDbEntity
  8
0
100
AcDbLine
 10
154.8925
 20
-145.929046117529
 30
0.0
 11
155.1515
 21
-138.583046117529
 31
0.0
  0
LINE
  5
809
330
1D
100
AcDbEntity
  8
0
100
AcDbLine
 10
154.5865
 20
-153.353046117529
 30
0.0
 11
154.8925
 21
-145.929046117529
 31
0.0
  0
LINE
  5
80A
330
1D
100
AcDbEntity
  8
0
100
AcDbLine
 10
155.1515
 20
-138.583046117529
 30
0.0
 11
156.2225
 21
-106.634046117529
 31
0.0
  0
LINE
  5
80B
330
1D
100
AcDbEntity
  8
0
100
AcDbLine
 10
154.2065
 20
-160.774046117529
 30
0.0
 11
154.5865
 21
-153.353046117529
 31
0.0
  0
LINE
  5
80C
330
1D
100
AcDbEntity
  8
0
100
AcDbLine
 10
155.3925
 20
-140.100046117529
 30
0.0
 11
158.2345
 21
-139.535046117529
 31
0.0
  0
LINE
  5
80D
330
1D
100
AcDbEntity
  8
0
100
AcDbLine
 10
149.5145
 20
-87.68104611752901
 30
0.0
 11
150.5475
 21
-88.138046117529
 31
0.0
  0
LINE
  5
80E
330
1D
100
AcDbEntity
  8
0
100
AcDbLine
 10
150.5475
 20
-88.138046117529
 30
0.0
 11
151.5415
 21
-88.67904611752901
 31
0.0
  0
LINE
  5
80F
330
1D
100
AcDbEntity
  8
0
100
AcDbLine
 10
151.5415
 20
-88.67904611752901
 30
0.0
 11
152.4305
 21
-89.27504611752899
 31
0.0
  0
LINE
  5
810
330
1D
100
AcDbEntity
  8
0
100
AcDbLine
 10
152.4305
 20
-89.27504611752899
 30
0.0
 11
153.2495
 21
-89.95904611752902
 31
0.0
  0
LINE
  5
811
330
1D
100
AcDbEntity
  8
0
100
AcDbLine
 10
154.2065
 20
-91.009046117529
 30
0.0
 11
154.9845
 21
-92.20804611752901
 31
0.0
  0
LINE
  5
812
330
1D
100
AcDbEntity
  8
0
100
AcDbLine
 10
153.2495
 20
-89.95904611752902
 30
0.0
 11
154.2065
 21
-91.009046117529
 31
0.0
  0
LINE
  5
813
330
1D
100
AcDbEntity
  8
0
100
AcDbLine
 10
154.9845
 20
-92.20804611752901
 30
0.0
 11
155.4335
 21
-93.17004611752901
 31
0.0
  0
LINE
  5
814
330
1D
100
AcDbEntity
  8
0
100
AcDbLine
 10
155.4335
 20
-93.17004611752901
 30
0.0
 11
155.7725
 21
-94.165046117529
 31
0.0
  0
LINE
  5
815
330
1D
100
AcDbEntity
  8
0
100
AcDbLine
 10
155.7725
 20
-94.165046117529
 30
0.0
 11
156.0275
 21
-95.24304611752901
 31
0.0
  0
LINE
  5
816
330
1D
100
AcDbEntity
  8
0
100
AcDbLine
 10
143.3165
 20
-86.023046117529
 30
0.0
 11
145.1925
 21
-86.39404611752899
 31
0.0
  0
LINE
  5
817
330
1D
100
AcDbEntity
  8
0
100
AcDbLine
 10
145.1925
 20
-86.39404611752899
 30
0.0
 11
147.4105
 21
-86.96404611752901
 31
0.0
  0
LINE
  5
818
330
1D
100
AcDbEntity
  8
0
100
AcDbLine
 10
147.4105
 20
-86.96404611752901
 30
0.0
 11
148.2985
 21
-87.23904611752901
 31
0.0
  0
LINE
  5
819
330
1D
100
AcDbEntity
  8
0
100
AcDbLine
 10
148.2985
 20
-87.23904611752901
 30
0.0
 11
149.5145
 21
-87.68104611752901
 31
0.0
  0
LINE
  5
81A
330
1D
100
AcDbEntity
  8
0
100
AcDbLine
 10
156.0275
 20
-95.24304611752901
 30
0.0
 11
156.1905
 21
-96.32804611752902
 31
0.0
  0
LINE
  5
81B
330
1D
100
AcDbEntity
  8
0
100
AcDbLine
 10
156.1905
 20
-96.32804611752902
 30
0.0
 11
156.2675
 21
-97.18104611752901
 31
0.0
  0
LINE
  5
81C
330
1D
100
AcDbEntity
  8
0
100
AcDbLine
 10
156.2675
 20
-97.18104611752901
 30
0.0
 11
156.3345
 21
-99.103046117529
 31
0.0
  0
LINE
  5
81D
330
1D
100
AcDbEntity
  8
0
100
AcDbLine
 10
156.3235
 20
-101.341046117529
 30
0.0
 11
156.3345
 21
-99.103046117529
 31
0.0
  0
LINE
  5
81E
330
1D
100
AcDbEntity
  8
0
100
AcDbLine
 10
156.3165
 20
-101.732046117529
 30
0.0
 11
156.3235
 21
-101.341046117529
 31
0.0
  0
LINE
  5
81F
330
1D
100
AcDbEntity
  8
0
100
AcDbLine
 10
156.2595
 20
-105.000046117529
 30
0.0
 11
156.3165
 21
-101.732046117529
 31
0.0
  0
LINE
  5
820
330
1D
100
AcDbEntity
  8
0
100
AcDbLine
 10
156.2225
 20
-106.634046117529
 30
0.0
 11
156.2595
 21
-105.000046117529
 31
0.0
  0
LINE
  5
821
330
1D
100
AcDbEntity
  8
0
100
AcDbLine
 10
31.1335
 20
-85.217046117529
 30
0.0
 11
34.5935
 21
-85.040046117529
 31
0.0
  0
LINE
  5
822
330
1D
100
AcDbEntity
  8
0
100
AcDbLine
 10
34.5935
 20
-85.040046117529
 30
0.0
 11
38.0405
 21
-85.400046117529
 31
0.0
  0
LINE
  5
823
330
1D
100
AcDbEntity
  8
0
100
AcDbLine
 10
1.083500000000019
 20
-85.09604611752902
 30
0.0
 11
1.909500000000019
 21
-81.886046117529
 31
0.0
  0
LINE
  5
824
330
1D
100
AcDbEntity
  8
0
100
AcDbLine
 10
134.0005
 20
-85.285046117529
 30
0.0
 11
136.9615
 21
-85.35004611752901
 31
0.0
  0
LINE
  5
825
330
1D
100
AcDbEntity
  8
0
100
AcDbLine
 10
131.6625
 20
-85.32504611752901
 30
0.0
 11
134.0005
 21
-85.285046117529
 31
0.0
  0
LINE
  5
826
330
1D
100
AcDbEntity
  8
0
100
AcDbLine
 10
1.909500000000019
 20
-81.886046117529
 30
0.0
 11
2.86350000000002
 21
-79.693046117529
 31
0.0
  0
LINE
  5
827
330
1D
100
AcDbEntity
  8
0
100
AcDbLine
 10
2.86350000000002
 20
-79.693046117529
 30
0.0
 11
3.86850000000002
 21
-78.24704611752901
 31
0.0
  0
LINE
  5
828
330
1D
100
AcDbEntity
  8
0
100
AcDbLine
 10
3.86850000000002
 20
-78.24704611752901
 30
0.0
 11
4.903500000000019
 21
-77.273046117529
 31
0.0
  0
LINE
  5
829
330
1D
100
AcDbEntity
  8
0
100
AcDbLine
 10
4.903500000000019
 20
-77.273046117529
 30
0.0
 11
6.417500000000019
 21
-76.341046117529
 31
0.0
  0
LINE
  5
82A
330
1D
100
AcDbEntity
  8
0
100
AcDbLine
 10
6.417500000000019
 20
-76.341046117529
 30
0.0
 11
8.693500000000019
 21
-75.46404611752901
 31
0.0
  0
LINE
  5
82B
330
1D
100
AcDbEntity
  8
0
100
AcDbLine
 10
8.693500000000019
 20
-75.46404611752901
 30
0.0
 11
12.2425
 21
-74.665046117529
 31
0.0
  0
LINE
  5
82C
330
1D
100
AcDbEntity
  8
0
100
AcDbLine
 10
12.2425
 20
-74.665046117529
 30
0.0
 11
16.9085
 21
-74.09904611752901
 31
0.0
  0
LINE
  5
82D
330
1D
100
AcDbEntity
  8
0
100
AcDbLine
 10
23.4185
 20
-73.71704611752901
 30
0.0
 11
31.5105
 21
-73.52104611752901
 31
0.0
  0
LINE
  5
82E
330
1D
100
AcDbEntity
  8
0
100
AcDbLine
 10
16.9085
 20
-74.09904611752901
 30
0.0
 11
23.4185
 21
-73.71704611752901
 31
0.0
  0
LINE
  5
82F
330
1D
100
AcDbEntity
  8
0
100
AcDbLine
 10
31.5105
 20
-73.52104611752901
 30
0.0
 11
39.9075
 21
-73.440046117529
 31
0.0
  0
LINE
  5
830
330
1D
100
AcDbEntity
  8
0
100
AcDbLine
 10
39.9075
 20
-73.440046117529
 30
0.0
 11
48.6505
 21
-73.398046117529
 31
0.0
  0
LINE
  5
831
330
1D
100
AcDbEntity
  8
0
100
AcDbLine
 10
128.0925
 20
-73.440046117529
 30
0.0
 11
136.2705
 21
-73.51804611752901
 31
0.0
  0
LINE
  5
832
330
1D
100
AcDbEntity
  8
0
100
AcDbLine
 10
48.6505
 20
-73.398046117529
 30
0.0
 11
84.0005
 21
-73.36904611752901
 31
0.0
  0
LINE
  5
833
330
1D
100
AcDbEntity
  8
0
100
AcDbLine
 10
84.0005
 20
-73.36904611752901
 30
0.0
 11
101.7345
 21
-73.371046117529
 31
0.0
  0
LINE
  5
834
330
1D
100
AcDbEntity
  8
0
100
AcDbLine
 10
101.7345
 20
-73.371046117529
 30
0.0
 11
128.0925
 21
-73.440046117529
 31
0.0
  0
LINE
  5
835
330
1D
100
AcDbEntity
  8
0
100
AcDbLine
 10
156.0225
 20
-74.710046117529
 30
0.0
 11
159.3325
 21
-75.472046117529
 31
0.0
  0
LINE
  5
836
330
1D
100
AcDbEntity
  8
0
100
AcDbLine
 10
136.2705
 20
-73.51804611752901
 30
0.0
 11
146.0485
 21
-73.778046117529
 31
0.0
  0
LINE
  5
837
330
1D
100
AcDbEntity
  8
0
100
AcDbLine
 10
151.4105
 20
-74.127046117529
 30
0.0
 11
156.0225
 21
-74.710046117529
 31
0.0
  0
LINE
  5
838
330
1D
100
AcDbEntity
  8
0
100
AcDbLine
 10
146.0485
 20
-73.778046117529
 30
0.0
 11
151.4105
 21
-74.127046117529
 31
0.0
  0
LINE
  5
839
330
1D
100
AcDbEntity
  8
0
100
AcDbLine
 10
158.2345
 20
-139.535046117529
 30
0.0
 11
160.3535
 21
-138.892046117529
 31
0.0
  0
LINE
  5
83A
330
1D
100
AcDbEntity
  8
0
100
AcDbLine
 10
160.3535
 20
-138.892046117529
 30
0.0
 11
162.2925
 21
-137.980046117529
 31
0.0
  0
LINE
  5
83B
330
1D
100
AcDbEntity
  8
0
100
AcDbLine
 10
162.2925
 20
-137.980046117529
 30
0.0
 11
163.6465
 21
-136.964046117529
 31
0.0
  0
LINE
  5
83C
330
1D
100
AcDbEntity
  8
0
100
AcDbLine
 10
163.6465
 20
-136.964046117529
 30
0.0
 11
164.6105
 21
-135.851046117529
 31
0.0
  0
LINE
  5
83D
330
1D
100
AcDbEntity
  8
0
100
AcDbLine
 10
164.6105
 20
-135.851046117529
 30
0.0
 11
165.2835
 21
-134.741046117529
 31
0.0
  0
LINE
  5
83E
330
1D
100
AcDbEntity
  8
0
100
AcDbLine
 10
165.2835
 20
-134.741046117529
 30
0.0
 11
165.8885
 21
-133.379046117529
 31
0.0
  0
LINE
  5
83F
330
1D
100
AcDbEntity
  8
0
100
AcDbLine
 10
165.8885
 20
-133.379046117529
 30
0.0
 11
166.3865
 21
-131.871046117529
 31
0.0
  0
LINE
  5
840
330
1D
100
AcDbEntity
  8
0
100
AcDbLine
 10
165.9695
 20
-81.544046117529
 30
0.0
 11
166.8005
 21
-84.52004611752901
 31
0.0
  0
LINE
  5
841
330
1D
100
AcDbEntity
  8
0
100
AcDbLine
 10
165.0745
 20
-79.58104611752901
 30
0.0
 11
165.9695
 21
-81.544046117529
 31
0.0
  0
LINE
  5
842
330
1D
100
AcDbEntity
  8
0
100
AcDbLine
 10
166.3865
 20
-131.871046117529
 30
0.0
 11
166.8045
 21
-130.168046117529
 31
0.0
  0
LINE
  5
843
330
1D
100
AcDbEntity
  8
0
100
AcDbLine
 10
166.8045
 20
-130.168046117529
 30
0.0
 11
167.1775
 21
-128.076046117529
 31
0.0
  0
LINE
  5
844
330
1D
100
AcDbEntity
  8
0
100
AcDbLine
 10
167.1775
 20
-128.076046117529
 30
0.0
 11
167.4595
 21
-125.824046117529
 31
0.0
  0
LINE
  5
845
330
1D
100
AcDbEntity
  8
0
100
AcDbLine
 10
167.4595
 20
-125.824046117529
 30
0.0
 11
167.8455
 21
-119.895046117529
 31
0.0
  0
LINE
  5
846
330
1D
100
AcDbEntity
  8
0
100
AcDbLine
 10
167.9665
 20
-113.509046117529
 30
0.0
 11
167.9805
 21
-107.354046117529
 31
0.0
  0
LINE
  5
847
330
1D
100
AcDbEntity
  8
0
100
AcDbLine
 10
167.9665
 20
-101.196046117529
 30
0.0
 11
167.9805
 21
-107.354046117529
 31
0.0
  0
LINE
  5
848
330
1D
100
AcDbEntity
  8
0
100
AcDbLine
 10
167.8455
 20
-94.796046117529
 30
0.0
 11
167.9665
 21
-101.196046117529
 31
0.0
  0
LINE
  5
849
330
1D
100
AcDbEntity
  8
0
100
AcDbLine
 10
167.8455
 20
-119.895046117529
 30
0.0
 11
167.9665
 21
-113.509046117529
 31
0.0
  0
LINE
  5
84A
330
1D
100
AcDbEntity
  8
0
100
AcDbLine
 10
167.6865
 20
-91.589046117529
 30
0.0
 11
167.8455
 21
-94.796046117529
 31
0.0
  0
LINE
  5
84B
330
1D
100
AcDbEntity
  8
0
100
AcDbLine
 10
167.3475
 20
-87.88104611752901
 30
0.0
 11
167.6865
 21
-91.589046117529
 31
0.0
  0
LINE
  5
84C
330
1D
100
AcDbEntity
  8
0
100
AcDbLine
 10
166.8005
 20
-84.52004611752901
 30
0.0
 11
167.3475
 21
-87.88104611752901
 31
0.0
  0
LINE
  5
84D
330
1D
100
AcDbEntity
  8
0
100
AcDbLine
 10
161.3895
 20
-76.24804611752901
 30
0.0
 11
162.7655
 21
-77.031046117529
 31
0.0
  0
LINE
  5
84E
330
1D
100
AcDbEntity
  8
0
100
AcDbLine
 10
159.3325
 20
-75.472046117529
 30
0.0
 11
161.3895
 21
-76.24804611752901
 31
0.0
  0
LINE
  5
84F
330
1D
100
AcDbEntity
  8
0
100
AcDbLine
 10
164.0425
 20
-78.14604611752901
 30
0.0
 11
165.0745
 21
-79.58104611752901
 31
0.0
  0
LINE
  5
850
330
1D
100
AcDbEntity
  8
0
100
AcDbLine
 10
162.7655
 20
-77.031046117529
 30
0.0
 11
164.0425
 21
-78.14604611752901
 31
0.0
  0
LINE
  5
851
330
1D
100
AcDbEntity
  8
0
100
AcDbLine
 10
26.3461375263697
 20
-86.46779933312782
 30
0.0
 11
21.18084000982554
 21
-89.92363558369776
 31
0.0
  0
LINE
  5
852
330
1D
100
AcDbEntity
  8
0
100
AcDbLine
 10
21.18084000982554
 20
-89.92363558369776
 30
0.0
 11
16.22569983074497
 21
-94.35718205971721
 31
0.0
  0
LINE
  5
853
330
1D
100
AcDbEntity
  8
0
100
AcDbLine
 10
16.22569983074497
 20
-94.35718205971721
 30
0.0
 11
13.74812974120469
 21
-98.66033010997139
 31
0.0
  0
LINE
  5
854
330
1D
100
AcDbEntity
  8
0
100
AcDbLine
 10
13.74812974120469
 20
-98.66033010997139
 30
0.0
 11
12.5207730506318
 21
-101.4979147826371
 31
0.0
  0
LINE
  5
855
330
1D
100
AcDbEntity
  8
0
100
AcDbLine
 10
12.4878891714479
 20
-113.0562465484663
 30
0.0
 11
14.44573340028976
 21
-117.9304071476626
 31
0.0
  0
LINE
  5
856
330
1D
100
AcDbEntity
  8
0
100
AcDbLine
 10
14.44573340028976
 20
-117.9304071476626
 30
0.0
 11
17.60144420968316
 21
-122.1998982427243
 31
0.0
  0
LINE
  5
857
330
1D
100
AcDbEntity
  8
0
100
AcDbLine
 10
17.60144420968316
 20
-122.1998982427243
 30
0.0
 11
20.20026487624243
 21
-124.7987189092836
 31
0.0
  0
LINE
  5
858
330
1D
100
AcDbEntity
  8
0
100
AcDbLine
 10
20.20026487624243
 20
-124.7987189092836
 30
0.0
 11
23.82005080466427
 21
-127.2119095282315
 31
0.0
  0
LINE
  5
859
330
1D
100
AcDbEntity
  8
0
100
AcDbLine
 10
23.82005080466427
 20
-127.2119095282315
 30
0.0
 11
26.2958232279503
 21
-128.2154894280045
 31
0.0
  0
LINE
  5
85A
330
1D
100
AcDbEntity
  8
0
100
AcDbLine
 10
29.6465
 20
-94.12904611752901
 30
0.0
 11
34.0005
 21
-93.997046117529
 31
0.0
  0
ENDSEC
  0
SECTION
  2
OBJECTS
  0
DICTIONARY
  5
C
330
0
100
AcDbDictionary
281
     1
  3
ACAD_CIP_PREVIOUS_PRODUCT_INFO
350
235
  3
ACAD_COLOR
350
22A
  3
ACAD_DETAILVIEWSTYLE
350
231
  3
ACAD_GROUP
350
D
  3
ACAD_LAYOUT
350
1A
  3
ACAD_MATERIAL
350
1F8
  3
ACAD_MLEADERSTYLE
350
1F4
  3
ACAD_MLINESTYLE
350
17
  3
ACAD_PLOTSETTINGS
350
19
  3
ACAD_PLOTSTYLENAME
350
E
  3
ACAD_SCALELIST
350
1CC
  3
ACAD_SECTIONVIEWSTYLE
350
22E
  3
ACAD_TABLESTYLE
350
22B
  3
ACAD_VISUALSTYLE
350
211
  3
ACDB_RECOMPOSE_DATA
350
888
  3
AcDbVariableDictionary
350
1F2
  3
AcDsDecomposeData
350
88F
  3
AcmDictionary
350
262
  3
AMG
350
237
  3
AMGSNAPSETTINGS
350
35F
  3
DWGPROPS
350
889
  0
DICTIONARY
  5
870
330
2
100
AcDbDictionary
280
     1
281
     1
  3
ACAD_LAYERSTATES
360
871
  0
DICTIONARY
  5
869
330
10
100
AcDbDictionary
280
     1
281
     1
  3
ADSK_XREC_LAYER_RECONCILED
360
86A
  0
DICTIONARY
  5
86B
330
85B
100
AcDbDictionary
280
     1
281
     1
  3
ADSK_XREC_LAYER_RECONCILED
360
86C
  0
DICTIONARY
  5
85E
330
1D
100
AcDbDictionary
280
     1
281
     1
  3
ACAD_SORTENTS
360
85F
  0
XRECORD
  5
235
102
{ACAD_REACTORS
330
C
102
}
330
C
100
AcDbXrecord
280
     1
300
AMECH_PP
300
2013
300
PDSS_F_S
  0
DICTIONARY
  5
22A
102
{ACAD_REACTORS
330
C
102
}
330
C
100
AcDbDictionary
281
     1
  0
DICTIONARY
  5
231
102
{ACAD_REACTORS
330
C
102
}
330
C
100
AcDbDictionary
281
     1
  3
Imperial24
350
232
  0
DICTIONARY
  5
D
102
{ACAD_REACTORS
330
C
102
}
330
C
100
AcDbDictionary
281
     1
  0
DICTIONARY
  5
1A
102
{ACAD_REACTORS
330
C
102
}
330
C
100
AcDbDictionary
281
     1
  3
Layout1
350
1C
  3
Model
350
1E
  0
DICTIONARY
  5
1F8
102
{ACAD_REACTORS
330
C
102
}
330
C
100
AcDbDictionary
281
     1
  3
ByBlock
350
201
  3
ByLayer
350
1F9
  3
Global
350
209
  0
DICTIONARY
  5
1F4
102
{ACAD_REACTORS
330
C
102
}
330
C
100
AcDbDictionary
281
     1
  3
Standard
350
22D
  0
DICTIONARY
  5
17
102
{ACAD_REACTORS
330
C
102
}
330
C
100
AcDbDictionary
281
     1
  3
Standard
350
18
  0
DICTIONARY
  5
19
102
{ACAD_REACTORS
330
C
102
}
330
C
100
AcDbDictionary
281
     1
  0
ACDBDICTIONARYWDFLT
  5
E
102
{ACAD_REACTORS
330
C
102
}
330
C
100
AcDbDictionary
281
     1
  3
Normal
350
F
100
AcDbDictionaryWithDefault
340
F
  0
DICTIONARY
  5
1CC
102
{ACAD_REACTORS
330
C
102
}
330
C
100
AcDbDictionary
281
     1
  3
A0
350
1CD
  3
A1
350
1CE
  3
A2
350
1CF
  3
A3
350
1D0
  3
A4
350
1D1
  3
A5
350
1D2
  3
A6
350
1D3
  3
A7
350
1D4
  3
A8
350
1D5
  3
A9
350
1D6
  3
B0
350
1D7
  3
B1
350
1D8
  3
B2
350
1D9
  3
B3
350
1DA
  3
B4
350
1DB
  3
B5
350
1DC
  3
B6
350
1DD
  3
B7
350
1DE
  3
B8
350
1DF
  3
B9
350
1E0
  3
C0
350
1E1
  3
C1
350
1E2
  3
C2
350
1E3
  3
C3
350
1E4
  3
C4
350
1E5
  3
C5
350
1E6
  3
C6
350
1E7
  3
C7
350
1E8
  3
C8
350
1E9
  3
C9
350
1EA
  3
D0
350
1EB
  3
D1
350
1EC
  3
D2
350
1ED
  0
DICTIONARY
  5
22E
102
{ACAD_REACTORS
330
C
102
}
330
C
100
AcDbDictionary
281
     1
  3
Imperial24
350
230
  0
DICTIONARY
  5
22B
102
{ACAD_REACTORS
330
C
102
}
330
C
100
AcDbDictionary
281
     1
  3
Standard
350
22C
  0
DICTIONARY
  5
211
102
{ACAD_REACTORS
330
C
102
}
330
C
100
AcDbDictionary
281
     1
  3
2dWireframe
350
217
  3
Basic
350
216
  3
Brighten
350
21D
  3
ColorChange
350
221
  3
Conceptual
350
21A
  3
Dim
350
21C
  3
EdgeColorOff
350
229
  3
Facepattern
350
220
  3
Flat
350
212
  3
FlatWithEdges
350
213
  3
Gouraud
350
214
  3
GouraudWithEdges
350
215
  3
Hidden
350
219
  3
JitterOff
350
227
  3
Linepattern
350
21F
  3
OverhangOff
350
228
  3
Realistic
350
21B
  3
Shaded
350
226
  3
Shaded with edges
350
225
  3
Shades of Gray
350
222
  3
Sketchy
350
223
  3
Thicken
350
21E
  3
Wireframe
350
218
  3
X-Ray
350
224
  0
XRECORD
  5
888
102
{ACAD_REACTORS
330
C
102
}
330
C
100
AcDbXrecord
280
     1
 90
        1
330
22C
  0
DICTIONARY
  5
1F2
102
{ACAD_REACTORS
330
C
102
}
330
C
100
AcDbDictionary
281
     1
  3
CANNOSCALE
350
1F5
  3
CMLEADERSTYLE
350
87F
  3
CTABLESTYLE
350
87E
  3
CVIEWDETAILSTYLE
350
880
  3
CVIEWSECTIONSTYLE
350
881
  3
DIMASSOC
350
884
  3
INDEXCTL
350
883
  3
SORTENTS
350
882
  3
XCLIPFRAME
350
885
  0
DICTIONARY
  5
88F
102
{ACAD_REACTORS
330
C
102
}
330
C
100
AcDbDictionary
281
     1
  3
AcDsRecords
350
891
  3
AcDsSchemas
350
890
1001
ACAD
1070
     2
  0
DICTIONARY
  5
262
102
{ACAD_REACTORS
330
C
102
}
330
C
100
AcDbDictionary
281
     1
  3
AcmStdDictionary
350
269
  0
DICTIONARY
  5
237
102
{ACAD_REACTORS
330
C
102
}
330
C
100
AcDbDictionary
281
     1
  0
DICTIONARY
  5
35F
102
{ACAD_REACTORS
330
C
102
}
330
C
100
AcDbDictionary
281
     1
  0
XRECORD
  5
889
102
{ACAD_REACTORS
330
C
102
}
330
C
100
AcDbXrecord
280
     1
  1
DWGPROPS COOKIE
  2

  3

  4

  6

  7

  8
tomitais
  9

300
=
301
=
302
=
303
=
304
=
305
=
306
=
307
=
308
=
309
=
 40
0.0104508449074074
 41
2456646.695744537
 42
2457020.758886308
  1

 90
        0
  0
DICTIONARY
  5
871
102
{ACAD_REACTORS
330
870
102
}
330
870
100
AcDbDictionary
281
     1
  0
XRECORD
  5
86A
102
{ACAD_REACTORS
330
869
102
}
330
869
100
AcDbXrecord
280
     1
290
     1
  0
XRECORD
  5
86C
102
{ACAD_REACTORS
330
86B
102
}
330
86B
100
AcDbXrecord
280
     1
290
     1
  0
SORTENTSTABLE
  5
85F
102
{ACAD_REACTORS
330
85E
102
}
330
85E
100
AcDbSortentsTable
330
1D
331
720
  5
729
331
810
  5
819
331
60
  5
69
331
660
  5
669
331
731
  5
73A
331
371
  5
37A
331
821
  5
82A
331
71
  5
7A
331
671
  5
67A
331
382
  5
38B
331
832
  5
83B
331
742
  5
74B
331
7A
  5
86
331
682
  5
68B
331
393
  5
39C
331
843
  5
84C
331
753
  5
75C
331
693
  5
69C
331
3A4
  5
3AD
331
854
  5
861
331
764
  5
76D
331
6A4
  5
6AD
331
775
  5
77E
331
3B5
  5
3BE
331
184
  5
18D
331
786
  5
78F
331
3C6
  5
3CF
331
6AE
  5
6B7
331
797
  5
7A0
331
3D7
  5
3E0
331
1A6
  5
1B9
331
6D0
  5
6D9
331
1B7
  5
1C1
331
7A1
  5
7AA
331
3E1
  5
3EA
331
7B2
  5
7BB
331
3F2
  5
3FB
331
403
  5
40C
331
7C3
  5
7CC
331
103
  5
10D
331
414
  5
41D
331
7D4
  5
7DD
331
714
  5
71D
331
425
  5
64A
331
7E5
  5
7EE
331
7F6
  5
7FF
331
136
  5
13F
331
2D
  5
36
331
807
  5
810
331
147
  5
16F
331
125
  5
132
331
114
  5
11D
331
703
  5
70C
331
6F2
  5
6FB
331
64F
  5
658
331
4F
  5
5A
331
6E1
  5
6EA
331
6BF
  5
6C8
331
9C
  5
A8
331
8B
  5
94
331
808
  5
811
331
721
  5
72A
331
650
  5
659
331
50
  5
5C
331
811
  5
81A
331
61
  5
6A
331
661
  5
66A
331
732
  5
73B
331
372
  5
37B
331
822
  5
82B
331
72
  5
7E
331
672
  5
67B
331
833
  5
83C
331
743
  5
74C
331
383
  5
38C
331
683
  5
68C
331
394
  5
39D
331
844
  5
84D
331
754
  5
75D
331
694
  5
69D
331
3A5
  5
3AE
331
855
  5
862
331
765
  5
76E
331
9D
  5
AF
331
776
  5
77F
331
3B6
  5
3BF
331
185
  5
18E
331
3C7
  5
3D0
331
787
  5
790
331
BF
  5
CA
331
6AF
  5
6B8
331
6C0
  5
6C9
331
6D1
  5
6DA
331
1B8
  5
1C2
331
7A2
  5
7AB
331
3E2
  5
3EB
331
7B3
  5
7BC
331
3F3
  5
3FC
331
404
  5
40D
331
6F3
  5
6FC
331
7C4
  5
7CD
331
704
  5
70D
331
7D5
  5
7DE
331
115
  5
11E
331
426
  5
64B
331
7E6
  5
7EF
331
7F7
  5
800
331
137
  5
140
331
2E
  5
37
331
126
  5
133
331
715
  5
71E
331
415
  5
41E
331
104
  5
10E
331
6E2
  5
6EB
331
1A7
  5
1BA
331
6A5
  5
6AE
331
8C
  5
95
331
809
  5
812
331
7F8
  5
801
331
138
  5
141
331
651
  5
65A
331
51
  5
5D
331
722
  5
72B
331
16A
  5
181
331
812
  5
81B
331
62
  5
6B
331
662
  5
66B
331
733
  5
73C
331
373
  5
37C
331
823
  5
82C
331
73
  5
7F
331
673
  5
67C
331
834
  5
83D
331
744
  5
74D
331
384
  5
38D
331
684
  5
68D
331
845
  5
84E
331
755
  5
75E
331
8D
  5
96
331
3A6
  5
3AF
331
856
  5
863
331
766
  5
76F
331
9E
  5
B0
331
3B7
  5
3C0
331
186
  5
18F
331
777
  5
780
331
3C8
  5
3D1
331
197
  5
1A2
331
788
  5
791
331
C0
  5
CB
331
AF
  5
C8
331
6C1
  5
6CA
331
D9
  5
ED
331
1B9
  5
1C3
331
6D2
  5
6DB
331
7A3
  5
7AC
331
3E3
  5
3EC
331
6E3
  5
6EC
331
7B4
  5
7BD
331
6F4
  5
6FD
331
7C5
  5
7CE
331
105
  5
10F
331
416
  5
41F
331
7D6
  5
7DF
331
716
  5
71F
331
427
  5
64C
331
7E7
  5
7F0
331
2F
  5
38
331
127
  5
134
331
116
  5
11F
331
705
  5
70E
331
405
  5
40E
331
3F4
  5
3FD
331
EA
  5
F3
331
6B0
  5
6B9
331
6A6
  5
6AF
331
695
  5
69E
331
395
  5
39E
331
7E8
  5
7F1
331
128
  5
135
331
7F9
  5
802
331
139
  5
142
331
30
  5
39
331
80A
  5
813
331
152
  5
170
331
652
  5
65B
331
723
  5
72C
331
16B
  5
182
331
813
  5
81C
331
63
  5
6C
331
663
  5
66C
331
374
  5
37D
331
734
  5
73D
331
17C
  5
188
331
824
  5
82D
331
74
  5
80
331
835
  5
83E
331
745
  5
74E
331
385
  5
38E
331
685
  5
68E
331
396
  5
39F
331
846
  5
84F
331
756
  5
75F
331
696
  5
69F
331
3A7
  5
3B0
331
857
  5
864
331
767
  5
770
331
9F
  5
BF
331
3B8
  5
3C1
331
187
  5
190
331
778
  5
781
331
789
  5
792
331
3C9
  5
3D2
331
198
  5
1A3
331
6B1
  5
6BA
331
B0
  5
C9
331
6C2
  5
6CB
331
1BA
  5
1C4
331
6D3
  5
6DC
331
EB
  5
F4
331
7A4
  5
7AD
331
6E4
  5
6ED
331
7B5
  5
7BE
331
3F5
  5
3FE
331
406
  5
40F
331
7C6
  5
7CF
331
106
  5
110
331
417
  5
420
331
7D7
  5
7E0
331
717
  5
720
331
117
  5
120
331
706
  5
70F
331
6F5
  5
6FE
331
3E4
  5
3ED
331
DA
  5
EE
331
6A7
  5
6B0
331
8E
  5
97
331
674
  5
67D
331
418
  5
421
331
7D8
  5
7E1
331
118
  5
121
331
718
  5
721
331
7E9
  5
7F2
331
129
  5
136
331
80B
  5
814
331
7FA
  5
803
331
13A
  5
143
331
31
  5
3A
331
724
  5
72D
331
653
  5
65C
331
814
  5
81D
331
64
  5
6D
331
664
  5
66D
331
735
  5
73E
331
375
  5
37E
331
825
  5
82E
331
75
  5
81
331
386
  5
38F
331
836
  5
83F
331
746
  5
74F
331
7E
  5
88
331
675
  5
67E
331
397
  5
3A0
331
847
  5
850
331
757
  5
760
331
697
  5
6A0
331
3A8
  5
3B1
331
858
  5
865
331
768
  5
771
331
779
  5
782
331
3B9
  5
3C2
331
188
  5
192
331
3CA
  5
3D3
331
199
  5
1A4
331
78A
  5
793
331
6B2
  5
6BB
331
6C3
  5
6CC
331
1AA
  5
1BB
331
6D4
  5
6DD
331
EC
  5
F5
331
7A5
  5
7AE
331
3E5
  5
3EE
331
7B6
  5
7BF
331
3F6
  5
3FF
331
6F6
  5
6FF
331
407
  5
410
331
7C7
  5
7D0
331
107
  5
111
331
707
  5
710
331
1EE
  5
36C
331
6E5
  5
6EE
331
1BB
  5
1C5
331
C2
  5
D9
331
A0
  5
C0
331
8F
  5
98
331
686
  5
68F
331
408
  5
411
331
7C8
  5
7D1
331
108
  5
112
331
708
  5
711
331
419
  5
422
331
7D9
  5
7E2
331
119
  5
122
331
719
  5
722
331
21
  5
2A
331
7EA
  5
7F3
331
12A
  5
137
331
80C
  5
815
331
7FB
  5
804
331
13B
  5
144
331
32
  5
3B
331
725
  5
72E
331
654
  5
65D
331
54
  5
5E
331
815
  5
81E
331
65
  5
6E
331
736
  5
73F
331
376
  5
37F
331
826
  5
82F
331
76
  5
82
331
676
  5
67F
331
665
  5
66E
331
837
  5
840
331
747
  5
750
331
7F
  5
8A
331
398
  5
3A1
331
848
  5
851
331
758
  5
761
331
90
  5
99
331
698
  5
6A1
331
859
  5
866
331
769
  5
772
331
3A9
  5
3B2
331
77A
  5
783
331
3BA
  5
3C3
331
78B
  5
794
331
3CB
  5
3D4
331
6B3
  5
6BC
331
6C4
  5
6CD
331
1BC
  5
1C6
331
6D5
  5
6DE
331
ED
  5
F6
331
7A6
  5
7AF
331
6E6
  5
6EF
331
7B7
  5
7C0
331
3F7
  5
400
331
1EF
  5
36D
331
6F7
  5
700
331
3E6
  5
3EF
331
DC
  5
EF
331
189
  5
193
331
687
  5
690
331
387
  5
390
331
3F8
  5
401
331
7B8
  5
7C1
331
F8
  5
101
331
6F8
  5
701
331
409
  5
412
331
1F0
  5
36E
331
7C9
  5
7D2
331
109
  5
113
331
709
  5
712
331
41A
  5
423
331
7DA
  5
7E3
331
11A
  5
123
331
71A
  5
723
331
22
  5
2B
331
7EB
  5
7F4
331
12B
  5
138
331
7FC
  5
805
331
13C
  5
145
331
80D
  5
816
331
644
  5
64D
331
44
  5
55
331
655
  5
65E
331
55
  5
5F
331
726
  5
72F
331
816
  5
81F
331
66
  5
6F
331
666
  5
66F
331
737
  5
740
331
377
  5
380
331
16E
  5
183
331
33
  5
3C
331
827
  5
830
331
677
  5
680
331
838
  5
841
331
748
  5
751
331
80
  5
8B
331
688
  5
691
331
399
  5
3A2
331
849
  5
852
331
759
  5
762
331
699
  5
6A2
331
3AA
  5
3B3
331
85A
  5
867
331
76A
  5
773
331
77B
  5
784
331
3BB
  5
3C4
331
18A
  5
197
331
3CC
  5
3D5
331
19B
  5
1A5
331
78C
  5
795
331
6B4
  5
6BD
331
6C5
  5
6CE
331
1AC
  5
1BC
331
6D6
  5
6DF
331
EE
  5
F7
331
7A7
  5
7B0
331
3E7
  5
3F0
331
6E7
  5
6F0
331
1BD
  5
1EE
331
C4
  5
DA
331
A2
  5
C2
331
91
  5
9A
331
388
  5
391
331
77
  5
83
331
7A8
  5
7B1
331
3E8
  5
3F1
331
6E8
  5
6F1
331
3F9
  5
402
331
7B9
  5
7C2
331
F9
  5
102
331
6F9
  5
702
331
40A
  5
413
331
1F1
  5
36F
331
7CA
  5
7D3
331
10A
  5
114
331
70A
  5
713
331
41B
  5
424
331
7DB
  5
7E4
331
11B
  5
124
331
71B
  5
724
331
23
  5
2C
331
7EC
  5
7F5
331
12C
  5
139
331
7FD
  5
806
331
13D
  5
147
331
645
  5
64E
331
80E
  5
817
331
156
  5
175
331
656
  5
65F
331
367
  5
370
331
727
  5
730
331
16F
  5
184
331
817
  5
820
331
67
  5
70
331
56
  5
60
331
34
  5
3D
331
828
  5
831
331
738
  5
741
331
378
  5
381
331
389
  5
392
331
839
  5
842
331
749
  5
752
331
81
  5
8C
331
39A
  5
3A3
331
84A
  5
853
331
75A
  5
763
331
92
  5
9B
331
3AB
  5
3B4
331
76B
  5
774
331
77C
  5
785
331
3BC
  5
3C5
331
18B
  5
198
331
3CD
  5
3D6
331
19C
  5
1A6
331
A3
  5
C4
331
78D
  5
796
331
6B5
  5
6BE
331
6C6
  5
6CF
331
DE
  5
F0
331
6D7
  5
6E0
331
EF
  5
F8
331
1BE
  5
1EF
331
C5
  5
DC
331
69A
  5
6A3
331
689
  5
692
331
678
  5
681
331
667
  5
670
331
3D8
  5
3E1
331
798
  5
7A1
331
F0
  5
F9
331
6D8
  5
6E1
331
7A9
  5
7B2
331
3E9
  5
3F2
331
6E9
  5
6F2
331
3FA
  5
403
331
7BA
  5
7C3
331
FA
  5
103
331
6FA
  5
703
331
7CB
  5
7D4
331
40B
  5
414
331
70B
  5
714
331
7DC
  5
7E5
331
11C
  5
125
331
7ED
  5
7F6
331
71C
  5
725
331
7FE
  5
807
331
13E
  5
152
331
35
  5
44
331
80F
  5
818
331
646
  5
64F
331
24
  5
2D
331
657
  5
660
331
368
  5
371
331
728
  5
731
331
818
  5
821
331
68
  5
71
331
668
  5
671
331
170
  5
185
331
829
  5
832
331
739
  5
742
331
379
  5
382
331
57
  5
61
331
41C
  5
425
331
38A
  5
393
331
83A
  5
843
331
74A
  5
753
331
82
  5
8D
331
39B
  5
3A4
331
84B
  5
854
331
75B
  5
764
331
93
  5
9C
331
3AC
  5
3B5
331
76C
  5
775
331
77D
  5
786
331
3BD
  5
3C6
331
18C
  5
199
331
3CE
  5
3D7
331
19D
  5
1A7
331
A4
  5
C5
331
78E
  5
797
331
6C7
  5
6D0
331
6B6
  5
6BF
331
1BF
  5
1F0
331
C6
  5
DE
331
69B
  5
6A4
331
68A
  5
693
331
679
  5
682
331
6C8
  5
6D1
331
3D9
  5
3E2
331
799
  5
7A2
331
F1
  5
FA
331
6D9
  5
6E2
331
7AA
  5
7B3
331
3EA
  5
3F3
331
6EA
  5
6F3
331
3FB
  5
404
331
7BB
  5
7C4
331
FB
  5
104
331
6FB
  5
704
331
40C
  5
415
331
7CC
  5
7D5
331
10C
  5
115
331
41D
  5
426
331
7DD
  5
7E6
331
7EE
  5
7F7
331
71D
  5
726
331
25
  5
2E
331
7FF
  5
808
331
13F
  5
156
331
36
  5
4A
331
11D
  5
126
331
658
  5
661
331
58
  5
62
331
729
  5
732
331
369
  5
372
331
819
  5
822
331
669
  5
672
331
82A
  5
833
331
73A
  5
743
331
37A
  5
383
331
67A
  5
683
331
69
  5
72
331
647
  5
650
331
70C
  5
715
331
83B
  5
844
331
74B
  5
754
331
83
  5
8E
331
68B
  5
694
331
84C
  5
855
331
75C
  5
765
331
94
  5
9D
331
76D
  5
776
331
3AD
  5
3B6
331
77E
  5
787
331
3BE
  5
3C7
331
18D
  5
19B
331
3CF
  5
3D8
331
19E
  5
1AA
331
78F
  5
798
331
C7
  5
E3
331
6B7
  5
6C0
331
69C
  5
6A5
331
39C
  5
3A5
331
38B
  5
394
331
3D0
  5
3D9
331
790
  5
799
331
C8
  5
E4
331
6B8
  5
6C1
331
6C9
  5
6D2
331
1B0
  5
1BD
331
3DA
  5
3E3
331
1C1
  5
1F1
331
79A
  5
7A3
331
F2
  5
FB
331
6DA
  5
6E3
331
7AB
  5
7B4
331
3EB
  5
3F4
331
6EB
  5
6F4
331
3FC
  5
405
331
7BC
  5
7C5
331
6FC
  5
705
331
7CD
  5
7D6
331
10D
  5
116
331
40D
  5
416
331
41E
  5
427
331
7DE
  5
7E7
331
7EF
  5
7F8
331
71E
  5
727
331
26
  5
2F
331
800
  5
809
331
140
  5
164
331
37
  5
4B
331
11E
  5
127
331
659
  5
662
331
59
  5
63
331
72A
  5
733
331
36A
  5
373
331
81A
  5
823
331
66A
  5
673
331
82B
  5
834
331
73B
  5
744
331
37B
  5
384
331
67B
  5
684
331
6A
  5
73
331
648
  5
651
331
70D
  5
716
331
FC
  5
105
331
83C
  5
845
331
74C
  5
755
331
84
  5
8F
331
68C
  5
695
331
84D
  5
856
331
75D
  5
766
331
95
  5
9E
331
76E
  5
777
331
3AE
  5
3B7
331
77F
  5
788
331
3BF
  5
3C8
331
19F
  5
1AC
331
18E
  5
19C
331
69D
  5
6A6
331
39D
  5
3A6
331
38C
  5
395
331
780
  5
789
331
3C0
  5
3C9
331
6A8
  5
6B1
331
3D1
  5
3DA
331
791
  5
79A
331
C9
  5
EA
331
6CA
  5
6D3
331
6B9
  5
6C2
331
3DB
  5
3E4
331
1C2
  5
367
331
79B
  5
7A4
331
F3
  5
FC
331
6DB
  5
6E4
331
7AC
  5
7B5
331
3EC
  5
3F5
331
6EC
  5
6F5
331
3FD
  5
406
331
7BD
  5
7C6
331
FD
  5
106
331
40E
  5
417
331
7CE
  5
7D7
331
10E
  5
117
331
41F
  5
644
331
7DF
  5
7E8
331
7F0
  5
7F9
331
71F
  5
728
331
27
  5
30
331
801
  5
80A
331
141
  5
165
331
38
  5
4D
331
11F
  5
128
331
65A
  5
663
331
5A
  5
64
331
72B
  5
734
331
36B
  5
374
331
81B
  5
824
331
66B
  5
674
331
82C
  5
835
331
73C
  5
745
331
37C
  5
385
331
67C
  5
685
331
6B
  5
74
331
649
  5
652
331
70E
  5
717
331
6FD
  5
706
331
83D
  5
846
331
74D
  5
756
331
85
  5
90
331
68D
  5
696
331
84E
  5
857
331
75E
  5
767
331
96
  5
9F
331
3AF
  5
3B8
331
76F
  5
778
331
18F
  5
19D
331
A7
  5
C6
331
69E
  5
6A7
331
39E
  5
3A7
331
38D
  5
396
331
3B0
  5
3B9
331
770
  5
779
331
A8
  5
C7
331
781
  5
78A
331
3C1
  5
3CA
331
190
  5
19E
331
6A9
  5
6B2
331
3D2
  5
3DB
331
1A1
  5
1B0
331
792
  5
79B
331
CA
  5
EB
331
6BA
  5
6C3
331
6CB
  5
6D4
331
E3
  5
F1
331
3DC
  5
3E5
331
1C3
  5
368
331
79C
  5
7A5
331
F4
  5
FD
331
7AD
  5
7B6
331
3ED
  5
3F6
331
6ED
  5
6F6
331
3FE
  5
407
331
7BE
  5
7C7
331
6FE
  5
707
331
7CF
  5
7D8
331
10F
  5
118
331
420
  5
645
331
7E0
  5
7E9
331
7F1
  5
7FA
331
131
  5
13A
331
28
  5
31
331
802
  5
80B
331
142
  5
166
331
39
  5
4E
331
120
  5
129
331
65B
  5
664
331
64A
  5
653
331
72C
  5
735
331
36C
  5
375
331
81C
  5
825
331
6C
  5
75
331
82D
  5
836
331
73D
  5
746
331
37D
  5
386
331
67D
  5
686
331
38E
  5
397
331
66C
  5
675
331
4A
  5
56
331
70F
  5
718
331
40F
  5
418
331
FE
  5
107
331
6DC
  5
6E5
331
83E
  5
847
331
74E
  5
757
331
68E
  5
697
331
39F
  5
3A8
331
84F
  5
858
331
75F
  5
768
331
97
  5
A0
331
69F
  5
6A8
331
86
  5
91
331
3A0
  5
3A9
331
850
  5
859
331
760
  5
769
331
98
  5
A2
331
6A0
  5
6A9
331
771
  5
77A
331
3B1
  5
3BA
331
180
  5
189
331
782
  5
78B
331
3C2
  5
3CB
331
6AA
  5
6B3
331
3D3
  5
3DC
331
1A2
  5
1B5
331
793
  5
79C
331
CB
  5
EC
331
6BB
  5
6C4
331
6CC
  5
6D5
331
E4
  5
F2
331
3DD
  5
3E6
331
79D
  5
7A6
331
F5
  5
FE
331
7AE
  5
7B7
331
3EE
  5
3F7
331
6EE
  5
6F7
331
3FF
  5
408
331
6DD
  5
6E6
331
7BF
  5
7C8
331
6FF
  5
708
331
7D0
  5
7D9
331
110
  5
119
331
421
  5
646
331
7E1
  5
7EA
331
7F2
  5
7FB
331
132
  5
13B
331
29
  5
32
331
803
  5
80C
331
143
  5
16A
331
3A
  5
4F
331
121
  5
12A
331
64B
  5
654
331
164
  5
176
331
65C
  5
665
331
5C
  5
65
331
72D
  5
736
331
175
  5
186
331
81D
  5
826
331
6D
  5
76
331
66D
  5
676
331
36D
  5
376
331
4B
  5
57
331
710
  5
719
331
410
  5
419
331
FF
  5
108
331
1C4
  5
369
331
82E
  5
837
331
73E
  5
747
331
67E
  5
687
331
83F
  5
848
331
74F
  5
758
331
38F
  5
398
331
68F
  5
698
331
37E
  5
387
331
390
  5
399
331
840
  5
849
331
750
  5
759
331
88
  5
92
331
690
  5
699
331
3A1
  5
3AA
331
851
  5
85A
331
761
  5
76A
331
99
  5
A3
331
6A1
  5
6AA
331
772
  5
77B
331
3B2
  5
3BB
331
181
  5
18A
331
783
  5
78C
331
3C3
  5
3CC
331
192
  5
19F
331
6AB
  5
6B4
331
794
  5
79D
331
3D4
  5
3DD
331
1A3
  5
1B6
331
6CD
  5
6D6
331
3DE
  5
3E7
331
1C5
  5
36A
331
79E
  5
7A7
331
F6
  5
FF
331
7AF
  5
7B8
331
3EF
  5
3F8
331
400
  5
409
331
7C0
  5
7C9
331
100
  5
109
331
411
  5
41A
331
7D1
  5
7DA
331
111
  5
11A
331
700
  5
709
331
6EF
  5
6F8
331
422
  5
647
331
7E2
  5
7EB
331
7F3
  5
7FC
331
133
  5
13C
331
2A
  5
33
331
804
  5
80D
331
144
  5
16B
331
3B
  5
50
331
122
  5
12B
331
165
  5
17C
331
65D
  5
666
331
5D
  5
66
331
72E
  5
737
331
176
  5
187
331
81E
  5
827
331
6E
  5
77
331
66E
  5
677
331
36E
  5
377
331
64C
  5
655
331
711
  5
71A
331
6DE
  5
6E7
331
6BC
  5
6C5
331
82F
  5
838
331
73F
  5
748
331
67F
  5
688
331
37F
  5
388
331
380
  5
389
331
830
  5
839
331
740
  5
749
331
78
  5
84
331
680
  5
689
331
841
  5
84A
331
751
  5
75A
331
391
  5
39A
331
691
  5
69A
331
3A2
  5
3AB
331
852
  5
85D
331
762
  5
76B
331
9A
  5
A4
331
6A2
  5
6AB
331
773
  5
77C
331
3B3
  5
3BC
331
182
  5
18B
331
784
  5
78D
331
3C4
  5
3CD
331
193
  5
1A1
331
795
  5
79E
331
3D5
  5
3DE
331
1A4
  5
1B7
331
6CE
  5
6D7
331
1B5
  5
1BE
331
3DF
  5
3E8
331
1C6
  5
36B
331
6BD
  5
6C6
331
79F
  5
7A8
331
6DF
  5
6E8
331
7B0
  5
7B9
331
6F0
  5
6F9
331
401
  5
40A
331
7C1
  5
7CA
331
701
  5
70A
331
7D2
  5
7DB
331
112
  5
11B
331
412
  5
41B
331
101
  5
10A
331
3F0
  5
3F9
331
423
  5
648
331
7E3
  5
7EC
331
7F4
  5
7FD
331
134
  5
13D
331
2B
  5
34
331
805
  5
80E
331
145
  5
16E
331
3C
  5
51
331
123
  5
12C
331
64D
  5
656
331
166
  5
180
331
65E
  5
667
331
5E
  5
67
331
72F
  5
738
331
81F
  5
828
331
6F
  5
78
331
66F
  5
678
331
36F
  5
378
331
4D
  5
58
331
712
  5
71B
331
F7
  5
100
331
6AC
  5
6B5
331
730
  5
739
331
370
  5
379
331
820
  5
829
331
70
  5
79
331
670
  5
679
331
381
  5
38A
331
831
  5
83A
331
741
  5
74A
331
79
  5
85
331
681
  5
68A
331
392
  5
39B
331
842
  5
84B
331
752
  5
75B
331
8A
  5
93
331
692
  5
69B
331
3A3
  5
3AC
331
853
  5
860
331
763
  5
76C
331
6A3
  5
6AC
331
774
  5
77D
331
3B4
  5
3BD
331
183
  5
18C
331
785
  5
78E
331
3C5
  5
3CE
331
6AD
  5
6B6
331
796
  5
79F
331
3D6
  5
3DF
331
1A5
  5
1B8
331
6CF
  5
6D8
331
1B6
  5
1BF
331
7A0
  5
7A9
331
3E0
  5
3E9
331
7B1
  5
7BA
331
3F1
  5
3FA
331
402
  5
40B
331
7C2
  5
7CB
331
102
  5
10C
331
413
  5
41C
331
7D3
  5
7DC
331
713
  5
71C
331
424
  5
649
331
7E4
  5
7ED
331
7F5
  5
7FE
331
135
  5
13E
331
2C
  5
35
331
806
  5
80F
331
3D
  5
54
331
124
  5
131
331
113
  5
11C
331
702
  5
70B
331
6F1
  5
6FA
331
64E
  5
657
331
65F
  5
668
331
5F
  5
68
331
4E
  5
59
331
6E0
  5
6E9
331
6BE
  5
6C7
331
9B
  5
A7
  0
ACDBDETAILVIEWSTYLE
  5
232
102
{ACAD_REACTORS
330
231
102
}
330
231
100
AcDbModelDocViewStyle
 70
     0
  3
Imperial24
290
     0
100
AcDbDetailViewStyle
 70
     0
 71
     0
 90
        3
 71
     1
340
11
 40
0.24
340
0
 40
0.24
300

 40
0.36
280
     3
 71
     2
340
16
 90
       25
 71
     3
340
11
 40
0.24
 90
        1
 40
0.75
 90
        1
300
%<\AcVar ViewType \f "%tc1">% %<\AcVar ViewDetailId>%\PSCALE %<\AcVar ViewScale \f "%sn">%
 71
     4
340
16
 90
       25
340
16
 90
       25
280
     0
  0
LAYOUT
  5
1C
102
{ACAD_XDICTIONARY
360
892
102
}
102
{ACAD_REACTORS
330
1A
102
}
330
1A
100
AcDbPlotSettings
  1

  2
none_device
  4

  6

 40
0.0
 41
0.0
 42
0.0
 43
0.0
 44
0.0
 45
0.0
 46
0.0
 47
0.0
 48
0.0
 49
0.0
140
0.0
141
0.0
142
1.0
143
1.0
 70
   688
 72
     0
 73
     0
 74
     5
  7

 75
    16
147
1.0
148
0.0
149
0.0
100
AcDbLayout
  1
Layout1
 70
     1
 71
     1
 10
0.0
 20
0.0
 11
12.0
 21
9.0
 12
0.0
 22
0.0
 32
0.0
 14
1.000000000000000E+20
 24
1.000000000000000E+20
 34
1.000000000000000E+20
 15
-1.000000000000000E+20
 25
-1.000000000000000E+20
 35
-1.000000000000000E+20
146
0.0
 13
0.0
 23
0.0
 33
0.0
 16
1.0
 26
0.0
 36
0.0
 17
0.0
 27
1.0
 37
0.0
 76
     0
330
1B
  0
LAYOUT
  5
1E
102
{ACAD_XDICTIONARY
360
894
102
}
102
{ACAD_REACTORS
330
1A
102
}
330
1A
100
AcDbPlotSettings
  1

  2
none_device
  4

  6

 40
0.0
 41
0.0
 42
0.0
 43
0.0
 44
0.0
 45
0.0
 46
0.0
 47
0.0
 48
0.0
 49
0.0
140
0.0
141
0.0
142
1.0
143
1.0
 70
  1712
 72
     0
 73
     0
 74
     0
  7

 75
     0
147
1.0
148
0.0
149
0.0
100
AcDbLayout
  1
Model
 70
     1
 71
     0
 10
0.0
 20
0.0
 11
12.0
 21
9.0
 12
0.0
 22
0.0
 32
0.0
 14
0.0195000000000193
 24
0.195499999999989
 34
0.0
 15
167.9805
 25
207.8045
 35
0.0
146
0.0
 13
0.0
 23
0.0
 33
0.0
 16
1.0
 26
0.0
 36
0.0
 17
0.0
 27
1.0
 37
0.0
 76
     0
330
1D
331
1C7
  0
MATERIAL
  5
201
102
{ACAD_XDICTIONARY
360
202
102
}
102
{ACAD_REACTORS
330
1F8
102
}
330
1F8
100
AcDbMaterial
  1
ByBlock
 72
     0
 43
0.0208333333333333
 43
0.0
 43
0.0
 43
0.0
 43
0.0
 43
0.0208333333333333
 43
0.0
 43
0.0
 43
0.0
 43
0.0
 43
1.0
 43
0.0
 43
0.0
 43
0.0
 43
0.0
 43
1.0
 77
     0
 47
0.0208333333333333
 47
0.0
 47
0.0
 47
0.0
 47
0.0
 47
0.0208333333333333
 47
0.0
 47
0.0
 47
0.0
 47
0.0
 47
1.0
 47
0.0
 47
0.0
 47
0.0
 47
0.0
 47
1.0
171
     0
 49
0.0208333333333333
 49
0.0
 49
0.0
 49
0.0
 49
0.0
 49
0.0208333333333333
 49
0.0
 49
0.0
 49
0.0
 49
0.0
 49
1.0
 49
0.0
 49
0.0
 49
0.0
 49
0.0
 49
1.0
175
     0
142
0.0208333333333333
142
0.0
142
0.0
142
0.0
142
0.0
142
0.0208333333333333
142
0.0
142
0.0
142
0.0
142
0.0
142
1.0
142
0.0
142
0.0
142
0.0
142
0.0
142
1.0
179
     0
144
0.0208333333333333
144
0.0
144
0.0
144
0.0
144
0.0
144
0.0208333333333333
144
0.0
144
0.0
144
0.0
144
0.0
144
1.0
144
0.0
144
0.0
144
0.0
144
0.0
144
1.0
147
0.0208333333333333
147
0.0
147
0.0
147
0.0
147
0.0
147
0.0208333333333333
147
0.0
147
0.0
147
0.0
147
0.0
147
1.0
147
0.0
147
0.0
147
0.0
147
0.0
147
1.0
  0
MATERIAL
  5
1F9
102
{ACAD_XDICTIONARY
360
1FA
102
}
102
{ACAD_REACTORS
330
1F8
102
}
330
1F8
100
AcDbMaterial
  1
ByLayer
 72
     0
 43
0.0208333333333333
 43
0.0
 43
0.0
 43
0.0
 43
0.0
 43
0.0208333333333333
 43
0.0
 43
0.0
 43
0.0
 43
0.0
 43
1.0
 43
0.0
 43
0.0
 43
0.0
 43
0.0
 43
1.0
 77
     0
 47
0.0208333333333333
 47
0.0
 47
0.0
 47
0.0
 47
0.0
 47
0.0208333333333333
 47
0.0
 47
0.0
 47
0.0
 47
0.0
 47
1.0
 47
0.0
 47
0.0
 47
0.0
 47
0.0
 47
1.0
171
     0
 49
0.0208333333333333
 49
0.0
 49
0.0
 49
0.0
 49
0.0
 49
0.0208333333333333
 49
0.0
 49
0.0
 49
0.0
 49
0.0
 49
1.0
 49
0.0
 49
0.0
 49
0.0
 49
0.0
 49
1.0
175
     0
142
0.0208333333333333
142
0.0
142
0.0
142
0.0
142
0.0
142
0.0208333333333333
142
0.0
142
0.0
142
0.0
142
0.0
142
1.0
142
0.0
142
0.0
142
0.0
142
0.0
142
1.0
179
     0
144
0.0208333333333333
144
0.0
144
0.0
144
0.0
144
0.0
144
0.0208333333333333
144
0.0
144
0.0
144
0.0
144
0.0
144
1.0
144
0.0
144
0.0
144
0.0
144
0.0
144
1.0
147
0.0208333333333333
147
0.0
147
0.0
147
0.0
147
0.0
147
0.0208333333333333
147
0.0
147
0.0
147
0.0
147
0.0
147
1.0
147
0.0
147
0.0
147
0.0
147
0.0
147
1.0
  0
MATERIAL
  5
209
102
{ACAD_XDICTIONARY
360
20A
102
}
102
{ACAD_REACTORS
330
1F8
102
}
330
1F8
100
AcDbMaterial
  1
Global
 72
     0
 43
0.0208333333333333
 43
0.0
 43
0.0
 43
0.0
 43
0.0
 43
0.0208333333333333
 43
0.0
 43
0.0
 43
0.0
 43
0.0
 43
1.0
 43
0.0
 43
0.0
 43
0.0
 43
0.0
 43
1.0
 77
     0
 47
0.0208333333333333
 47
0.0
 47
0.0
 47
0.0
 47
0.0
 47
0.0208333333333333
 47
0.0
 47
0.0
 47
0.0
 47
0.0
 47
1.0
 47
0.0
 47
0.0
 47
0.0
 47
0.0
 47
1.0
171
     0
 49
0.0208333333333333
 49
0.0
 49
0.0
 49
0.0
 49
0.0
 49
0.0208333333333333
 49
0.0
 49
0.0
 49
0.0
 49
0.0
 49
1.0
 49
0.0
 49
0.0
 49
0.0
 49
0.0
 49
1.0
175
     0
142
0.0208333333333333
142
0.0
142
0.0
142
0.0
142
0.0
142
0.0208333333333333
142
0.0
142
0.0
142
0.0
142
0.0
142
1.0
142
0.0
142
0.0
142
0.0
142
0.0
142
1.0
179
     0
144
0.0208333333333333
144
0.0
144
0.0
144
0.0
144
0.0
144
0.0208333333333333
144
0.0
144
0.0
144
0.0
144
0.0
144
1.0
144
0.0
144
0.0
144
0.0
144
0.0
144
1.0
147
0.0208333333333333
147
0.0
147
0.0
147
0.0
147
0.0
147
0.0208333333333333
147
0.0
147
0.0
147
0.0
147
0.0
147
1.0
147
0.0
147
0.0
147
0.0
147
0.0
147
1.0
  0
MLEADERSTYLE
  5
22D
102
{ACAD_XDICTIONARY
360
8CB
102
}
102
{ACAD_REACTORS
330
1F4
102
}
330
1F4
100
AcDbMLeaderStyle
170
     2
171
     1
172
     0
 90
        2
 40
0.0
 41
0.0
173
     1
 91
-1056964608
340
14
 92
       -2
290
     1
 42
0.09
291
     1
 43
0.36
  3
Standard
 44
0.18
300

342
11
174
     1
178
     6
175
     1
176
     0
 93
-1056964608
 45
0.18
292
     0
297
     0
 46
0.18
 94
-1056964608
 47
1.0
 49
1.0
140
1.0
293
     1
141
0.0
294
     1
177
     0
142
1.0
295
     0
296
     0
143
0.125
1001
ACAD_MLEADERVER
1070
     2
  0
MLINESTYLE
  5
18
102
{ACAD_REACTORS
330
17
102
}
330
17
100
AcDbMlineStyle
  2
STANDARD
 70
     0
  3

 62
   256
 51
90.0
 52
90.0
 71
     2
 49
0.5
 62
   256
  6
BYLAYER
 49
-0.5
 62
   256
  6
BYLAYER
  0
ACDBPLACEHOLDER
  5
F
102
{ACAD_REACTORS
330
E
102
}
330
E
  0
SCALE
  5
1CD
102
{ACAD_REACTORS
330
1CC
102
}
330
1CC
100
AcDbScale
 70
     0
300
1:1
140
1.0
141
1.0
290
     1
  0
SCALE
  5
1CE
102
{ACAD_REACTORS
330
1CC
102
}
330
1CC
100
AcDbScale
 70
     0
300
1:2
140
1.0
141
2.0
290
     0
  0
SCALE
  5
1CF
102
{ACAD_REACTORS
330
1CC
102
}
330
1CC
100
AcDbScale
 70
     0
300
1:4
140
1.0
141
4.0
290
     0
  0
SCALE
  5
1D0
102
{ACAD_REACTORS
330
1CC
102
}
330
1CC
100
AcDbScale
 70
     0
300
1:5
140
1.0
141
5.0
290
     0
  0
SCALE
  5
1D1
102
{ACAD_REACTORS
330
1CC
102
}
330
1CC
100
AcDbScale
 70
     0
300
1:8
140
1.0
141
8.0
290
     0
  0
SCALE
  5
1D2
102
{ACAD_REACTORS
330
1CC
102
}
330
1CC
100
AcDbScale
 70
     0
300
1:10
140
1.0
141
10.0
290
     0
  0
SCALE
  5
1D3
102
{ACAD_REACTORS
330
1CC
102
}
330
1CC
100
AcDbScale
 70
     0
300
1:16
140
1.0
141
16.0
290
     0
  0
SCALE
  5
1D4
102
{ACAD_REACTORS
330
1CC
102
}
330
1CC
100
AcDbScale
 70
     0
300
1:20
140
1.0
141
20.0
290
     0
  0
SCALE
  5
1D5
102
{ACAD_REACTORS
330
1CC
102
}
330
1CC
100
AcDbScale
 70
     0
300
1:30
140
1.0
141
30.0
290
     0
  0
SCALE
  5
1D6
102
{ACAD_REACTORS
330
1CC
102
}
330
1CC
100
AcDbScale
 70
     0
300
1:40
140
1.0
141
40.0
290
     0
  0
SCALE
  5
1D7
102
{ACAD_REACTORS
330
1CC
102
}
330
1CC
100
AcDbScale
 70
     0
300
1:50
140
1.0
141
50.0
290
     0
  0
SCALE
  5
1D8
102
{ACAD_REACTORS
330
1CC
102
}
330
1CC
100
AcDbScale
 70
     0
300
1:100
140
1.0
141
100.0
290
     0
  0
SCALE
  5
1D9
102
{ACAD_REACTORS
330
1CC
102
}
330
1CC
100
AcDbScale
 70
     0
300
2:1
140
2.0
141
1.0
290
     0
  0
SCALE
  5
1DA
102
{ACAD_REACTORS
330
1CC
102
}
330
1CC
100
AcDbScale
 70
     0
300
4:1
140
4.0
141
1.0
290
     0
  0
SCALE
  5
1DB
102
{ACAD_REACTORS
330
1CC
102
}
330
1CC
100
AcDbScale
 70
     0
300
8:1
140
8.0
141
1.0
290
     0
  0
SCALE
  5
1DC
102
{ACAD_REACTORS
330
1CC
102
}
330
1CC
100
AcDbScale
 70
     0
300
10:1
140
10.0
141
1.0
290
     0
  0
SCALE
  5
1DD
102
{ACAD_REACTORS
330
1CC
102
}
330
1CC
100
AcDbScale
 70
     0
300
100:1
140
100.0
141
1.0
290
     0
  0
SCALE
  5
1DE
102
{ACAD_REACTORS
330
1CC
102
}
330
1CC
100
AcDbScale
 70
     0
300
1/128" = 1'-0"
140
0.0078125
141
12.0
290
     0
  0
SCALE
  5
1DF
102
{ACAD_REACTORS
330
1CC
102
}
330
1CC
100
AcDbScale
 70
     0
300
1/64" = 1'-0"
140
0.015625
141
12.0
290
     0
  0
SCALE
  5
1E0
102
{ACAD_REACTORS
330
1CC
102
}
330
1CC
100
AcDbScale
 70
     0
300
1/32" = 1'-0"
140
0.03125
141
12.0
290
     0
  0
SCALE
  5
1E1
102
{ACAD_REACTORS
330
1CC
102
}
330
1CC
100
AcDbScale
 70
     0
300
1/16" = 1'-0"
140
0.0625
141
12.0
290
     0
  0
SCALE
  5
1E2
102
{ACAD_REACTORS
330
1CC
102
}
330
1CC
100
AcDbScale
 70
     0
300
3/32" = 1'-0"
140
0.09375
141
12.0
290
     0
  0
SCALE
  5
1E3
102
{ACAD_REACTORS
330
1CC
102
}
330
1CC
100
AcDbScale
 70
     0
300
1/8" = 1'-0"
140
0.125
141
12.0
290
     0
  0
SCALE
  5
1E4
102
{ACAD_REACTORS
330
1CC
102
}
330
1CC
100
AcDbScale
 70
     0
300
3/16" = 1'-0"
140
0.1875
141
12.0
290
     0
  0
SCALE
  5
1E5
102
{ACAD_REACTORS
330
1CC
102
}
330
1CC
100
AcDbScale
 70
     0
300
1/4" = 1'-0"
140
0.25
141
12.0
290
     0
  0
SCALE
  5
1E6
102
{ACAD_REACTORS
330
1CC
102
}
330
1CC
100
AcDbScale
 70
     0
300
3/8" = 1'-0"
140
0.375
141
12.0
290
     0
  0
SCALE
  5
1E7
102
{ACAD_REACTORS
330
1CC
102
}
330
1CC
100
AcDbScale
 70
     0
300
1/2" = 1'-0"
140
0.5
141
12.0
290
     0
  0
SCALE
  5
1E8
102
{ACAD_REACTORS
330
1CC
102
}
330
1CC
100
AcDbScale
 70
     0
300
3/4" = 1'-0"
140
0.75
141
12.0
290
     0
  0
SCALE
  5
1E9
102
{ACAD_REACTORS
330
1CC
102
}
330
1CC
100
AcDbScale
 70
     0
300
1" = 1'-0"
140
1.0
141
12.0
290
     0
  0
SCALE
  5
1EA
102
{ACAD_REACTORS
330
1CC
102
}
330
1CC
100
AcDbScale
 70
     0
300
1-1/2" = 1'-0"
140
1.5
141
12.0
290
     0
  0
SCALE
  5
1EB
102
{ACAD_REACTORS
330
1CC
102
}
330
1CC
100
AcDbScale
 70
     0
300
3" = 1'-0"
140
3.0
141
12.0
290
     0
  0
SCALE
  5
1EC
102
{ACAD_REACTORS
330
1CC
102
}
330
1CC
100
AcDbScale
 70
     0
300
6" = 1'-0"
140
6.0
141
12.0
290
     0
  0
SCALE
  5
1ED
102
{ACAD_REACTORS
330
1CC
102
}
330
1CC
100
AcDbScale
 70
     0
300
1'-0" = 1'-0"
140
12.0
141
12.0
290
     0
  0
ACDBSECTIONVIEWSTYLE
  5
230
102
{ACAD_REACTORS
330
22E
102
}
330
22E
100
AcDbModelDocViewStyle
 70
     0
  3
Imperial24
290
     0
100
AcDbSectionViewStyle
 70
     0
 71
     0
 90
       78
 71
     1
340
11
 40
0.24
340
0
340
0
 40
0.24
300
I, O, Q, S, X, Z
 40
0.48
 90
        3
 40
0.18
 90
        1
 71
     2
340
22F
 90
       25
340
16
 90
       50
 40
0.24
 40
0.0
 40
0.24
 71
     3
340
11
 40
0.24
 90
        1
 40
0.75
 90
        1
300
%<\AcVar ViewType \f "%tc1">% %<\AcVar ViewSectionStartId>%-%<\AcVar ViewSectionEndId>%\PSCALE %<\AcVar ViewScale \f "%sn">%
 71
     4
300
ANSI31
 40
1.0
 90
        0
290
     0
290
     0
 90
        6
 40
0.0
 40
1.570796326794896
 40
0.2617993877991494
 40
1.308996938995747
 40
-0.2617993877991494
 40
1.832595714594046
  0
TABLESTYLE
  5
22C
102
{ACAD_XDICTIONARY
360
886
102
}
102
{ACAD_REACTORS
330
22B
102
}
330
22B
100
AcDbTableStyle
  3
Standard
 70
     0
 71
     0
 40
0.06
 41
0.06
280
     0
281
     0
  7
Standard
140
0.18
170
     2
 62
     0
 63
     7
283
     0
274
    -2
284
     1
 64
     0
275
    -2
285
     1
 65
     0
276
    -2
286
     1
 66
     0
277
    -2
287
     1
 67
     0
278
    -2
288
     1
 68
     0
279
    -2
289
     1
 69
     0
  7
Standard
140
0.25
170
     5
 62
     0
 63
     7
283
     0
274
    -2
284
     1
 64
     0
275
    -2
285
     1
 65
     0
276
    -2
286
     1
 66
     0
277
    -2
287
     1
 67
     0
278
    -2
288
     1
 68
     0
279
    -2
289
     1
 69
     0
  7
Standard
140
0.18
170
     5
 62
     0
 63
     7
283
     0
274
    -2
284
     1
 64
     0
275
    -2
285
     1
 65
     0
276
    -2
286
     1
 66
     0
277
    -2
287
     1
 67
     0
278
    -2
288
     1
 68
     0
279
    -2
289
     1
 69
     0
  0
VISUALSTYLE
  5
217
102
{ACAD_XDICTIONARY
360
8A3
102
}
102
{ACAD_REACTORS
330
211
102
}
330
211
100
AcDbVisualStyle
  2
2dWireframe
 70
     4
 71
     0
 72
     2
 73
     0
 90
        0
 40
-0.6
 41
-30.0
 62
     5
 63
     7
 74
     1
 91
        4
 64
     7
 65
   257
 75
     1
175
     1
 42
1.0
 92
        0
 66
   257
 43
1.0
 76
     1
 77
     6
 78
     2
 67
     7
 79
     5
170
     0
171
     0
290
     0
174
     0
 93
        1
 44
0.0
173
     0
291
     0
 45
0.0
1001
ACAD
1000
AcDbSavedByObjectVersion
1070
     0
  0
VISUALSTYLE
  5
216
102
{ACAD_XDICTIONARY
360
8A1
102
}
102
{ACAD_REACTORS
330
211
102
}
330
211
100
AcDbVisualStyle
  2
Basic
 70
     7
 71
     1
 72
     0
 73
     1
 90
        0
 40
-0.6
 41
-30.0
 62
     5
 63
     7
 74
     0
 91
        4
 64
     7
 65
   257
 75
     1
175
     1
 42
1.0
 92
        8
 66
     7
 43
1.0
 76
     1
 77
     6
 78
     2
 67
     7
 79
     5
170
     0
171
     0
290
     0
174
     0
 93
        1
 44
0.0
173
     0
291
     1
 45
0.0
1001
ACAD
1000
AcDbSavedByObjectVersion
1070
     0
  0
VISUALSTYLE
  5
21D
102
{ACAD_XDICTIONARY
360
8AF
102
}
102
{ACAD_REACTORS
330
211
102
}
330
211
100
AcDbVisualStyle
  2
Brighten
 70
    12
 71
     2
 72
     2
 73
     0
 90
        0
 40
-0.6
 41
-30.0
 62
     5
 63
     7
 74
     1
 91
        4
 64
     7
 65
   257
 75
     1
175
     1
 42
1.0
 92
        8
 66
     7
 43
1.0
 76
     1
 77
     6
 78
     2
 67
     7
 79
     5
170
     0
171
     0
290
     0
174
     0
 93
        1
 44
50.0
173
     0
291
     1
 45
0.0
1001
ACAD
1000
AcDbSavedByObjectVersion
1070
     0
  0
VISUALSTYLE
  5
221
102
{ACAD_XDICTIONARY
360
8B7
102
}
102
{ACAD_REACTORS
330
211
102
}
330
211
100
AcDbVisualStyle
  2
ColorChange
 70
    16
 71
     2
 72
     2
 73
     3
 90
        0
 40
-0.6
 41
-30.0
 62
     5
 63
     8
 74
     1
 91
        4
 64
     7
 65
   257
 75
     1
175
     1
 42
1.0
 92
        8
 66
     8
 43
1.0
 76
     1
 77
     6
 78
     2
 67
     7
 79
     5
170
     0
171
     0
290
     0
174
     0
 93
        1
 44
0.0
173
     0
291
     1
 45
0.0
1001
ACAD
1000
AcDbSavedByObjectVersion
1070
     0
  0
VISUALSTYLE
  5
21A
102
{ACAD_XDICTIONARY
360
8A9
102
}
102
{ACAD_REACTORS
330
211
102
}
330
211
100
AcDbVisualStyle
  2
Conceptual
 70
     9
 71
     3
 72
     2
 73
     0
 90
        0
 40
-0.6
 41
-30.0
 62
     5
 63
     7
 74
     2
 91
        2
 64
     7
 65
   257
 75
     1
175
     1
 42
179.0
 92
        8
 66
     7
 43
1.0
 76
     1
 77
     6
 78
     2
 67
     7
 79
     3
170
     0
171
     0
290
     0
174
     0
 93
        1
 44
0.0
173
     0
291
     0
 45
0.0
1001
ACAD
1000
AcDbSavedByObjectVersion
1070
     0
  0
VISUALSTYLE
  5
21C
102
{ACAD_XDICTIONARY
360
8AD
102
}
102
{ACAD_REACTORS
330
211
102
}
330
211
100
AcDbVisualStyle
  2
Dim
 70
    11
 71
     2
 72
     2
 73
     0
 90
        0
 40
-0.6
 41
-30.0
 62
     5
 63
     7
 74
     1
 91
        4
 64
     7
 65
   257
 75
     1
175
     1
 42
1.0
 92
        8
 66
     7
 43
1.0
 76
     1
 77
     6
 78
     2
 67
     7
 79
     5
170
     0
171
     0
290
     0
174
     0
 93
        1
 44
-50.0
173
     0
291
     1
 45
0.0
1001
ACAD
1000
AcDbSavedByObjectVersion
1070
     0
  0
VISUALSTYLE
  5
229
102
{ACAD_XDICTIONARY
360
8C7
102
}
102
{ACAD_REACTORS
330
211
102
}
330
211
100
AcDbVisualStyle
  2
EdgeColorOff
 70
    22
 71
     2
 72
     2
 73
     0
 90
        0
 40
-0.6
 41
-30.0
 62
     5
 63
     7
 74
     1
 91
        4
 64
     7
 65
   257
 75
     1
175
     1
 42
1.0
 92
        8
 66
     7
 43
1.0
 76
     1
 77
     6
 78
     2
 67
     7
 79
     5
170
     0
171
     0
290
     0
174
     0
 93
        1
 44
0.0
173
     0
291
     1
 45
0.0
1001
ACAD
1000
AcDbSavedByObjectVersion
1070
     0
  0
VISUALSTYLE
  5
220
102
{ACAD_XDICTIONARY
360
8B5
102
}
102
{ACAD_REACTORS
330
211
102
}
330
211
100
AcDbVisualStyle
  2
Facepattern
 70
    15
 71
     2
 72
     2
 73
     0
 90
        0
 40
-0.6
 41
-30.0
 62
     5
 63
     7
 74
     1
 91
        4
 64
     7
 65
   257
 75
     1
175
     1
 42
1.0
 92
        8
 66
     7
 43
1.0
 76
     1
 77
     6
 78
     2
 67
     7
 79
     5
170
     0
171
     0
290
     0
174
     0
 93
        1
 44
0.0
173
     0
291
     1
 45
0.0
1001
ACAD
1000
AcDbSavedByObjectVersion
1070
     0
  0
VISUALSTYLE
  5
212
102
{ACAD_XDICTIONARY
360
899
102
}
102
{ACAD_REACTORS
330
211
102
}
330
211
100
AcDbVisualStyle
  2
Flat
 70
     0
 71
     2
 72
     1
 73
     1
 90
        2
 40
-0.6
 41
30.0
 62
     5
 63
     7
 74
     0
 91
        0
 64
     7
 65
   257
 75
     1
175
     1
 42
1.0
 92
        8
 66
     7
 43
1.0
 76
     1
 77
     6
 78
     2
 67
     7
 79
     5
170
     0
171
     0
290
     0
174
     0
 93
       13
 44
0.0
173
     0
291
     1
 45
0.0
1001
ACAD
1000
AcDbSavedByObjectVersion
1070
     0
  0
VISUALSTYLE
  5
213
102
{ACAD_XDICTIONARY
360
89B
102
}
102
{ACAD_REACTORS
330
211
102
}
330
211
100
AcDbVisualStyle
  2
FlatWithEdges
 70
     1
 71
     2
 72
     1
 73
     1
 90
        2
 40
-0.6
 41
30.0
 62
     5
 63
     7
 74
     1
 91
        0
 64
     7
 65
   257
 75
     1
175
     1
 42
1.0
 92
        0
 66
   257
 43
1.0
 76
     1
 77
     6
 78
     2
 67
     7
 79
     5
170
     0
171
     0
290
     0
174
     0
 93
       13
 44
0.0
173
     0
291
     1
 45
0.0
1001
ACAD
1000
AcDbSavedByObjectVersion
1070
     0
  0
VISUALSTYLE
  5
214
102
{ACAD_XDICTIONARY
360
89D
102
}
102
{ACAD_REACTORS
330
211
102
}
330
211
100
AcDbVisualStyle
  2
Gouraud
 70
     2
 71
     2
 72
     2
 73
     1
 90
        2
 40
-0.6
 41
30.0
 62
     5
 63
     7
 74
     0
 91
        0
 64
     7
 65
   257
 75
     1
175
     1
 42
1.0
 92
        0
 66
     7
 43
1.0
 76
     1
 77
     6
 78
     2
 67
     7
 79
     5
170
     0
171
     0
290
     0
174
     0
 93
       13
 44
0.0
173
     0
291
     1
 45
0.0
1001
ACAD
1000
AcDbSavedByObjectVersion
1070
     0
  0
VISUALSTYLE
  5
215
102
{ACAD_XDICTIONARY
360
89F
102
}
102
{ACAD_REACTORS
330
211
102
}
330
211
100
AcDbVisualStyle
  2
GouraudWithEdges
 70
     3
 71
     2
 72
     2
 73
     1
 90
        2
 40
-0.6
 41
30.0
 62
     5
 63
     7
 74
     1
 91
        0
 64
     7
 65
   257
 75
     1
175
     1
 42
1.0
 92
        0
 66
   257
 43
1.0
 76
     1
 77
     6
 78
     2
 67
     7
 79
     5
170
     0
171
     0
290
     0
174
     0
 93
       13
 44
0.0
173
     0
291
     1
 45
0.0
1001
ACAD
1000
AcDbSavedByObjectVersion
1070
     0
  0
VISUALSTYLE
  5
219
102
{ACAD_XDICTIONARY
360
8A7
102
}
102
{ACAD_REACTORS
330
211
102
}
330
211
100
AcDbVisualStyle
  2
Hidden
 70
     6
 71
     1
 72
     2
 73
     2
 90
        0
 40
-0.6
 41
-30.0
 62
     5
 63
     7
 74
     2
 91
        2
 64
     7
 65
   257
 75
     2
175
     1
 42
40.0
 92
        0
 66
   257
 43
1.0
 76
     1
 77
     6
 78
     2
 67
     7
 79
     3
170
     0
171
     0
290
     0
174
     0
 93
        1
 44
0.0
173
     0
291
     0
 45
0.0
1001
ACAD
1000
AcDbSavedByObjectVersion
1070
     0
  0
VISUALSTYLE
  5
227
102
{ACAD_XDICTIONARY
360
8C3
102
}
102
{ACAD_REACTORS
330
211
102
}
330
211
100
AcDbVisualStyle
  2
JitterOff
 70
    20
 71
     2
 72
     2
 73
     0
 90
        0
 40
-0.6
 41
-30.0
 62
     5
 63
     7
 74
     1
 91
        4
 64
     7
 65
   257
 75
     1
175
     1
 42
1.0
 92
       10
 66
     7
 43
1.0
 76
     1
 77
     6
 78
     2
 67
     7
 79
     5
170
     0
171
     0
290
     0
174
     0
 93
        1
 44
0.0
173
     0
291
     1
 45
0.0
1001
ACAD
1000
AcDbSavedByObjectVersion
1070
     0
  0
VISUALSTYLE
  5
21F
102
{ACAD_XDICTIONARY
360
8B3
102
}
102
{ACAD_REACTORS
330
211
102
}
330
211
100
AcDbVisualStyle
  2
Linepattern
 70
    14
 71
     2
 72
     2
 73
     0
 90
        0
 40
-0.6
 41
-30.0
 62
     5
 63
     7
 74
     1
 91
        4
 64
     7
 65
   257
 75
     7
175
     7
 42
1.0
 92
        8
 66
     7
 43
1.0
 76
     1
 77
     6
 78
     2
 67
     7
 79
     5
170
     0
171
     0
290
     0
174
     0
 93
        1
 44
0.0
173
     0
291
     1
 45
0.0
1001
ACAD
1000
AcDbSavedByObjectVersion
1070
     0
  0
VISUALSTYLE
  5
228
102
{ACAD_XDICTIONARY
360
8C5
102
}
102
{ACAD_REACTORS
330
211
102
}
330
211
100
AcDbVisualStyle
  2
OverhangOff
 70
    21
 71
     2
 72
     2
 73
     0
 90
        0
 40
-0.6
 41
-30.0
 62
     5
 63
     7
 74
     1
 91
        4
 64
     7
 65
   257
 75
     1
175
     1
 42
1.0
 92
        9
 66
     7
 43
1.0
 76
     1
 77
     6
 78
     2
 67
     7
 79
     5
170
     0
171
     0
290
     0
174
     0
 93
        1
 44
0.0
173
     0
291
     1
 45
0.0
1001
ACAD
1000
AcDbSavedByObjectVersion
1070
     0
  0
VISUALSTYLE
  5
21B
102
{ACAD_XDICTIONARY
360
8AB
102
}
102
{ACAD_REACTORS
330
211
102
}
330
211
100
AcDbVisualStyle
  2
Realistic
 70
     8
 71
     2
 72
     3
 73
     0
 90
        2
 40
-0.6
 41
30.0
 62
     5
 63
     7
 74
     0
 91
        0
 64
     7
 65
   257
 75
     1
175
     1
 42
1.0
 92
        8
 66
   257
 43
1.0
 76
     1
 77
     6
 78
     2
 67
     7
 79
     3
170
     0
171
     0
290
     0
174
     0
 93
       13
 44
0.0
173
     0
291
     0
 45
0.0
1001
ACAD
1000
AcDbSavedByObjectVersion
1070
     0
  0
VISUALSTYLE
  5
226
102
{ACAD_XDICTIONARY
360
8C1
102
}
102
{ACAD_REACTORS
330
211
102
}
330
211
100
AcDbVisualStyle
  2
Shaded
 70
    27
 71
     2
 72
     2
 73
     1
 90
        2
 40
-0.6
 41
30.0
 62
     5
 63
     7
 74
     0
 91
        4
 64
     7
 65
   257
 75
     1
175
     1
 42
1.0
 92
        8
 66
   257
 43
1.0
 76
     1
 77
     6
 78
     2
 67
     8
 79
     3
170
     0
171
     0
290
     0
174
     0
 93
        5
 44
0.0
173
     0
291
     0
 45
0.0
1001
ACAD
1000
AcDbSavedByObjectVersion
1070
     0
  0
VISUALSTYLE
  5
225
102
{ACAD_XDICTIONARY
360
8BF
102
}
102
{ACAD_REACTORS
330
211
102
}
330
211
100
AcDbVisualStyle
  2
Shaded with edges
 70
    26
 71
     2
 72
     2
 73
     1
 90
        2
 40
-0.6
 41
30.0
 62
     5
 63
     7
 74
     1
 91
       10
 64
     7
 65
   257
 75
     2
175
     1
 42
1.0
 92
        8
 66
   257
 43
1.0
 76
     1
 77
     6
 78
     2
 67
     7
 79
     3
170
     0
171
     0
290
     0
174
     0
 93
        5
 44
0.0
173
     0
291
     0
 45
0.0
1001
ACAD
1000
AcDbSavedByObjectVersion
1070
     0
  0
VISUALSTYLE
  5
222
102
{ACAD_XDICTIONARY
360
8B9
102
}
102
{ACAD_REACTORS
330
211
102
}
330
211
100
AcDbVisualStyle
  2
Shades of Gray
 70
    23
 71
     2
 72
     2
 73
     3
 90
        0
 40
-0.6
 41
-30.0
 62
     5
 63
     7
 74
     2
 91
        2
 64
     7
 65
     7
 75
     1
175
     1
 42
40.0
 92
        8
 66
     7
 43
1.0
 76
     1
 77
     6
 78
     2
 67
     7
 79
     3
170
     0
171
     0
290
     0
174
     0
 93
        1
 44
0.0
173
     0
291
     0
 45
0.0
1001
ACAD
1000
AcDbSavedByObjectVersion
1070
     0
  0
VISUALSTYLE
  5
223
102
{ACAD_XDICTIONARY
360
8BB
102
}
102
{ACAD_REACTORS
330
211
102
}
330
211
100
AcDbVisualStyle
  2
Sketchy
 70
    24
 71
     1
 72
     2
 73
     2
 90
        0
 40
-0.6
 41
-30.0
 62
     5
 63
     7
 74
     2
 91
        2
 64
     7
 65
     7
 75
     1
175
     1
 42
40.0
 92
       11
 66
     7
 43
1.0
 76
     1
 77
     6
 78
     2
 67
     7
 79
     6
170
     0
171
     0
290
     0
174
     0
 93
        1
 44
0.0
173
     0
291
     0
 45
0.0
1001
ACAD
1000
AcDbSavedByObjectVersion
1070
     0
  0
VISUALSTYLE
  5
21E
102
{ACAD_XDICTIONARY
360
8B1
102
}
102
{ACAD_REACTORS
330
211
102
}
330
211
100
AcDbVisualStyle
  2
Thicken
 70
    13
 71
     2
 72
     2
 73
     0
 90
        0
 40
-0.6
 41
-30.0
 62
     5
 63
     7
 74
     1
 91
        4
 64
     7
 65
   257
 75
     1
175
     1
 42
1.0
 92
       12
 66
     7
 43
1.0
 76
     1
 77
     6
 78
     2
 67
     7
 79
     5
170
     0
171
     0
290
     0
174
     0
 93
        1
 44
0.0
173
     0
291
     1
 45
0.0
1001
ACAD
1000
AcDbSavedByObjectVersion
1070
     0
  0
VISUALSTYLE
  5
218
102
{ACAD_XDICTIONARY
360
8A5
102
}
102
{ACAD_REACTORS
330
211
102
}
330
211
100
AcDbVisualStyle
  2
Wireframe
 70
     5
 71
     0
 72
     2
 73
     0
 90
        0
 40
-0.6
 41
-30.0
 62
     5
 63
     7
 74
     1
 91
        4
 64
     7
 65
   257
 75
     1
175
     1
 42
1.0
 92
        0
 66
   257
 43
1.0
 76
     1
 77
     6
 78
     2
 67
     7
 79
     3
170
     0
171
     0
290
     0
174
     0
 93
        1
 44
0.0
173
     0
291
     0
 45
0.0
1001
ACAD
1000
AcDbSavedByObjectVersion
1070
     0
  0
VISUALSTYLE
  5
224
102
{ACAD_XDICTIONARY
360
8BD
102
}
102
{ACAD_REACTORS
330
211
102
}
330
211
100
AcDbVisualStyle
  2
X-Ray
 70
    25
 71
     2
 72
     2
 73
     1
 90
        1
 40
0.5
 41
-30.0
 62
     5
 63
     7
 74
     1
 91
        0
 64
     7
 65
   257
 75
     1
175
     1
 42
1.0
 92
        8
 66
     7
 43
1.0
 76
     1
 77
     6
 78
     2
 67
     7
 79
     3
170
     0
171
     0
290
     0
174
     0
 93
       13
 44
0.0
173
     0
291
     0
 45
0.0
1001
ACAD
1000
AcDbSavedByObjectVersion
1070
     0
  0
DICTIONARYVAR
  5
1F5
102
{ACAD_REACTORS
330
1F2
102
}
330
1F2
100
DictionaryVariables
280
     0
  1
1:1
  0
DICTIONARYVAR
  5
87F
102
{ACAD_REACTORS
330
1F2
102
}
330
1F2
100
DictionaryVariables
280
     0
  1
STANDARD
  0
DICTIONARYVAR
  5
87E
102
{ACAD_REACTORS
330
1F2
102
}
330
1F2
100
DictionaryVariables
280
     0
  1
STANDARD
  0
DICTIONARYVAR
  5
880
102
{ACAD_REACTORS
330
1F2
102
}
330
1F2
100
DictionaryVariables
280
     0
  1
Imperial24
  0
DICTIONARYVAR
  5
881
102
{ACAD_REACTORS
330
1F2
102
}
330
1F2
100
DictionaryVariables
280
     0
  1
Imperial24
  0
DICTIONARYVAR
  5
884
102
{ACAD_REACTORS
330
1F2
102
}
330
1F2
100
DictionaryVariables
280
     0
  1
1
  0
DICTIONARYVAR
  5
883
102
{ACAD_REACTORS
330
1F2
102
}
330
1F2
100
DictionaryVariables
280
     0
  1
0
  0
DICTIONARYVAR
  5
882
102
{ACAD_REACTORS
330
1F2
102
}
330
1F2
100
DictionaryVariables
280
     0
  1
127
  0
DICTIONARYVAR
  5
885
102
{ACAD_REACTORS
330
1F2
102
}
330
1F2
100
DictionaryVariables
280
     0
  1
2
  0
DICTIONARY
  5
891
102
{ACAD_REACTORS
330
88F
102
}
330
88F
100
AcDbDictionary
281
     1
  0
DICTIONARY
  5
890
102
{ACAD_REACTORS
330
88F
102
}
330
88F
100
AcDbDictionary
281
     1
  3
8795951982624
350
88A
  3
8795951982640
350
88B
  3
8795951982656
350
88C
  3
8795951982672
350
88D
  3
8795951982688
350
88E
  0
DICTIONARY
  5
269
102
{ACAD_REACTORS
330
262
102
}
330
262
100
AcDbDictionary
281
     1
  0
DICTIONARY
  5
892
330
1C
100
AcDbDictionary
280
     1
281
     1
  3
ACAD_XREC_ROUNDTRIP
360
893
  0
DICTIONARY
  5
894
330
1E
100
AcDbDictionary
280
     1
281
     1
  3
ACAD_XREC_ROUNDTRIP
360
895
  0
DICTIONARY
  5
202
330
201
100
AcDbDictionary
280
     1
281
     1
  3
ACAD_XREC_ROUNDTRIP
360
897
  3
BUMPTILE
360
204
  3
DIFFUSETILE
360
203
  3
OPACITYTILE
360
207
  3
REFLECTIONTILE
360
206
  3
REFRACTIONTILE
360
208
  3
SPECULARTILE
360
205
  0
DICTIONARY
  5
1FA
330
1F9
100
AcDbDictionary
280
     1
281
     1
  3
ACAD_XREC_ROUNDTRIP
360
896
  3
BUMPTILE
360
1FC
  3
DIFFUSETILE
360
1FB
  3
OPACITYTILE
360
1FF
  3
REFLECTIONTILE
360
1FE
  3
REFRACTIONTILE
360
200
  3
SPECULARTILE
360
1FD
  0
DICTIONARY
  5
20A
330
209
100
AcDbDictionary
280
     1
281
     1
  3
ACAD_XREC_ROUNDTRIP
360
898
  3
BUMPTILE
360
20C
  3
DIFFUSETILE
360
20B
  3
OPACITYTILE
360
20F
  3
REFLECTIONTILE
360
20E
  3
REFRACTIONTILE
360
210
  3
SPECULARTILE
360
20D
  0
DICTIONARY
  5
8CB
330
22D
100
AcDbDictionary
280
     1
281
     1
  3
ACAD_XREC_ROUNDTRIP
360
8CC
  0
DICTIONARY
  5
886
330
22C
100
AcDbDictionary
280
     1
281
     1
  3
ACAD_ROUNDTRIP_2008_TABLESTYLE_CELLSTYLEMAP
360
887
  3
ACAD_XREC_ROUNDTRIP
360
8C9
  0
DICTIONARY
  5
8A3
330
217
100
AcDbDictionary
280
     1
281
     1
  3
ACAD_XREC_ROUNDTRIP
360
8A4
  0
DICTIONARY
  5
8A1
330
216
100
AcDbDictionary
280
     1
281
     1
  3
ACAD_XREC_ROUNDTRIP
360
8A2
  0
DICTIONARY
  5
8AF
330
21D
100
AcDbDictionary
280
     1
281
     1
  3
ACAD_XREC_ROUNDTRIP
360
8B0
  0
DICTIONARY
  5
8B7
330
221
100
AcDbDictionary
280
     1
281
     1
  3
ACAD_XREC_ROUNDTRIP
360
8B8
  0
DICTIONARY
  5
8A9
330
21A
100
AcDbDictionary
280
     1
281
     1
  3
ACAD_XREC_ROUNDTRIP
360
8AA
  0
DICTIONARY
  5
8AD
330
21C
100
AcDbDictionary
280
     1
281
     1
  3
ACAD_XREC_ROUNDTRIP
360
8AE
  0
DICTIONARY
  5
8C7
330
229
100
AcDbDictionary
280
     1
281
     1
  3
ACAD_XREC_ROUNDTRIP
360
8C8
  0
DICTIONARY
  5
8B5
330
220
100
AcDbDictionary
280
     1
281
     1
  3
ACAD_XREC_ROUNDTRIP
360
8B6
  0
DICTIONARY
  5
899
330
212
100
AcDbDictionary
280
     1
281
     1
  3
ACAD_XREC_ROUNDTRIP
360
89A
  0
DICTIONARY
  5
89B
330
213
100
AcDbDictionary
280
     1
281
     1
  3
ACAD_XREC_ROUNDTRIP
360
89C
  0
DICTIONARY
  5
89D
330
214
100
AcDbDictionary
280
     1
281
     1
  3
ACAD_XREC_ROUNDTRIP
360
89E
  0
DICTIONARY
  5
89F
330
215
100
AcDbDictionary
280
     1
281
     1
  3
ACAD_XREC_ROUNDTRIP
360
8A0
  0
DICTIONARY
  5
8A7
330
219
100
AcDbDictionary
280
     1
281
     1
  3
ACAD_XREC_ROUNDTRIP
360
8A8
  0
DICTIONARY
  5
8C3
330
227
100
AcDbDictionary
280
     1
281
     1
  3
ACAD_XREC_ROUNDTRIP
360
8C4
  0
DICTIONARY
  5
8B3
330
21F
100
AcDbDictionary
280
     1
281
     1
  3
ACAD_XREC_ROUNDTRIP
360
8B4
  0
DICTIONARY
  5
8C5
330
228
100
AcDbDictionary
280
     1
281
     1
  3
ACAD_XREC_ROUNDTRIP
360
8C6
  0
DICTIONARY
  5
8AB
330
21B
100
AcDbDictionary
280
     1
281
     1
  3
ACAD_XREC_ROUNDTRIP
360
8AC
  0
DICTIONARY
  5
8C1
330
226
100
AcDbDictionary
280
     1
281
     1
  3
ACAD_XREC_ROUNDTRIP
360
8C2
  0
DICTIONARY
  5
8BF
330
225
100
AcDbDictionary
280
     1
281
     1
  3
ACAD_XREC_ROUNDTRIP
360
8C0
  0
DICTIONARY
  5
8B9
330
222
100
AcDbDictionary
280
     1
281
     1
  3
ACAD_XREC_ROUNDTRIP
360
8BA
  0
DICTIONARY
  5
8BB
330
223
100
AcDbDictionary
280
     1
281
     1
  3
ACAD_XREC_ROUNDTRIP
360
8BC
  0
DICTIONARY
  5
8B1
330
21E
100
AcDbDictionary
280
     1
281
     1
  3
ACAD_XREC_ROUNDTRIP
360
8B2
  0
DICTIONARY
  5
8A5
330
218
100
AcDbDictionary
280
     1
281
     1
  3
ACAD_XREC_ROUNDTRIP
360
8A6
  0
DICTIONARY
  5
8BD
330
224
100
AcDbDictionary
280
     1
281
     1
  3
ACAD_XREC_ROUNDTRIP
360
8BE
  0
XRECORD
  5
88A
102
{ACAD_REACTORS
330
890
102
}
330
890
100
AcDbXrecord
280
     1
  1
AcDb_Thumbnail_Schema
102
{ATTRRECORD
341
88B
  2
AcDbDs::TreatedAsObjectData
280
     1
291
     1
102
ATTRRECORD}
102
{ATTRRECORD
341
88C
  2
AcDbDs::Legacy
280
     1
291
     1
102
ATTRRECORD}
  2
AcDbDs::ID
280
    10
 91
        8
102
{ATTRRECORD
341
88D
  2
AcDs:Indexable
280
     1
291
     1
102
ATTRRECORD}
102
{ATTRRECORD
341
88E
  2
AcDbDs::HandleAttribute
280
     7
282
     1
102
ATTRRECORD}
  2
Thumbnail_Data
280
    15
 91
        0
  0
XRECORD
  5
88B
102
{ACAD_REACTORS
330
890
102
}
330
890
100
AcDbXrecord
280
     1
  1
AcDbDs::TreatedAsObjectDataSchema
  2
AcDbDs::TreatedAsObjectData
280
     1
 91
        0
  0
XRECORD
  5
88C
102
{ACAD_REACTORS
330
890
102
}
330
890
100
AcDbXrecord
280
     1
  1
AcDbDs::LegacySchema
  2
AcDbDs::Legacy
280
     1
 91
        0
  0
XRECORD
  5
88D
102
{ACAD_REACTORS
330
890
102
}
330
890
100
AcDbXrecord
280
     1
  1
AcDbDs::IndexedPropertySchema
  2
AcDs:Indexable
280
     1
 91
        0
  0
XRECORD
  5
88E
102
{ACAD_REACTORS
330
890
102
}
330
890
100
AcDbXrecord
280
     1
  1
AcDbDs::HandleAttributeSchema
  2
AcDbDs::HandleAttribute
280
     7
 91
        1
284
     1
  0
XRECORD
  5
893
102
{ACAD_REACTORS
330
892
102
}
330
892
100
AcDbXrecord
280
     1
102
SHADEPLOT
 70
     0
102
SHADEPLOTRESLEVEL
 70
     2
102
SHADEPLOTCUSTOMDPI
 70
   300
  0
XRECORD
  5
895
102
{ACAD_REACTORS
330
894
102
}
330
894
100
AcDbXrecord
280
     1
102
SHADEPLOT
 70
     0
102
SHADEPLOTRESLEVEL
 70
     2
102
SHADEPLOTCUSTOMDPI
 70
   300
  0
XRECORD
  5
897
102
{ACAD_REACTORS
330
202
102
}
330
202
100
AcDbXrecord
280
     1
102
MATERIAL
148
0.0
149
0.0
149
0.0
 93
        0
 94
      127
282
     0
 72
     0
 77
     0
171
     0
175
     0
179
     0
273
     0
  0
XRECORD
  5
204
102
{ACAD_REACTORS
330
202
102
}
330
202
100
AcDbXrecord
280
     1
270
     1
271
     1
  0
XRECORD
  5
203
102
{ACAD_REACTORS
330
202
102
}
330
202
100
AcDbXrecord
280
     1
270
     1
271
     1
  0
XRECORD
  5
207
102
{ACAD_REACTORS
330
202
102
}
330
202
100
AcDbXrecord
280
     1
270
     1
271
     1
  0
XRECORD
  5
206
102
{ACAD_REACTORS
330
202
102
}
330
202
100
AcDbXrecord
280
     1
270
     1
271
     1
  0
XRECORD
  5
208
102
{ACAD_REACTORS
330
202
102
}
330
202
100
AcDbXrecord
280
     1
270
     1
271
     1
  0
XRECORD
  5
205
102
{ACAD_REACTORS
330
202
102
}
330
202
100
AcDbXrecord
280
     1
270
     1
271
     1
  0
XRECORD
  5
896
102
{ACAD_REACTORS
330
1FA
102
}
330
1FA
100
AcDbXrecord
280
     1
102
MATERIAL
148
0.0
149
0.0
149
0.0
 93
        0
 94
      127
282
     0
 72
     0
 77
     0
171
     0
175
     0
179
     0
273
     0
  0
XRECORD
  5
1FC
102
{ACAD_REACTORS
330
1FA
102
}
330
1FA
100
AcDbXrecord
280
     1
270
     1
271
     1
  0
XRECORD
  5
1FB
102
{ACAD_REACTORS
330
1FA
102
}
330
1FA
100
AcDbXrecord
280
     1
270
     1
271
     1
  0
XRECORD
  5
1FF
102
{ACAD_REACTORS
330
1FA
102
}
330
1FA
100
AcDbXrecord
280
     1
270
     1
271
     1
  0
XRECORD
  5
1FE
102
{ACAD_REACTORS
330
1FA
102
}
330
1FA
100
AcDbXrecord
280
     1
270
     1
271
     1
  0
XRECORD
  5
200
102
{ACAD_REACTORS
330
1FA
102
}
330
1FA
100
AcDbXrecord
280
     1
270
     1
271
     1
  0
XRECORD
  5
1FD
102
{ACAD_REACTORS
330
1FA
102
}
330
1FA
100
AcDbXrecord
280
     1
270
     1
271
     1
  0
XRECORD
  5
898
102
{ACAD_REACTORS
330
20A
102
}
330
20A
100
AcDbXrecord
280
     1
102
MATERIAL
148
0.0
149
0.0
149
0.0
 93
        0
 94
      127
282
     0
 72
     0
 77
     0
171
     0
175
     0
179
     0
273
     0
  0
XRECORD
  5
20C
102
{ACAD_REACTORS
330
20A
102
}
330
20A
100
AcDbXrecord
280
     1
270
     1
271
     1
  0
XRECORD
  5
20B
102
{ACAD_REACTORS
330
20A
102
}
330
20A
100
AcDbXrecord
280
     1
270
     1
271
     1
  0
XRECORD
  5
20F
102
{ACAD_REACTORS
330
20A
102
}
330
20A
100
AcDbXrecord
280
     1
270
     1
271
     1
  0
XRECORD
  5
20E
102
{ACAD_REACTORS
330
20A
102
}
330
20A
100
AcDbXrecord
280
     1
270
     1
271
     1
  0
XRECORD
  5
210
102
{ACAD_REACTORS
330
20A
102
}
330
20A
100
AcDbXrecord
280
     1
270
     1
271
     1
  0
XRECORD
  5
20D
102
{ACAD_REACTORS
330
20A
102
}
330
20A
100
AcDbXrecord
280
     1
270
     1
271
     1
  0
XRECORD
  5
8CC
102
{ACAD_REACTORS
330
8CB
102
}
330
8CB
100
AcDbXrecord
280
     1
102
ACAD_ROUNDTRIP_2012_MLEADER_STYLE
298
     1
  0
CELLSTYLEMAP
  5
887
102
{ACAD_REACTORS
330
886
102
}
330
886
100
AcDbCellStyleMap
 90
        3
300
CELLSTYLE
  1
TABLEFORMAT_BEGIN
 90
        5
170
     1
 91
        0
 92
    32768
 62
   257
 93
        1
300
CONTENTFORMAT
  1
CONTENTFORMAT_BEGIN
 90
        0
 91
        0
 92
      512
 93
        0
300

 40
0.0
140
1.0
 94
        5
 62
     0
340
11
144
0.25
309
CONTENTFORMAT_END
171
     0
 94
        0
309
TABLEFORMAT_END
  1
CELLSTYLE_BEGIN
 90
        1
 91
        1
300
_TITLE
309
CELLSTYLE_END
300
CELLSTYLE
  1
TABLEFORMAT_BEGIN
 90
        5
170
     1
 91
        0
 92
        0
 62
   257
 93
        1
300
CONTENTFORMAT
  1
CONTENTFORMAT_BEGIN
 90
        0
 91
        0
 92
      512
 93
        0
300

 40
0.0
140
1.0
 94
        5
 62
     0
340
11
144
0.18
309
CONTENTFORMAT_END
171
     0
 94
        0
309
TABLEFORMAT_END
  1
CELLSTYLE_BEGIN
 90
        2
 91
        1
300
_HEADER
309
CELLSTYLE_END
300
CELLSTYLE
  1
TABLEFORMAT_BEGIN
 90
        5
170
     1
 91
        0
 92
        0
 62
   257
 93
        1
300
CONTENTFORMAT
  1
CONTENTFORMAT_BEGIN
 90
        0
 91
        0
 92
      512
 93
        0
300

 40
0.0
140
1.0
 94
        2
 62
     0
340
11
144
0.18
309
CONTENTFORMAT_END
171
     0
 94
        0
309
TABLEFORMAT_END
  1
CELLSTYLE_BEGIN
 90
        3
 91
        2
300
_DATA
309
CELLSTYLE_END
  0
XRECORD
  5
8C9
102
{ACAD_REACTORS
330
886
102
}
330
886
100
AcDbXrecord
280
     1
102
ACAD_ROUNDTRIP_PRE2007_TABLESTYLE
 90
      512
 91
        0
  1

 92
      512
 93
        0
  2

 94
      512
 95
        0
  3

  0
XRECORD
  5
8A4
102
{ACAD_REACTORS
330
8A3
102
}
330
8A3
100
AcDbXrecord
280
     1
102
RTVSPost2010Prop28
280
     1
102
RTVSPost2010PropOp28
 70
     1
102
RTVSPost2010Prop29
280
     1
102
RTVSPost2010PropOp29
 70
     1
102
RTVSPost2010Prop30
280
     0
102
RTVSPost2010PropOp30
 70
     1
102
RTVSPost2010Prop31
280
     0
102
RTVSPost2010PropOp31
 70
     1
102
RTVSPost2010Prop32
280
     0
102
RTVSPost2010PropOp32
 70
     1
102
RTVSPost2010Prop33
280
     0
102
RTVSPost2010PropOp33
 70
     1
102
RTVSPost2010Prop34
280
     0
102
RTVSPost2010PropOp34
 70
     1
102
RTVSPost2010Prop35
280
     0
102
RTVSPost2010PropOp35
 70
     1
102
RTVSPost2010Prop36
280
     0
102
RTVSPost2010PropOp36
 70
     1
102
RTVSPost2010Prop37
 90
       50
102
RTVSPost2010PropOp37
 70
     1
102
RTVSPost2010Prop38
140
0.0
102
RTVSPost2010PropOp38
 70
     1
102
RTVSPost2010Prop39
140
1.0
102
RTVSPost2010PropOp39
 70
     1
102
RTVSPost2010Prop40
 90
        0
102
RTVSPost2010PropOp40
 70
     1
102
RTVSPost2010Prop41ColorIndex
 90
       18
102
RTVSPost2010Prop41ColorRGB
 90
        0
102
RTVSPost2010PropOp41
 70
     1
102
RTVSPost2010Prop42
 90
       50
102
RTVSPost2010PropOp42
 70
     1
102
RTVSPost2010Prop43
 90
        3
102
RTVSPost2010PropOp43
 70
     1
102
RTVSPost2010Prop44ColorIndex
 90
        5
102
RTVSPost2010Prop44ColorRGB
 90
      255
102
RTVSPost2010PropOp44
 70
     1
102
RTVSPost2010Prop45
280
     0
102
RTVSPost2010PropOp45
 70
     1
102
RTVSPost2010Prop46
 90
       50
102
RTVSPost2010PropOp46
 70
     1
102
RTVSPost2010Prop47
 90
       50
102
RTVSPost2010PropOp47
 70
     1
102
RTVSPost2010Prop48
 90
       50
102
RTVSPost2010PropOp48
 70
     1
102
RTVSPost2010Prop49
280
     0
102
RTVSPost2010PropOp49
 70
     1
102
RTVSPost2010Prop50
 90
       50
102
RTVSPost2010PropOp50
 70
     1
102
RTVSPost2010Prop51ColorIndex
 90
      256
102
RTVSPost2010Prop51ColorRGB
 90
-16777216
102
RTVSPost2010PropOp51
 70
     0
102
RTVSPost2010Prop52
140
1.0
102
RTVSPost2010PropOp52
 70
     0
102
RTVSPost2010Prop53
 90
        2
102
RTVSPost2010PropOp53
 70
     1
102
RTVSPost2010Prop54
  1
strokes_ogs.tif
102
RTVSPost2010PropOp54
 70
     1
102
RTVSPost2010Prop55
280
     0
102
RTVSPost2010PropOp55
 70
     1
102
RTVSPost2010Prop56
140
1.0
102
RTVSPost2010PropOp56
 70
     1
102
RTVSPost2010Prop57
140
1.0
102
RTVSPost2010PropOp57
 70
     1
102
RTVSPropertyOp0
 70
     1
102
RTVSPropertyOp1
 70
     1
102
RTVSPropertyOp2
 70
     1
102
RTVSPropertyOp3
 70
     1
102
RTVSPropertyOp4
 70
     1
102
RTVSPropertyOp5
 70
     1
102
RTVSPropertyOp6
 70
     1
102
RTVSPropertyOp7
 70
     1
102
RTVSPropertyOp8
 70
     1
102
RTVSPropertyOp9
 70
     1
102
RTVSPropertyOp10
 70
     1
102
RTVSPropertyOp11
 70
     1
102
RTVSPropertyOp12
 70
     1
102
RTVSPropertyOp13
 70
     1
102
RTVSPropertyOp14
 70
     1
102
RTVSPropertyOp15
 70
     1
102
RTVSPropertyOp16
 70
     1
102
RTVSPropertyOp17
 70
     1
102
RTVSPropertyOp18
 70
     1
102
RTVSPropertyOp19
 70
     1
102
RTVSPropertyOp20
 70
     1
102
RTVSPropertyOp21
 70
     1
102
RTVSPropertyOp22
 70
     1
102
RTVSPropertyOp23
 70
     1
102
RTVSPropertyOp24
 70
     1
102
RTVSPropertyOp25
 70
     1
102
RTVSPropertyOp26
 70
     1
102
RTVSPropertyOp27
 70
     1
102
RTVSPropertyOp28
 70
     1
102
RTVSPropertyOp29
 70
     1
102
RTVSPropertyOp30
 70
     1
102
RTVSPropertyOp31
 70
     1
102
RTVSPropertyOp32
 70
     1
102
RTVSPropertyOp33
 70
     1
102
RTVSPropertyOp34
 70
     1
102
RTVSPropertyOp35
 70
     1
102
RTVSPropertyOp36
 70
     1
102
RTVSPropertyOp37
 70
     1
102
RTVSPropertyOp38
 70
     1
102
RTVSPropertyOp39
 70
     1
102
RTVSPropertyOp40
 70
     1
102
RTVSPropertyOp41
 70
     1
102
RTVSPropertyOp42
 70
     1
102
RTVSPropertyOp43
 70
     1
102
RTVSPropertyOp44
 70
     1
102
RTVSPropertyOp45
 70
     1
102
RTVSPropertyOp46
 70
     1
102
RTVSPropertyOp47
 70
     1
102
RTVSPropertyOp48
 70
     1
102
RTVSPropertyOp49
 70
     1
102
RTVSPropertyOp50
 70
     1
102
RTVSPropertyOp51
 70
     0
102
RTVSPropertyOp52
 70
     0
102
RTVSPropertyOp53
 70
     1
102
RTVSPropertyOp54
 70
     1
102
RTVSPropertyOp55
 70
     1
102
RTVSPropertyOp56
 70
     1
102
RTVSPropertyOp57
 70
     1
102
RTVSPropertyOp58
 70
     1
102
RTVSPropertyOp59
 70
     1
102
RTVSPropertyOp60
 70
     1
102
RTVSPropertyOp61
 70
     1
102
RTVSPropertyOp62
 70
     1
  0
XRECORD
  5
8A2
102
{ACAD_REACTORS
330
8A1
102
}
330
8A1
100
AcDbXrecord
280
     1
102
RTVSPost2010Prop28
280
     0
102
RTVSPost2010PropOp28
 70
     1
102
RTVSPost2010Prop29
280
     1
102
RTVSPost2010PropOp29
 70
     1
102
RTVSPost2010Prop30
280
     1
102
RTVSPost2010PropOp30
 70
     1
102
RTVSPost2010Prop31
280
     0
102
RTVSPost2010PropOp31
 70
     1
102
RTVSPost2010Prop32
280
     0
102
RTVSPost2010PropOp32
 70
     1
102
RTVSPost2010Prop33
280
     0
102
RTVSPost2010PropOp33
 70
     1
102
RTVSPost2010Prop34
280
     0
102
RTVSPost2010PropOp34
 70
     1
102
RTVSPost2010Prop35
280
     0
102
RTVSPost2010PropOp35
 70
     1
102
RTVSPost2010Prop36
280
     0
102
RTVSPost2010PropOp36
 70
     1
102
RTVSPost2010Prop37
 90
       50
102
RTVSPost2010PropOp37
 70
     1
102
RTVSPost2010Prop38
140
0.0
102
RTVSPost2010PropOp38
 70
     1
102
RTVSPost2010Prop39
140
1.0
102
RTVSPost2010PropOp39
 70
     1
102
RTVSPost2010Prop40
 90
        0
102
RTVSPost2010PropOp40
 70
     1
102
RTVSPost2010Prop41ColorIndex
 90
       18
102
RTVSPost2010Prop41ColorRGB
 90
        0
102
RTVSPost2010PropOp41
 70
     1
102
RTVSPost2010Prop42
 90
       50
102
RTVSPost2010PropOp42
 70
     1
102
RTVSPost2010Prop43
 90
        3
102
RTVSPost2010PropOp43
 70
     1
102
RTVSPost2010Prop44ColorIndex
 90
        5
102
RTVSPost2010Prop44ColorRGB
 90
      255
102
RTVSPost2010PropOp44
 70
     1
102
RTVSPost2010Prop45
280
     0
102
RTVSPost2010PropOp45
 70
     1
102
RTVSPost2010Prop46
 90
       50
102
RTVSPost2010PropOp46
 70
     1
102
RTVSPost2010Prop47
 90
       50
102
RTVSPost2010PropOp47
 70
     1
102
RTVSPost2010Prop48
 90
       50
102
RTVSPost2010PropOp48
 70
     1
102
RTVSPost2010Prop49
280
     0
102
RTVSPost2010PropOp49
 70
     1
102
RTVSPost2010Prop50
 90
       50
102
RTVSPost2010PropOp50
 70
     1
102
RTVSPost2010Prop51ColorIndex
 90
      256
102
RTVSPost2010Prop51ColorRGB
 90
-16777216
102
RTVSPost2010PropOp51
 70
     0
102
RTVSPost2010Prop52
140
1.0
102
RTVSPost2010PropOp52
 70
     0
102
RTVSPost2010Prop53
 90
        2
102
RTVSPost2010PropOp53
 70
     1
102
RTVSPost2010Prop54
  1
strokes_ogs.tif
102
RTVSPost2010PropOp54
 70
     1
102
RTVSPost2010Prop55
280
     0
102
RTVSPost2010PropOp55
 70
     1
102
RTVSPost2010Prop56
140
1.0
102
RTVSPost2010PropOp56
 70
     1
102
RTVSPost2010Prop57
140
1.0
102
RTVSPost2010PropOp57
 70
     1
102
RTVSPropertyOp0
 70
     1
102
RTVSPropertyOp1
 70
     1
102
RTVSPropertyOp2
 70
     1
102
RTVSPropertyOp3
 70
     1
102
RTVSPropertyOp4
 70
     1
102
RTVSPropertyOp5
 70
     1
102
RTVSPropertyOp6
 70
     1
102
RTVSPropertyOp7
 70
     1
102
RTVSPropertyOp8
 70
     1
102
RTVSPropertyOp9
 70
     1
102
RTVSPropertyOp10
 70
     1
102
RTVSPropertyOp11
 70
     1
102
RTVSPropertyOp12
 70
     1
102
RTVSPropertyOp13
 70
     1
102
RTVSPropertyOp14
 70
     1
102
RTVSPropertyOp15
 70
     1
102
RTVSPropertyOp16
 70
     1
102
RTVSPropertyOp17
 70
     1
102
RTVSPropertyOp18
 70
     1
102
RTVSPropertyOp19
 70
     1
102
RTVSPropertyOp20
 70
     1
102
RTVSPropertyOp21
 70
     1
102
RTVSPropertyOp22
 70
     1
102
RTVSPropertyOp23
 70
     1
102
RTVSPropertyOp24
 70
     1
102
RTVSPropertyOp25
 70
     1
102
RTVSPropertyOp26
 70
     1
102
RTVSPropertyOp27
 70
     1
102
RTVSPropertyOp28
 70
     1
102
RTVSPropertyOp29
 70
     1
102
RTVSPropertyOp30
 70
     1
102
RTVSPropertyOp31
 70
     1
102
RTVSPropertyOp32
 70
     1
102
RTVSPropertyOp33
 70
     1
102
RTVSPropertyOp34
 70
     1
102
RTVSPropertyOp35
 70
     1
102
RTVSPropertyOp36
 70
     1
102
RTVSPropertyOp37
 70
     1
102
RTVSPropertyOp38
 70
     1
102
RTVSPropertyOp39
 70
     1
102
RTVSPropertyOp40
 70
     1
102
RTVSPropertyOp41
 70
     1
102
RTVSPropertyOp42
 70
     1
102
RTVSPropertyOp43
 70
     1
102
RTVSPropertyOp44
 70
     1
102
RTVSPropertyOp45
 70
     1
102
RTVSPropertyOp46
 70
     1
102
RTVSPropertyOp47
 70
     1
102
RTVSPropertyOp48
 70
     1
102
RTVSPropertyOp49
 70
     1
102
RTVSPropertyOp50
 70
     1
102
RTVSPropertyOp51
 70
     0
102
RTVSPropertyOp52
 70
     0
102
RTVSPropertyOp53
 70
     1
102
RTVSPropertyOp54
 70
     1
102
RTVSPropertyOp55
 70
     1
102
RTVSPropertyOp56
 70
     1
102
RTVSPropertyOp57
 70
     1
102
RTVSPropertyOp58
 70
     1
102
RTVSPropertyOp59
 70
     1
102
RTVSPropertyOp60
 70
     1
102
RTVSPropertyOp61
 70
     1
102
RTVSPropertyOp62
 70
     1
  0
XRECORD
  5
8B0
102
{ACAD_REACTORS
330
8AF
102
}
330
8AF
100
AcDbXrecord
280
     1
102
RTVSPost2010Prop28
280
     0
102
RTVSPost2010PropOp28
 70
     1
102
RTVSPost2010Prop29
280
     1
102
RTVSPost2010PropOp29
 70
     1
102
RTVSPost2010Prop30
280
     1
102
RTVSPost2010PropOp30
 70
     1
102
RTVSPost2010Prop31
280
     0
102
RTVSPost2010PropOp31
 70
     1
102
RTVSPost2010Prop32
280
     0
102
RTVSPost2010PropOp32
 70
     1
102
RTVSPost2010Prop33
280
     0
102
RTVSPost2010PropOp33
 70
     1
102
RTVSPost2010Prop34
280
     0
102
RTVSPost2010PropOp34
 70
     1
102
RTVSPost2010Prop35
280
     0
102
RTVSPost2010PropOp35
 70
     1
102
RTVSPost2010Prop36
280
     0
102
RTVSPost2010PropOp36
 70
     1
102
RTVSPost2010Prop37
 90
       50
102
RTVSPost2010PropOp37
 70
     1
102
RTVSPost2010Prop38
140
0.0
102
RTVSPost2010PropOp38
 70
     1
102
RTVSPost2010Prop39
140
1.0
102
RTVSPost2010PropOp39
 70
     1
102
RTVSPost2010Prop40
 90
        0
102
RTVSPost2010PropOp40
 70
     1
102
RTVSPost2010Prop41ColorIndex
 90
       18
102
RTVSPost2010Prop41ColorRGB
 90
        0
102
RTVSPost2010PropOp41
 70
     1
102
RTVSPost2010Prop42
 90
       50
102
RTVSPost2010PropOp42
 70
     1
102
RTVSPost2010Prop43
 90
        3
102
RTVSPost2010PropOp43
 70
     1
102
RTVSPost2010Prop44ColorIndex
 90
        5
102
RTVSPost2010Prop44ColorRGB
 90
      255
102
RTVSPost2010PropOp44
 70
     1
102
RTVSPost2010Prop45
280
     0
102
RTVSPost2010PropOp45
 70
     1
102
RTVSPost2010Prop46
 90
       50
102
RTVSPost2010PropOp46
 70
     1
102
RTVSPost2010Prop47
 90
       50
102
RTVSPost2010PropOp47
 70
     1
102
RTVSPost2010Prop48
 90
       50
102
RTVSPost2010PropOp48
 70
     1
102
RTVSPost2010Prop49
280
     0
102
RTVSPost2010PropOp49
 70
     1
102
RTVSPost2010Prop50
 90
       50
102
RTVSPost2010PropOp50
 70
     1
102
RTVSPost2010Prop51ColorIndex
 90
      256
102
RTVSPost2010Prop51ColorRGB
 90
-16777216
102
RTVSPost2010PropOp51
 70
     0
102
RTVSPost2010Prop52
140
1.0
102
RTVSPost2010PropOp52
 70
     0
102
RTVSPost2010Prop53
 90
        2
102
RTVSPost2010PropOp53
 70
     1
102
RTVSPost2010Prop54
  1
strokes_ogs.tif
102
RTVSPost2010PropOp54
 70
     1
102
RTVSPost2010Prop55
280
     0
102
RTVSPost2010PropOp55
 70
     1
102
RTVSPost2010Prop56
140
1.0
102
RTVSPost2010PropOp56
 70
     1
102
RTVSPost2010Prop57
140
1.0
102
RTVSPost2010PropOp57
 70
     1
102
RTVSPropertyOp0
 70
     1
102
RTVSPropertyOp1
 70
     1
102
RTVSPropertyOp2
 70
     1
102
RTVSPropertyOp3
 70
     1
102
RTVSPropertyOp4
 70
     1
102
RTVSPropertyOp5
 70
     1
102
RTVSPropertyOp6
 70
     1
102
RTVSPropertyOp7
 70
     1
102
RTVSPropertyOp8
 70
     1
102
RTVSPropertyOp9
 70
     1
102
RTVSPropertyOp10
 70
     1
102
RTVSPropertyOp11
 70
     1
102
RTVSPropertyOp12
 70
     1
102
RTVSPropertyOp13
 70
     1
102
RTVSPropertyOp14
 70
     1
102
RTVSPropertyOp15
 70
     1
102
RTVSPropertyOp16
 70
     1
102
RTVSPropertyOp17
 70
     1
102
RTVSPropertyOp18
 70
     1
102
RTVSPropertyOp19
 70
     1
102
RTVSPropertyOp20
 70
     1
102
RTVSPropertyOp21
 70
     1
102
RTVSPropertyOp22
 70
     1
102
RTVSPropertyOp23
 70
     1
102
RTVSPropertyOp24
 70
     1
102
RTVSPropertyOp25
 70
     1
102
RTVSPropertyOp26
 70
     1
102
RTVSPropertyOp27
 70
     1
102
RTVSPropertyOp28
 70
     1
102
RTVSPropertyOp29
 70
     1
102
RTVSPropertyOp30
 70
     1
102
RTVSPropertyOp31
 70
     1
102
RTVSPropertyOp32
 70
     1
102
RTVSPropertyOp33
 70
     1
102
RTVSPropertyOp34
 70
     1
102
RTVSPropertyOp35
 70
     1
102
RTVSPropertyOp36
 70
     1
102
RTVSPropertyOp37
 70
     1
102
RTVSPropertyOp38
 70
     1
102
RTVSPropertyOp39
 70
     1
102
RTVSPropertyOp40
 70
     1
102
RTVSPropertyOp41
 70
     1
102
RTVSPropertyOp42
 70
     1
102
RTVSPropertyOp43
 70
     1
102
RTVSPropertyOp44
 70
     1
102
RTVSPropertyOp45
 70
     1
102
RTVSPropertyOp46
 70
     1
102
RTVSPropertyOp47
 70
     1
102
RTVSPropertyOp48
 70
     1
102
RTVSPropertyOp49
 70
     1
102
RTVSPropertyOp50
 70
     1
102
RTVSPropertyOp51
 70
     0
102
RTVSPropertyOp52
 70
     0
102
RTVSPropertyOp53
 70
     1
102
RTVSPropertyOp54
 70
     1
102
RTVSPropertyOp55
 70
     1
102
RTVSPropertyOp56
 70
     1
102
RTVSPropertyOp57
 70
     1
102
RTVSPropertyOp58
 70
     1
102
RTVSPropertyOp59
 70
     1
102
RTVSPropertyOp60
 70
     1
102
RTVSPropertyOp61
 70
     1
102
RTVSPropertyOp62
 70
     1
  0
XRECORD
  5
8B8
102
{ACAD_REACTORS
330
8B7
102
}
330
8B7
100
AcDbXrecord
280
     1
102
RTVSPost2010Prop28
280
     0
102
RTVSPost2010PropOp28
 70
     1
102
RTVSPost2010Prop29
280
     1
102
RTVSPost2010PropOp29
 70
     1
102
RTVSPost2010Prop30
280
     1
102
RTVSPost2010PropOp30
 70
     1
102
RTVSPost2010Prop31
280
     0
102
RTVSPost2010PropOp31
 70
     1
102
RTVSPost2010Prop32
280
     0
102
RTVSPost2010PropOp32
 70
     1
102
RTVSPost2010Prop33
280
     0
102
RTVSPost2010PropOp33
 70
     1
102
RTVSPost2010Prop34
280
     0
102
RTVSPost2010PropOp34
 70
     1
102
RTVSPost2010Prop35
280
     0
102
RTVSPost2010PropOp35
 70
     1
102
RTVSPost2010Prop36
280
     0
102
RTVSPost2010PropOp36
 70
     1
102
RTVSPost2010Prop37
 90
       50
102
RTVSPost2010PropOp37
 70
     1
102
RTVSPost2010Prop38
140
0.0
102
RTVSPost2010PropOp38
 70
     1
102
RTVSPost2010Prop39
140
1.0
102
RTVSPost2010PropOp39
 70
     1
102
RTVSPost2010Prop40
 90
        0
102
RTVSPost2010PropOp40
 70
     1
102
RTVSPost2010Prop41ColorIndex
 90
       18
102
RTVSPost2010Prop41ColorRGB
 90
        0
102
RTVSPost2010PropOp41
 70
     1
102
RTVSPost2010Prop42
 90
       50
102
RTVSPost2010PropOp42
 70
     1
102
RTVSPost2010Prop43
 90
        3
102
RTVSPost2010PropOp43
 70
     1
102
RTVSPost2010Prop44ColorIndex
 90
        5
102
RTVSPost2010Prop44ColorRGB
 90
      255
102
RTVSPost2010PropOp44
 70
     1
102
RTVSPost2010Prop45
280
     0
102
RTVSPost2010PropOp45
 70
     1
102
RTVSPost2010Prop46
 90
       50
102
RTVSPost2010PropOp46
 70
     1
102
RTVSPost2010Prop47
 90
       50
102
RTVSPost2010PropOp47
 70
     1
102
RTVSPost2010Prop48
 90
       50
102
RTVSPost2010PropOp48
 70
     1
102
RTVSPost2010Prop49
280
     0
102
RTVSPost2010PropOp49
 70
     1
102
RTVSPost2010Prop50
 90
       50
102
RTVSPost2010PropOp50
 70
     1
102
RTVSPost2010Prop51ColorIndex
 90
      256
102
RTVSPost2010Prop51ColorRGB
 90
-16777216
102
RTVSPost2010PropOp51
 70
     0
102
RTVSPost2010Prop52
140
1.0
102
RTVSPost2010PropOp52
 70
     0
102
RTVSPost2010Prop53
 90
        2
102
RTVSPost2010PropOp53
 70
     1
102
RTVSPost2010Prop54
  1
strokes_ogs.tif
102
RTVSPost2010PropOp54
 70
     1
102
RTVSPost2010Prop55
280
     0
102
RTVSPost2010PropOp55
 70
     1
102
RTVSPost2010Prop56
140
1.0
102
RTVSPost2010PropOp56
 70
     1
102
RTVSPost2010Prop57
140
1.0
102
RTVSPost2010PropOp57
 70
     1
102
RTVSPropertyOp0
 70
     1
102
RTVSPropertyOp1
 70
     1
102
RTVSPropertyOp2
 70
     1
102
RTVSPropertyOp3
 70
     1
102
RTVSPropertyOp4
 70
     1
102
RTVSPropertyOp5
 70
     1
102
RTVSPropertyOp6
 70
     1
102
RTVSPropertyOp7
 70
     1
102
RTVSPropertyOp8
 70
     1
102
RTVSPropertyOp9
 70
     1
102
RTVSPropertyOp10
 70
     1
102
RTVSPropertyOp11
 70
     1
102
RTVSPropertyOp12
 70
     1
102
RTVSPropertyOp13
 70
     1
102
RTVSPropertyOp14
 70
     1
102
RTVSPropertyOp15
 70
     1
102
RTVSPropertyOp16
 70
     1
102
RTVSPropertyOp17
 70
     1
102
RTVSPropertyOp18
 70
     1
102
RTVSPropertyOp19
 70
     1
102
RTVSPropertyOp20
 70
     1
102
RTVSPropertyOp21
 70
     1
102
RTVSPropertyOp22
 70
     1
102
RTVSPropertyOp23
 70
     1
102
RTVSPropertyOp24
 70
     1
102
RTVSPropertyOp25
 70
     1
102
RTVSPropertyOp26
 70
     1
102
RTVSPropertyOp27
 70
     1
102
RTVSPropertyOp28
 70
     1
102
RTVSPropertyOp29
 70
     1
102
RTVSPropertyOp30
 70
     1
102
RTVSPropertyOp31
 70
     1
102
RTVSPropertyOp32
 70
     1
102
RTVSPropertyOp33
 70
     1
102
RTVSPropertyOp34
 70
     1
102
RTVSPropertyOp35
 70
     1
102
RTVSPropertyOp36
 70
     1
102
RTVSPropertyOp37
 70
     1
102
RTVSPropertyOp38
 70
     1
102
RTVSPropertyOp39
 70
     1
102
RTVSPropertyOp40
 70
     1
102
RTVSPropertyOp41
 70
     1
102
RTVSPropertyOp42
 70
     1
102
RTVSPropertyOp43
 70
     1
102
RTVSPropertyOp44
 70
     1
102
RTVSPropertyOp45
 70
     1
102
RTVSPropertyOp46
 70
     1
102
RTVSPropertyOp47
 70
     1
102
RTVSPropertyOp48
 70
     1
102
RTVSPropertyOp49
 70
     1
102
RTVSPropertyOp50
 70
     1
102
RTVSPropertyOp51
 70
     0
102
RTVSPropertyOp52
 70
     0
102
RTVSPropertyOp53
 70
     1
102
RTVSPropertyOp54
 70
     1
102
RTVSPropertyOp55
 70
     1
102
RTVSPropertyOp56
 70
     1
102
RTVSPropertyOp57
 70
     1
102
RTVSPropertyOp58
 70
     1
102
RTVSPropertyOp59
 70
     1
102
RTVSPropertyOp60
 70
     1
102
RTVSPropertyOp61
 70
     1
102
RTVSPropertyOp62
 70
     1
  0
XRECORD
  5
8AA
102
{ACAD_REACTORS
330
8A9
102
}
330
8A9
100
AcDbXrecord
280
     1
102
RTVSPost2010Prop28
280
     0
102
RTVSPost2010PropOp28
 70
     1
102
RTVSPost2010Prop29
280
     1
102
RTVSPost2010PropOp29
 70
     1
102
RTVSPost2010Prop30
280
     1
102
RTVSPost2010PropOp30
 70
     1
102
RTVSPost2010Prop31
280
     0
102
RTVSPost2010PropOp31
 70
     1
102
RTVSPost2010Prop32
280
     0
102
RTVSPost2010PropOp32
 70
     1
102
RTVSPost2010Prop33
280
     0
102
RTVSPost2010PropOp33
 70
     1
102
RTVSPost2010Prop34
280
     0
102
RTVSPost2010PropOp34
 70
     1
102
RTVSPost2010Prop35
280
     0
102
RTVSPost2010PropOp35
 70
     1
102
RTVSPost2010Prop36
280
     0
102
RTVSPost2010PropOp36
 70
     1
102
RTVSPost2010Prop37
 90
       50
102
RTVSPost2010PropOp37
 70
     1
102
RTVSPost2010Prop38
140
0.0
102
RTVSPost2010PropOp38
 70
     1
102
RTVSPost2010Prop39
140
1.0
102
RTVSPost2010PropOp39
 70
     1
102
RTVSPost2010Prop40
 90
        0
102
RTVSPost2010PropOp40
 70
     1
102
RTVSPost2010Prop41ColorIndex
 90
       18
102
RTVSPost2010Prop41ColorRGB
 90
        0
102
RTVSPost2010PropOp41
 70
     1
102
RTVSPost2010Prop42
 90
       50
102
RTVSPost2010PropOp42
 70
     1
102
RTVSPost2010Prop43
 90
        3
102
RTVSPost2010PropOp43
 70
     1
102
RTVSPost2010Prop44ColorIndex
 90
        5
102
RTVSPost2010Prop44ColorRGB
 90
      255
102
RTVSPost2010PropOp44
 70
     1
102
RTVSPost2010Prop45
280
     0
102
RTVSPost2010PropOp45
 70
     1
102
RTVSPost2010Prop46
 90
       50
102
RTVSPost2010PropOp46
 70
     1
102
RTVSPost2010Prop47
 90
       50
102
RTVSPost2010PropOp47
 70
     1
102
RTVSPost2010Prop48
 90
       50
102
RTVSPost2010PropOp48
 70
     1
102
RTVSPost2010Prop49
280
     0
102
RTVSPost2010PropOp49
 70
     1
102
RTVSPost2010Prop50
 90
       50
102
RTVSPost2010PropOp50
 70
     1
102
RTVSPost2010Prop51ColorIndex
 90
      256
102
RTVSPost2010Prop51ColorRGB
 90
-16777216
102
RTVSPost2010PropOp51
 70
     0
102
RTVSPost2010Prop52
140
1.0
102
RTVSPost2010PropOp52
 70
     0
102
RTVSPost2010Prop53
 90
        2
102
RTVSPost2010PropOp53
 70
     1
102
RTVSPost2010Prop54
  1
strokes_ogs.tif
102
RTVSPost2010PropOp54
 70
     1
102
RTVSPost2010Prop55
280
     0
102
RTVSPost2010PropOp55
 70
     1
102
RTVSPost2010Prop56
140
1.0
102
RTVSPost2010PropOp56
 70
     1
102
RTVSPost2010Prop57
140
1.0
102
RTVSPost2010PropOp57
 70
     1
102
RTVSPropertyOp0
 70
     1
102
RTVSPropertyOp1
 70
     1
102
RTVSPropertyOp2
 70
     1
102
RTVSPropertyOp3
 70
     1
102
RTVSPropertyOp4
 70
     1
102
RTVSPropertyOp5
 70
     1
102
RTVSPropertyOp6
 70
     1
102
RTVSPropertyOp7
 70
     1
102
RTVSPropertyOp8
 70
     1
102
RTVSPropertyOp9
 70
     1
102
RTVSPropertyOp10
 70
     1
102
RTVSPropertyOp11
 70
     1
102
RTVSPropertyOp12
 70
     1
102
RTVSPropertyOp13
 70
     1
102
RTVSPropertyOp14
 70
     1
102
RTVSPropertyOp15
 70
     1
102
RTVSPropertyOp16
 70
     1
102
RTVSPropertyOp17
 70
     1
102
RTVSPropertyOp18
 70
     1
102
RTVSPropertyOp19
 70
     1
102
RTVSPropertyOp20
 70
     1
102
RTVSPropertyOp21
 70
     1
102
RTVSPropertyOp22
 70
     1
102
RTVSPropertyOp23
 70
     1
102
RTVSPropertyOp24
 70
     1
102
RTVSPropertyOp25
 70
     1
102
RTVSPropertyOp26
 70
     1
102
RTVSPropertyOp27
 70
     1
102
RTVSPropertyOp28
 70
     1
102
RTVSPropertyOp29
 70
     1
102
RTVSPropertyOp30
 70
     1
102
RTVSPropertyOp31
 70
     1
102
RTVSPropertyOp32
 70
     1
102
RTVSPropertyOp33
 70
     1
102
RTVSPropertyOp34
 70
     1
102
RTVSPropertyOp35
 70
     1
102
RTVSPropertyOp36
 70
     1
102
RTVSPropertyOp37
 70
     1
102
RTVSPropertyOp38
 70
     1
102
RTVSPropertyOp39
 70
     1
102
RTVSPropertyOp40
 70
     1
102
RTVSPropertyOp41
 70
     1
102
RTVSPropertyOp42
 70
     1
102
RTVSPropertyOp43
 70
     1
102
RTVSPropertyOp44
 70
     1
102
RTVSPropertyOp45
 70
     1
102
RTVSPropertyOp46
 70
     1
102
RTVSPropertyOp47
 70
     1
102
RTVSPropertyOp48
 70
     1
102
RTVSPropertyOp49
 70
     1
102
RTVSPropertyOp50
 70
     1
102
RTVSPropertyOp51
 70
     0
102
RTVSPropertyOp52
 70
     0
102
RTVSPropertyOp53
 70
     1
102
RTVSPropertyOp54
 70
     1
102
RTVSPropertyOp55
 70
     1
102
RTVSPropertyOp56
 70
     1
102
RTVSPropertyOp57
 70
     1
102
RTVSPropertyOp58
 70
     1
102
RTVSPropertyOp59
 70
     1
102
RTVSPropertyOp60
 70
     1
102
RTVSPropertyOp61
 70
     1
102
RTVSPropertyOp62
 70
     1
  0
XRECORD
  5
8AE
102
{ACAD_REACTORS
330
8AD
102
}
330
8AD
100
AcDbXrecord
280
     1
102
RTVSPost2010Prop28
280
     0
102
RTVSPost2010PropOp28
 70
     1
102
RTVSPost2010Prop29
280
     1
102
RTVSPost2010PropOp29
 70
     1
102
RTVSPost2010Prop30
280
     1
102
RTVSPost2010PropOp30
 70
     1
102
RTVSPost2010Prop31
280
     0
102
RTVSPost2010PropOp31
 70
     1
102
RTVSPost2010Prop32
280
     0
102
RTVSPost2010PropOp32
 70
     1
102
RTVSPost2010Prop33
280
     0
102
RTVSPost2010PropOp33
 70
     1
102
RTVSPost2010Prop34
280
     0
102
RTVSPost2010PropOp34
 70
     1
102
RTVSPost2010Prop35
280
     0
102
RTVSPost2010PropOp35
 70
     1
102
RTVSPost2010Prop36
280
     0
102
RTVSPost2010PropOp36
 70
     1
102
RTVSPost2010Prop37
 90
       50
102
RTVSPost2010PropOp37
 70
     1
102
RTVSPost2010Prop38
140
0.0
102
RTVSPost2010PropOp38
 70
     1
102
RTVSPost2010Prop39
140
1.0
102
RTVSPost2010PropOp39
 70
     1
102
RTVSPost2010Prop40
 90
        0
102
RTVSPost2010PropOp40
 70
     1
102
RTVSPost2010Prop41ColorIndex
 90
       18
102
RTVSPost2010Prop41ColorRGB
 90
        0
102
RTVSPost2010PropOp41
 70
     1
102
RTVSPost2010Prop42
 90
       50
102
RTVSPost2010PropOp42
 70
     1
102
RTVSPost2010Prop43
 90
        3
102
RTVSPost2010PropOp43
 70
     1
102
RTVSPost2010Prop44ColorIndex
 90
        5
102
RTVSPost2010Prop44ColorRGB
 90
      255
102
RTVSPost2010PropOp44
 70
     1
102
RTVSPost2010Prop45
280
     0
102
RTVSPost2010PropOp45
 70
     1
102
RTVSPost2010Prop46
 90
       50
102
RTVSPost2010PropOp46
 70
     1
102
RTVSPost2010Prop47
 90
       50
102
RTVSPost2010PropOp47
 70
     1
102
RTVSPost2010Prop48
 90
       50
102
RTVSPost2010PropOp48
 70
     1
102
RTVSPost2010Prop49
280
     0
102
RTVSPost2010PropOp49
 70
     1
102
RTVSPost2010Prop50
 90
       50
102
RTVSPost2010PropOp50
 70
     1
102
RTVSPost2010Prop51ColorIndex
 90
      256
102
RTVSPost2010Prop51ColorRGB
 90
-16777216
102
RTVSPost2010PropOp51
 70
     0
102
RTVSPost2010Prop52
140
1.0
102
RTVSPost2010PropOp52
 70
     0
102
RTVSPost2010Prop53
 90
        2
102
RTVSPost2010PropOp53
 70
     1
102
RTVSPost2010Prop54
  1
strokes_ogs.tif
102
RTVSPost2010PropOp54
 70
     1
102
RTVSPost2010Prop55
280
     0
102
RTVSPost2010PropOp55
 70
     1
102
RTVSPost2010Prop56
140
1.0
102
RTVSPost2010PropOp56
 70
     1
102
RTVSPost2010Prop57
140
1.0
102
RTVSPost2010PropOp57
 70
     1
102
RTVSPropertyOp0
 70
     1
102
RTVSPropertyOp1
 70
     1
102
RTVSPropertyOp2
 70
     1
102
RTVSPropertyOp3
 70
     1
102
RTVSPropertyOp4
 70
     1
102
RTVSPropertyOp5
 70
     1
102
RTVSPropertyOp6
 70
     1
102
RTVSPropertyOp7
 70
     1
102
RTVSPropertyOp8
 70
     1
102
RTVSPropertyOp9
 70
     1
102
RTVSPropertyOp10
 70
     1
102
RTVSPropertyOp11
 70
     1
102
RTVSPropertyOp12
 70
     1
102
RTVSPropertyOp13
 70
     1
102
RTVSPropertyOp14
 70
     1
102
RTVSPropertyOp15
 70
     1
102
RTVSPropertyOp16
 70
     1
102
RTVSPropertyOp17
 70
     1
102
RTVSPropertyOp18
 70
     1
102
RTVSPropertyOp19
 70
     1
102
RTVSPropertyOp20
 70
     1
102
RTVSPropertyOp21
 70
     1
102
RTVSPropertyOp22
 70
     1
102
RTVSPropertyOp23
 70
     1
102
RTVSPropertyOp24
 70
     1
102
RTVSPropertyOp25
 70
     1
102
RTVSPropertyOp26
 70
     1
102
RTVSPropertyOp27
 70
     1
102
RTVSPropertyOp28
 70
     1
102
RTVSPropertyOp29
 70
     1
102
RTVSPropertyOp30
 70
     1
102
RTVSPropertyOp31
 70
     1
102
RTVSPropertyOp32
 70
     1
102
RTVSPropertyOp33
 70
     1
102
RTVSPropertyOp34
 70
     1
102
RTVSPropertyOp35
 70
     1
102
RTVSPropertyOp36
 70
     1
102
RTVSPropertyOp37
 70
     1
102
RTVSPropertyOp38
 70
     1
102
RTVSPropertyOp39
 70
     1
102
RTVSPropertyOp40
 70
     1
102
RTVSPropertyOp41
 70
     1
102
RTVSPropertyOp42
 70
     1
102
RTVSPropertyOp43
 70
     1
102
RTVSPropertyOp44
 70
     1
102
RTVSPropertyOp45
 70
     1
102
RTVSPropertyOp46
 70
     1
102
RTVSPropertyOp47
 70
     1
102
RTVSPropertyOp48
 70
     1
102
RTVSPropertyOp49
 70
     1
102
RTVSPropertyOp50
 70
     1
102
RTVSPropertyOp51
 70
     0
102
RTVSPropertyOp52
 70
     0
102
RTVSPropertyOp53
 70
     1
102
RTVSPropertyOp54
 70
     1
102
RTVSPropertyOp55
 70
     1
102
RTVSPropertyOp56
 70
     1
102
RTVSPropertyOp57
 70
     1
102
RTVSPropertyOp58
 70
     1
102
RTVSPropertyOp59
 70
     1
102
RTVSPropertyOp60
 70
     1
102
RTVSPropertyOp61
 70
     1
102
RTVSPropertyOp62
 70
     1
  0
XRECORD
  5
8C8
102
{ACAD_REACTORS
330
8C7
102
}
330
8C7
100
AcDbXrecord
280
     1
102
RTVSPost2010Prop28
280
     0
102
RTVSPost2010PropOp28
 70
     0
102
RTVSPost2010Prop29
280
     1
102
RTVSPost2010PropOp29
 70
     0
102
RTVSPost2010Prop30
280
     1
102
RTVSPost2010PropOp30
 70
     0
102
RTVSPost2010Prop31
280
     0
102
RTVSPost2010PropOp31
 70
     0
102
RTVSPost2010Prop32
280
     0
102
RTVSPost2010PropOp32
 70
     0
102
RTVSPost2010Prop33
280
     0
102
RTVSPost2010PropOp33
 70
     0
102
RTVSPost2010Prop34
280
     0
102
RTVSPost2010PropOp34
 70
     0
102
RTVSPost2010Prop35
280
     0
102
RTVSPost2010PropOp35
 70
     0
102
RTVSPost2010Prop36
280
     0
102
RTVSPost2010PropOp36
 70
     0
102
RTVSPost2010Prop37
 90
       50
102
RTVSPost2010PropOp37
 70
     0
102
RTVSPost2010Prop38
140
0.0
102
RTVSPost2010PropOp38
 70
     0
102
RTVSPost2010Prop39
140
1.0
102
RTVSPost2010PropOp39
 70
     0
102
RTVSPost2010Prop40
 90
        0
102
RTVSPost2010PropOp40
 70
     0
102
RTVSPost2010Prop41ColorIndex
 90
       18
102
RTVSPost2010Prop41ColorRGB
 90
        0
102
RTVSPost2010PropOp41
 70
     0
102
RTVSPost2010Prop42
 90
       50
102
RTVSPost2010PropOp42
 70
     0
102
RTVSPost2010Prop43
 90
        3
102
RTVSPost2010PropOp43
 70
     0
102
RTVSPost2010Prop44ColorIndex
 90
        5
102
RTVSPost2010Prop44ColorRGB
 90
      255
102
RTVSPost2010PropOp44
 70
     0
102
RTVSPost2010Prop45
280
     0
102
RTVSPost2010PropOp45
 70
     0
102
RTVSPost2010Prop46
 90
       50
102
RTVSPost2010PropOp46
 70
     0
102
RTVSPost2010Prop47
 90
       50
102
RTVSPost2010PropOp47
 70
     0
102
RTVSPost2010Prop48
 90
       50
102
RTVSPost2010PropOp48
 70
     0
102
RTVSPost2010Prop49
280
     0
102
RTVSPost2010PropOp49
 70
     0
102
RTVSPost2010Prop50
 90
       50
102
RTVSPost2010PropOp50
 70
     0
102
RTVSPost2010Prop51ColorIndex
 90
      256
102
RTVSPost2010Prop51ColorRGB
 90
-16777216
102
RTVSPost2010PropOp51
 70
     0
102
RTVSPost2010Prop52
140
1.0
102
RTVSPost2010PropOp52
 70
     0
102
RTVSPost2010Prop53
 90
        2
102
RTVSPost2010PropOp53
 70
     0
102
RTVSPost2010Prop54
  1
strokes_ogs.tif
102
RTVSPost2010PropOp54
 70
     0
102
RTVSPost2010Prop55
280
     0
102
RTVSPost2010PropOp55
 70
     0
102
RTVSPost2010Prop56
140
1.0
102
RTVSPost2010PropOp56
 70
     0
102
RTVSPost2010Prop57
140
1.0
102
RTVSPost2010PropOp57
 70
     0
102
RTVSPropertyOp0
 70
     0
102
RTVSPropertyOp1
 70
     0
102
RTVSPropertyOp2
 70
     0
102
RTVSPropertyOp3
 70
     0
102
RTVSPropertyOp4
 70
     0
102
RTVSPropertyOp5
 70
     0
102
RTVSPropertyOp6
 70
     0
102
RTVSPropertyOp7
 70
     0
102
RTVSPropertyOp8
 70
     0
102
RTVSPropertyOp9
 70
     0
102
RTVSPropertyOp10
 70
     0
102
RTVSPropertyOp11
 70
     0
102
RTVSPropertyOp12
 70
     0
102
RTVSPropertyOp13
 70
     0
102
RTVSPropertyOp14
 70
     2
102
RTVSPropertyOp15
 70
     0
102
RTVSPropertyOp16
 70
     0
102
RTVSPropertyOp17
 70
     0
102
RTVSPropertyOp18
 70
     0
102
RTVSPropertyOp19
 70
     0
102
RTVSPropertyOp20
 70
     0
102
RTVSPropertyOp21
 70
     0
102
RTVSPropertyOp22
 70
     0
102
RTVSPropertyOp23
 70
     0
102
RTVSPropertyOp24
 70
     0
102
RTVSPropertyOp25
 70
     0
102
RTVSPropertyOp26
 70
     0
102
RTVSPropertyOp27
 70
     0
102
RTVSPropertyOp28
 70
     0
102
RTVSPropertyOp29
 70
     0
102
RTVSPropertyOp30
 70
     0
102
RTVSPropertyOp31
 70
     0
102
RTVSPropertyOp32
 70
     0
102
RTVSPropertyOp33
 70
     0
102
RTVSPropertyOp34
 70
     0
102
RTVSPropertyOp35
 70
     0
102
RTVSPropertyOp36
 70
     0
102
RTVSPropertyOp37
 70
     0
102
RTVSPropertyOp38
 70
     0
102
RTVSPropertyOp39
 70
     0
102
RTVSPropertyOp40
 70
     0
102
RTVSPropertyOp41
 70
     0
102
RTVSPropertyOp42
 70
     0
102
RTVSPropertyOp43
 70
     0
102
RTVSPropertyOp44
 70
     0
102
RTVSPropertyOp45
 70
     0
102
RTVSPropertyOp46
 70
     0
102
RTVSPropertyOp47
 70
     0
102
RTVSPropertyOp48
 70
     0
102
RTVSPropertyOp49
 70
     0
102
RTVSPropertyOp50
 70
     0
102
RTVSPropertyOp51
 70
     0
102
RTVSPropertyOp52
 70
     0
102
RTVSPropertyOp53
 70
     0
102
RTVSPropertyOp54
 70
     0
102
RTVSPropertyOp55
 70
     0
102
RTVSPropertyOp56
 70
     0
102
RTVSPropertyOp57
 70
     0
102
RTVSPropertyOp58
 70
     0
102
RTVSPropertyOp59
 70
     0
102
RTVSPropertyOp60
 70
     0
102
RTVSPropertyOp61
 70
     0
102
RTVSPropertyOp62
 70
     0
  0
XRECORD
  5
8B6
102
{ACAD_REACTORS
330
8B5
102
}
330
8B5
100
AcDbXrecord
280
     1
102
RTVSPost2010Prop28
280
     0
102
RTVSPost2010PropOp28
 70
     1
102
RTVSPost2010Prop29
280
     1
102
RTVSPost2010PropOp29
 70
     1
102
RTVSPost2010Prop30
280
     1
102
RTVSPost2010PropOp30
 70
     1
102
RTVSPost2010Prop31
280
     0
102
RTVSPost2010PropOp31
 70
     1
102
RTVSPost2010Prop32
280
     0
102
RTVSPost2010PropOp32
 70
     1
102
RTVSPost2010Prop33
280
     0
102
RTVSPost2010PropOp33
 70
     1
102
RTVSPost2010Prop34
280
     0
102
RTVSPost2010PropOp34
 70
     1
102
RTVSPost2010Prop35
280
     0
102
RTVSPost2010PropOp35
 70
     1
102
RTVSPost2010Prop36
280
     0
102
RTVSPost2010PropOp36
 70
     1
102
RTVSPost2010Prop37
 90
       50
102
RTVSPost2010PropOp37
 70
     1
102
RTVSPost2010Prop38
140
0.0
102
RTVSPost2010PropOp38
 70
     1
102
RTVSPost2010Prop39
140
1.0
102
RTVSPost2010PropOp39
 70
     1
102
RTVSPost2010Prop40
 90
        0
102
RTVSPost2010PropOp40
 70
     1
102
RTVSPost2010Prop41ColorIndex
 90
       18
102
RTVSPost2010Prop41ColorRGB
 90
        0
102
RTVSPost2010PropOp41
 70
     1
102
RTVSPost2010Prop42
 90
       50
102
RTVSPost2010PropOp42
 70
     1
102
RTVSPost2010Prop43
 90
        3
102
RTVSPost2010PropOp43
 70
     1
102
RTVSPost2010Prop44ColorIndex
 90
        5
102
RTVSPost2010Prop44ColorRGB
 90
      255
102
RTVSPost2010PropOp44
 70
     1
102
RTVSPost2010Prop45
280
     0
102
RTVSPost2010PropOp45
 70
     1
102
RTVSPost2010Prop46
 90
       50
102
RTVSPost2010PropOp46
 70
     1
102
RTVSPost2010Prop47
 90
       50
102
RTVSPost2010PropOp47
 70
     1
102
RTVSPost2010Prop48
 90
       50
102
RTVSPost2010PropOp48
 70
     1
102
RTVSPost2010Prop49
280
     0
102
RTVSPost2010PropOp49
 70
     1
102
RTVSPost2010Prop50
 90
       50
102
RTVSPost2010PropOp50
 70
     1
102
RTVSPost2010Prop51ColorIndex
 90
      256
102
RTVSPost2010Prop51ColorRGB
 90
-16777216
102
RTVSPost2010PropOp51
 70
     0
102
RTVSPost2010Prop52
140
1.0
102
RTVSPost2010PropOp52
 70
     0
102
RTVSPost2010Prop53
 90
        2
102
RTVSPost2010PropOp53
 70
     1
102
RTVSPost2010Prop54
  1
strokes_ogs.tif
102
RTVSPost2010PropOp54
 70
     1
102
RTVSPost2010Prop55
280
     0
102
RTVSPost2010PropOp55
 70
     1
102
RTVSPost2010Prop56
140
1.0
102
RTVSPost2010PropOp56
 70
     1
102
RTVSPost2010Prop57
140
1.0
102
RTVSPost2010PropOp57
 70
     1
102
RTVSPropertyOp0
 70
     1
102
RTVSPropertyOp1
 70
     1
102
RTVSPropertyOp2
 70
     1
102
RTVSPropertyOp3
 70
     1
102
RTVSPropertyOp4
 70
     1
102
RTVSPropertyOp5
 70
     1
102
RTVSPropertyOp6
 70
     1
102
RTVSPropertyOp7
 70
     1
102
RTVSPropertyOp8
 70
     1
102
RTVSPropertyOp9
 70
     1
102
RTVSPropertyOp10
 70
     1
102
RTVSPropertyOp11
 70
     1
102
RTVSPropertyOp12
 70
     1
102
RTVSPropertyOp13
 70
     1
102
RTVSPropertyOp14
 70
     1
102
RTVSPropertyOp15
 70
     1
102
RTVSPropertyOp16
 70
     1
102
RTVSPropertyOp17
 70
     1
102
RTVSPropertyOp18
 70
     1
102
RTVSPropertyOp19
 70
     1
102
RTVSPropertyOp20
 70
     1
102
RTVSPropertyOp21
 70
     1
102
RTVSPropertyOp22
 70
     1
102
RTVSPropertyOp23
 70
     1
102
RTVSPropertyOp24
 70
     1
102
RTVSPropertyOp25
 70
     1
102
RTVSPropertyOp26
 70
     1
102
RTVSPropertyOp27
 70
     1
102
RTVSPropertyOp28
 70
     1
102
RTVSPropertyOp29
 70
     1
102
RTVSPropertyOp30
 70
     1
102
RTVSPropertyOp31
 70
     1
102
RTVSPropertyOp32
 70
     1
102
RTVSPropertyOp33
 70
     1
102
RTVSPropertyOp34
 70
     1
102
RTVSPropertyOp35
 70
     1
102
RTVSPropertyOp36
 70
     1
102
RTVSPropertyOp37
 70
     1
102
RTVSPropertyOp38
 70
     1
102
RTVSPropertyOp39
 70
     1
102
RTVSPropertyOp40
 70
     1
102
RTVSPropertyOp41
 70
     1
102
RTVSPropertyOp42
 70
     1
102
RTVSPropertyOp43
 70
     1
102
RTVSPropertyOp44
 70
     1
102
RTVSPropertyOp45
 70
     1
102
RTVSPropertyOp46
 70
     1
102
RTVSPropertyOp47
 70
     1
102
RTVSPropertyOp48
 70
     1
102
RTVSPropertyOp49
 70
     1
102
RTVSPropertyOp50
 70
     1
102
RTVSPropertyOp51
 70
     0
102
RTVSPropertyOp52
 70
     0
102
RTVSPropertyOp53
 70
     1
102
RTVSPropertyOp54
 70
     1
102
RTVSPropertyOp55
 70
     1
102
RTVSPropertyOp56
 70
     1
102
RTVSPropertyOp57
 70
     1
102
RTVSPropertyOp58
 70
     1
102
RTVSPropertyOp59
 70
     1
102
RTVSPropertyOp60
 70
     1
102
RTVSPropertyOp61
 70
     1
102
RTVSPropertyOp62
 70
     1
  0
XRECORD
  5
89A
102
{ACAD_REACTORS
330
899
102
}
330
899
100
AcDbXrecord
280
     1
102
RTVSPost2010Prop28
280
     0
102
RTVSPost2010PropOp28
 70
     1
102
RTVSPost2010Prop29
280
     1
102
RTVSPost2010PropOp29
 70
     1
102
RTVSPost2010Prop30
280
     1
102
RTVSPost2010PropOp30
 70
     1
102
RTVSPost2010Prop31
280
     0
102
RTVSPost2010PropOp31
 70
     1
102
RTVSPost2010Prop32
280
     0
102
RTVSPost2010PropOp32
 70
     1
102
RTVSPost2010Prop33
280
     0
102
RTVSPost2010PropOp33
 70
     1
102
RTVSPost2010Prop34
280
     0
102
RTVSPost2010PropOp34
 70
     1
102
RTVSPost2010Prop35
280
     0
102
RTVSPost2010PropOp35
 70
     1
102
RTVSPost2010Prop36
280
     0
102
RTVSPost2010PropOp36
 70
     1
102
RTVSPost2010Prop37
 90
       50
102
RTVSPost2010PropOp37
 70
     1
102
RTVSPost2010Prop38
140
0.0
102
RTVSPost2010PropOp38
 70
     1
102
RTVSPost2010Prop39
140
1.0
102
RTVSPost2010PropOp39
 70
     1
102
RTVSPost2010Prop40
 90
        0
102
RTVSPost2010PropOp40
 70
     1
102
RTVSPost2010Prop41ColorIndex
 90
       18
102
RTVSPost2010Prop41ColorRGB
 90
        0
102
RTVSPost2010PropOp41
 70
     1
102
RTVSPost2010Prop42
 90
       50
102
RTVSPost2010PropOp42
 70
     1
102
RTVSPost2010Prop43
 90
        3
102
RTVSPost2010PropOp43
 70
     1
102
RTVSPost2010Prop44ColorIndex
 90
        5
102
RTVSPost2010Prop44ColorRGB
 90
      255
102
RTVSPost2010PropOp44
 70
     1
102
RTVSPost2010Prop45
280
     0
102
RTVSPost2010PropOp45
 70
     1
102
RTVSPost2010Prop46
 90
       50
102
RTVSPost2010PropOp46
 70
     1
102
RTVSPost2010Prop47
 90
       50
102
RTVSPost2010PropOp47
 70
     1
102
RTVSPost2010Prop48
 90
       50
102
RTVSPost2010PropOp48
 70
     1
102
RTVSPost2010Prop49
280
     0
102
RTVSPost2010PropOp49
 70
     1
102
RTVSPost2010Prop50
 90
       50
102
RTVSPost2010PropOp50
 70
     1
102
RTVSPost2010Prop51ColorIndex
 90
      256
102
RTVSPost2010Prop51ColorRGB
 90
-16777216
102
RTVSPost2010PropOp51
 70
     0
102
RTVSPost2010Prop52
140
1.0
102
RTVSPost2010PropOp52
 70
     0
102
RTVSPost2010Prop53
 90
        2
102
RTVSPost2010PropOp53
 70
     1
102
RTVSPost2010Prop54
  1
strokes_ogs.tif
102
RTVSPost2010PropOp54
 70
     1
102
RTVSPost2010Prop55
280
     0
102
RTVSPost2010PropOp55
 70
     1
102
RTVSPost2010Prop56
140
1.0
102
RTVSPost2010PropOp56
 70
     1
102
RTVSPost2010Prop57
140
1.0
102
RTVSPost2010PropOp57
 70
     1
102
RTVSPropertyOp0
 70
     1
102
RTVSPropertyOp1
 70
     1
102
RTVSPropertyOp2
 70
     1
102
RTVSPropertyOp3
 70
     1
102
RTVSPropertyOp4
 70
     1
102
RTVSPropertyOp5
 70
     1
102
RTVSPropertyOp6
 70
     1
102
RTVSPropertyOp7
 70
     1
102
RTVSPropertyOp8
 70
     1
102
RTVSPropertyOp9
 70
     1
102
RTVSPropertyOp10
 70
     1
102
RTVSPropertyOp11
 70
     1
102
RTVSPropertyOp12
 70
     1
102
RTVSPropertyOp13
 70
     1
102
RTVSPropertyOp14
 70
     1
102
RTVSPropertyOp15
 70
     1
102
RTVSPropertyOp16
 70
     1
102
RTVSPropertyOp17
 70
     1
102
RTVSPropertyOp18
 70
     1
102
RTVSPropertyOp19
 70
     1
102
RTVSPropertyOp20
 70
     1
102
RTVSPropertyOp21
 70
     1
102
RTVSPropertyOp22
 70
     1
102
RTVSPropertyOp23
 70
     1
102
RTVSPropertyOp24
 70
     1
102
RTVSPropertyOp25
 70
     1
102
RTVSPropertyOp26
 70
     1
102
RTVSPropertyOp27
 70
     1
102
RTVSPropertyOp28
 70
     1
102
RTVSPropertyOp29
 70
     1
102
RTVSPropertyOp30
 70
     1
102
RTVSPropertyOp31
 70
     1
102
RTVSPropertyOp32
 70
     1
102
RTVSPropertyOp33
 70
     1
102
RTVSPropertyOp34
 70
     1
102
RTVSPropertyOp35
 70
     1
102
RTVSPropertyOp36
 70
     1
102
RTVSPropertyOp37
 70
     1
102
RTVSPropertyOp38
 70
     1
102
RTVSPropertyOp39
 70
     1
102
RTVSPropertyOp40
 70
     1
102
RTVSPropertyOp41
 70
     1
102
RTVSPropertyOp42
 70
     1
102
RTVSPropertyOp43
 70
     1
102
RTVSPropertyOp44
 70
     1
102
RTVSPropertyOp45
 70
     1
102
RTVSPropertyOp46
 70
     1
102
RTVSPropertyOp47
 70
     1
102
RTVSPropertyOp48
 70
     1
102
RTVSPropertyOp49
 70
     1
102
RTVSPropertyOp50
 70
     1
102
RTVSPropertyOp51
 70
     0
102
RTVSPropertyOp52
 70
     0
102
RTVSPropertyOp53
 70
     1
102
RTVSPropertyOp54
 70
     1
102
RTVSPropertyOp55
 70
     1
102
RTVSPropertyOp56
 70
     1
102
RTVSPropertyOp57
 70
     1
102
RTVSPropertyOp58
 70
     1
102
RTVSPropertyOp59
 70
     1
102
RTVSPropertyOp60
 70
     1
102
RTVSPropertyOp61
 70
     1
102
RTVSPropertyOp62
 70
     1
  0
XRECORD
  5
89C
102
{ACAD_REACTORS
330
89B
102
}
330
89B
100
AcDbXrecord
280
     1
102
RTVSPost2010Prop28
280
     0
102
RTVSPost2010PropOp28
 70
     1
102
RTVSPost2010Prop29
280
     1
102
RTVSPost2010PropOp29
 70
     1
102
RTVSPost2010Prop30
280
     1
102
RTVSPost2010PropOp30
 70
     1
102
RTVSPost2010Prop31
280
     0
102
RTVSPost2010PropOp31
 70
     1
102
RTVSPost2010Prop32
280
     0
102
RTVSPost2010PropOp32
 70
     1
102
RTVSPost2010Prop33
280
     0
102
RTVSPost2010PropOp33
 70
     1
102
RTVSPost2010Prop34
280
     0
102
RTVSPost2010PropOp34
 70
     1
102
RTVSPost2010Prop35
280
     0
102
RTVSPost2010PropOp35
 70
     1
102
RTVSPost2010Prop36
280
     0
102
RTVSPost2010PropOp36
 70
     1
102
RTVSPost2010Prop37
 90
       50
102
RTVSPost2010PropOp37
 70
     1
102
RTVSPost2010Prop38
140
0.0
102
RTVSPost2010PropOp38
 70
     1
102
RTVSPost2010Prop39
140
1.0
102
RTVSPost2010PropOp39
 70
     1
102
RTVSPost2010Prop40
 90
        0
102
RTVSPost2010PropOp40
 70
     1
102
RTVSPost2010Prop41ColorIndex
 90
       18
102
RTVSPost2010Prop41ColorRGB
 90
        0
102
RTVSPost2010PropOp41
 70
     1
102
RTVSPost2010Prop42
 90
       50
102
RTVSPost2010PropOp42
 70
     1
102
RTVSPost2010Prop43
 90
        3
102
RTVSPost2010PropOp43
 70
     1
102
RTVSPost2010Prop44ColorIndex
 90
        5
102
RTVSPost2010Prop44ColorRGB
 90
      255
102
RTVSPost2010PropOp44
 70
     1
102
RTVSPost2010Prop45
280
     0
102
RTVSPost2010PropOp45
 70
     1
102
RTVSPost2010Prop46
 90
       50
102
RTVSPost2010PropOp46
 70
     1
102
RTVSPost2010Prop47
 90
       50
102
RTVSPost2010PropOp47
 70
     1
102
RTVSPost2010Prop48
 90
       50
102
RTVSPost2010PropOp48
 70
     1
102
RTVSPost2010Prop49
280
     0
102
RTVSPost2010PropOp49
 70
     1
102
RTVSPost2010Prop50
 90
       50
102
RTVSPost2010PropOp50
 70
     1
102
RTVSPost2010Prop51ColorIndex
 90
      256
102
RTVSPost2010Prop51ColorRGB
 90
-16777216
102
RTVSPost2010PropOp51
 70
     0
102
RTVSPost2010Prop52
140
1.0
102
RTVSPost2010PropOp52
 70
     0
102
RTVSPost2010Prop53
 90
        2
102
RTVSPost2010PropOp53
 70
     1
102
RTVSPost2010Prop54
  1
strokes_ogs.tif
102
RTVSPost2010PropOp54
 70
     1
102
RTVSPost2010Prop55
280
     0
102
RTVSPost2010PropOp55
 70
     1
102
RTVSPost2010Prop56
140
1.0
102
RTVSPost2010PropOp56
 70
     1
102
RTVSPost2010Prop57
140
1.0
102
RTVSPost2010PropOp57
 70
     1
102
RTVSPropertyOp0
 70
     1
102
RTVSPropertyOp1
 70
     1
102
RTVSPropertyOp2
 70
     1
102
RTVSPropertyOp3
 70
     1
102
RTVSPropertyOp4
 70
     1
102
RTVSPropertyOp5
 70
     1
102
RTVSPropertyOp6
 70
     1
102
RTVSPropertyOp7
 70
     1
102
RTVSPropertyOp8
 70
     1
102
RTVSPropertyOp9
 70
     1
102
RTVSPropertyOp10
 70
     1
102
RTVSPropertyOp11
 70
     1
102
RTVSPropertyOp12
 70
     1
102
RTVSPropertyOp13
 70
     1
102
RTVSPropertyOp14
 70
     1
102
RTVSPropertyOp15
 70
     1
102
RTVSPropertyOp16
 70
     1
102
RTVSPropertyOp17
 70
     1
102
RTVSPropertyOp18
 70
     1
102
RTVSPropertyOp19
 70
     1
102
RTVSPropertyOp20
 70
     1
102
RTVSPropertyOp21
 70
     1
102
RTVSPropertyOp22
 70
     1
102
RTVSPropertyOp23
 70
     1
102
RTVSPropertyOp24
 70
     1
102
RTVSPropertyOp25
 70
     1
102
RTVSPropertyOp26
 70
     1
102
RTVSPropertyOp27
 70
     1
102
RTVSPropertyOp28
 70
     1
102
RTVSPropertyOp29
 70
     1
102
RTVSPropertyOp30
 70
     1
102
RTVSPropertyOp31
 70
     1
102
RTVSPropertyOp32
 70
     1
102
RTVSPropertyOp33
 70
     1
102
RTVSPropertyOp34
 70
     1
102
RTVSPropertyOp35
 70
     1
102
RTVSPropertyOp36
 70
     1
102
RTVSPropertyOp37
 70
     1
102
RTVSPropertyOp38
 70
     1
102
RTVSPropertyOp39
 70
     1
102
RTVSPropertyOp40
 70
     1
102
RTVSPropertyOp41
 70
     1
102
RTVSPropertyOp42
 70
     1
102
RTVSPropertyOp43
 70
     1
102
RTVSPropertyOp44
 70
     1
102
RTVSPropertyOp45
 70
     1
102
RTVSPropertyOp46
 70
     1
102
RTVSPropertyOp47
 70
     1
102
RTVSPropertyOp48
 70
     1
102
RTVSPropertyOp49
 70
     1
102
RTVSPropertyOp50
 70
     1
102
RTVSPropertyOp51
 70
     0
102
RTVSPropertyOp52
 70
     0
102
RTVSPropertyOp53
 70
     1
102
RTVSPropertyOp54
 70
     1
102
RTVSPropertyOp55
 70
     1
102
RTVSPropertyOp56
 70
     1
102
RTVSPropertyOp57
 70
     1
102
RTVSPropertyOp58
 70
     1
102
RTVSPropertyOp59
 70
     1
102
RTVSPropertyOp60
 70
     1
102
RTVSPropertyOp61
 70
     1
102
RTVSPropertyOp62
 70
     1
  0
XRECORD
  5
89E
102
{ACAD_REACTORS
330
89D
102
}
330
89D
100
AcDbXrecord
280
     1
102
RTVSPost2010Prop28
280
     0
102
RTVSPost2010PropOp28
 70
     1
102
RTVSPost2010Prop29
280
     1
102
RTVSPost2010PropOp29
 70
     1
102
RTVSPost2010Prop30
280
     1
102
RTVSPost2010PropOp30
 70
     1
102
RTVSPost2010Prop31
280
     0
102
RTVSPost2010PropOp31
 70
     1
102
RTVSPost2010Prop32
280
     0
102
RTVSPost2010PropOp32
 70
     1
102
RTVSPost2010Prop33
280
     0
102
RTVSPost2010PropOp33
 70
     1
102
RTVSPost2010Prop34
280
     0
102
RTVSPost2010PropOp34
 70
     1
102
RTVSPost2010Prop35
280
     0
102
RTVSPost2010PropOp35
 70
     1
102
RTVSPost2010Prop36
280
     0
102
RTVSPost2010PropOp36
 70
     1
102
RTVSPost2010Prop37
 90
       50
102
RTVSPost2010PropOp37
 70
     1
102
RTVSPost2010Prop38
140
0.0
102
RTVSPost2010PropOp38
 70
     1
102
RTVSPost2010Prop39
140
1.0
102
RTVSPost2010PropOp39
 70
     1
102
RTVSPost2010Prop40
 90
        0
102
RTVSPost2010PropOp40
 70
     1
102
RTVSPost2010Prop41ColorIndex
 90
       18
102
RTVSPost2010Prop41ColorRGB
 90
        0
102
RTVSPost2010PropOp41
 70
     1
102
RTVSPost2010Prop42
 90
       50
102
RTVSPost2010PropOp42
 70
     1
102
RTVSPost2010Prop43
 90
        3
102
RTVSPost2010PropOp43
 70
     1
102
RTVSPost2010Prop44ColorIndex
 90
        5
102
RTVSPost2010Prop44ColorRGB
 90
      255
102
RTVSPost2010PropOp44
 70
     1
102
RTVSPost2010Prop45
280
     0
102
RTVSPost2010PropOp45
 70
     1
102
RTVSPost2010Prop46
 90
       50
102
RTVSPost2010PropOp46
 70
     1
102
RTVSPost2010Prop47
 90
       50
102
RTVSPost2010PropOp47
 70
     1
102
RTVSPost2010Prop48
 90
       50
102
RTVSPost2010PropOp48
 70
     1
102
RTVSPost2010Prop49
280
     0
102
RTVSPost2010PropOp49
 70
     1
102
RTVSPost2010Prop50
 90
       50
102
RTVSPost2010PropOp50
 70
     1
102
RTVSPost2010Prop51ColorIndex
 90
      256
102
RTVSPost2010Prop51ColorRGB
 90
-16777216
102
RTVSPost2010PropOp51
 70
     0
102
RTVSPost2010Prop52
140
1.0
102
RTVSPost2010PropOp52
 70
     0
102
RTVSPost2010Prop53
 90
        2
102
RTVSPost2010PropOp53
 70
     1
102
RTVSPost2010Prop54
  1
strokes_ogs.tif
102
RTVSPost2010PropOp54
 70
     1
102
RTVSPost2010Prop55
280
     0
102
RTVSPost2010PropOp55
 70
     1
102
RTVSPost2010Prop56
140
1.0
102
RTVSPost2010PropOp56
 70
     1
102
RTVSPost2010Prop57
140
1.0
102
RTVSPost2010PropOp57
 70
     1
102
RTVSPropertyOp0
 70
     1
102
RTVSPropertyOp1
 70
     1
102
RTVSPropertyOp2
 70
     1
102
RTVSPropertyOp3
 70
     1
102
RTVSPropertyOp4
 70
     1
102
RTVSPropertyOp5
 70
     1
102
RTVSPropertyOp6
 70
     1
102
RTVSPropertyOp7
 70
     1
102
RTVSPropertyOp8
 70
     1
102
RTVSPropertyOp9
 70
     1
102
RTVSPropertyOp10
 70
     1
102
RTVSPropertyOp11
 70
     1
102
RTVSPropertyOp12
 70
     1
102
RTVSPropertyOp13
 70
     1
102
RTVSPropertyOp14
 70
     1
102
RTVSPropertyOp15
 70
     1
102
RTVSPropertyOp16
 70
     1
102
RTVSPropertyOp17
 70
     1
102
RTVSPropertyOp18
 70
     1
102
RTVSPropertyOp19
 70
     1
102
RTVSPropertyOp20
 70
     1
102
RTVSPropertyOp21
 70
     1
102
RTVSPropertyOp22
 70
     1
102
RTVSPropertyOp23
 70
     1
102
RTVSPropertyOp24
 70
     1
102
RTVSPropertyOp25
 70
     1
102
RTVSPropertyOp26
 70
     1
102
RTVSPropertyOp27
 70
     1
102
RTVSPropertyOp28
 70
     1
102
RTVSPropertyOp29
 70
     1
102
RTVSPropertyOp30
 70
     1
102
RTVSPropertyOp31
 70
     1
102
RTVSPropertyOp32
 70
     1
102
RTVSPropertyOp33
 70
     1
102
RTVSPropertyOp34
 70
     1
102
RTVSPropertyOp35
 70
     1
102
RTVSPropertyOp36
 70
     1
102
RTVSPropertyOp37
 70
     1
102
RTVSPropertyOp38
 70
     1
102
RTVSPropertyOp39
 70
     1
102
RTVSPropertyOp40
 70
     1
102
RTVSPropertyOp41
 70
     1
102
RTVSPropertyOp42
 70
     1
102
RTVSPropertyOp43
 70
     1
102
RTVSPropertyOp44
 70
     1
102
RTVSPropertyOp45
 70
     1
102
RTVSPropertyOp46
 70
     1
102
RTVSPropertyOp47
 70
     1
102
RTVSPropertyOp48
 70
     1
102
RTVSPropertyOp49
 70
     1
102
RTVSPropertyOp50
 70
     1
102
RTVSPropertyOp51
 70
     0
102
RTVSPropertyOp52
 70
     0
102
RTVSPropertyOp53
 70
     1
102
RTVSPropertyOp54
 70
     1
102
RTVSPropertyOp55
 70
     1
102
RTVSPropertyOp56
 70
     1
102
RTVSPropertyOp57
 70
     1
102
RTVSPropertyOp58
 70
     1
102
RTVSPropertyOp59
 70
     1
102
RTVSPropertyOp60
 70
     1
102
RTVSPropertyOp61
 70
     1
102
RTVSPropertyOp62
 70
     1
  0
XRECORD
  5
8A0
102
{ACAD_REACTORS
330
89F
102
}
330
89F
100
AcDbXrecord
280
     1
102
RTVSPost2010Prop28
280
     0
102
RTVSPost2010PropOp28
 70
     1
102
RTVSPost2010Prop29
280
     1
102
RTVSPost2010PropOp29
 70
     1
102
RTVSPost2010Prop30
280
     1
102
RTVSPost2010PropOp30
 70
     1
102
RTVSPost2010Prop31
280
     0
102
RTVSPost2010PropOp31
 70
     1
102
RTVSPost2010Prop32
280
     0
102
RTVSPost2010PropOp32
 70
     1
102
RTVSPost2010Prop33
280
     0
102
RTVSPost2010PropOp33
 70
     1
102
RTVSPost2010Prop34
280
     0
102
RTVSPost2010PropOp34
 70
     1
102
RTVSPost2010Prop35
280
     0
102
RTVSPost2010PropOp35
 70
     1
102
RTVSPost2010Prop36
280
     0
102
RTVSPost2010PropOp36
 70
     1
102
RTVSPost2010Prop37
 90
       50
102
RTVSPost2010PropOp37
 70
     1
102
RTVSPost2010Prop38
140
0.0
102
RTVSPost2010PropOp38
 70
     1
102
RTVSPost2010Prop39
140
1.0
102
RTVSPost2010PropOp39
 70
     1
102
RTVSPost2010Prop40
 90
        0
102
RTVSPost2010PropOp40
 70
     1
102
RTVSPost2010Prop41ColorIndex
 90
       18
102
RTVSPost2010Prop41ColorRGB
 90
        0
102
RTVSPost2010PropOp41
 70
     1
102
RTVSPost2010Prop42
 90
       50
102
RTVSPost2010PropOp42
 70
     1
102
RTVSPost2010Prop43
 90
        3
102
RTVSPost2010PropOp43
 70
     1
102
RTVSPost2010Prop44ColorIndex
 90
        5
102
RTVSPost2010Prop44ColorRGB
 90
      255
102
RTVSPost2010PropOp44
 70
     1
102
RTVSPost2010Prop45
280
     0
102
RTVSPost2010PropOp45
 70
     1
102
RTVSPost2010Prop46
 90
       50
102
RTVSPost2010PropOp46
 70
     1
102
RTVSPost2010Prop47
 90
       50
102
RTVSPost2010PropOp47
 70
     1
102
RTVSPost2010Prop48
 90
       50
102
RTVSPost2010PropOp48
 70
     1
102
RTVSPost2010Prop49
280
     0
102
RTVSPost2010PropOp49
 70
     1
102
RTVSPost2010Prop50
 90
       50
102
RTVSPost2010PropOp50
 70
     1
102
RTVSPost2010Prop51ColorIndex
 90
      256
102
RTVSPost2010Prop51ColorRGB
 90
-16777216
102
RTVSPost2010PropOp51
 70
     0
102
RTVSPost2010Prop52
140
1.0
102
RTVSPost2010PropOp52
 70
     0
102
RTVSPost2010Prop53
 90
        2
102
RTVSPost2010PropOp53
 70
     1
102
RTVSPost2010Prop54
  1
strokes_ogs.tif
102
RTVSPost2010PropOp54
 70
     1
102
RTVSPost2010Prop55
280
     0
102
RTVSPost2010PropOp55
 70
     1
102
RTVSPost2010Prop56
140
1.0
102
RTVSPost2010PropOp56
 70
     1
102
RTVSPost2010Prop57
140
1.0
102
RTVSPost2010PropOp57
 70
     1
102
RTVSPropertyOp0
 70
     1
102
RTVSPropertyOp1
 70
     1
102
RTVSPropertyOp2
 70
     1
102
RTVSPropertyOp3
 70
     1
102
RTVSPropertyOp4
 70
     1
102
RTVSPropertyOp5
 70
     1
102
RTVSPropertyOp6
 70
     1
102
RTVSPropertyOp7
 70
     1
102
RTVSPropertyOp8
 70
     1
102
RTVSPropertyOp9
 70
     1
102
RTVSPropertyOp10
 70
     1
102
RTVSPropertyOp11
 70
     1
102
RTVSPropertyOp12
 70
     1
102
RTVSPropertyOp13
 70
     1
102
RTVSPropertyOp14
 70
     1
102
RTVSPropertyOp15
 70
     1
102
RTVSPropertyOp16
 70
     1
102
RTVSPropertyOp17
 70
     1
102
RTVSPropertyOp18
 70
     1
102
RTVSPropertyOp19
 70
     1
102
RTVSPropertyOp20
 70
     1
102
RTVSPropertyOp21
 70
     1
102
RTVSPropertyOp22
 70
     1
102
RTVSPropertyOp23
 70
     1
102
RTVSPropertyOp24
 70
     1
102
RTVSPropertyOp25
 70
     1
102
RTVSPropertyOp26
 70
     1
102
RTVSPropertyOp27
 70
     1
102
RTVSPropertyOp28
 70
     1
102
RTVSPropertyOp29
 70
     1
102
RTVSPropertyOp30
 70
     1
102
RTVSPropertyOp31
 70
     1
102
RTVSPropertyOp32
 70
     1
102
RTVSPropertyOp33
 70
     1
102
RTVSPropertyOp34
 70
     1
102
RTVSPropertyOp35
 70
     1
102
RTVSPropertyOp36
 70
     1
102
RTVSPropertyOp37
 70
     1
102
RTVSPropertyOp38
 70
     1
102
RTVSPropertyOp39
 70
     1
102
RTVSPropertyOp40
 70
     1
102
RTVSPropertyOp41
 70
     1
102
RTVSPropertyOp42
 70
     1
102
RTVSPropertyOp43
 70
     1
102
RTVSPropertyOp44
 70
     1
102
RTVSPropertyOp45
 70
     1
102
RTVSPropertyOp46
 70
     1
102
RTVSPropertyOp47
 70
     1
102
RTVSPropertyOp48
 70
     1
102
RTVSPropertyOp49
 70
     1
102
RTVSPropertyOp50
 70
     1
102
RTVSPropertyOp51
 70
     0
102
RTVSPropertyOp52
 70
     0
102
RTVSPropertyOp53
 70
     1
102
RTVSPropertyOp54
 70
     1
102
RTVSPropertyOp55
 70
     1
102
RTVSPropertyOp56
 70
     1
102
RTVSPropertyOp57
 70
     1
102
RTVSPropertyOp58
 70
     1
102
RTVSPropertyOp59
 70
     1
102
RTVSPropertyOp60
 70
     1
102
RTVSPropertyOp61
 70
     1
102
RTVSPropertyOp62
 70
     1
  0
XRECORD
  5
8A8
102
{ACAD_REACTORS
330
8A7
102
}
330
8A7
100
AcDbXrecord
280
     1
102
RTVSPost2010Prop28
280
     0
102
RTVSPost2010PropOp28
 70
     1
102
RTVSPost2010Prop29
280
     1
102
RTVSPost2010PropOp29
 70
     1
102
RTVSPost2010Prop30
280
     1
102
RTVSPost2010PropOp30
 70
     1
102
RTVSPost2010Prop31
280
     0
102
RTVSPost2010PropOp31
 70
     1
102
RTVSPost2010Prop32
280
     0
102
RTVSPost2010PropOp32
 70
     1
102
RTVSPost2010Prop33
280
     0
102
RTVSPost2010PropOp33
 70
     1
102
RTVSPost2010Prop34
280
     0
102
RTVSPost2010PropOp34
 70
     1
102
RTVSPost2010Prop35
280
     0
102
RTVSPost2010PropOp35
 70
     1
102
RTVSPost2010Prop36
280
     0
102
RTVSPost2010PropOp36
 70
     1
102
RTVSPost2010Prop37
 90
       50
102
RTVSPost2010PropOp37
 70
     1
102
RTVSPost2010Prop38
140
0.0
102
RTVSPost2010PropOp38
 70
     1
102
RTVSPost2010Prop39
140
1.0
102
RTVSPost2010PropOp39
 70
     1
102
RTVSPost2010Prop40
 90
        0
102
RTVSPost2010PropOp40
 70
     1
102
RTVSPost2010Prop41ColorIndex
 90
       18
102
RTVSPost2010Prop41ColorRGB
 90
        0
102
RTVSPost2010PropOp41
 70
     1
102
RTVSPost2010Prop42
 90
       50
102
RTVSPost2010PropOp42
 70
     1
102
RTVSPost2010Prop43
 90
        3
102
RTVSPost2010PropOp43
 70
     1
102
RTVSPost2010Prop44ColorIndex
 90
        5
102
RTVSPost2010Prop44ColorRGB
 90
      255
102
RTVSPost2010PropOp44
 70
     1
102
RTVSPost2010Prop45
280
     0
102
RTVSPost2010PropOp45
 70
     1
102
RTVSPost2010Prop46
 90
       50
102
RTVSPost2010PropOp46
 70
     1
102
RTVSPost2010Prop47
 90
       50
102
RTVSPost2010PropOp47
 70
     1
102
RTVSPost2010Prop48
 90
       50
102
RTVSPost2010PropOp48
 70
     1
102
RTVSPost2010Prop49
280
     0
102
RTVSPost2010PropOp49
 70
     1
102
RTVSPost2010Prop50
 90
       50
102
RTVSPost2010PropOp50
 70
     1
102
RTVSPost2010Prop51ColorIndex
 90
      256
102
RTVSPost2010Prop51ColorRGB
 90
-16777216
102
RTVSPost2010PropOp51
 70
     0
102
RTVSPost2010Prop52
140
1.0
102
RTVSPost2010PropOp52
 70
     0
102
RTVSPost2010Prop53
 90
        2
102
RTVSPost2010PropOp53
 70
     1
102
RTVSPost2010Prop54
  1
strokes_ogs.tif
102
RTVSPost2010PropOp54
 70
     1
102
RTVSPost2010Prop55
280
     0
102
RTVSPost2010PropOp55
 70
     1
102
RTVSPost2010Prop56
140
1.0
102
RTVSPost2010PropOp56
 70
     1
102
RTVSPost2010Prop57
140
1.0
102
RTVSPost2010PropOp57
 70
     1
102
RTVSPropertyOp0
 70
     1
102
RTVSPropertyOp1
 70
     1
102
RTVSPropertyOp2
 70
     1
102
RTVSPropertyOp3
 70
     1
102
RTVSPropertyOp4
 70
     1
102
RTVSPropertyOp5
 70
     1
102
RTVSPropertyOp6
 70
     1
102
RTVSPropertyOp7
 70
     1
102
RTVSPropertyOp8
 70
     1
102
RTVSPropertyOp9
 70
     1
102
RTVSPropertyOp10
 70
     1
102
RTVSPropertyOp11
 70
     1
102
RTVSPropertyOp12
 70
     1
102
RTVSPropertyOp13
 70
     1
102
RTVSPropertyOp14
 70
     1
102
RTVSPropertyOp15
 70
     1
102
RTVSPropertyOp16
 70
     1
102
RTVSPropertyOp17
 70
     1
102
RTVSPropertyOp18
 70
     1
102
RTVSPropertyOp19
 70
     1
102
RTVSPropertyOp20
 70
     1
102
RTVSPropertyOp21
 70
     1
102
RTVSPropertyOp22
 70
     1
102
RTVSPropertyOp23
 70
     1
102
RTVSPropertyOp24
 70
     1
102
RTVSPropertyOp25
 70
     1
102
RTVSPropertyOp26
 70
     1
102
RTVSPropertyOp27
 70
     1
102
RTVSPropertyOp28
 70
     1
102
RTVSPropertyOp29
 70
     1
102
RTVSPropertyOp30
 70
     1
102
RTVSPropertyOp31
 70
     1
102
RTVSPropertyOp32
 70
     1
102
RTVSPropertyOp33
 70
     1
102
RTVSPropertyOp34
 70
     1
102
RTVSPropertyOp35
 70
     1
102
RTVSPropertyOp36
 70
     1
102
RTVSPropertyOp37
 70
     1
102
RTVSPropertyOp38
 70
     1
102
RTVSPropertyOp39
 70
     1
102
RTVSPropertyOp40
 70
     1
102
RTVSPropertyOp41
 70
     1
102
RTVSPropertyOp42
 70
     1
102
RTVSPropertyOp43
 70
     1
102
RTVSPropertyOp44
 70
     1
102
RTVSPropertyOp45
 70
     1
102
RTVSPropertyOp46
 70
     1
102
RTVSPropertyOp47
 70
     1
102
RTVSPropertyOp48
 70
     1
102
RTVSPropertyOp49
 70
     1
102
RTVSPropertyOp50
 70
     1
102
RTVSPropertyOp51
 70
     0
102
RTVSPropertyOp52
 70
     0
102
RTVSPropertyOp53
 70
     1
102
RTVSPropertyOp54
 70
     1
102
RTVSPropertyOp55
 70
     1
102
RTVSPropertyOp56
 70
     1
102
RTVSPropertyOp57
 70
     1
102
RTVSPropertyOp58
 70
     1
102
RTVSPropertyOp59
 70
     1
102
RTVSPropertyOp60
 70
     1
102
RTVSPropertyOp61
 70
     1
102
RTVSPropertyOp62
 70
     1
  0
XRECORD
  5
8C4
102
{ACAD_REACTORS
330
8C3
102
}
330
8C3
100
AcDbXrecord
280
     1
102
RTVSPost2010Prop28
280
     0
102
RTVSPost2010PropOp28
 70
     0
102
RTVSPost2010Prop29
280
     1
102
RTVSPost2010PropOp29
 70
     0
102
RTVSPost2010Prop30
280
     1
102
RTVSPost2010PropOp30
 70
     0
102
RTVSPost2010Prop31
280
     0
102
RTVSPost2010PropOp31
 70
     0
102
RTVSPost2010Prop32
280
     0
102
RTVSPost2010PropOp32
 70
     0
102
RTVSPost2010Prop33
280
     0
102
RTVSPost2010PropOp33
 70
     0
102
RTVSPost2010Prop34
280
     0
102
RTVSPost2010PropOp34
 70
     0
102
RTVSPost2010Prop35
280
     0
102
RTVSPost2010PropOp35
 70
     0
102
RTVSPost2010Prop36
280
     0
102
RTVSPost2010PropOp36
 70
     0
102
RTVSPost2010Prop37
 90
       50
102
RTVSPost2010PropOp37
 70
     0
102
RTVSPost2010Prop38
140
0.0
102
RTVSPost2010PropOp38
 70
     0
102
RTVSPost2010Prop39
140
1.0
102
RTVSPost2010PropOp39
 70
     0
102
RTVSPost2010Prop40
 90
        0
102
RTVSPost2010PropOp40
 70
     0
102
RTVSPost2010Prop41ColorIndex
 90
       18
102
RTVSPost2010Prop41ColorRGB
 90
        0
102
RTVSPost2010PropOp41
 70
     0
102
RTVSPost2010Prop42
 90
       50
102
RTVSPost2010PropOp42
 70
     0
102
RTVSPost2010Prop43
 90
        3
102
RTVSPost2010PropOp43
 70
     0
102
RTVSPost2010Prop44ColorIndex
 90
        5
102
RTVSPost2010Prop44ColorRGB
 90
      255
102
RTVSPost2010PropOp44
 70
     0
102
RTVSPost2010Prop45
280
     0
102
RTVSPost2010PropOp45
 70
     0
102
RTVSPost2010Prop46
 90
       50
102
RTVSPost2010PropOp46
 70
     0
102
RTVSPost2010Prop47
 90
       50
102
RTVSPost2010PropOp47
 70
     0
102
RTVSPost2010Prop48
 90
       50
102
RTVSPost2010PropOp48
 70
     0
102
RTVSPost2010Prop49
280
     0
102
RTVSPost2010PropOp49
 70
     0
102
RTVSPost2010Prop50
 90
       50
102
RTVSPost2010PropOp50
 70
     0
102
RTVSPost2010Prop51ColorIndex
 90
      256
102
RTVSPost2010Prop51ColorRGB
 90
-16777216
102
RTVSPost2010PropOp51
 70
     0
102
RTVSPost2010Prop52
140
1.0
102
RTVSPost2010PropOp52
 70
     0
102
RTVSPost2010Prop53
 90
        2
102
RTVSPost2010PropOp53
 70
     0
102
RTVSPost2010Prop54
  1
strokes_ogs.tif
102
RTVSPost2010PropOp54
 70
     0
102
RTVSPost2010Prop55
280
     0
102
RTVSPost2010PropOp55
 70
     0
102
RTVSPost2010Prop56
140
1.0
102
RTVSPost2010PropOp56
 70
     0
102
RTVSPost2010Prop57
140
1.0
102
RTVSPost2010PropOp57
 70
     0
102
RTVSPropertyOp0
 70
     0
102
RTVSPropertyOp1
 70
     0
102
RTVSPropertyOp2
 70
     0
102
RTVSPropertyOp3
 70
     0
102
RTVSPropertyOp4
 70
     0
102
RTVSPropertyOp5
 70
     0
102
RTVSPropertyOp6
 70
     0
102
RTVSPropertyOp7
 70
     0
102
RTVSPropertyOp8
 70
     0
102
RTVSPropertyOp9
 70
     0
102
RTVSPropertyOp10
 70
     0
102
RTVSPropertyOp11
 70
     0
102
RTVSPropertyOp12
 70
     0
102
RTVSPropertyOp13
 70
     0
102
RTVSPropertyOp14
 70
     2
102
RTVSPropertyOp15
 70
     0
102
RTVSPropertyOp16
 70
     0
102
RTVSPropertyOp17
 70
     0
102
RTVSPropertyOp18
 70
     0
102
RTVSPropertyOp19
 70
     0
102
RTVSPropertyOp20
 70
     0
102
RTVSPropertyOp21
 70
     0
102
RTVSPropertyOp22
 70
     0
102
RTVSPropertyOp23
 70
     0
102
RTVSPropertyOp24
 70
     0
102
RTVSPropertyOp25
 70
     0
102
RTVSPropertyOp26
 70
     0
102
RTVSPropertyOp27
 70
     0
102
RTVSPropertyOp28
 70
     0
102
RTVSPropertyOp29
 70
     0
102
RTVSPropertyOp30
 70
     0
102
RTVSPropertyOp31
 70
     0
102
RTVSPropertyOp32
 70
     0
102
RTVSPropertyOp33
 70
     0
102
RTVSPropertyOp34
 70
     0
102
RTVSPropertyOp35
 70
     0
102
RTVSPropertyOp36
 70
     0
102
RTVSPropertyOp37
 70
     0
102
RTVSPropertyOp38
 70
     0
102
RTVSPropertyOp39
 70
     0
102
RTVSPropertyOp40
 70
     0
102
RTVSPropertyOp41
 70
     0
102
RTVSPropertyOp42
 70
     0
102
RTVSPropertyOp43
 70
     0
102
RTVSPropertyOp44
 70
     0
102
RTVSPropertyOp45
 70
     0
102
RTVSPropertyOp46
 70
     0
102
RTVSPropertyOp47
 70
     0
102
RTVSPropertyOp48
 70
     0
102
RTVSPropertyOp49
 70
     0
102
RTVSPropertyOp50
 70
     0
102
RTVSPropertyOp51
 70
     0
102
RTVSPropertyOp52
 70
     0
102
RTVSPropertyOp53
 70
     0
102
RTVSPropertyOp54
 70
     0
102
RTVSPropertyOp55
 70
     0
102
RTVSPropertyOp56
 70
     0
102
RTVSPropertyOp57
 70
     0
102
RTVSPropertyOp58
 70
     0
102
RTVSPropertyOp59
 70
     0
102
RTVSPropertyOp60
 70
     0
102
RTVSPropertyOp61
 70
     0
102
RTVSPropertyOp62
 70
     0
  0
XRECORD
  5
8B4
102
{ACAD_REACTORS
330
8B3
102
}
330
8B3
100
AcDbXrecord
280
     1
102
RTVSPost2010Prop28
280
     0
102
RTVSPost2010PropOp28
 70
     1
102
RTVSPost2010Prop29
280
     1
102
RTVSPost2010PropOp29
 70
     1
102
RTVSPost2010Prop30
280
     1
102
RTVSPost2010PropOp30
 70
     1
102
RTVSPost2010Prop31
280
     0
102
RTVSPost2010PropOp31
 70
     1
102
RTVSPost2010Prop32
280
     0
102
RTVSPost2010PropOp32
 70
     1
102
RTVSPost2010Prop33
280
     0
102
RTVSPost2010PropOp33
 70
     1
102
RTVSPost2010Prop34
280
     0
102
RTVSPost2010PropOp34
 70
     1
102
RTVSPost2010Prop35
280
     0
102
RTVSPost2010PropOp35
 70
     1
102
RTVSPost2010Prop36
280
     0
102
RTVSPost2010PropOp36
 70
     1
102
RTVSPost2010Prop37
 90
       50
102
RTVSPost2010PropOp37
 70
     1
102
RTVSPost2010Prop38
140
0.0
102
RTVSPost2010PropOp38
 70
     1
102
RTVSPost2010Prop39
140
1.0
102
RTVSPost2010PropOp39
 70
     1
102
RTVSPost2010Prop40
 90
        0
102
RTVSPost2010PropOp40
 70
     1
102
RTVSPost2010Prop41ColorIndex
 90
       18
102
RTVSPost2010Prop41ColorRGB
 90
        0
102
RTVSPost2010PropOp41
 70
     1
102
RTVSPost2010Prop42
 90
       50
102
RTVSPost2010PropOp42
 70
     1
102
RTVSPost2010Prop43
 90
        3
102
RTVSPost2010PropOp43
 70
     1
102
RTVSPost2010Prop44ColorIndex
 90
        5
102
RTVSPost2010Prop44ColorRGB
 90
      255
102
RTVSPost2010PropOp44
 70
     1
102
RTVSPost2010Prop45
280
     0
102
RTVSPost2010PropOp45
 70
     1
102
RTVSPost2010Prop46
 90
       50
102
RTVSPost2010PropOp46
 70
     1
102
RTVSPost2010Prop47
 90
       50
102
RTVSPost2010PropOp47
 70
     1
102
RTVSPost2010Prop48
 90
       50
102
RTVSPost2010PropOp48
 70
     1
102
RTVSPost2010Prop49
280
     0
102
RTVSPost2010PropOp49
 70
     1
102
RTVSPost2010Prop50
 90
       50
102
RTVSPost2010PropOp50
 70
     1
102
RTVSPost2010Prop51ColorIndex
 90
      256
102
RTVSPost2010Prop51ColorRGB
 90
-16777216
102
RTVSPost2010PropOp51
 70
     0
102
RTVSPost2010Prop52
140
1.0
102
RTVSPost2010PropOp52
 70
     0
102
RTVSPost2010Prop53
 90
        2
102
RTVSPost2010PropOp53
 70
     1
102
RTVSPost2010Prop54
  1
strokes_ogs.tif
102
RTVSPost2010PropOp54
 70
     1
102
RTVSPost2010Prop55
280
     0
102
RTVSPost2010PropOp55
 70
     1
102
RTVSPost2010Prop56
140
1.0
102
RTVSPost2010PropOp56
 70
     1
102
RTVSPost2010Prop57
140
1.0
102
RTVSPost2010PropOp57
 70
     1
102
RTVSPropertyOp0
 70
     1
102
RTVSPropertyOp1
 70
     1
102
RTVSPropertyOp2
 70
     1
102
RTVSPropertyOp3
 70
     1
102
RTVSPropertyOp4
 70
     1
102
RTVSPropertyOp5
 70
     1
102
RTVSPropertyOp6
 70
     1
102
RTVSPropertyOp7
 70
     1
102
RTVSPropertyOp8
 70
     1
102
RTVSPropertyOp9
 70
     1
102
RTVSPropertyOp10
 70
     1
102
RTVSPropertyOp11
 70
     1
102
RTVSPropertyOp12
 70
     1
102
RTVSPropertyOp13
 70
     1
102
RTVSPropertyOp14
 70
     1
102
RTVSPropertyOp15
 70
     1
102
RTVSPropertyOp16
 70
     1
102
RTVSPropertyOp17
 70
     1
102
RTVSPropertyOp18
 70
     1
102
RTVSPropertyOp19
 70
     1
102
RTVSPropertyOp20
 70
     1
102
RTVSPropertyOp21
 70
     1
102
RTVSPropertyOp22
 70
     1
102
RTVSPropertyOp23
 70
     1
102
RTVSPropertyOp24
 70
     1
102
RTVSPropertyOp25
 70
     1
102
RTVSPropertyOp26
 70
     1
102
RTVSPropertyOp27
 70
     1
102
RTVSPropertyOp28
 70
     1
102
RTVSPropertyOp29
 70
     1
102
RTVSPropertyOp30
 70
     1
102
RTVSPropertyOp31
 70
     1
102
RTVSPropertyOp32
 70
     1
102
RTVSPropertyOp33
 70
     1
102
RTVSPropertyOp34
 70
     1
102
RTVSPropertyOp35
 70
     1
102
RTVSPropertyOp36
 70
     1
102
RTVSPropertyOp37
 70
     1
102
RTVSPropertyOp38
 70
     1
102
RTVSPropertyOp39
 70
     1
102
RTVSPropertyOp40
 70
     1
102
RTVSPropertyOp41
 70
     1
102
RTVSPropertyOp42
 70
     1
102
RTVSPropertyOp43
 70
     1
102
RTVSPropertyOp44
 70
     1
102
RTVSPropertyOp45
 70
     1
102
RTVSPropertyOp46
 70
     1
102
RTVSPropertyOp47
 70
     1
102
RTVSPropertyOp48
 70
     1
102
RTVSPropertyOp49
 70
     1
102
RTVSPropertyOp50
 70
     1
102
RTVSPropertyOp51
 70
     0
102
RTVSPropertyOp52
 70
     0
102
RTVSPropertyOp53
 70
     1
102
RTVSPropertyOp54
 70
     1
102
RTVSPropertyOp55
 70
     1
102
RTVSPropertyOp56
 70
     1
102
RTVSPropertyOp57
 70
     1
102
RTVSPropertyOp58
 70
     1
102
RTVSPropertyOp59
 70
     1
102
RTVSPropertyOp60
 70
     1
102
RTVSPropertyOp61
 70
     1
102
RTVSPropertyOp62
 70
     1
  0
XRECORD
  5
8C6
102
{ACAD_REACTORS
330
8C5
102
}
330
8C5
100
AcDbXrecord
280
     1
102
RTVSPost2010Prop28
280
     0
102
RTVSPost2010PropOp28
 70
     0
102
RTVSPost2010Prop29
280
     1
102
RTVSPost2010PropOp29
 70
     0
102
RTVSPost2010Prop30
280
     1
102
RTVSPost2010PropOp30
 70
     0
102
RTVSPost2010Prop31
280
     0
102
RTVSPost2010PropOp31
 70
     0
102
RTVSPost2010Prop32
280
     0
102
RTVSPost2010PropOp32
 70
     0
102
RTVSPost2010Prop33
280
     0
102
RTVSPost2010PropOp33
 70
     0
102
RTVSPost2010Prop34
280
     0
102
RTVSPost2010PropOp34
 70
     0
102
RTVSPost2010Prop35
280
     0
102
RTVSPost2010PropOp35
 70
     0
102
RTVSPost2010Prop36
280
     0
102
RTVSPost2010PropOp36
 70
     0
102
RTVSPost2010Prop37
 90
       50
102
RTVSPost2010PropOp37
 70
     0
102
RTVSPost2010Prop38
140
0.0
102
RTVSPost2010PropOp38
 70
     0
102
RTVSPost2010Prop39
140
1.0
102
RTVSPost2010PropOp39
 70
     0
102
RTVSPost2010Prop40
 90
        0
102
RTVSPost2010PropOp40
 70
     0
102
RTVSPost2010Prop41ColorIndex
 90
       18
102
RTVSPost2010Prop41ColorRGB
 90
        0
102
RTVSPost2010PropOp41
 70
     0
102
RTVSPost2010Prop42
 90
       50
102
RTVSPost2010PropOp42
 70
     0
102
RTVSPost2010Prop43
 90
        3
102
RTVSPost2010PropOp43
 70
     0
102
RTVSPost2010Prop44ColorIndex
 90
        5
102
RTVSPost2010Prop44ColorRGB
 90
      255
102
RTVSPost2010PropOp44
 70
     0
102
RTVSPost2010Prop45
280
     0
102
RTVSPost2010PropOp45
 70
     0
102
RTVSPost2010Prop46
 90
       50
102
RTVSPost2010PropOp46
 70
     0
102
RTVSPost2010Prop47
 90
       50
102
RTVSPost2010PropOp47
 70
     0
102
RTVSPost2010Prop48
 90
       50
102
RTVSPost2010PropOp48
 70
     0
102
RTVSPost2010Prop49
280
     0
102
RTVSPost2010PropOp49
 70
     0
102
RTVSPost2010Prop50
 90
       50
102
RTVSPost2010PropOp50
 70
     0
102
RTVSPost2010Prop51ColorIndex
 90
      256
102
RTVSPost2010Prop51ColorRGB
 90
-16777216
102
RTVSPost2010PropOp51
 70
     0
102
RTVSPost2010Prop52
140
1.0
102
RTVSPost2010PropOp52
 70
     0
102
RTVSPost2010Prop53
 90
        2
102
RTVSPost2010PropOp53
 70
     0
102
RTVSPost2010Prop54
  1
strokes_ogs.tif
102
RTVSPost2010PropOp54
 70
     0
102
RTVSPost2010Prop55
280
     0
102
RTVSPost2010PropOp55
 70
     0
102
RTVSPost2010Prop56
140
1.0
102
RTVSPost2010PropOp56
 70
     0
102
RTVSPost2010Prop57
140
1.0
102
RTVSPost2010PropOp57
 70
     0
102
RTVSPropertyOp0
 70
     0
102
RTVSPropertyOp1
 70
     0
102
RTVSPropertyOp2
 70
     0
102
RTVSPropertyOp3
 70
     0
102
RTVSPropertyOp4
 70
     0
102
RTVSPropertyOp5
 70
     0
102
RTVSPropertyOp6
 70
     0
102
RTVSPropertyOp7
 70
     0
102
RTVSPropertyOp8
 70
     0
102
RTVSPropertyOp9
 70
     0
102
RTVSPropertyOp10
 70
     0
102
RTVSPropertyOp11
 70
     0
102
RTVSPropertyOp12
 70
     0
102
RTVSPropertyOp13
 70
     0
102
RTVSPropertyOp14
 70
     2
102
RTVSPropertyOp15
 70
     0
102
RTVSPropertyOp16
 70
     0
102
RTVSPropertyOp17
 70
     0
102
RTVSPropertyOp18
 70
     0
102
RTVSPropertyOp19
 70
     0
102
RTVSPropertyOp20
 70
     0
102
RTVSPropertyOp21
 70
     0
102
RTVSPropertyOp22
 70
     0
102
RTVSPropertyOp23
 70
     0
102
RTVSPropertyOp24
 70
     0
102
RTVSPropertyOp25
 70
     0
102
RTVSPropertyOp26
 70
     0
102
RTVSPropertyOp27
 70
     0
102
RTVSPropertyOp28
 70
     0
102
RTVSPropertyOp29
 70
     0
102
RTVSPropertyOp30
 70
     0
102
RTVSPropertyOp31
 70
     0
102
RTVSPropertyOp32
 70
     0
102
RTVSPropertyOp33
 70
     0
102
RTVSPropertyOp34
 70
     0
102
RTVSPropertyOp35
 70
     0
102
RTVSPropertyOp36
 70
     0
102
RTVSPropertyOp37
 70
     0
102
RTVSPropertyOp38
 70
     0
102
RTVSPropertyOp39
 70
     0
102
RTVSPropertyOp40
 70
     0
102
RTVSPropertyOp41
 70
     0
102
RTVSPropertyOp42
 70
     0
102
RTVSPropertyOp43
 70
     0
102
RTVSPropertyOp44
 70
     0
102
RTVSPropertyOp45
 70
     0
102
RTVSPropertyOp46
 70
     0
102
RTVSPropertyOp47
 70
     0
102
RTVSPropertyOp48
 70
     0
102
RTVSPropertyOp49
 70
     0
102
RTVSPropertyOp50
 70
     0
102
RTVSPropertyOp51
 70
     0
102
RTVSPropertyOp52
 70
     0
102
RTVSPropertyOp53
 70
     0
102
RTVSPropertyOp54
 70
     0
102
RTVSPropertyOp55
 70
     0
102
RTVSPropertyOp56
 70
     0
102
RTVSPropertyOp57
 70
     0
102
RTVSPropertyOp58
 70
     0
102
RTVSPropertyOp59
 70
     0
102
RTVSPropertyOp60
 70
     0
102
RTVSPropertyOp61
 70
     0
102
RTVSPropertyOp62
 70
     0
  0
XRECORD
  5
8AC
102
{ACAD_REACTORS
330
8AB
102
}
330
8AB
100
AcDbXrecord
280
     1
102
RTVSPost2010Prop28
280
     0
102
RTVSPost2010PropOp28
 70
     1
102
RTVSPost2010Prop29
280
     1
102
RTVSPost2010PropOp29
 70
     1
102
RTVSPost2010Prop30
280
     1
102
RTVSPost2010PropOp30
 70
     1
102
RTVSPost2010Prop31
280
     0
102
RTVSPost2010PropOp31
 70
     1
102
RTVSPost2010Prop32
280
     0
102
RTVSPost2010PropOp32
 70
     1
102
RTVSPost2010Prop33
280
     0
102
RTVSPost2010PropOp33
 70
     1
102
RTVSPost2010Prop34
280
     0
102
RTVSPost2010PropOp34
 70
     1
102
RTVSPost2010Prop35
280
     0
102
RTVSPost2010PropOp35
 70
     1
102
RTVSPost2010Prop36
280
     0
102
RTVSPost2010PropOp36
 70
     1
102
RTVSPost2010Prop37
 90
       50
102
RTVSPost2010PropOp37
 70
     1
102
RTVSPost2010Prop38
140
0.0
102
RTVSPost2010PropOp38
 70
     1
102
RTVSPost2010Prop39
140
1.0
102
RTVSPost2010PropOp39
 70
     1
102
RTVSPost2010Prop40
 90
        0
102
RTVSPost2010PropOp40
 70
     1
102
RTVSPost2010Prop41ColorIndex
 90
       18
102
RTVSPost2010Prop41ColorRGB
 90
        0
102
RTVSPost2010PropOp41
 70
     1
102
RTVSPost2010Prop42
 90
       50
102
RTVSPost2010PropOp42
 70
     1
102
RTVSPost2010Prop43
 90
        3
102
RTVSPost2010PropOp43
 70
     1
102
RTVSPost2010Prop44ColorIndex
 90
        5
102
RTVSPost2010Prop44ColorRGB
 90
      255
102
RTVSPost2010PropOp44
 70
     1
102
RTVSPost2010Prop45
280
     0
102
RTVSPost2010PropOp45
 70
     1
102
RTVSPost2010Prop46
 90
       50
102
RTVSPost2010PropOp46
 70
     1
102
RTVSPost2010Prop47
 90
       50
102
RTVSPost2010PropOp47
 70
     1
102
RTVSPost2010Prop48
 90
       50
102
RTVSPost2010PropOp48
 70
     1
102
RTVSPost2010Prop49
280
     0
102
RTVSPost2010PropOp49
 70
     1
102
RTVSPost2010Prop50
 90
       50
102
RTVSPost2010PropOp50
 70
     1
102
RTVSPost2010Prop51ColorIndex
 90
      256
102
RTVSPost2010Prop51ColorRGB
 90
-16777216
102
RTVSPost2010PropOp51
 70
     0
102
RTVSPost2010Prop52
140
1.0
102
RTVSPost2010PropOp52
 70
     0
102
RTVSPost2010Prop53
 90
        2
102
RTVSPost2010PropOp53
 70
     1
102
RTVSPost2010Prop54
  1
strokes_ogs.tif
102
RTVSPost2010PropOp54
 70
     1
102
RTVSPost2010Prop55
280
     0
102
RTVSPost2010PropOp55
 70
     1
102
RTVSPost2010Prop56
140
1.0
102
RTVSPost2010PropOp56
 70
     1
102
RTVSPost2010Prop57
140
1.0
102
RTVSPost2010PropOp57
 70
     1
102
RTVSPropertyOp0
 70
     1
102
RTVSPropertyOp1
 70
     1
102
RTVSPropertyOp2
 70
     1
102
RTVSPropertyOp3
 70
     1
102
RTVSPropertyOp4
 70
     1
102
RTVSPropertyOp5
 70
     1
102
RTVSPropertyOp6
 70
     1
102
RTVSPropertyOp7
 70
     1
102
RTVSPropertyOp8
 70
     1
102
RTVSPropertyOp9
 70
     1
102
RTVSPropertyOp10
 70
     1
102
RTVSPropertyOp11
 70
     1
102
RTVSPropertyOp12
 70
     1
102
RTVSPropertyOp13
 70
     1
102
RTVSPropertyOp14
 70
     1
102
RTVSPropertyOp15
 70
     1
102
RTVSPropertyOp16
 70
     1
102
RTVSPropertyOp17
 70
     1
102
RTVSPropertyOp18
 70
     1
102
RTVSPropertyOp19
 70
     1
102
RTVSPropertyOp20
 70
     1
102
RTVSPropertyOp21
 70
     1
102
RTVSPropertyOp22
 70
     1
102
RTVSPropertyOp23
 70
     1
102
RTVSPropertyOp24
 70
     1
102
RTVSPropertyOp25
 70
     1
102
RTVSPropertyOp26
 70
     1
102
RTVSPropertyOp27
 70
     1
102
RTVSPropertyOp28
 70
     1
102
RTVSPropertyOp29
 70
     1
102
RTVSPropertyOp30
 70
     1
102
RTVSPropertyOp31
 70
     1
102
RTVSPropertyOp32
 70
     1
102
RTVSPropertyOp33
 70
     1
102
RTVSPropertyOp34
 70
     1
102
RTVSPropertyOp35
 70
     1
102
RTVSPropertyOp36
 70
     1
102
RTVSPropertyOp37
 70
     1
102
RTVSPropertyOp38
 70
     1
102
RTVSPropertyOp39
 70
     1
102
RTVSPropertyOp40
 70
     1
102
RTVSPropertyOp41
 70
     1
102
RTVSPropertyOp42
 70
     1
102
RTVSPropertyOp43
 70
     1
102
RTVSPropertyOp44
 70
     1
102
RTVSPropertyOp45
 70
     1
102
RTVSPropertyOp46
 70
     1
102
RTVSPropertyOp47
 70
     1
102
RTVSPropertyOp48
 70
     1
102
RTVSPropertyOp49
 70
     1
102
RTVSPropertyOp50
 70
     1
102
RTVSPropertyOp51
 70
     0
102
RTVSPropertyOp52
 70
     0
102
RTVSPropertyOp53
 70
     1
102
RTVSPropertyOp54
 70
     1
102
RTVSPropertyOp55
 70
     1
102
RTVSPropertyOp56
 70
     1
102
RTVSPropertyOp57
 70
     1
102
RTVSPropertyOp58
 70
     1
102
RTVSPropertyOp59
 70
     1
102
RTVSPropertyOp60
 70
     1
102
RTVSPropertyOp61
 70
     1
102
RTVSPropertyOp62
 70
     1
  0
XRECORD
  5
8C2
102
{ACAD_REACTORS
330
8C1
102
}
330
8C1
100
AcDbXrecord
280
     1
102
RTVSPost2010Prop28
280
     0
102
RTVSPost2010PropOp28
 70
     1
102
RTVSPost2010Prop29
280
     1
102
RTVSPost2010PropOp29
 70
     1
102
RTVSPost2010Prop30
280
     1
102
RTVSPost2010PropOp30
 70
     1
102
RTVSPost2010Prop31
280
     0
102
RTVSPost2010PropOp31
 70
     1
102
RTVSPost2010Prop32
280
     0
102
RTVSPost2010PropOp32
 70
     1
102
RTVSPost2010Prop33
280
     0
102
RTVSPost2010PropOp33
 70
     1
102
RTVSPost2010Prop34
280
     0
102
RTVSPost2010PropOp34
 70
     1
102
RTVSPost2010Prop35
280
     0
102
RTVSPost2010PropOp35
 70
     1
102
RTVSPost2010Prop36
280
     0
102
RTVSPost2010PropOp36
 70
     1
102
RTVSPost2010Prop37
 90
       50
102
RTVSPost2010PropOp37
 70
     1
102
RTVSPost2010Prop38
140
0.0
102
RTVSPost2010PropOp38
 70
     1
102
RTVSPost2010Prop39
140
1.0
102
RTVSPost2010PropOp39
 70
     1
102
RTVSPost2010Prop40
 90
        0
102
RTVSPost2010PropOp40
 70
     1
102
RTVSPost2010Prop41ColorIndex
 90
       18
102
RTVSPost2010Prop41ColorRGB
 90
        0
102
RTVSPost2010PropOp41
 70
     1
102
RTVSPost2010Prop42
 90
       50
102
RTVSPost2010PropOp42
 70
     1
102
RTVSPost2010Prop43
 90
        3
102
RTVSPost2010PropOp43
 70
     1
102
RTVSPost2010Prop44ColorIndex
 90
        5
102
RTVSPost2010Prop44ColorRGB
 90
      255
102
RTVSPost2010PropOp44
 70
     1
102
RTVSPost2010Prop45
280
     0
102
RTVSPost2010PropOp45
 70
     1
102
RTVSPost2010Prop46
 90
       50
102
RTVSPost2010PropOp46
 70
     1
102
RTVSPost2010Prop47
 90
       50
102
RTVSPost2010PropOp47
 70
     1
102
RTVSPost2010Prop48
 90
       50
102
RTVSPost2010PropOp48
 70
     1
102
RTVSPost2010Prop49
280
     0
102
RTVSPost2010PropOp49
 70
     1
102
RTVSPost2010Prop50
 90
       50
102
RTVSPost2010PropOp50
 70
     1
102
RTVSPost2010Prop51ColorIndex
 90
      256
102
RTVSPost2010Prop51ColorRGB
 90
-16777216
102
RTVSPost2010PropOp51
 70
     0
102
RTVSPost2010Prop52
140
1.0
102
RTVSPost2010PropOp52
 70
     0
102
RTVSPost2010Prop53
 90
        2
102
RTVSPost2010PropOp53
 70
     1
102
RTVSPost2010Prop54
  1
strokes_ogs.tif
102
RTVSPost2010PropOp54
 70
     1
102
RTVSPost2010Prop55
280
     0
102
RTVSPost2010PropOp55
 70
     1
102
RTVSPost2010Prop56
140
1.0
102
RTVSPost2010PropOp56
 70
     1
102
RTVSPost2010Prop57
140
1.0
102
RTVSPost2010PropOp57
 70
     1
102
RTVSPropertyOp0
 70
     1
102
RTVSPropertyOp1
 70
     1
102
RTVSPropertyOp2
 70
     1
102
RTVSPropertyOp3
 70
     1
102
RTVSPropertyOp4
 70
     1
102
RTVSPropertyOp5
 70
     1
102
RTVSPropertyOp6
 70
     1
102
RTVSPropertyOp7
 70
     1
102
RTVSPropertyOp8
 70
     1
102
RTVSPropertyOp9
 70
     1
102
RTVSPropertyOp10
 70
     1
102
RTVSPropertyOp11
 70
     1
102
RTVSPropertyOp12
 70
     1
102
RTVSPropertyOp13
 70
     1
102
RTVSPropertyOp14
 70
     1
102
RTVSPropertyOp15
 70
     1
102
RTVSPropertyOp16
 70
     1
102
RTVSPropertyOp17
 70
     1
102
RTVSPropertyOp18
 70
     1
102
RTVSPropertyOp19
 70
     1
102
RTVSPropertyOp20
 70
     1
102
RTVSPropertyOp21
 70
     1
102
RTVSPropertyOp22
 70
     1
102
RTVSPropertyOp23
 70
     1
102
RTVSPropertyOp24
 70
     1
102
RTVSPropertyOp25
 70
     1
102
RTVSPropertyOp26
 70
     1
102
RTVSPropertyOp27
 70
     1
102
RTVSPropertyOp28
 70
     1
102
RTVSPropertyOp29
 70
     1
102
RTVSPropertyOp30
 70
     1
102
RTVSPropertyOp31
 70
     1
102
RTVSPropertyOp32
 70
     1
102
RTVSPropertyOp33
 70
     1
102
RTVSPropertyOp34
 70
     1
102
RTVSPropertyOp35
 70
     1
102
RTVSPropertyOp36
 70
     1
102
RTVSPropertyOp37
 70
     1
102
RTVSPropertyOp38
 70
     1
102
RTVSPropertyOp39
 70
     1
102
RTVSPropertyOp40
 70
     1
102
RTVSPropertyOp41
 70
     1
102
RTVSPropertyOp42
 70
     1
102
RTVSPropertyOp43
 70
     1
102
RTVSPropertyOp44
 70
     1
102
RTVSPropertyOp45
 70
     1
102
RTVSPropertyOp46
 70
     1
102
RTVSPropertyOp47
 70
     1
102
RTVSPropertyOp48
 70
     1
102
RTVSPropertyOp49
 70
     1
102
RTVSPropertyOp50
 70
     1
102
RTVSPropertyOp51
 70
     0
102
RTVSPropertyOp52
 70
     0
102
RTVSPropertyOp53
 70
     1
102
RTVSPropertyOp54
 70
     1
102
RTVSPropertyOp55
 70
     1
102
RTVSPropertyOp56
 70
     1
102
RTVSPropertyOp57
 70
     1
102
RTVSPropertyOp58
 70
     1
102
RTVSPropertyOp59
 70
     1
102
RTVSPropertyOp60
 70
     1
102
RTVSPropertyOp61
 70
     1
102
RTVSPropertyOp62
 70
     1
  0
XRECORD
  5
8C0
102
{ACAD_REACTORS
330
8BF
102
}
330
8BF
100
AcDbXrecord
280
     1
102
RTVSPost2010Prop28
280
     0
102
RTVSPost2010PropOp28
 70
     1
102
RTVSPost2010Prop29
280
     1
102
RTVSPost2010PropOp29
 70
     1
102
RTVSPost2010Prop30
280
     1
102
RTVSPost2010PropOp30
 70
     1
102
RTVSPost2010Prop31
280
     0
102
RTVSPost2010PropOp31
 70
     1
102
RTVSPost2010Prop32
280
     0
102
RTVSPost2010PropOp32
 70
     1
102
RTVSPost2010Prop33
280
     0
102
RTVSPost2010PropOp33
 70
     1
102
RTVSPost2010Prop34
280
     0
102
RTVSPost2010PropOp34
 70
     1
102
RTVSPost2010Prop35
280
     0
102
RTVSPost2010PropOp35
 70
     1
102
RTVSPost2010Prop36
280
     0
102
RTVSPost2010PropOp36
 70
     1
102
RTVSPost2010Prop37
 90
       50
102
RTVSPost2010PropOp37
 70
     1
102
RTVSPost2010Prop38
140
0.0
102
RTVSPost2010PropOp38
 70
     1
102
RTVSPost2010Prop39
140
1.0
102
RTVSPost2010PropOp39
 70
     1
102
RTVSPost2010Prop40
 90
        0
102
RTVSPost2010PropOp40
 70
     1
102
RTVSPost2010Prop41ColorIndex
 90
       18
102
RTVSPost2010Prop41ColorRGB
 90
        0
102
RTVSPost2010PropOp41
 70
     1
102
RTVSPost2010Prop42
 90
       50
102
RTVSPost2010PropOp42
 70
     1
102
RTVSPost2010Prop43
 90
        3
102
RTVSPost2010PropOp43
 70
     1
102
RTVSPost2010Prop44ColorIndex
 90
        5
102
RTVSPost2010Prop44ColorRGB
 90
      255
102
RTVSPost2010PropOp44
 70
     1
102
RTVSPost2010Prop45
280
     0
102
RTVSPost2010PropOp45
 70
     1
102
RTVSPost2010Prop46
 90
       50
102
RTVSPost2010PropOp46
 70
     1
102
RTVSPost2010Prop47
 90
       50
102
RTVSPost2010PropOp47
 70
     1
102
RTVSPost2010Prop48
 90
       50
102
RTVSPost2010PropOp48
 70
     1
102
RTVSPost2010Prop49
280
     0
102
RTVSPost2010PropOp49
 70
     1
102
RTVSPost2010Prop50
 90
       50
102
RTVSPost2010PropOp50
 70
     1
102
RTVSPost2010Prop51ColorIndex
 90
      256
102
RTVSPost2010Prop51ColorRGB
 90
-16777216
102
RTVSPost2010PropOp51
 70
     0
102
RTVSPost2010Prop52
140
1.0
102
RTVSPost2010PropOp52
 70
     0
102
RTVSPost2010Prop53
 90
        2
102
RTVSPost2010PropOp53
 70
     1
102
RTVSPost2010Prop54
  1
strokes_ogs.tif
102
RTVSPost2010PropOp54
 70
     1
102
RTVSPost2010Prop55
280
     0
102
RTVSPost2010PropOp55
 70
     1
102
RTVSPost2010Prop56
140
1.0
102
RTVSPost2010PropOp56
 70
     1
102
RTVSPost2010Prop57
140
1.0
102
RTVSPost2010PropOp57
 70
     1
102
RTVSPropertyOp0
 70
     1
102
RTVSPropertyOp1
 70
     1
102
RTVSPropertyOp2
 70
     1
102
RTVSPropertyOp3
 70
     1
102
RTVSPropertyOp4
 70
     1
102
RTVSPropertyOp5
 70
     1
102
RTVSPropertyOp6
 70
     1
102
RTVSPropertyOp7
 70
     1
102
RTVSPropertyOp8
 70
     1
102
RTVSPropertyOp9
 70
     1
102
RTVSPropertyOp10
 70
     1
102
RTVSPropertyOp11
 70
     1
102
RTVSPropertyOp12
 70
     1
102
RTVSPropertyOp13
 70
     1
102
RTVSPropertyOp14
 70
     1
102
RTVSPropertyOp15
 70
     1
102
RTVSPropertyOp16
 70
     1
102
RTVSPropertyOp17
 70
     1
102
RTVSPropertyOp18
 70
     1
102
RTVSPropertyOp19
 70
     1
102
RTVSPropertyOp20
 70
     1
102
RTVSPropertyOp21
 70
     1
102
RTVSPropertyOp22
 70
     1
102
RTVSPropertyOp23
 70
     1
102
RTVSPropertyOp24
 70
     1
102
RTVSPropertyOp25
 70
     1
102
RTVSPropertyOp26
 70
     1
102
RTVSPropertyOp27
 70
     1
102
RTVSPropertyOp28
 70
     1
102
RTVSPropertyOp29
 70
     1
102
RTVSPropertyOp30
 70
     1
102
RTVSPropertyOp31
 70
     1
102
RTVSPropertyOp32
 70
     1
102
RTVSPropertyOp33
 70
     1
102
RTVSPropertyOp34
 70
     1
102
RTVSPropertyOp35
 70
     1
102
RTVSPropertyOp36
 70
     1
102
RTVSPropertyOp37
 70
     1
102
RTVSPropertyOp38
 70
     1
102
RTVSPropertyOp39
 70
     1
102
RTVSPropertyOp40
 70
     1
102
RTVSPropertyOp41
 70
     1
102
RTVSPropertyOp42
 70
     1
102
RTVSPropertyOp43
 70
     1
102
RTVSPropertyOp44
 70
     1
102
RTVSPropertyOp45
 70
     1
102
RTVSPropertyOp46
 70
     1
102
RTVSPropertyOp47
 70
     1
102
RTVSPropertyOp48
 70
     1
102
RTVSPropertyOp49
 70
     1
102
RTVSPropertyOp50
 70
     1
102
RTVSPropertyOp51
 70
     0
102
RTVSPropertyOp52
 70
     0
102
RTVSPropertyOp53
 70
     1
102
RTVSPropertyOp54
 70
     1
102
RTVSPropertyOp55
 70
     1
102
RTVSPropertyOp56
 70
     1
102
RTVSPropertyOp57
 70
     1
102
RTVSPropertyOp58
 70
     1
102
RTVSPropertyOp59
 70
     1
102
RTVSPropertyOp60
 70
     1
102
RTVSPropertyOp61
 70
     1
102
RTVSPropertyOp62
 70
     1
  0
XRECORD
  5
8BA
102
{ACAD_REACTORS
330
8B9
102
}
330
8B9
100
AcDbXrecord
280
     1
102
RTVSPost2010Prop28
280
     0
102
RTVSPost2010PropOp28
 70
     1
102
RTVSPost2010Prop29
280
     1
102
RTVSPost2010PropOp29
 70
     1
102
RTVSPost2010Prop30
280
     1
102
RTVSPost2010PropOp30
 70
     1
102
RTVSPost2010Prop31
280
     0
102
RTVSPost2010PropOp31
 70
     1
102
RTVSPost2010Prop32
280
     0
102
RTVSPost2010PropOp32
 70
     1
102
RTVSPost2010Prop33
280
     0
102
RTVSPost2010PropOp33
 70
     1
102
RTVSPost2010Prop34
280
     0
102
RTVSPost2010PropOp34
 70
     1
102
RTVSPost2010Prop35
280
     0
102
RTVSPost2010PropOp35
 70
     1
102
RTVSPost2010Prop36
280
     0
102
RTVSPost2010PropOp36
 70
     1
102
RTVSPost2010Prop37
 90
       50
102
RTVSPost2010PropOp37
 70
     1
102
RTVSPost2010Prop38
140
0.0
102
RTVSPost2010PropOp38
 70
     1
102
RTVSPost2010Prop39
140
1.0
102
RTVSPost2010PropOp39
 70
     1
102
RTVSPost2010Prop40
 90
        0
102
RTVSPost2010PropOp40
 70
     1
102
RTVSPost2010Prop41ColorIndex
 90
       18
102
RTVSPost2010Prop41ColorRGB
 90
        0
102
RTVSPost2010PropOp41
 70
     1
102
RTVSPost2010Prop42
 90
       50
102
RTVSPost2010PropOp42
 70
     1
102
RTVSPost2010Prop43
 90
        3
102
RTVSPost2010PropOp43
 70
     1
102
RTVSPost2010Prop44ColorIndex
 90
        5
102
RTVSPost2010Prop44ColorRGB
 90
      255
102
RTVSPost2010PropOp44
 70
     1
102
RTVSPost2010Prop45
280
     0
102
RTVSPost2010PropOp45
 70
     1
102
RTVSPost2010Prop46
 90
       50
102
RTVSPost2010PropOp46
 70
     1
102
RTVSPost2010Prop47
 90
       50
102
RTVSPost2010PropOp47
 70
     1
102
RTVSPost2010Prop48
 90
       50
102
RTVSPost2010PropOp48
 70
     1
102
RTVSPost2010Prop49
280
     0
102
RTVSPost2010PropOp49
 70
     1
102
RTVSPost2010Prop50
 90
       50
102
RTVSPost2010PropOp50
 70
     1
102
RTVSPost2010Prop51ColorIndex
 90
      256
102
RTVSPost2010Prop51ColorRGB
 90
-16777216
102
RTVSPost2010PropOp51
 70
     0
102
RTVSPost2010Prop52
140
1.0
102
RTVSPost2010PropOp52
 70
     0
102
RTVSPost2010Prop53
 90
        2
102
RTVSPost2010PropOp53
 70
     1
102
RTVSPost2010Prop54
  1
strokes_ogs.tif
102
RTVSPost2010PropOp54
 70
     1
102
RTVSPost2010Prop55
280
     0
102
RTVSPost2010PropOp55
 70
     1
102
RTVSPost2010Prop56
140
1.0
102
RTVSPost2010PropOp56
 70
     1
102
RTVSPost2010Prop57
140
1.0
102
RTVSPost2010PropOp57
 70
     1
102
RTVSPropertyOp0
 70
     1
102
RTVSPropertyOp1
 70
     1
102
RTVSPropertyOp2
 70
     1
102
RTVSPropertyOp3
 70
     1
102
RTVSPropertyOp4
 70
     1
102
RTVSPropertyOp5
 70
     1
102
RTVSPropertyOp6
 70
     1
102
RTVSPropertyOp7
 70
     1
102
RTVSPropertyOp8
 70
     1
102
RTVSPropertyOp9
 70
     1
102
RTVSPropertyOp10
 70
     1
102
RTVSPropertyOp11
 70
     1
102
RTVSPropertyOp12
 70
     1
102
RTVSPropertyOp13
 70
     1
102
RTVSPropertyOp14
 70
     1
102
RTVSPropertyOp15
 70
     1
102
RTVSPropertyOp16
 70
     1
102
RTVSPropertyOp17
 70
     1
102
RTVSPropertyOp18
 70
     1
102
RTVSPropertyOp19
 70
     1
102
RTVSPropertyOp20
 70
     1
102
RTVSPropertyOp21
 70
     1
102
RTVSPropertyOp22
 70
     1
102
RTVSPropertyOp23
 70
     1
102
RTVSPropertyOp24
 70
     1
102
RTVSPropertyOp25
 70
     1
102
RTVSPropertyOp26
 70
     1
102
RTVSPropertyOp27
 70
     1
102
RTVSPropertyOp28
 70
     1
102
RTVSPropertyOp29
 70
     1
102
RTVSPropertyOp30
 70
     1
102
RTVSPropertyOp31
 70
     1
102
RTVSPropertyOp32
 70
     1
102
RTVSPropertyOp33
 70
     1
102
RTVSPropertyOp34
 70
     1
102
RTVSPropertyOp35
 70
     1
102
RTVSPropertyOp36
 70
     1
102
RTVSPropertyOp37
 70
     1
102
RTVSPropertyOp38
 70
     1
102
RTVSPropertyOp39
 70
     1
102
RTVSPropertyOp40
 70
     1
102
RTVSPropertyOp41
 70
     1
102
RTVSPropertyOp42
 70
     1
102
RTVSPropertyOp43
 70
     1
102
RTVSPropertyOp44
 70
     1
102
RTVSPropertyOp45
 70
     1
102
RTVSPropertyOp46
 70
     1
102
RTVSPropertyOp47
 70
     1
102
RTVSPropertyOp48
 70
     1
102
RTVSPropertyOp49
 70
     1
102
RTVSPropertyOp50
 70
     1
102
RTVSPropertyOp51
 70
     0
102
RTVSPropertyOp52
 70
     0
102
RTVSPropertyOp53
 70
     1
102
RTVSPropertyOp54
 70
     1
102
RTVSPropertyOp55
 70
     1
102
RTVSPropertyOp56
 70
     1
102
RTVSPropertyOp57
 70
     1
102
RTVSPropertyOp58
 70
     1
102
RTVSPropertyOp59
 70
     1
102
RTVSPropertyOp60
 70
     1
102
RTVSPropertyOp61
 70
     1
102
RTVSPropertyOp62
 70
     1
  0
XRECORD
  5
8BC
102
{ACAD_REACTORS
330
8BB
102
}
330
8BB
100
AcDbXrecord
280
     1
102
RTVSPost2010Prop28
280
     0
102
RTVSPost2010PropOp28
 70
     1
102
RTVSPost2010Prop29
280
     1
102
RTVSPost2010PropOp29
 70
     1
102
RTVSPost2010Prop30
280
     1
102
RTVSPost2010PropOp30
 70
     1
102
RTVSPost2010Prop31
280
     0
102
RTVSPost2010PropOp31
 70
     1
102
RTVSPost2010Prop32
280
     0
102
RTVSPost2010PropOp32
 70
     1
102
RTVSPost2010Prop33
280
     0
102
RTVSPost2010PropOp33
 70
     1
102
RTVSPost2010Prop34
280
     0
102
RTVSPost2010PropOp34
 70
     1
102
RTVSPost2010Prop35
280
     0
102
RTVSPost2010PropOp35
 70
     1
102
RTVSPost2010Prop36
280
     0
102
RTVSPost2010PropOp36
 70
     1
102
RTVSPost2010Prop37
 90
       50
102
RTVSPost2010PropOp37
 70
     1
102
RTVSPost2010Prop38
140
0.0
102
RTVSPost2010PropOp38
 70
     1
102
RTVSPost2010Prop39
140
1.0
102
RTVSPost2010PropOp39
 70
     1
102
RTVSPost2010Prop40
 90
        0
102
RTVSPost2010PropOp40
 70
     1
102
RTVSPost2010Prop41ColorIndex
 90
       18
102
RTVSPost2010Prop41ColorRGB
 90
        0
102
RTVSPost2010PropOp41
 70
     1
102
RTVSPost2010Prop42
 90
       50
102
RTVSPost2010PropOp42
 70
     1
102
RTVSPost2010Prop43
 90
        3
102
RTVSPost2010PropOp43
 70
     1
102
RTVSPost2010Prop44ColorIndex
 90
        5
102
RTVSPost2010Prop44ColorRGB
 90
      255
102
RTVSPost2010PropOp44
 70
     1
102
RTVSPost2010Prop45
280
     0
102
RTVSPost2010PropOp45
 70
     1
102
RTVSPost2010Prop46
 90
       50
102
RTVSPost2010PropOp46
 70
     1
102
RTVSPost2010Prop47
 90
       50
102
RTVSPost2010PropOp47
 70
     1
102
RTVSPost2010Prop48
 90
       50
102
RTVSPost2010PropOp48
 70
     1
102
RTVSPost2010Prop49
280
     0
102
RTVSPost2010PropOp49
 70
     1
102
RTVSPost2010Prop50
 90
       50
102
RTVSPost2010PropOp50
 70
     1
102
RTVSPost2010Prop51ColorIndex
 90
      256
102
RTVSPost2010Prop51ColorRGB
 90
-16777216
102
RTVSPost2010PropOp51
 70
     0
102
RTVSPost2010Prop52
140
1.0
102
RTVSPost2010PropOp52
 70
     0
102
RTVSPost2010Prop53
 90
        2
102
RTVSPost2010PropOp53
 70
     1
102
RTVSPost2010Prop54
  1
strokes_ogs.tif
102
RTVSPost2010PropOp54
 70
     1
102
RTVSPost2010Prop55
280
     0
102
RTVSPost2010PropOp55
 70
     1
102
RTVSPost2010Prop56
140
1.0
102
RTVSPost2010PropOp56
 70
     1
102
RTVSPost2010Prop57
140
1.0
102
RTVSPost2010PropOp57
 70
     1
102
RTVSPropertyOp0
 70
     1
102
RTVSPropertyOp1
 70
     1
102
RTVSPropertyOp2
 70
     1
102
RTVSPropertyOp3
 70
     1
102
RTVSPropertyOp4
 70
     1
102
RTVSPropertyOp5
 70
     1
102
RTVSPropertyOp6
 70
     1
102
RTVSPropertyOp7
 70
     1
102
RTVSPropertyOp8
 70
     1
102
RTVSPropertyOp9
 70
     1
102
RTVSPropertyOp10
 70
     1
102
RTVSPropertyOp11
 70
     1
102
RTVSPropertyOp12
 70
     1
102
RTVSPropertyOp13
 70
     1
102
RTVSPropertyOp14
 70
     1
102
RTVSPropertyOp15
 70
     1
102
RTVSPropertyOp16
 70
     1
102
RTVSPropertyOp17
 70
     1
102
RTVSPropertyOp18
 70
     1
102
RTVSPropertyOp19
 70
     1
102
RTVSPropertyOp20
 70
     1
102
RTVSPropertyOp21
 70
     1
102
RTVSPropertyOp22
 70
     1
102
RTVSPropertyOp23
 70
     1
102
RTVSPropertyOp24
 70
     1
102
RTVSPropertyOp25
 70
     1
102
RTVSPropertyOp26
 70
     1
102
RTVSPropertyOp27
 70
     1
102
RTVSPropertyOp28
 70
     1
102
RTVSPropertyOp29
 70
     1
102
RTVSPropertyOp30
 70
     1
102
RTVSPropertyOp31
 70
     1
102
RTVSPropertyOp32
 70
     1
102
RTVSPropertyOp33
 70
     1
102
RTVSPropertyOp34
 70
     1
102
RTVSPropertyOp35
 70
     1
102
RTVSPropertyOp36
 70
     1
102
RTVSPropertyOp37
 70
     1
102
RTVSPropertyOp38
 70
     1
102
RTVSPropertyOp39
 70
     1
102
RTVSPropertyOp40
 70
     1
102
RTVSPropertyOp41
 70
     1
102
RTVSPropertyOp42
 70
     1
102
RTVSPropertyOp43
 70
     1
102
RTVSPropertyOp44
 70
     1
102
RTVSPropertyOp45
 70
     1
102
RTVSPropertyOp46
 70
     1
102
RTVSPropertyOp47
 70
     1
102
RTVSPropertyOp48
 70
     1
102
RTVSPropertyOp49
 70
     1
102
RTVSPropertyOp50
 70
     1
102
RTVSPropertyOp51
 70
     0
102
RTVSPropertyOp52
 70
     0
102
RTVSPropertyOp53
 70
     1
102
RTVSPropertyOp54
 70
     1
102
RTVSPropertyOp55
 70
     1
102
RTVSPropertyOp56
 70
     1
102
RTVSPropertyOp57
 70
     1
102
RTVSPropertyOp58
 70
     1
102
RTVSPropertyOp59
 70
     1
102
RTVSPropertyOp60
 70
     1
102
RTVSPropertyOp61
 70
     1
102
RTVSPropertyOp62
 70
     1
  0
XRECORD
  5
8B2
102
{ACAD_REACTORS
330
8B1
102
}
330
8B1
100
AcDbXrecord
280
     1
102
RTVSPost2010Prop28
280
     0
102
RTVSPost2010PropOp28
 70
     1
102
RTVSPost2010Prop29
280
     1
102
RTVSPost2010PropOp29
 70
     1
102
RTVSPost2010Prop30
280
     1
102
RTVSPost2010PropOp30
 70
     1
102
RTVSPost2010Prop31
280
     0
102
RTVSPost2010PropOp31
 70
     1
102
RTVSPost2010Prop32
280
     0
102
RTVSPost2010PropOp32
 70
     1
102
RTVSPost2010Prop33
280
     0
102
RTVSPost2010PropOp33
 70
     1
102
RTVSPost2010Prop34
280
     0
102
RTVSPost2010PropOp34
 70
     1
102
RTVSPost2010Prop35
280
     0
102
RTVSPost2010PropOp35
 70
     1
102
RTVSPost2010Prop36
280
     0
102
RTVSPost2010PropOp36
 70
     1
102
RTVSPost2010Prop37
 90
       50
102
RTVSPost2010PropOp37
 70
     1
102
RTVSPost2010Prop38
140
0.0
102
RTVSPost2010PropOp38
 70
     1
102
RTVSPost2010Prop39
140
1.0
102
RTVSPost2010PropOp39
 70
     1
102
RTVSPost2010Prop40
 90
        0
102
RTVSPost2010PropOp40
 70
     1
102
RTVSPost2010Prop41ColorIndex
 90
       18
102
RTVSPost2010Prop41ColorRGB
 90
        0
102
RTVSPost2010PropOp41
 70
     1
102
RTVSPost2010Prop42
 90
       50
102
RTVSPost2010PropOp42
 70
     1
102
RTVSPost2010Prop43
 90
        3
102
RTVSPost2010PropOp43
 70
     1
102
RTVSPost2010Prop44ColorIndex
 90
        5
102
RTVSPost2010Prop44ColorRGB
 90
      255
102
RTVSPost2010PropOp44
 70
     1
102
RTVSPost2010Prop45
280
     0
102
RTVSPost2010PropOp45
 70
     1
102
RTVSPost2010Prop46
 90
       50
102
RTVSPost2010PropOp46
 70
     1
102
RTVSPost2010Prop47
 90
       50
102
RTVSPost2010PropOp47
 70
     1
102
RTVSPost2010Prop48
 90
       50
102
RTVSPost2010PropOp48
 70
     1
102
RTVSPost2010Prop49
280
     0
102
RTVSPost2010PropOp49
 70
     1
102
RTVSPost2010Prop50
 90
       50
102
RTVSPost2010PropOp50
 70
     1
102
RTVSPost2010Prop51ColorIndex
 90
      256
102
RTVSPost2010Prop51ColorRGB
 90
-16777216
102
RTVSPost2010PropOp51
 70
     0
102
RTVSPost2010Prop52
140
1.0
102
RTVSPost2010PropOp52
 70
     0
102
RTVSPost2010Prop53
 90
        2
102
RTVSPost2010PropOp53
 70
     1
102
RTVSPost2010Prop54
  1
strokes_ogs.tif
102
RTVSPost2010PropOp54
 70
     1
102
RTVSPost2010Prop55
280
     0
102
RTVSPost2010PropOp55
 70
     1
102
RTVSPost2010Prop56
140
1.0
102
RTVSPost2010PropOp56
 70
     1
102
RTVSPost2010Prop57
140
1.0
102
RTVSPost2010PropOp57
 70
     1
102
RTVSPropertyOp0
 70
     1
102
RTVSPropertyOp1
 70
     1
102
RTVSPropertyOp2
 70
     1
102
RTVSPropertyOp3
 70
     1
102
RTVSPropertyOp4
 70
     1
102
RTVSPropertyOp5
 70
     1
102
RTVSPropertyOp6
 70
     1
102
RTVSPropertyOp7
 70
     1
102
RTVSPropertyOp8
 70
     1
102
RTVSPropertyOp9
 70
     1
102
RTVSPropertyOp10
 70
     1
102
RTVSPropertyOp11
 70
     1
102
RTVSPropertyOp12
 70
     1
102
RTVSPropertyOp13
 70
     1
102
RTVSPropertyOp14
 70
     1
102
RTVSPropertyOp15
 70
     1
102
RTVSPropertyOp16
 70
     1
102
RTVSPropertyOp17
 70
     1
102
RTVSPropertyOp18
 70
     1
102
RTVSPropertyOp19
 70
     1
102
RTVSPropertyOp20
 70
     1
102
RTVSPropertyOp21
 70
     1
102
RTVSPropertyOp22
 70
     1
102
RTVSPropertyOp23
 70
     1
102
RTVSPropertyOp24
 70
     1
102
RTVSPropertyOp25
 70
     1
102
RTVSPropertyOp26
 70
     1
102
RTVSPropertyOp27
 70
     1
102
RTVSPropertyOp28
 70
     1
102
RTVSPropertyOp29
 70
     1
102
RTVSPropertyOp30
 70
     1
102
RTVSPropertyOp31
 70
     1
102
RTVSPropertyOp32
 70
     1
102
RTVSPropertyOp33
 70
     1
102
RTVSPropertyOp34
 70
     1
102
RTVSPropertyOp35
 70
     1
102
RTVSPropertyOp36
 70
     1
102
RTVSPropertyOp37
 70
     1
102
RTVSPropertyOp38
 70
     1
102
RTVSPropertyOp39
 70
     1
102
RTVSPropertyOp40
 70
     1
102
RTVSPropertyOp41
 70
     1
102
RTVSPropertyOp42
 70
     1
102
RTVSPropertyOp43
 70
     1
102
RTVSPropertyOp44
 70
     1
102
RTVSPropertyOp45
 70
     1
102
RTVSPropertyOp46
 70
     1
102
RTVSPropertyOp47
 70
     1
102
RTVSPropertyOp48
 70
     1
102
RTVSPropertyOp49
 70
     1
102
RTVSPropertyOp50
 70
     1
102
RTVSPropertyOp51
 70
     0
102
RTVSPropertyOp52
 70
     0
102
RTVSPropertyOp53
 70
     1
102
RTVSPropertyOp54
 70
     1
102
RTVSPropertyOp55
 70
     1
102
RTVSPropertyOp56
 70
     1
102
RTVSPropertyOp57
 70
     1
102
RTVSPropertyOp58
 70
     1
102
RTVSPropertyOp59
 70
     1
102
RTVSPropertyOp60
 70
     1
102
RTVSPropertyOp61
 70
     1
102
RTVSPropertyOp62
 70
     1
  0
XRECORD
  5
8A6
102
{ACAD_REACTORS
330
8A5
102
}
330
8A5
100
AcDbXrecord
280
     1
102
RTVSPost2010Prop28
280
     0
102
RTVSPost2010PropOp28
 70
     1
102
RTVSPost2010Prop29
280
     1
102
RTVSPost2010PropOp29
 70
     1
102
RTVSPost2010Prop30
280
     1
102
RTVSPost2010PropOp30
 70
     1
102
RTVSPost2010Prop31
280
     0
102
RTVSPost2010PropOp31
 70
     1
102
RTVSPost2010Prop32
280
     0
102
RTVSPost2010PropOp32
 70
     1
102
RTVSPost2010Prop33
280
     0
102
RTVSPost2010PropOp33
 70
     1
102
RTVSPost2010Prop34
280
     0
102
RTVSPost2010PropOp34
 70
     1
102
RTVSPost2010Prop35
280
     0
102
RTVSPost2010PropOp35
 70
     1
102
RTVSPost2010Prop36
280
     0
102
RTVSPost2010PropOp36
 70
     1
102
RTVSPost2010Prop37
 90
       50
102
RTVSPost2010PropOp37
 70
     1
102
RTVSPost2010Prop38
140
0.0
102
RTVSPost2010PropOp38
 70
     1
102
RTVSPost2010Prop39
140
1.0
102
RTVSPost2010PropOp39
 70
     1
102
RTVSPost2010Prop40
 90
        0
102
RTVSPost2010PropOp40
 70
     1
102
RTVSPost2010Prop41ColorIndex
 90
       18
102
RTVSPost2010Prop41ColorRGB
 90
        0
102
RTVSPost2010PropOp41
 70
     1
102
RTVSPost2010Prop42
 90
       50
102
RTVSPost2010PropOp42
 70
     1
102
RTVSPost2010Prop43
 90
        3
102
RTVSPost2010PropOp43
 70
     1
102
RTVSPost2010Prop44ColorIndex
 90
        5
102
RTVSPost2010Prop44ColorRGB
 90
      255
102
RTVSPost2010PropOp44
 70
     1
102
RTVSPost2010Prop45
280
     0
102
RTVSPost2010PropOp45
 70
     1
102
RTVSPost2010Prop46
 90
       50
102
RTVSPost2010PropOp46
 70
     1
102
RTVSPost2010Prop47
 90
       50
102
RTVSPost2010PropOp47
 70
     1
102
RTVSPost2010Prop48
 90
       50
102
RTVSPost2010PropOp48
 70
     1
102
RTVSPost2010Prop49
280
     0
102
RTVSPost2010PropOp49
 70
     1
102
RTVSPost2010Prop50
 90
       50
102
RTVSPost2010PropOp50
 70
     1
102
RTVSPost2010Prop51ColorIndex
 90
      256
102
RTVSPost2010Prop51ColorRGB
 90
-16777216
102
RTVSPost2010PropOp51
 70
     0
102
RTVSPost2010Prop52
140
1.0
102
RTVSPost2010PropOp52
 70
     0
102
RTVSPost2010Prop53
 90
        2
102
RTVSPost2010PropOp53
 70
     1
102
RTVSPost2010Prop54
  1
strokes_ogs.tif
102
RTVSPost2010PropOp54
 70
     1
102
RTVSPost2010Prop55
280
     0
102
RTVSPost2010PropOp55
 70
     1
102
RTVSPost2010Prop56
140
1.0
102
RTVSPost2010PropOp56
 70
     1
102
RTVSPost2010Prop57
140
1.0
102
RTVSPost2010PropOp57
 70
     1
102
RTVSPropertyOp0
 70
     1
102
RTVSPropertyOp1
 70
     1
102
RTVSPropertyOp2
 70
     1
102
RTVSPropertyOp3
 70
     1
102
RTVSPropertyOp4
 70
     1
102
RTVSPropertyOp5
 70
     1
102
RTVSPropertyOp6
 70
     1
102
RTVSPropertyOp7
 70
     1
102
RTVSPropertyOp8
 70
     1
102
RTVSPropertyOp9
 70
     1
102
RTVSPropertyOp10
 70
     1
102
RTVSPropertyOp11
 70
     1
102
RTVSPropertyOp12
 70
     1
102
RTVSPropertyOp13
 70
     1
102
RTVSPropertyOp14
 70
     1
102
RTVSPropertyOp15
 70
     1
102
RTVSPropertyOp16
 70
     1
102
RTVSPropertyOp17
 70
     1
102
RTVSPropertyOp18
 70
     1
102
RTVSPropertyOp19
 70
     1
102
RTVSPropertyOp20
 70
     1
102
RTVSPropertyOp21
 70
     1
102
RTVSPropertyOp22
 70
     1
102
RTVSPropertyOp23
 70
     1
102
RTVSPropertyOp24
 70
     1
102
RTVSPropertyOp25
 70
     1
102
RTVSPropertyOp26
 70
     1
102
RTVSPropertyOp27
 70
     1
102
RTVSPropertyOp28
 70
     1
102
RTVSPropertyOp29
 70
     1
102
RTVSPropertyOp30
 70
     1
102
RTVSPropertyOp31
 70
     1
102
RTVSPropertyOp32
 70
     1
102
RTVSPropertyOp33
 70
     1
102
RTVSPropertyOp34
 70
     1
102
RTVSPropertyOp35
 70
     1
102
RTVSPropertyOp36
 70
     1
102
RTVSPropertyOp37
 70
     1
102
RTVSPropertyOp38
 70
     1
102
RTVSPropertyOp39
 70
     1
102
RTVSPropertyOp40
 70
     1
102
RTVSPropertyOp41
 70
     1
102
RTVSPropertyOp42
 70
     1
102
RTVSPropertyOp43
 70
     1
102
RTVSPropertyOp44
 70
     1
102
RTVSPropertyOp45
 70
     1
102
RTVSPropertyOp46
 70
     1
102
RTVSPropertyOp47
 70
     1
102
RTVSPropertyOp48
 70
     1
102
RTVSPropertyOp49
 70
     1
102
RTVSPropertyOp50
 70
     1
102
RTVSPropertyOp51
 70
     0
102
RTVSPropertyOp52
 70
     0
102
RTVSPropertyOp53
 70
     1
102
RTVSPropertyOp54
 70
     1
102
RTVSPropertyOp55
 70
     1
102
RTVSPropertyOp56
 70
     1
102
RTVSPropertyOp57
 70
     1
102
RTVSPropertyOp58
 70
     1
102
RTVSPropertyOp59
 70
     1
102
RTVSPropertyOp60
 70
     1
102
RTVSPropertyOp61
 70
     1
102
RTVSPropertyOp62
 70
     1
  0
XRECORD
  5
8BE
102
{ACAD_REACTORS
330
8BD
102
}
330
8BD
100
AcDbXrecord
280
     1
102
RTVSPost2010Prop28
280
     0
102
RTVSPost2010PropOp28
 70
     1
102
RTVSPost2010Prop29
280
     1
102
RTVSPost2010PropOp29
 70
     1
102
RTVSPost2010Prop30
280
     1
102
RTVSPost2010PropOp30
 70
     1
102
RTVSPost2010Prop31
280
     0
102
RTVSPost2010PropOp31
 70
     1
102
RTVSPost2010Prop32
280
     0
102
RTVSPost2010PropOp32
 70
     1
102
RTVSPost2010Prop33
280
     0
102
RTVSPost2010PropOp33
 70
     1
102
RTVSPost2010Prop34
280
     0
102
RTVSPost2010PropOp34
 70
     1
102
RTVSPost2010Prop35
280
     0
102
RTVSPost2010PropOp35
 70
     1
102
RTVSPost2010Prop36
280
     0
102
RTVSPost2010PropOp36
 70
     1
102
RTVSPost2010Prop37
 90
       50
102
RTVSPost2010PropOp37
 70
     1
102
RTVSPost2010Prop38
140
0.0
102
RTVSPost2010PropOp38
 70
     1
102
RTVSPost2010Prop39
140
1.0
102
RTVSPost2010PropOp39
 70
     1
102
RTVSPost2010Prop40
 90
        0
102
RTVSPost2010PropOp40
 70
     1
102
RTVSPost2010Prop41ColorIndex
 90
       18
102
RTVSPost2010Prop41ColorRGB
 90
        0
102
RTVSPost2010PropOp41
 70
     1
102
RTVSPost2010Prop42
 90
       50
102
RTVSPost2010PropOp42
 70
     1
102
RTVSPost2010Prop43
 90
        3
102
RTVSPost2010PropOp43
 70
     1
102
RTVSPost2010Prop44ColorIndex
 90
        5
102
RTVSPost2010Prop44ColorRGB
 90
      255
102
RTVSPost2010PropOp44
 70
     1
102
RTVSPost2010Prop45
280
     0
102
RTVSPost2010PropOp45
 70
     1
102
RTVSPost2010Prop46
 90
       50
102
RTVSPost2010PropOp46
 70
     1
102
RTVSPost2010Prop47
 90
       50
102
RTVSPost2010PropOp47
 70
     1
102
RTVSPost2010Prop48
 90
       50
102
RTVSPost2010PropOp48
 70
     1
102
RTVSPost2010Prop49
280
     0
102
RTVSPost2010PropOp49
 70
     1
102
RTVSPost2010Prop50
 90
       50
102
RTVSPost2010PropOp50
 70
     1
102
RTVSPost2010Prop51ColorIndex
 90
      256
102
RTVSPost2010Prop51ColorRGB
 90
-16777216
102
RTVSPost2010PropOp51
 70
     0
102
RTVSPost2010Prop52
140
1.0
102
RTVSPost2010PropOp52
 70
     0
102
RTVSPost2010Prop53
 90
        2
102
RTVSPost2010PropOp53
 70
     1
102
RTVSPost2010Prop54
  1
strokes_ogs.tif
102
RTVSPost2010PropOp54
 70
     1
102
RTVSPost2010Prop55
280
     0
102
RTVSPost2010PropOp55
 70
     1
102
RTVSPost2010Prop56
140
1.0
102
RTVSPost2010PropOp56
 70
     1
102
RTVSPost2010Prop57
140
1.0
102
RTVSPost2010PropOp57
 70
     1
102
RTVSPropertyOp0
 70
     1
102
RTVSPropertyOp1
 70
     1
102
RTVSPropertyOp2
 70
     1
102
RTVSPropertyOp3
 70
     1
102
RTVSPropertyOp4
 70
     1
102
RTVSPropertyOp5
 70
     1
102
RTVSPropertyOp6
 70
     1
102
RTVSPropertyOp7
 70
     1
102
RTVSPropertyOp8
 70
     1
102
RTVSPropertyOp9
 70
     1
102
RTVSPropertyOp10
 70
     1
102
RTVSPropertyOp11
 70
     1
102
RTVSPropertyOp12
 70
     1
102
RTVSPropertyOp13
 70
     1
102
RTVSPropertyOp14
 70
     1
102
RTVSPropertyOp15
 70
     1
102
RTVSPropertyOp16
 70
     1
102
RTVSPropertyOp17
 70
     1
102
RTVSPropertyOp18
 70
     1
102
RTVSPropertyOp19
 70
     1
102
RTVSPropertyOp20
 70
     1
102
RTVSPropertyOp21
 70
     1
102
RTVSPropertyOp22
 70
     1
102
RTVSPropertyOp23
 70
     1
102
RTVSPropertyOp24
 70
     1
102
RTVSPropertyOp25
 70
     1
102
RTVSPropertyOp26
 70
     1
102
RTVSPropertyOp27
 70
     1
102
RTVSPropertyOp28
 70
     1
102
RTVSPropertyOp29
 70
     1
102
RTVSPropertyOp30
 70
     1
102
RTVSPropertyOp31
 70
     1
102
RTVSPropertyOp32
 70
     1
102
RTVSPropertyOp33
 70
     1
102
RTVSPropertyOp34
 70
     1
102
RTVSPropertyOp35
 70
     1
102
RTVSPropertyOp36
 70
     1
102
RTVSPropertyOp37
 70
     1
102
RTVSPropertyOp38
 70
     1
102
RTVSPropertyOp39
 70
     1
102
RTVSPropertyOp40
 70
     1
102
RTVSPropertyOp41
 70
     1
102
RTVSPropertyOp42
 70
     1
102
RTVSPropertyOp43
 70
     1
102
RTVSPropertyOp44
 70
     1
102
RTVSPropertyOp45
 70
     1
102
RTVSPropertyOp46
 70
     1
102
RTVSPropertyOp47
 70
     1
102
RTVSPropertyOp48
 70
     1
102
RTVSPropertyOp49
 70
     1
102
RTVSPropertyOp50
 70
     1
102
RTVSPropertyOp51
 70
     0
102
RTVSPropertyOp52
 70
     0
102
RTVSPropertyOp53
 70
     1
102
RTVSPropertyOp54
 70
     1
102
RTVSPropertyOp55
 70
     1
102
RTVSPropertyOp56
 70
     1
102
RTVSPropertyOp57
 70
     1
102
RTVSPropertyOp58
 70
     1
102
RTVSPropertyOp59
 70
     1
102
RTVSPropertyOp60
 70
     1
102
RTVSPropertyOp61
 70
     1
102
RTVSPropertyOp62
 70
     1
  0
ENDSEC
  0
EOF
