  0
SECTION
  2
HEADER
  9
$ACADVER
  1
AC1015
  9
$ACADMAINTVER
 70
    20
  9
$DWGCODEPAGE
  3
ANSI_932
  9
$INSBASE
 10
0.0
 20
0.0
 30
0.0
  9
$EXTMIN
 10
-31.37794463288839
 20
-14.93141470975229
 30
-0.0015258207003583
  9
$EXTMAX
 10
347.6667792710494
 20
279.6329588880056
 30
0.0000000349246037
  9
$LIMMIN
 10
0.0
 20
0.0
  9
$LIMMAX
 10
12.0
 20
9.0
  9
$ORTHOMODE
 70
     0
  9
$REGENMODE
 70
     1
  9
$FILLMODE
 70
     1
  9
$QTEXTMODE
 70
     0
  9
$MIRRTEXT
 70
     1
  9
$LTSCALE
 40
1.0
  9
$ATTMODE
 70
     1
  9
$TEXTSIZE
 40
0.2
  9
$TRACEWID
 40
0.05
  9
$TEXTSTYLE
  7
Standard
  9
$CLAYER
  8
0
  9
$CELTYPE
  6
ByBlock
  9
$CECOLOR
 62
   256
  9
$CELTSCALE
 40
1.0
  9
$DISPSILH
 70
     0
  9
$DIMSCALE
 40
1.0
  9
$DIMASZ
 40
0.18
  9
$DIMEXO
 40
0.0625
  9
$DIMDLI
 40
0.38
  9
$DIMRND
 40
0.0
  9
$DIMDLE
 40
0.0
  9
$DIMEXE
 40
0.18
  9
$DIMTP
 40
0.0
  9
$DIMTM
 40
0.0
  9
$DIMTXT
 40
0.18
  9
$DIMCEN
 40
0.09
  9
$DIMTSZ
 40
0.0
  9
$DIMTOL
 70
     0
  9
$DIMLIM
 70
     0
  9
$DIMTIH
 70
     1
  9
$DIMTOH
 70
     1
  9
$DIMSE1
 70
     0
  9
$DIMSE2
 70
     0
  9
$DIMTAD
 70
     0
  9
$DIMZIN
 70
     0
  9
$DIMBLK
  1

  9
$DIMASO
 70
     1
  9
$DIMSHO
 70
     1
  9
$DIMPOST
  1

  9
$DIMAPOST
  1

  9
$DIMALT
 70
     0
  9
$DIMALTD
 70
     2
  9
$DIMALTF
 40
25.4
  9
$DIMLFAC
 40
1.0
  9
$DIMTOFL
 70
     0
  9
$DIMTVP
 40
0.0
  9
$DIMTIX
 70
     0
  9
$DIMSOXD
 70
     0
  9
$DIMSAH
 70
     0
  9
$DIMBLK1
  1

  9
$DIMBLK2
  1

  9
$DIMSTYLE
  2
Standard
  9
$DIMCLRD
 70
     0
  9
$DIMCLRE
 70
     0
  9
$DIMCLRT
 70
     0
  9
$DIMTFAC
 40
1.0
  9
$DIMGAP
 40
0.09
  9
$DIMJUST
 70
     0
  9
$DIMSD1
 70
     0
  9
$DIMSD2
 70
     0
  9
$DIMTOLJ
 70
     1
  9
$DIMTZIN
 70
     0
  9
$DIMALTZ
 70
     0
  9
$DIMALTTZ
 70
     0
  9
$DIMUPT
 70
     0
  9
$DIMDEC
 70
     4
  9
$DIMTDEC
 70
     4
  9
$DIMALTU
 70
     2
  9
$DIMALTTD
 70
     2
  9
$DIMTXSTY
  7
Standard
  9
$DIMAUNIT
 70
     0
  9
$DIMADEC
 70
     0
  9
$DIMALTRND
 40
0.0
  9
$DIMAZIN
 70
     0
  9
$DIMDSEP
 70
    46
  9
$DIMATFIT
 70
     3
  9
$DIMFRAC
 70
     0
  9
$DIMLDRBLK
  1

  9
$DIMLUNIT
 70
     2
  9
$DIMLWD
 70
    -2
  9
$DIMLWE
 70
    -2
  9
$DIMTMOVE
 70
     2
  9
$LUNITS
 70
     2
  9
$LUPREC
 70
     4
  9
$SKETCHINC
 40
0.1
  9
$FILLETRAD
 40
0.5
  9
$AUNITS
 70
     0
  9
$AUPREC
 70
     0
  9
$MENU
  1
.
  9
$ELEVATION
 40
0.0
  9
$PELEVATION
 40
0.0
  9
$THICKNESS
 40
0.0
  9
$LIMCHECK
 70
     0
  9
$CHAMFERA
 40
0.5
  9
$CHAMFERB
 40
0.5
  9
$CHAMFERC
 40
1.0
  9
$CHAMFERD
 40
0.0
  9
$SKPOLY
 70
     0
  9
$TDCREATE
 40
2456462.999241713
  9
$TDUCREATE
 40
2456462.624241713
  9
$TDUPDATE
 40
2457900.588408947
  9
$TDUUPDATE
 40
2457900.213408947
  9
$TDINDWG
 40
0.0029913194
  9
$TDUSRTIMER
 40
0.0029913194
  9
$USRTIMER
 70
     1
  9
$ANGBASE
 50
0.0
  9
$ANGDIR
 70
     0
  9
$PDMODE
 70
     0
  9
$PDSIZE
 40
0.0
  9
$PLINEWID
 40
0.0
  9
$SPLFRAME
 70
     0
  9
$SPLINETYPE
 70
     6
  9
$SPLINESEGS
 70
     8
  9
$HANDSEED
  5
844
  9
$SURFTAB1
 70
     6
  9
$SURFTAB2
 70
     6
  9
$SURFTYPE
 70
     6
  9
$SURFU
 70
     6
  9
$SURFV
 70
     6
  9
$UCSBASE
  2

  9
$UCSNAME
  2

  9
$UCSORG
 10
0.0
 20
0.0
 30
0.0
  9
$UCSXDIR
 10
1.0
 20
0.0
 30
0.0
  9
$UCSYDIR
 10
0.0
 20
1.0
 30
0.0
  9
$UCSORTHOREF
  2

  9
$UCSORTHOVIEW
 70
     0
  9
$UCSORGTOP
 10
0.0
 20
0.0
 30
0.0
  9
$UCSORGBOTTOM
 10
0.0
 20
0.0
 30
0.0
  9
$UCSORGLEFT
 10
0.0
 20
0.0
 30
0.0
  9
$UCSORGRIGHT
 10
0.0
 20
0.0
 30
0.0
  9
$UCSORGFRONT
 10
0.0
 20
0.0
 30
0.0
  9
$UCSORGBACK
 10
0.0
 20
0.0
 30
0.0
  9
$PUCSBASE
  2

  9
$PUCSNAME
  2

  9
$PUCSORG
 10
0.0
 20
0.0
 30
0.0
  9
$PUCSXDIR
 10
1.0
 20
0.0
 30
0.0
  9
$PUCSYDIR
 10
0.0
 20
1.0
 30
0.0
  9
$PUCSORTHOREF
  2

  9
$PUCSORTHOVIEW
 70
     0
  9
$PUCSORGTOP
 10
0.0
 20
0.0
 30
0.0
  9
$PUCSORGBOTTOM
 10
0.0
 20
0.0
 30
0.0
  9
$PUCSORGLEFT
 10
0.0
 20
0.0
 30
0.0
  9
$PUCSORGRIGHT
 10
0.0
 20
0.0
 30
0.0
  9
$PUCSORGFRONT
 10
0.0
 20
0.0
 30
0.0
  9
$PUCSORGBACK
 10
0.0
 20
0.0
 30
0.0
  9
$USERI1
 70
     0
  9
$USERI2
 70
     0
  9
$USERI3
 70
     0
  9
$USERI4
 70
     0
  9
$USERI5
 70
     0
  9
$USERR1
 40
0.0
  9
$USERR2
 40
0.0
  9
$USERR3
 40
0.0
  9
$USERR4
 40
0.0
  9
$USERR5
 40
0.0
  9
$WORLDVIEW
 70
     1
  9
$SHADEDGE
 70
     3
  9
$SHADEDIF
 70
    70
  9
$TILEMODE
 70
     1
  9
$MAXACTVP
 70
    64
  9
$PINSBASE
 10
0.0
 20
0.0
 30
0.0
  9
$PLIMCHECK
 70
     0
  9
$PEXTMIN
 10
1.000000000000000E+20
 20
1.000000000000000E+20
 30
1.000000000000000E+20
  9
$PEXTMAX
 10
-1.000000000000000E+20
 20
-1.000000000000000E+20
 30
-1.000000000000000E+20
  9
$PLIMMIN
 10
0.0
 20
0.0
  9
$PLIMMAX
 10
12.0
 20
9.0
  9
$UNITMODE
 70
     0
  9
$VISRETAIN
 70
     1
  9
$PLINEGEN
 70
     0
  9
$PSLTSCALE
 70
     1
  9
$TREEDEPTH
 70
  3020
  9
$CMLSTYLE
  2
Standard
  9
$CMLJUST
 70
     0
  9
$CMLSCALE
 40
1.0
  9
$PROXYGRAPHICS
 70
     1
  9
$MEASUREMENT
 70
     0
  9
$CELWEIGHT
370
    -1
  9
$ENDCAPS
280
     0
  9
$JOINSTYLE
280
     0
  9
$LWDISPLAY
290
     0
  9
$INSUNITS
 70
     0
  9
$HYPERLINKBASE
  1

  9
$STYLESHEET
  1

  9
$XEDIT
290
     1
  9
$CEPSNTYPE
380
     0
  9
$PSTYLEMODE
290
     1
  9
$FINGERPRINTGUID
  2
{D209FAC6-FAFC-4ACC-A6B7-A76C383B9334}
  9
$VERSIONGUID
  2
{4567423D-4D9D-4E4C-AF71-9C3EE9D4E1CE}
  9
$EXTNAMES
290
     1
  9
$PSVPSCALE
 40
0.0
  9
$OLESTARTUP
290
     0
  0
ENDSEC
  0
SECTION
  2
CLASSES
  0
CLASS
  1
ACDBDICTIONARYWDFLT
  2
AcDbDictionaryWithDefault
  3
ObjectDBX Classes
 90
        0
280
     0
281
     0
  0
CLASS
  1
SCALE
  2
AcDbScale
  3
ObjectDBX Classes
 90
     1153
280
     0
281
     0
  0
CLASS
  1
DICTIONARYVAR
  2
AcDbDictionaryVar
  3
ObjectDBX Classes
 90
        0
280
     0
281
     0
  0
CLASS
  1
ACDBPLACEHOLDER
  2
AcDbPlaceHolder
  3
ObjectDBX Classes
 90
        0
280
     0
281
     0
  0
CLASS
  1
LAYOUT
  2
AcDbLayout
  3
ObjectDBX Classes
 90
        0
280
     0
281
     0
  0
CLASS
  1
MATERIAL
  2
AcDbMaterial
  3
ObjectDBX Classes
 90
     1153
280
     0
281
     0
  0
CLASS
  1
VISUALSTYLE
  2
AcDbVisualStyle
  3
ObjectDBX Classes
 90
     4095
280
     0
281
     0
  0
CLASS
  1
TABLESTYLE
  2
AcDbTableStyle
  3
ObjectDBX Classes
 90
     4095
280
     0
281
     0
  0
CLASS
  1
MLEADERSTYLE
  2
AcDbMLeaderStyle
  3
ACDB_MLEADERSTYLE_CLASS
 90
     4095
280
     0
281
     0
  0
CLASS
  1
ACDBSECTIONVIEWSTYLE
  2
AcDbSectionViewStyle
  3
ObjectDBX Classes
 90
     1025
280
     0
281
     0
  0
CLASS
  1
ACDBDETAILVIEWSTYLE
  2
AcDbDetailViewStyle
  3
ObjectDBX Classes
 90
     1025
280
     0
281
     0
  0
CLASS
  1
ACME_DOCUMENT
  2
AcMeDbDoc
  3
AcMeServices
 90
     1024
280
     0
281
     0
  0
CLASS
  1
AMGSETTINGSOBJ
  2
AmgSettingsObj
  3
"AcadM|Product Description: AutoCAD Mechanical|Company: Autodesk, Inc."
 90
     1024
280
     0
281
     0
  0
CLASS
  1
ACMESCOPE
  2
AcMeScope
  3
AcMeServices
 90
     1024
280
     0
281
     0
  0
CLASS
  1
ACMECOMMANDHISTORY
  2
AcMeCommandHistory
  3
AcMeServices
 90
     1024
280
     0
281
     0
  0
CLASS
  1
ACIMSYSVARMAN
  2
AcImSysVarManager
  3
AcMeServices
 90
     1024
280
     0
281
     0
  0
CLASS
  1
ACIMINTSYSVAR
  2
AcImIntSysVar
  3
AcMeServices
 90
     1024
280
     0
281
     0
  0
CLASS
  1
ACMESTATEMGR
  2
AcMeStateMgr
  3
AcMeServices
 90
     1024
280
     0
281
     0
  0
CLASS
  1
ACDBENTITYCACHE
  2
AcMeEntityCache
  3
AcMeServices
 90
     1024
280
     0
281
     0
  0
CLASS
  1
ACGREFMASTER
  2
AcGrefMaster
  3
AcAttribServices
 90
     1024
280
     0
281
     0
  0
CLASS
  1
ACME_DATABASE
  2
AcMeDbDatabase
  3
AcMeServices
 90
     1024
280
     0
281
     0
  0
CLASS
  1
ACRFINSADJUSTERMGR
  2
AcRfInsAdjusterMgr
  3
AcMeServices
 90
     1024
280
     0
281
     0
  0
CLASS
  1
ACGREFACADMASTER
  2
AcGrefacadMaster
  3
AcGrefServices
 90
     1024
280
     0
281
     0
  0
CLASS
  1
AMDTMENUSTATEMGR
  2
AmdtMenuStateMgr
  3
McadcomServices
 90
     1024
280
     0
281
     0
  0
CLASS
  1
AMDTMCOMMENUSTATE
  2
AmdtMcomMenuState
  3
McadcomServices
 90
     1024
280
     0
281
     0
  0
CLASS
  1
AMIMASTER
  2
AmiMaster
  3
AmiServices
 90
     1024
280
     0
281
     0
  0
CLASS
  1
MAPIAMMOUDLE
  2
MApiAmModule
  3
MApiAmServices
 90
     1024
280
     0
281
     0
  0
CLASS
  1
ACIMSTRSYSVAR
  2
AcImStrSysVar
  3
AcMeServices
 90
     1024
280
     0
281
     0
  0
CLASS
  1
AMDTAMMENUSTATE
  2
AmdtAmMenuState
  3
DesignerAssemblies
 90
     1024
280
     0
281
     0
  0
CLASS
  1
ACAMPROJECT
  2
AcAmProject
  3
DesignerAssemblies
 90
     1024
280
     0
281
     0
  0
CLASS
  1
ACAMGRCOMPDEF
  2
AcAmGrCompDef
  3
DesignerAssemblies
 90
     1024
280
     0
281
     0
  0
CLASS
  1
ACAMCOMPDEF
  2
AcAmCompDef
  3
DesignerAssemblies
 90
     1024
280
     0
281
     0
  0
CLASS
  1
ACAMCOMPDEFMGR
  2
AcAmCompDefMgr
  3
DesignerAssemblies
 90
     1024
280
     0
281
     0
  0
CLASS
  1
AMCONTEXTMGR
  2
AcAmContextMgr
  3
DesignerAssemblies
 90
     1024
280
     0
281
     0
  0
CLASS
  1
ACAMCONTEXTMODELER
  2
AcAmContextModeler
  3
DesignerAssemblies
 90
     1024
280
     0
281
     0
  0
CLASS
  1
ACMDATADICTIONARY
  2
AcmDataDictionary
  3
"AcmSymBB|Product Description: AutoCAD Mechanical|Company: Autodesk, Inc."
 90
     1024
280
     0
281
     0
  0
CLASS
  1
ACAMGRCOMPDEFSET
  2
AcAmGrCompDefSet
  3
DesignerAssemblies
 90
     1024
280
     0
281
     0
  0
CLASS
  1
AMDTBROWSERDBTAB
  2
AmdtBrowserDbTab
  3
McadcomServices
 90
     1024
280
     0
281
     0
  0
CLASS
  1
CBROWSERAPPOBJECT
  2
CBrowserAppObject
  3
McadcomServices
 90
     1024
280
     0
281
     0
  0
CLASS
  1
DM_PLACEHOLDER
  2
AcDmSelsetPlaceholder
  3
McadcomServices
 90
     1024
280
     0
281
     0
  0
CLASS
  1
EXACXREFPANELOBJECT
  2
ExAcXREFPanelObject
  3
EXAC_ESW
 90
     1025
280
     0
281
     0
  0
CLASS
  1
NPOCOLLECTION
  2
AcDbImpNonPersistentObjectsCollection
  3
ObjectDBX Classes
 90
     1153
280
     0
281
     0
  0
CLASS
  1
ACMSTANDARDANSI
  2
AcmStandardANSI
  3
"Amdt_StdImp|Product Description: AutoCAD Mechanical|Company: Autodesk, Inc."
 90
     1024
280
     0
281
     0
  0
CLASS
  1
ACMSURFSTANDARDANSI
  2
AcmSurfTextStdANSI
  3
"Amdt_StdImp|Product Description: AutoCAD Mechanical|Company: Autodesk, Inc."
 90
     1024
280
     0
281
     0
  0
CLASS
  1
ACMFCFSTANDARDANSI
  2
AcmFCFStdANSI
  3
"Amdt_StdImp|Product Description: AutoCAD Mechanical|Company: Autodesk, Inc."
 90
     1024
280
     0
281
     0
  0
CLASS
  1
ACMWELDSTANDARDANSI
  2
AcmWeldingStdANSI
  3
"Amdt_StdImp|Product Description: AutoCAD Mechanical|Company: Autodesk, Inc."
 90
     1024
280
     0
281
     0
  0
CLASS
  1
ACMIDSTANDARDANSI
  2
AcmIdStdANSI
  3
"Amdt_StdImp|Product Description: AutoCAD Mechanical|Company: Autodesk, Inc."
 90
     1024
280
     0
281
     0
  0
CLASS
  1
ACMDATUMSTANDARDANSI
  2
AcmDatumStdANSI
  3
"Amdt_StdImp|Product Description: AutoCAD Mechanical|Company: Autodesk, Inc."
 90
     1024
280
     0
281
     0
  0
CLASS
  1
ACMBOMSTANDARDANSI
  2
AcmBOMStdANSI
  3
"Amdt_StdImp|Product Description: AutoCAD Mechanical|Company: Autodesk, Inc."
 90
     1024
280
     0
281
     0
  0
CLASS
  1
ACMDETAILSTANDARDANSI
  2
AmdtDetailSymStdANSI
  3
"Amdt_StdImp|Product Description: AutoCAD Mechanical|Company: Autodesk, Inc."
 90
     1024
280
     0
281
     0
  0
CLASS
  1
ACMSECTIONSTANDARDANSI
  2
AmdtSectionSymStdANSI
  3
"Amdt_StdImp|Product Description: AutoCAD Mechanical|Company: Autodesk, Inc."
 90
     1024
280
     0
281
     0
  0
CLASS
  1
ACMCENTERLINESTANDARDANSI
  2
AmdtCenterLineStdANSI
  3
"Amdt_StdImp|Product Description: AutoCAD Mechanical|Company: Autodesk, Inc."
 90
     1024
280
     0
281
     0
  0
CLASS
  1
ACMTHREADLINESTANDARDANSI
  2
AmdtThreadLineStdANSI
  3
"Amdt_StdImp|Product Description: AutoCAD Mechanical|Company: Autodesk, Inc."
 90
     1024
280
     0
281
     0
  0
CLASS
  1
ACMNOTESTANDARDANSI
  2
AmdtNoteStdANSI
  3
"Amdt_StdImp|Product Description: AutoCAD Mechanical|Company: Autodesk, Inc."
 90
     1024
280
     0
281
     0
  0
CLASS
  1
ACMTAPERSTANDARDANSI
  2
AcmTaperStdANSI
  3
"Amdt_StdImp|Product Description: AutoCAD Mechanical|Company: Autodesk, Inc."
 90
     1024
280
     0
281
     0
  0
CLASS
  1
ACMANOOTATIONVIEWSTANDARDANSI
  2
AmdtAnViewStdANSI
  3
"Amdt_StdImp|Product Description: AutoCAD Mechanical|Company: Autodesk, Inc."
 90
     1024
280
     0
281
     0
  0
CLASS
  1
ACAMGLAYSTD
  2
AcAmgLayStd
  3
"AmgLay|Product Description: AutoCAD Mechanical|Company: Autodesk, Inc."
 90
     1024
280
     0
281
     0
  0
CLASS
  1
ACAMGDIMSTD
  2
AcAmgDimStd
  3
"AmgDim|Product Description: AutoCAD Mechanical|Company: Autodesk, Inc."
 90
     1024
280
     0
281
     0
  0
CLASS
  1
AMGOBJPROPCFG
  2
AmgObjPropCfg
  3
"AmgLay|Product Description: AutoCAD Mechanical|Company: Autodesk, Inc."
 90
     1024
280
     0
281
     0
  0
CLASS
  1
ACAMGHOLECHARTSTDANSI
  2
AcAmgHoleChartStdANSI
  3
AmgDim|Product Description: AutoCAD Mechanical|Company: Autodesk, Inc.
 90
     1024
280
     0
281
     0
  0
CLASS
  1
ACAMGTITLESTD
  2
AcAmgTitleStd
  3
"AmgTitle|Product Description: AutoCAD Mechanical|Company: Autodesk, Inc."
 90
     1024
280
     0
281
     0
  0
CLASS
  1
AMDTNOTETEMPLATEDB
  2
AmdtNoteTemplateDB
  3
AcmSymBB|Product Description: AutoCAD Mechanical|Company: Autodesk, Inc.
 90
     1024
280
     0
281
     0
  0
CLASS
  1
ACAMGFILTERDAT
  2
AcAmgFilterDat
  3
"AcadM|Product Description: AutoCAD Mechanical|Company: Autodesk, Inc."
 90
     1024
280
     0
281
     0
  0
CLASS
  1
SORTENTSTABLE
  2
AcDbSortentsTable
  3
ObjectDBX Classes
 90
        0
280
     0
281
     0
  0
CLASS
  1
CELLSTYLEMAP
  2
AcDbCellStyleMap
  3
ObjectDBX Classes
 90
     1152
280
     0
281
     0
  0
ENDSEC
  0
SECTION
  2
TABLES
  0
TABLE
  2
VPORT
  5
8
330
0
100
AcDbSymbolTable
 70
     1
  0
VPORT
  5
266
330
8
100
AcDbSymbolTableRecord
100
AcDbViewportTableRecord
  2
*Active
 70
     0
 10
0.0
 20
0.0
 11
1.0
 21
1.0
 12
158.1444173190805
 22
132.3507720891267
 13
0.0
 23
0.0
 14
0.5
 24
0.5
 15
0.5
 25
0.5
 16
0.0
 26
0.0
 36
1.0
 17
0.0
 27
0.0
 37
0.0
 40
296.4505915717031
 41
1.681623931623931
 42
50.0
 43
0.0
 44
0.0
 50
0.0
 51
0.0
 71
    16
 72
   100
 73
     1
 74
     3
 75
     0
 76
     0
 77
     0
 78
     0
281
     0
 65
     1
110
0.0
120
0.0
130
0.0
111
1.0
121
0.0
131
0.0
112
0.0
122
1.0
132
0.0
 79
     0
146
0.0
1001
ACAD_NAV_VCDISPLAY
1070
     3
  0
ENDTAB
  0
TABLE
  2
LTYPE
  5
5
330
0
100
AcDbSymbolTable
 70
     8
  0
LTYPE
  5
14
330
5
100
AcDbSymbolTableRecord
100
AcDbLinetypeTableRecord
  2
ByBlock
 70
     0
  3

 72
    65
 73
     0
 40
0.0
  0
LTYPE
  5
15
330
5
100
AcDbSymbolTableRecord
100
AcDbLinetypeTableRecord
  2
ByLayer
 70
     0
  3

 72
    65
 73
     0
 40
0.0
  0
LTYPE
  5
16
330
5
100
AcDbSymbolTableRecord
100
AcDbLinetypeTableRecord
  2
Continuous
 70
     0
  3
Solid line
 72
    65
 73
     0
 40
0.0
  0
LTYPE
  5
478
330
5
100
AcDbSymbolTableRecord
100
AcDbLinetypeTableRecord
  2
PHANTOM2
 70
     0
  3
Phantom (.5x) ___ _ _ ___ _ _ ___ _ _ ___ _ _
 72
    65
 73
     6
 40
1.25
 49
0.625
 74
     0
 49
-0.125
 74
     0
 49
0.125
 74
     0
 49
-0.125
 74
     0
 49
0.125
 74
     0
 49
-0.125
 74
     0
  0
LTYPE
  5
48C
330
5
100
AcDbSymbolTableRecord
100
AcDbLinetypeTableRecord
  2
HIDDEN
 70
     0
  3
Hidden __ __ __ __ __ __ __ __ __ __ __ __ __ _
 72
    65
 73
     2
 40
0.375
 49
0.25
 74
     0
 49
-0.125
 74
     0
  0
LTYPE
  5
48D
330
5
100
AcDbSymbolTableRecord
100
AcDbLinetypeTableRecord
  2
CENTER
 70
     0
  3
Center ____ _ ____ _ ____ _ ____ _ ____ _ ____
 72
    65
 73
     4
 40
2.0
 49
1.25
 74
     0
 49
-0.25
 74
     0
 49
0.25
 74
     0
 49
-0.25
 74
     0
  0
LTYPE
  5
4C9
330
5
100
AcDbSymbolTableRecord
100
AcDbLinetypeTableRecord
  2
CENTER2
 70
     0
  3
Center (.5x) ___ _ ___ _ ___ _ ___ _ ___ _ ___
 72
    65
 73
     4
 40
1.125
 49
0.75
 74
     0
 49
-0.125
 74
     0
 49
0.125
 74
     0
 49
-0.125
 74
     0
  0
LTYPE
  5
4CA
330
5
100
AcDbSymbolTableRecord
100
AcDbLinetypeTableRecord
  2
HIDDEN2
 70
     0
  3
Hidden (.5x) _ _ _ _ _ _ _ _ _ _ _ _ _ _ _ _ _
 72
    65
 73
     2
 40
0.1875
 49
0.125
 74
     0
 49
-0.0625
 74
     0
  0
LTYPE
  5
4D8
330
5
100
AcDbSymbolTableRecord
100
AcDbLinetypeTableRecord
  2
ACANSTGB
 70
     0
  3
__ . . __ . .
 72
    65
 73
     6
 40
0.35433070866
 49
0.15748031496
 74
     0
 49
-0.03937007874
 74
     0
 49
0.03937007874
 74
     0
 49
-0.03937007874
 74
     0
 49
0.03937007874
 74
     0
 49
-0.03937007874
 74
     0
  0
LTYPE
  5
4D9
330
5
100
AcDbSymbolTableRecord
100
AcDbLinetypeTableRecord
  2
ACANSTGL
 70
     0
  3
_ _ _ _ _
 72
    65
 73
     2
 40
0.11811023622
 49
0.07874015748
 74
     0
 49
-0.03937007874
 74
     0
  0
ENDTAB
  0
TABLE
  2
LAYER
  5
2
330
0
100
AcDbSymbolTable
 70
     2
  0
LAYER
  5
10
102
{ACAD_XDICTIONARY
360
7F5
102
}
330
2
100
AcDbSymbolTableRecord
100
AcDbLayerTableRecord
  2
0
 70
     0
 62
     7
  6
Continuous
370
    -3
390
F
  0
LAYER
  5
4E9
102
{ACAD_XDICTIONARY
360
7F7
102
}
330
2
100
AcDbSymbolTableRecord
100
AcDbLayerTableRecord
  2
AM_CL
 70
     0
 62
     1
  6
Continuous
370
    15
390
F
1001
AcAecLayerStandard
1000

1000

  0
ENDTAB
  0
TABLE
  2
STYLE
  5
3
330
0
100
AcDbSymbolTable
 70
     3
  0
STYLE
  5
11
330
3
100
AcDbSymbolTableRecord
100
AcDbTextStyleTableRecord
  2
Standard
 70
     0
 40
0.0
 41
1.0
 50
0.0
 71
     0
 42
0.2
  3
txt
  4

  0
STYLE
  5
4D6
330
3
100
AcDbSymbolTableRecord
100
AcDbTextStyleTableRecord
  2
ACANSTS
 70
     0
 40
1.0
 41
1.0
 50
0.0
 71
     0
 42
0.2
  3
romans.shx
  4
extfont.shx
  0
STYLE
  5
4D7
330
3
100
AcDbSymbolTableRecord
100
AcDbTextStyleTableRecord
  2
ACANSGDT
 70
     0
 40
0.0
 41
1.0
 50
0.0
 71
     0
 42
0.2
  3
amgdt.shx
  4

  0
ENDTAB
  0
TABLE
  2
VIEW
  5
6
330
0
100
AcDbSymbolTable
 70
     0
  0
ENDTAB
  0
TABLE
  2
UCS
  5
7
330
0
100
AcDbSymbolTable
 70
     0
  0
ENDTAB
  0
TABLE
  2
APPID
  5
9
330
0
100
AcDbSymbolTable
 70
    14
  0
APPID
  5
12
330
9
100
AcDbSymbolTableRecord
100
AcDbRegAppTableRecord
  2
ACAD
 70
     0
  0
APPID
  5
485
330
9
100
AcDbSymbolTableRecord
100
AcDbRegAppTableRecord
  2
MCAD_NO_VIS
 70
     0
  0
APPID
  5
486
330
9
100
AcDbSymbolTableRecord
100
AcDbRegAppTableRecord
  2
ACAD_TEMP_GRAPHIC
 70
     0
  0
APPID
  5
492
330
9
100
AcDbSymbolTableRecord
100
AcDbRegAppTableRecord
  2
ACATTRIBSERVICES
 70
     0
  0
APPID
  5
4AA
330
9
100
AcDbSymbolTableRecord
100
AcDbRegAppTableRecord
  2
DESIGNERASSEMBLIES
 70
     0
  0
APPID
  5
4C6
330
9
100
AcDbSymbolTableRecord
100
AcDbRegAppTableRecord
  2
ACAD_DSTYLE_DIMJAG
 70
     0
  0
APPID
  5
4C7
330
9
100
AcDbSymbolTableRecord
100
AcDbRegAppTableRecord
  2
ACAD_DSTYLE_DIMBREAK
 70
     0
  0
APPID
  5
4E1
330
9
100
AcDbSymbolTableRecord
100
AcDbRegAppTableRecord
  2
ACAD_NAV_VCDISPLAY
 70
     0
  0
APPID
  5
4EA
330
9
100
AcDbSymbolTableRecord
100
AcDbRegAppTableRecord
  2
AcAecLayerStandard
 70
     0
  0
APPID
  5
83D
330
9
100
AcDbSymbolTableRecord
100
AcDbRegAppTableRecord
  2
ACAD_MLEADERVER
 70
     0
  0
APPID
  5
840
330
9
100
AcDbSymbolTableRecord
100
AcDbRegAppTableRecord
  2
ACAD_DSTYLE_DIMARC_LENGTH_SYMBOL
 70
     0
  0
APPID
  5
841
330
9
100
AcDbSymbolTableRecord
100
AcDbRegAppTableRecord
  2
ACAD_DSTYLE_DIM_LINETYPE
 70
     0
  0
APPID
  5
842
330
9
100
AcDbSymbolTableRecord
100
AcDbRegAppTableRecord
  2
ACAD_DSTYLE_DIM_EXT1_LINETYPE
 70
     0
  0
APPID
  5
843
330
9
100
AcDbSymbolTableRecord
100
AcDbRegAppTableRecord
  2
ACAD_DSTYLE_DIM_EXT2_LINETYPE
 70
     0
  0
ENDTAB
  0
TABLE
  2
DIMSTYLE
  5
A
330
0
100
AcDbSymbolTable
 70
     7
100
AcDbDimStyleTable
 71
     0
  0
DIMSTYLE
105
20
330
A
100
AcDbSymbolTableRecord
100
AcDbDimStyleTableRecord
  2
Standard
 70
     0
340
11
  0
DIMSTYLE
105
4C5
102
{ACAD_REACTORS
330
4B5
102
}
330
A
100
AcDbSymbolTableRecord
100
AcDbDimStyleTableRecord
  2
AM_ANSI
 70
     0
  4
mm
 41
0.12
 42
0.05
 43
0.5
 44
0.1
 47
0.1
 48
0.1
 78
     7
 79
     2
140
0.12
141
0.0
146
0.71
147
0.06
176
   256
177
   256
178
     2
274
     4
284
     7
340
11
371
    -1
372
    -1
1001
ACAD_DSTYLE_DIMJAG
1070
   388
1040
1.5
1001
ACAD_DSTYLE_DIMBREAK
1070
   391
1040
0.125
1001
ACAD_DSTYLE_DIMARC_LENGTH_SYMBOL
1070
   379
1070
     1
1001
ACAD_DSTYLE_DIM_LINETYPE
1070
   380
1005
14
1001
ACAD_DSTYLE_DIM_EXT1_LINETYPE
1070
   381
1005
14
1001
ACAD_DSTYLE_DIM_EXT2_LINETYPE
1070
   382
1005
14
  0
DIMSTYLE
105
4CB
330
A
100
AcDbSymbolTableRecord
100
AcDbDimStyleTableRecord
  2
AM_ANSI$3
 70
     0
  4
mm
 41
0.12
 42
0.05
 43
0.5
 44
0.1
 47
0.1
 48
0.1
 78
     7
 79
     2
140
0.12
141
0.0
146
0.71
147
0.06
176
   256
177
   256
178
     2
274
     4
284
     7
288
     1
289
     0
340
11
371
    -1
372
    -1
1001
ACAD_DSTYLE_DIMBREAK
1070
   391
1040
0.125
1001
ACAD_DSTYLE_DIMJAG
1070
   388
1040
1.5
1001
ACAD_DSTYLE_DIMARC_LENGTH_SYMBOL
1070
   379
1070
     1
1001
ACAD_DSTYLE_DIM_LINETYPE
1070
   380
1005
14
1001
ACAD_DSTYLE_DIM_EXT1_LINETYPE
1070
   381
1005
14
1001
ACAD_DSTYLE_DIM_EXT2_LINETYPE
1070
   382
1005
14
  0
DIMSTYLE
105
4CC
330
A
100
AcDbSymbolTableRecord
100
AcDbDimStyleTableRecord
  2
AM_ANSI$4
 70
     0
  4
mm
 41
0.12
 42
0.05
 43
0.5
 44
0.1
 47
0.1
 48
0.1
 78
     7
 79
     2
140
0.12
141
0.0
146
0.71
147
0.06
176
   256
177
   256
178
     2
274
     4
284
     7
288
     1
289
     0
340
11
371
    -1
372
    -1
1001
ACAD_DSTYLE_DIMBREAK
1070
   391
1040
0.125
1001
ACAD_DSTYLE_DIMJAG
1070
   388
1040
1.5
1001
ACAD_DSTYLE_DIMARC_LENGTH_SYMBOL
1070
   379
1070
     1
1001
ACAD_DSTYLE_DIM_LINETYPE
1070
   380
1005
14
1001
ACAD_DSTYLE_DIM_EXT1_LINETYPE
1070
   381
1005
14
1001
ACAD_DSTYLE_DIM_EXT2_LINETYPE
1070
   382
1005
14
  0
DIMSTYLE
105
4CD
330
A
100
AcDbSymbolTableRecord
100
AcDbDimStyleTableRecord
  2
AM_ANSI$7
 70
     0
  4
mm
 41
0.12
 42
0.05
 43
0.5
 44
0.1
 47
0.1
 48
0.1
 78
     7
 79
     2
140
0.12
141
0.0
146
0.71
147
0.06
176
   256
177
   256
178
     2
274
     4
284
     7
340
11
371
    -1
372
    -1
1001
ACAD_DSTYLE_DIMBREAK
1070
   391
1040
0.125
1001
ACAD_DSTYLE_DIMJAG
1070
   388
1040
1.5
1001
ACAD_DSTYLE_DIMARC_LENGTH_SYMBOL
1070
   379
1070
     1
1001
ACAD_DSTYLE_DIM_LINETYPE
1070
   380
1005
14
1001
ACAD_DSTYLE_DIM_EXT1_LINETYPE
1070
   381
1005
14
1001
ACAD_DSTYLE_DIM_EXT2_LINETYPE
1070
   382
1005
14
  0
DIMSTYLE
105
4CE
330
A
100
AcDbSymbolTableRecord
100
AcDbDimStyleTableRecord
  2
AM_ANSI$SF
 70
     0
  4
mm
 41
0.12
 42
0.05
 43
0.5
 44
0.1
 47
0.1
 48
0.1
 75
     1
 76
     1
 78
     7
 79
     2
140
0.12
141
0.0
146
0.71
147
0.06
176
   256
177
   256
178
     2
274
     4
284
     7
340
11
371
    -1
372
    -1
1001
ACAD_DSTYLE_DIMBREAK
1070
   391
1040
0.125
1001
ACAD_DSTYLE_DIMJAG
1070
   388
1040
1.5
1001
ACAD_DSTYLE_DIMARC_LENGTH_SYMBOL
1070
   379
1070
     1
1001
ACAD_DSTYLE_DIM_LINETYPE
1070
   380
1005
14
1001
ACAD_DSTYLE_DIM_EXT1_LINETYPE
1070
   381
1005
14
1001
ACAD_DSTYLE_DIM_EXT2_LINETYPE
1070
   382
1005
14
  0
DIMSTYLE
105
4D3
330
A
100
AcDbSymbolTableRecord
100
AcDbDimStyleTableRecord
  2
AM_ANSI$SH
 70
     0
  4
mm
 41
0.12
 42
0.05
 43
0.5
 44
0.1
 47
0.1
 48
0.1
 75
     1
 76
     1
 78
     7
 79
     2
140
0.12
141
0.0
146
0.71
147
0.06
173
     1
176
   256
177
   256
178
     2
274
     4
284
     7
340
11
343
4CF
371
    -1
372
    -1
1001
ACAD_DSTYLE_DIMBREAK
1070
   391
1040
0.125
1001
ACAD_DSTYLE_DIMJAG
1070
   388
1040
1.5
1001
ACAD_DSTYLE_DIMARC_LENGTH_SYMBOL
1070
   379
1070
     1
1001
ACAD_DSTYLE_DIM_LINETYPE
1070
   380
1005
14
1001
ACAD_DSTYLE_DIM_EXT1_LINETYPE
1070
   381
1005
14
1001
ACAD_DSTYLE_DIM_EXT2_LINETYPE
1070
   382
1005
14
  0
ENDTAB
  0
TABLE
  2
BLOCK_RECORD
  5
1
330
0
100
AcDbSymbolTable
 70
     4
  0
BLOCK_RECORD
  5
1D
102
{ACAD_XDICTIONARY
360
4EC
102
}
330
1
100
AcDbSymbolTableRecord
100
AcDbBlockTableRecord
  2
*Model_Space
340
1E
  0
BLOCK_RECORD
  5
1B
330
1
100
AcDbSymbolTableRecord
100
AcDbBlockTableRecord
  2
*Paper_Space
340
1C
  0
BLOCK_RECORD
  5
4CF
330
1
100
AcDbSymbolTableRecord
100
AcDbBlockTableRecord
  2
GENAXEH
340
0
  0
ENDTAB
  0
ENDSEC
  0
SECTION
  2
BLOCKS
  0
BLOCK
  5
269
330
1D
100
AcDbEntity
  8
0
100
AcDbBlockBegin
  2
*Model_Space
 70
     0
 10
0.0
 20
0.0
 30
0.0
  3
*Model_Space
  1

  0
ENDBLK
  5
26A
330
1D
100
AcDbEntity
  8
0
100
AcDbBlockEnd
  0
BLOCK
  5
267
330
1B
100
AcDbEntity
 67
     1
  8
0
100
AcDbBlockBegin
  2
*Paper_Space
 70
     0
 10
0.0
 20
0.0
 30
0.0
  3
*Paper_Space
  1

  0
ENDBLK
  5
268
330
1B
100
AcDbEntity
 67
     1
  8
0
100
AcDbBlockEnd
  0
BLOCK
  5
4D1
330
4CF
100
AcDbEntity
  8
0
100
AcDbBlockBegin
  2
GENAXEH
 70
     0
 10
0.0
 20
0.0
 30
0.0
  3
GENAXEH
  1

  0
LINE
  5
4D0
330
4CF
100
AcDbEntity
  8
0
100
AcDbLine
 10
-1.0
 20
0.0
 30
0.0
 11
1.0
 21
0.0
 31
0.0
  0
ENDBLK
  5
4D2
330
4CF
100
AcDbEntity
  8
0
100
AcDbBlockEnd
  0
ENDSEC
  0
SECTION
  2
ENTITIES
  0
LINE
  5
21
330
1D
100
AcDbEntity
  8
0
  6
CENTER2
100
AcDbLine
 10
0.081391
 20
1.004559999999999
 30
0.0
 11
0.31661
 21
0.571906999999997
 31
0.0
  0
LINE
  5
22
330
1D
100
AcDbEntity
  8
0
  6
CENTER2
100
AcDbLine
 10
1.490259999999999
 20
-0.0000000000000033
 30
0.0
 11
72.53239999999999
 21
-0.0000000000000033
 31
0.0
  0
LINE
  5
23
330
1D
100
AcDbEntity
  8
0
  6
CENTER2
100
AcDbLine
 10
0.680647
 20
0.239111999999997
 30
0.0
 11
1.490259999999999
 21
-0.0000000000000033
 31
0.0
  0
LINE
  5
24
330
1D
100
AcDbEntity
  8
0
  6
CENTER2
100
AcDbLine
 10
0.680647
 20
0.239111999999997
 30
0.0
 11
1.490259999999999
 21
-0.0000000000000033
 31
0.0
  0
LINE
  5
25
330
1D
100
AcDbEntity
  8
0
  6
CENTER2
100
AcDbLine
 10
0.31661
 20
0.571906999999997
 30
0.0
 11
0.680647
 21
0.239111999999997
 31
0.0
  0
LINE
  5
26
330
1D
100
AcDbEntity
  8
0
  6
CENTER2
100
AcDbLine
 10
0.0
 20
1.49025
 30
0.0
 11
0.081391
 21
1.004559999999999
 31
0.0
  0
LINE
  5
27
330
1D
100
AcDbEntity
  8
0
  6
CENTER2
100
AcDbLine
 10
0.0
 20
1.49025
 30
0.0
 11
0.0
 21
153.51
 31
0.0
  0
LINE
  5
28
330
1D
100
AcDbEntity
  8
0
  6
CENTER2
100
AcDbLine
 10
1.490259999999999
 20
-0.0000000000000033
 30
0.0
 11
72.53239999999999
 21
-0.0000000000000033
 31
0.0
  0
LINE
  5
29
330
1D
100
AcDbEntity
  8
0
  6
CENTER2
100
AcDbLine
 10
43.6677
 20
103.832
 30
0.0
 11
44.3189
 21
106.24
 31
0.0
  0
LINE
  5
2A
330
1D
100
AcDbEntity
  8
0
  6
CENTER2
100
AcDbLine
 10
43.4483
 20
101.348
 30
0.0
 11
43.6511
 21
98.9582
 31
0.0
  0
LINE
  5
2B
330
1D
100
AcDbEntity
  8
0
  6
CENTER2
100
AcDbLine
 10
43.4483
 20
101.348
 30
0.0
 11
43.6677
 21
103.832
 31
0.0
  0
LINE
  5
2C
330
1D
100
AcDbEntity
  8
0
  6
CENTER2
100
AcDbLine
 10
43.6511
 20
98.9582
 30
0.0
 11
44.2535
 21
96.63679999999999
 31
0.0
  0
LINE
  5
5F
330
1D
100
AcDbEntity
  8
0
  6
CENTER2
100
AcDbLine
 10
48.018
 20
90.92119999999999
 30
0.0
 11
49.8315
 21
89.5039
 31
0.0
  0
LINE
  5
60
330
1D
100
AcDbEntity
  8
0
  6
CENTER2
100
AcDbLine
 10
49.8315
 20
89.5039
 30
0.0
 11
51.8505
 21
88.39870000000001
 31
0.0
  0
LINE
  5
6C
330
1D
100
AcDbEntity
  8
0
  6
CENTER2
100
AcDbLine
 10
51.8505
 20
88.39870000000001
 30
0.0
 11
54.0216
 21
87.6346
 31
0.0
  0
LINE
  5
6D
330
1D
100
AcDbEntity
  8
0
  6
CENTER2
100
AcDbLine
 10
54.0216
 20
87.6346
 30
0.0
 11
56.28759999999999
 21
87.23180000000001
 31
0.0
  0
LINE
  5
6F
330
1D
100
AcDbEntity
  8
0
  6
CENTER2
100
AcDbLine
 10
44.2535
 20
96.63679999999999
 30
0.0
 11
45.1921
 21
94.5353
 31
0.0
  0
LINE
  5
70
330
1D
100
AcDbEntity
  8
0
  6
CENTER2
100
AcDbLine
 10
45.1921
 20
94.5353
 30
0.0
 11
46.45809999999999
 21
92.61320000000001
 31
0.0
  0
LINE
  5
71
330
1D
100
AcDbEntity
  8
0
  6
CENTER2
100
AcDbLine
 10
46.45809999999999
 20
92.61320000000001
 30
0.0
 11
48.018
 21
90.92119999999999
 31
0.0
  0
LINE
  5
91
330
1D
100
AcDbEntity
  8
0
  6
CENTER2
100
AcDbLine
 10
56.28759999999999
 20
87.23180000000001
 30
0.0
 11
58.5887
 21
87.20119999999999
 31
0.0
  0
LINE
  5
AE
330
1D
100
AcDbEntity
  8
0
  6
CENTER2
100
AcDbLine
 10
60.8647
 20
87.5431
 30
0.0
 11
63.05559999999999
 21
88.2488
 31
0.0
  0
LINE
  5
AF
330
1D
100
AcDbEntity
  8
0
  6
CENTER2
100
AcDbLine
 10
58.5887
 20
87.20119999999999
 30
0.0
 11
60.8647
 21
87.5431
 31
0.0
  0
LINE
  5
C5
330
1D
100
AcDbEntity
  8
0
  6
CENTER2
100
AcDbLine
 10
63.05559999999999
 20
88.2488
 30
0.0
 11
65.1031
 21
89.29949999999999
 31
0.0
  0
LINE
  5
C7
330
1D
100
AcDbEntity
  8
0
  6
CENTER2
100
AcDbLine
 10
66.9539
 20
90.66769999999999
 30
0.0
 11
68.559
 21
92.3173
 31
0.0
  0
LINE
  5
C8
330
1D
100
AcDbEntity
  8
0
  6
CENTER2
100
AcDbLine
 10
65.1031
 20
89.29949999999999
 30
0.0
 11
66.9539
 21
90.66769999999999
 31
0.0
  0
LINE
  5
C9
330
1D
100
AcDbEntity
  8
0
  6
CENTER2
100
AcDbLine
 10
68.559
 20
92.3173
 30
0.0
 11
69.8759
 21
94.20480000000001
 31
0.0
  0
LINE
  5
CB
330
1D
100
AcDbEntity
  8
0
  6
CENTER2
100
AcDbLine
 10
69.8759
 20
94.20480000000001
 30
0.0
 11
70.87019999999999
 21
96.28050000000001
 31
0.0
  0
LINE
  5
CC
330
1D
100
AcDbEntity
  8
0
  6
CENTER2
100
AcDbLine
 10
70.87019999999999
 20
96.28050000000001
 30
0.0
 11
71.57049999999999
 21
98.77119999999999
 31
0.0
  0
LINE
  5
D5
330
1D
100
AcDbEntity
  8
0
  6
CENTER2
100
AcDbLine
 10
44.3189
 20
106.24
 30
0.0
 11
45.2856
 21
108.329
 31
0.0
  0
LINE
  5
D6
330
1D
100
AcDbEntity
  8
0
  6
CENTER2
100
AcDbLine
 10
70.93600000000001
 20
106.239
 30
0.0
 11
71.58719999999999
 21
103.832
 31
0.0
  0
LINE
  5
DE
330
1D
100
AcDbEntity
  8
0
  6
CENTER2
100
AcDbLine
 10
46.57739999999999
 20
110.233
 30
0.0
 11
48.1606
 21
111.904
 31
0.0
  0
LINE
  5
DF
330
1D
100
AcDbEntity
  8
0
  6
CENTER2
100
AcDbLine
 10
45.2856
 20
108.329
 30
0.0
 11
46.57739999999999
 21
110.233
 31
0.0
  0
LINE
  5
E1
330
1D
100
AcDbEntity
  8
0
  6
CENTER2
100
AcDbLine
 10
48.1606
 20
111.904
 30
0.0
 11
49.993
 21
113.296
 31
0.0
  0
LINE
  5
E2
330
1D
100
AcDbEntity
  8
0
  6
CENTER2
100
AcDbLine
 10
49.993
 20
113.296
 30
0.0
 11
52.0269
 21
114.374
 31
0.0
  0
LINE
  5
E5
330
1D
100
AcDbEntity
  8
0
  6
CENTER2
100
AcDbLine
 10
52.0269
 20
114.374
 30
0.0
 11
54.2081
 21
115.109
 31
0.0
  0
LINE
  5
E9
330
1D
100
AcDbEntity
  8
0
  6
CENTER2
100
AcDbLine
 10
0.0
 20
153.51
 30
0.0
 11
0.239112
 21
154.319
 31
0.0
  0
LINE
  5
EA
330
1D
100
AcDbEntity
  8
0
  6
CENTER2
100
AcDbLine
 10
0.0
 20
153.51
 30
0.0
 11
0.0
 21
1.49024999999999
 31
0.0
  0
LINE
  5
EB
330
1D
100
AcDbEntity
  8
0
  6
CENTER2
100
AcDbLine
 10
0.5719140000000001
 20
154.683
 30
0.0
 11
1.00458
 21
154.919
 31
0.0
  0
LINE
  5
EC
330
1D
100
AcDbEntity
  8
0
  6
CENTER2
100
AcDbLine
 10
0.239112
 20
154.319
 30
0.0
 11
0.5719140000000001
 21
154.683
 31
0.0
  0
LINE
  5
ED
330
1D
100
AcDbEntity
  8
0
  6
CENTER2
100
AcDbLine
 10
1.49028000000001
 20
155.0
 30
0.0
 11
153.51
 21
155.0
 31
0.0
  0
LINE
  5
EE
330
1D
100
AcDbEntity
  8
0
  6
CENTER2
100
AcDbLine
 10
1.49028
 20
155.0
 30
0.0
 11
153.51
 21
155.0
 31
0.0
  0
LINE
  5
EF
330
1D
100
AcDbEntity
  8
0
  6
CENTER2
100
AcDbLine
 10
1.00458
 20
154.919
 30
0.0
 11
1.49028
 21
155.0
 31
0.0
  0
LINE
  5
F0
330
1D
100
AcDbEntity
  8
0
  6
CENTER2
100
AcDbLine
 10
54.2081
 20
115.109
 30
0.0
 11
56.4776
 21
115.48
 31
0.0
  0
LINE
  5
F1
330
1D
100
AcDbEntity
  8
0
  6
CENTER2
100
AcDbLine
 10
56.4776
 20
115.48
 30
0.0
 11
58.7778
 21
115.48
 31
0.0
  0
LINE
  5
F3
330
1D
100
AcDbEntity
  8
0
  6
CENTER2
100
AcDbLine
 10
63.22849999999999
 20
114.374
 30
0.0
 11
65.26189999999999
 21
113.296
 31
0.0
  0
LINE
  5
F6
330
1D
100
AcDbEntity
  8
0
  6
CENTER2
100
AcDbLine
 10
67.0948
 20
111.903
 30
0.0
 11
68.6775
 21
110.233
 31
0.0
  0
LINE
  5
F7
330
1D
100
AcDbEntity
  8
0
  6
CENTER2
100
AcDbLine
 10
65.26189999999999
 20
113.296
 30
0.0
 11
67.0948
 21
111.903
 31
0.0
  0
LINE
  5
F9
330
1D
100
AcDbEntity
  8
0
  6
CENTER2
100
AcDbLine
 10
61.0472
 20
115.108
 30
0.0
 11
63.22849999999999
 21
114.374
 31
0.0
  0
LINE
  5
FA
330
1D
100
AcDbEntity
  8
0
  6
CENTER2
100
AcDbLine
 10
58.7778
 20
115.48
 30
0.0
 11
61.0472
 21
115.108
 31
0.0
  0
LINE
  5
FE
330
1D
100
AcDbEntity
  8
0
  6
CENTER2
100
AcDbLine
 10
69.9693
 20
108.328
 30
0.0
 11
70.93600000000001
 21
106.239
 31
0.0
  0
LINE
  5
FF
330
1D
100
AcDbEntity
  8
0
  6
CENTER2
100
AcDbLine
 10
68.6775
 20
110.233
 30
0.0
 11
69.9693
 21
108.328
 31
0.0
  0
LINE
  5
102
330
1D
100
AcDbEntity
  8
0
  6
CENTER2
100
AcDbLine
 10
72.53239999999999
 20
0.0120519999999968
 30
0.0
 11
72.718
 21
0.0221789999999968
 31
0.0
  0
LINE
  5
103
330
1D
100
AcDbEntity
  8
0
  6
CENTER2
100
AcDbLine
 10
72.718
 20
0.0221789999999968
 30
0.0
 11
73.0729
 21
0.0274889999999968
 31
0.0
  0
LINE
  5
10B
330
1D
100
AcDbEntity
  8
0
  6
CENTER2
100
AcDbLine
 10
72.2146
 20
18.5
 30
0.0
 11
72.4088
 21
18.5
 31
0.0
  0
LINE
  5
10C
330
1D
100
AcDbEntity
  8
0
  6
CENTER2
100
AcDbLine
 10
72.2146
 20
18.5
 30
0.0
 11
72.4088
 21
18.5
 31
0.0
  0
LINE
  5
10D
330
1D
100
AcDbEntity
  8
0
  6
CENTER2
100
AcDbLine
 10
72.4088
 20
18.5
 30
0.0
 11
72.9264
 21
18.5
 31
0.0
  0
LINE
  5
10E
330
1D
100
AcDbEntity
  8
0
  6
CENTER2
100
AcDbLine
 10
72.4088
 20
18.5
 30
0.0
 11
72.9264
 21
18.5
 31
0.0
  0
LINE
  5
112
330
1D
100
AcDbEntity
  8
0
  6
CENTER2
100
AcDbLine
 10
72.9264
 20
18.5
 30
0.0
 11
73.7514
 21
18.5
 31
0.0
  0
LINE
  5
113
330
1D
100
AcDbEntity
  8
0
  6
CENTER2
100
AcDbLine
 10
72.9264
 20
18.5
 30
0.0
 11
73.7514
 21
18.5
 31
0.0
  0
LINE
  5
114
330
1D
100
AcDbEntity
  8
0
  6
CENTER2
100
AcDbLine
 10
73.0729
 20
0.0274889999999968
 30
0.0
 11
73.5253
 21
0.0293979999999968
 31
0.0
  0
LINE
  5
11E
330
1D
100
AcDbEntity
  8
0
  6
CENTER2
100
AcDbLine
 10
73.5253
 20
0.0293979999999968
 30
0.0
 11
81.47479999999999
 21
0.0293979999999968
 31
0.0
  0
LINE
  5
11F
330
1D
100
AcDbEntity
  8
0
  6
CENTER2
100
AcDbLine
 10
73.7514
 20
18.5
 30
0.0
 11
74.8514
 21
18.5
 31
0.0
  0
LINE
  5
120
330
1D
100
AcDbEntity
  8
0
  6
CENTER2
100
AcDbLine
 10
74.8514
 20
18.5
 30
0.0
 11
76.1132
 21
18.5
 31
0.0
  0
LINE
  5
121
330
1D
100
AcDbEntity
  8
0
  6
CENTER2
100
AcDbLine
 10
73.7514
 20
18.5
 30
0.0
 11
74.8514
 21
18.5
 31
0.0
  0
LINE
  5
122
330
1D
100
AcDbEntity
  8
0
  6
CENTER2
100
AcDbLine
 10
74.8514
 20
18.5
 30
0.0
 11
76.1132
 21
18.5
 31
0.0
  0
LINE
  5
12A
330
1D
100
AcDbEntity
  8
0
  6
CENTER2
100
AcDbLine
 10
76.1132
 20
18.5
 30
0.0
 11
77.47199999999999
 21
18.5
 31
0.0
  0
LINE
  5
12B
330
1D
100
AcDbEntity
  8
0
  6
CENTER2
100
AcDbLine
 10
76.1132
 20
18.5
 30
0.0
 11
77.47199999999999
 21
18.5
 31
0.0
  0
LINE
  5
12E
330
1D
100
AcDbEntity
  8
0
  6
CENTER2
100
AcDbLine
 10
77.47199999999999
 20
18.5
 30
0.0
 11
78.83079999999999
 21
18.5
 31
0.0
  0
LINE
  5
130
330
1D
100
AcDbEntity
  8
0
  6
CENTER2
100
AcDbLine
 10
77.47199999999999
 20
18.5
 30
0.0
 11
78.83079999999999
 21
18.5
 31
0.0
  0
LINE
  5
133
330
1D
100
AcDbEntity
  8
0
  6
CENTER2
100
AcDbLine
 10
78.83079999999999
 20
18.5
 30
0.0
 11
80.09260000000001
 21
18.5
 31
0.0
  0
LINE
  5
134
330
1D
100
AcDbEntity
  8
0
  6
CENTER2
100
AcDbLine
 10
80.09260000000001
 20
18.5
 30
0.0
 11
81.1926
 21
18.5
 31
0.0
  0
LINE
  5
135
330
1D
100
AcDbEntity
  8
0
  6
CENTER2
100
AcDbLine
 10
80.09260000000001
 20
18.5
 30
0.0
 11
81.1926
 21
18.5
 31
0.0
  0
LINE
  5
136
330
1D
100
AcDbEntity
  8
0
  6
CENTER2
100
AcDbLine
 10
78.83079999999999
 20
18.5
 30
0.0
 11
80.09260000000001
 21
18.5
 31
0.0
  0
LINE
  5
150
330
1D
100
AcDbEntity
  8
0
  6
CENTER2
100
AcDbLine
 10
81.1926
 20
18.5
 30
0.0
 11
82.0176
 21
18.5
 31
0.0
  0
LINE
  5
152
330
1D
100
AcDbEntity
  8
0
  6
CENTER2
100
AcDbLine
 10
81.1926
 20
18.5
 30
0.0
 11
82.0176
 21
18.5
 31
0.0
  0
LINE
  5
156
330
1D
100
AcDbEntity
  8
0
  6
CENTER2
100
AcDbLine
 10
81.47479999999999
 20
0.0293979999999968
 30
0.0
 11
82.0547
 21
0.0261329999999968
 31
0.0
  0
LINE
  5
157
330
1D
100
AcDbEntity
  8
0
  6
CENTER2
100
AcDbLine
 10
82.3586
 20
0.0199589999999968
 30
0.0
 11
82.4676
 21
0.0120519999999968
 31
0.0
  0
LINE
  5
158
330
1D
100
AcDbEntity
  8
0
  6
CENTER2
100
AcDbLine
 10
82.0547
 20
0.0261329999999968
 30
0.0
 11
82.3586
 21
0.0199589999999968
 31
0.0
  0
LINE
  5
159
330
1D
100
AcDbEntity
  8
0
  6
CENTER2
100
AcDbLine
 10
82.0176
 20
18.5
 30
0.0
 11
82.53519999999999
 21
18.5
 31
0.0
  0
LINE
  5
15A
330
1D
100
AcDbEntity
  8
0
  6
CENTER2
100
AcDbLine
 10
82.0176
 20
18.5
 30
0.0
 11
82.53519999999999
 21
18.5
 31
0.0
  0
LINE
  5
15C
330
1D
100
AcDbEntity
  8
0
  6
CENTER2
100
AcDbLine
 10
153.51
 20
-0.0000000000000033
 30
0.0
 11
153.752
 21
0.0198249999999967
 31
0.0
  0
LINE
  5
15D
330
1D
100
AcDbEntity
  8
0
  6
CENTER2
100
AcDbLine
 10
153.752
 20
0.0198249999999967
 30
0.0
 11
154.5
 21
0.376413999999997
 31
0.0
  0
LINE
  5
15E
330
1D
100
AcDbEntity
  8
0
  6
CENTER2
100
AcDbLine
 10
153.752
 20
0.0198249999999967
 30
0.0
 11
154.5
 21
0.376413999999997
 31
0.0
  0
LINE
  5
15F
330
1D
100
AcDbEntity
  8
0
  6
CENTER2
100
AcDbLine
 10
153.51
 20
-0.0000000000000033
 30
0.0
 11
153.752
 21
0.0198249999999967
 31
0.0
  0
LINE
  5
16D
330
1D
100
AcDbEntity
  8
0
  6
CENTER2
100
AcDbLine
 10
82.53519999999999
 20
18.5
 30
0.0
 11
82.7294
 21
18.5
 31
0.0
  0
LINE
  5
16E
330
1D
100
AcDbEntity
  8
0
  6
CENTER2
100
AcDbLine
 10
82.53519999999999
 20
18.5
 30
0.0
 11
82.7294
 21
18.5
 31
0.0
  0
LINE
  5
174
330
1D
100
AcDbEntity
  8
0
  6
CENTER2
100
AcDbLine
 10
154.5
 20
0.376413999999997
 30
0.0
 11
154.942
 21
1.077339999999999
 31
0.0
  0
LINE
  5
175
330
1D
100
AcDbEntity
  8
0
  6
CENTER2
100
AcDbLine
 10
155.0
 20
1.49025
 30
0.0
 11
155.0
 21
153.51
 31
0.0
  0
LINE
  5
176
330
1D
100
AcDbEntity
  8
0
  6
CENTER2
100
AcDbLine
 10
154.942
 20
1.077339999999999
 30
0.0
 11
155.0
 21
1.49025
 31
0.0
  0
LINE
  5
177
330
1D
100
AcDbEntity
  8
0
  6
CENTER2
100
AcDbLine
 10
154.5
 20
0.376413999999997
 30
0.0
 11
154.942
 21
1.077339999999999
 31
0.0
  0
LINE
  5
185
330
1D
100
AcDbEntity
  8
0
  6
CENTER2
100
AcDbLine
 10
82.4676
 20
-0.0000000000000033
 30
0.0
 11
153.51
 21
-0.0000000000000033
 31
0.0
  0
LINE
  5
1DF
330
1D
100
AcDbEntity
  8
0
  6
CENTER2
100
AcDbLine
 10
71.58719999999999
 20
103.832
 30
0.0
 11
71.8066
 21
101.348
 31
0.0
  0
LINE
  5
1E0
330
1D
100
AcDbEntity
  8
0
  6
CENTER2
100
AcDbLine
 10
71.57049999999999
 20
98.77119999999999
 30
0.0
 11
71.8066
 21
101.348
 31
0.0
  0
LINE
  5
251
330
1D
100
AcDbEntity
  8
0
  6
CENTER2
100
AcDbLine
 10
154.624
 20
154.5
 30
0.0
 11
154.98
 21
153.752
 31
0.0
  0
LINE
  5
252
330
1D
100
AcDbEntity
  8
0
  6
CENTER2
100
AcDbLine
 10
153.51
 20
155.0
 30
0.0
 11
153.923
 21
154.942
 31
0.0
  0
LINE
  5
253
330
1D
100
AcDbEntity
  8
0
  6
CENTER2
100
AcDbLine
 10
153.923
 20
154.942
 30
0.0
 11
154.624
 21
154.5
 31
0.0
  0
LINE
  5
254
330
1D
100
AcDbEntity
  8
0
  6
CENTER2
100
AcDbLine
 10
155.0
 20
153.51
 30
0.0
 11
155.0
 21
1.49024999999999
 31
0.0
  0
LINE
  5
255
330
1D
100
AcDbEntity
  8
0
  6
CENTER2
100
AcDbLine
 10
154.98
 20
153.752
 30
0.0
 11
155.0
 21
153.51
 31
0.0
  0
LINE
  5
352
330
1D
100
AcDbEntity
  8
0
  6
CENTER2
100
AcDbLine
 10
53.20289999999999
 20
24.6196
 30
0.0
 11
55.41339999999999
 21
22.4093
 31
0.0
  0
LINE
  5
353
330
1D
100
AcDbEntity
  8
0
  6
CENTER2
100
AcDbLine
 10
51.21269999999999
 20
27.0292
 30
0.0
 11
53.20289999999999
 21
24.6196
 31
0.0
  0
LINE
  5
354
330
1D
100
AcDbEntity
  8
0
  6
CENTER2
100
AcDbLine
 10
49.46010000000001
 20
29.6165
 30
0.0
 11
51.21269999999999
 21
27.0292
 31
0.0
  0
LINE
  5
355
330
1D
100
AcDbEntity
  8
0
  6
CENTER2
100
AcDbLine
 10
46.73060000000001
 20
35.2323
 30
0.0
 11
47.96199999999998
 21
32.3597
 31
0.0
  0
LINE
  5
356
330
1D
100
AcDbEntity
  8
0
  6
CENTER2
100
AcDbLine
 10
45.77899999999999
 20
38.2089
 30
0.0
 11
46.73060000000001
 21
35.2323
 31
0.0
  0
LINE
  5
357
330
1D
100
AcDbEntity
  8
0
  6
CENTER2
100
AcDbLine
 10
44.74189999999999
 20
44.3663
 30
0.0
 11
45.11340000000001
 21
41.26299999999999
 31
0.0
  0
LINE
  5
358
330
1D
100
AcDbEntity
  8
0
  6
CENTER2
100
AcDbLine
 10
45.11340000000001
 20
41.26299999999999
 30
0.0
 11
45.77899999999999
 21
38.2089
 31
0.0
  0
LINE
  5
359
330
1D
100
AcDbEntity
  8
0
  6
CENTER2
100
AcDbLine
 10
47.96199999999998
 20
32.3597
 30
0.0
 11
49.46010000000001
 21
29.6165
 31
0.0
  0
LINE
  5
35A
330
1D
100
AcDbEntity
  8
0
  6
CENTER2
100
AcDbLine
 10
55.41339999999999
 20
22.4093
 30
0.0
 11
57.8235
 21
20.4202
 31
0.0
  0
LINE
  5
35B
330
1D
100
AcDbEntity
  8
0
  6
CENTER2
100
AcDbLine
 10
55.5661
 20
45.03879999999999
 30
0.0
 11
55.87299999999999
 21
42.7756
 31
0.0
  0
LINE
  5
35C
330
1D
100
AcDbEntity
  8
0
  6
CENTER2
100
AcDbLine
 10
44.66739999999998
 20
47.49029999999999
 30
0.0
 11
44.74189999999999
 21
44.3663
 31
0.0
  0
LINE
  5
35D
330
1D
100
AcDbEntity
  8
0
  6
CENTER2
100
AcDbLine
 10
44.66739999999998
 20
47.49029999999999
 30
0.0
 11
44.88929999999998
 21
50.60769999999999
 31
0.0
  0
LINE
  5
35E
330
1D
100
AcDbEntity
  8
0
  6
CENTER2
100
AcDbLine
 10
44.88929999999998
 20
50.60769999999999
 30
0.0
 11
45.4068
 21
53.6901
 31
0.0
  0
LINE
  5
35F
330
1D
100
AcDbEntity
  8
0
  6
CENTER2
100
AcDbLine
 10
55.5
 20
47.32059999999999
 30
0.0
 11
55.6748
 21
49.59749999999999
 31
0.0
  0
LINE
  5
360
330
1D
100
AcDbEntity
  8
0
  6
CENTER2
100
AcDbLine
 10
55.5
 20
47.32059999999999
 30
0.0
 11
55.5661
 21
45.03879999999999
 31
0.0
  0
LINE
  5
361
330
1D
100
AcDbEntity
  8
0
  6
CENTER2
100
AcDbLine
 10
56.41640000000001
 20
40.5569
 30
0.0
 11
57.19069999999999
 21
38.4069
 31
0.0
  0
LINE
  5
362
330
1D
100
AcDbEntity
  8
0
  6
CENTER2
100
AcDbLine
 10
55.87299999999999
 20
42.7756
 30
0.0
 11
56.41640000000001
 21
40.5569
 31
0.0
  0
LINE
  5
363
330
1D
100
AcDbEntity
  8
0
  6
CENTER2
100
AcDbLine
 10
55.6748
 20
49.59749999999999
 30
0.0
 11
56.08859999999999
 21
51.84309999999999
 31
0.0
  0
LINE
  5
364
330
1D
100
AcDbEntity
  8
0
  6
CENTER2
100
AcDbLine
 10
45.4068
 20
53.6901
 30
0.0
 11
46.21530000000001
 21
56.7093
 31
0.0
  0
LINE
  5
365
330
1D
100
AcDbEntity
  8
0
  6
CENTER2
100
AcDbLine
 10
56.08859999999999
 20
51.84309999999999
 30
0.0
 11
56.7372
 21
54.03369999999999
 31
0.0
  0
LINE
  5
366
330
1D
100
AcDbEntity
  8
0
  6
CENTER2
100
AcDbLine
 10
57.8235
 20
20.4202
 30
0.0
 11
60.41230000000002
 21
18.6692
 31
0.0
  0
LINE
  5
367
330
1D
100
AcDbEntity
  8
0
  6
CENTER2
100
AcDbLine
 10
58.18760000000001
 20
36.34869999999999
 30
0.0
 11
59.3965
 21
34.4049
 31
0.0
  0
LINE
  5
368
330
1D
100
AcDbEntity
  8
0
  6
CENTER2
100
AcDbLine
 10
57.19069999999999
 20
38.4069
 30
0.0
 11
58.18760000000001
 21
36.34869999999999
 31
0.0
  0
LINE
  5
369
330
1D
100
AcDbEntity
  8
0
  6
CENTER2
100
AcDbLine
 10
56.7372
 20
54.03369999999999
 30
0.0
 11
57.61340000000001
 21
56.1456
 31
0.0
  0
LINE
  5
36A
330
1D
100
AcDbEntity
  8
0
  6
CENTER2
100
AcDbLine
 10
47.30680000000001
 20
59.6377
 30
0.0
 11
48.67230000000001
 21
62.44889999999999
 31
0.0
  0
LINE
  5
36B
330
1D
100
AcDbEntity
  8
0
  6
CENTER2
100
AcDbLine
 10
46.21530000000001
 20
56.7093
 30
0.0
 11
47.30680000000001
 21
59.6377
 31
0.0
  0
LINE
  5
36C
330
1D
100
AcDbEntity
  8
0
  6
CENTER2
100
AcDbLine
 10
57.61340000000001
 20
56.1456
 30
0.0
 11
58.70709999999999
 21
58.1545
 31
0.0
  0
LINE
  5
36D
330
1D
100
AcDbEntity
  8
0
  6
CENTER2
100
AcDbLine
 10
60.41230000000002
 20
18.6692
 30
0.0
 11
63.1559
 21
17.1714
 31
0.0
  0
LINE
  5
36E
330
1D
100
AcDbEntity
  8
0
  6
CENTER2
100
AcDbLine
 10
60.8031
 20
32.5972
 30
0.0
 11
62.393
 21
30.94520000000001
 31
0.0
  0
LINE
  5
36F
330
1D
100
AcDbEntity
  8
0
  6
CENTER2
100
AcDbLine
 10
59.3965
 20
34.4049
 30
0.0
 11
60.8031
 21
32.5972
 31
0.0
  0
LINE
  5
370
330
1D
100
AcDbEntity
  8
0
  6
CENTER2
100
AcDbLine
 10
58.70709999999999
 20
58.1545
 30
0.0
 11
60.0069
 21
60.03959999999999
 31
0.0
  0
LINE
  5
371
330
1D
100
AcDbEntity
  8
0
  6
CENTER2
100
AcDbLine
 10
48.67230000000001
 20
62.44889999999999
 30
0.0
 11
50.29840000000001
 21
65.11839999999999
 31
0.0
  0
LINE
  5
372
330
1D
100
AcDbEntity
  8
0
  6
CENTER2
100
AcDbLine
 10
60.0069
 20
60.03959999999999
 30
0.0
 11
61.4985
 21
61.77969999999999
 31
0.0
  0
LINE
  5
373
330
1D
100
AcDbEntity
  8
0
  6
CENTER2
100
AcDbLine
 10
63.1559
 20
17.1714
 30
0.0
 11
66.0291
 21
15.942
 31
0.0
  0
LINE
  5
374
330
1D
100
AcDbEntity
  8
0
  6
CENTER2
100
AcDbLine
 10
62.393
 20
30.94520000000001
 30
0.0
 11
64.1488
 21
29.4669
 31
0.0
  0
LINE
  5
375
330
1D
100
AcDbEntity
  8
0
  6
CENTER2
100
AcDbLine
 10
61.4985
 20
61.77969999999999
 30
0.0
 11
63.16480000000002
 21
63.35549999999999
 31
0.0
  0
LINE
  5
376
330
1D
100
AcDbEntity
  8
0
  6
CENTER2
100
AcDbLine
 10
50.29840000000001
 20
65.11839999999999
 30
0.0
 11
52.17090000000002
 21
67.6207
 31
0.0
  0
LINE
  5
377
330
1D
100
AcDbEntity
  8
0
  6
CENTER2
100
AcDbLine
 10
52.17090000000002
 20
67.6207
 30
0.0
 11
54.27279999999999
 21
69.93389999999999
 31
0.0
  0
LINE
  5
378
330
1D
100
AcDbEntity
  8
0
  6
CENTER2
100
AcDbLine
 10
54.27279999999999
 20
69.93389999999999
 30
0.0
 11
56.58459999999999
 21
72.0364
 31
0.0
  0
LINE
  5
379
330
1D
100
AcDbEntity
  8
0
  6
CENTER2
100
AcDbLine
 10
56.58459999999999
 20
72.0364
 30
0.0
 11
59.08629999999999
 21
73.9103
 31
0.0
  0
LINE
  5
37A
330
1D
100
AcDbEntity
  8
0
  6
CENTER2
100
AcDbLine
 10
63.16480000000002
 20
63.35549999999999
 30
0.0
 11
64.9887
 21
64.75010000000001
 31
0.0
  0
LINE
  5
37B
330
1D
100
AcDbEntity
  8
0
  6
CENTER2
100
AcDbLine
 10
66.0291
 20
15.942
 30
0.0
 11
69.00659999999999
 21
14.9905
 31
0.0
  0
LINE
  5
37C
330
1D
100
AcDbEntity
  8
0
  6
CENTER2
100
AcDbLine
 10
69.00659999999999
 20
14.9905
 30
0.0
 11
72.0607
 21
14.3271
 31
0.0
  0
LINE
  5
37D
330
1D
100
AcDbEntity
  8
0
  6
CENTER2
100
AcDbLine
 10
72.05289999999999
 20
18.6923
 30
0.0
 11
72.21460000000002
 21
18.5
 31
0.0
  0
LINE
  5
37E
330
1D
100
AcDbEntity
  8
0
  6
CENTER2
100
AcDbLine
 10
71.97199999999998
 20
19.0769
 30
0.0
 11
72.05289999999999
 21
18.6923
 31
0.0
  0
LINE
  5
37F
330
1D
100
AcDbEntity
  8
0
  6
CENTER2
100
AcDbLine
 10
71.97199999999998
 20
19.0769
 30
0.0
 11
71.97199999999998
 21
25.8386114006515
 31
0.0
  0
LINE
  5
380
330
1D
100
AcDbEntity
  8
0
  6
CENTER2
100
AcDbLine
 10
71.97199999999998
 20
25.8386114006515
 30
0.0
 11
71.97199999999998
 21
19.0769
 31
0.0
  0
LINE
  5
381
330
1D
100
AcDbEntity
  8
0
  6
CENTER2
100
AcDbLine
 10
72.21460000000002
 20
18.5
 30
0.0
 11
72.40879999999998
 21
18.5
 31
0.0
  0
LINE
  5
382
330
1D
100
AcDbEntity
  8
0
  6
CENTER2
100
AcDbLine
 10
72.21460000000002
 20
18.5
 30
0.0
 11
72.40879999999998
 21
18.5
 31
0.0
  0
LINE
  5
383
330
1D
100
AcDbEntity
  8
0
  6
CENTER2
100
AcDbLine
 10
72.0607
 20
14.3271
 30
0.0
 11
75.16390000000001
 21
13.9567
 31
0.0
  0
LINE
  5
384
330
1D
100
AcDbEntity
  8
0
  6
CENTER2
100
AcDbLine
 10
71.9716
 20
25.8387
 30
0.0
 11
72.27859999999998
 21
25.7707
 31
0.0
  0
LINE
  5
385
330
1D
100
AcDbEntity
  8
0
  6
CENTER2
100
AcDbLine
 10
64.1488
 20
29.4669
 30
0.0
 11
66.05009999999999
 21
28.1785
 31
0.0
  0
LINE
  5
386
330
1D
100
AcDbEntity
  8
0
  6
CENTER2
100
AcDbLine
 10
70.20789999999999
 20
26.2265
 30
0.0
 11
71.97199999999998
 21
25.7133609673333
 31
0.0
  0
LINE
  5
387
330
1D
100
AcDbEntity
  8
0
  6
CENTER2
100
AcDbLine
 10
68.07760000000001
 20
27.0944
 30
0.0
 11
70.20789999999999
 21
26.2265
 31
0.0
  0
LINE
  5
388
330
1D
100
AcDbEntity
  8
0
  6
CENTER2
100
AcDbLine
 10
66.9496
 20
65.94789999999999
 30
0.0
 11
69.02629999999999
 21
66.9362
 31
0.0
  0
LINE
  5
389
330
1D
100
AcDbEntity
  8
0
  6
CENTER2
100
AcDbLine
 10
71.1954
 20
67.7035
 30
0.0
 11
73.43389999999999
 21
68.2427
 31
0.0
  0
LINE
  5
38A
330
1D
100
AcDbEntity
  8
0
  6
CENTER2
100
AcDbLine
 10
69.02629999999999
 20
66.9362
 30
0.0
 11
71.1954
 21
67.7035
 31
0.0
  0
LINE
  5
38B
330
1D
100
AcDbEntity
  8
0
  6
CENTER2
100
AcDbLine
 10
66.05009999999999
 20
28.1785
 30
0.0
 11
68.07760000000001
 21
27.0944
 31
0.0
  0
LINE
  5
38C
330
1D
100
AcDbEntity
  8
0
  6
CENTER2
100
AcDbLine
 10
64.9887
 20
64.75010000000001
 30
0.0
 11
66.9496
 21
65.94789999999999
 31
0.0
  0
LINE
  5
38D
330
1D
100
AcDbEntity
  8
0
  6
CENTER2
100
AcDbLine
 10
71.87059999999999
 20
25.8558
 30
0.0
 11
71.9716
 21
25.8387
 31
0.0
  0
LINE
  5
38E
330
1D
100
AcDbEntity
  8
0
  6
CENTER2
100
AcDbLine
 10
71.87059999999999
 20
25.8558
 30
0.0
 11
71.92105524243939
 21
25.858039966368
 31
0.0
  0
LINE
  5
38F
330
1D
100
AcDbEntity
  8
0
  6
CENTER2
100
AcDbLine
 10
72.40879999999998
 20
18.5
 30
0.0
 11
72.9264
 21
18.5
 31
0.0
  0
LINE
  5
390
330
1D
100
AcDbEntity
  8
0
  6
CENTER2
100
AcDbLine
 10
72.40879999999998
 20
18.5
 30
0.0
 11
72.9264
 21
18.5
 31
0.0
  0
LINE
  5
391
330
1D
100
AcDbEntity
  8
0
  6
CENTER2
100
AcDbLine
 10
72.9264
 20
18.5
 30
0.0
 11
73.75139999999999
 21
18.5
 31
0.0
  0
LINE
  5
392
330
1D
100
AcDbEntity
  8
0
  6
CENTER2
100
AcDbLine
 10
72.9264
 20
18.5
 30
0.0
 11
73.75139999999999
 21
18.5
 31
0.0
  0
LINE
  5
393
330
1D
100
AcDbEntity
  8
0
  6
CENTER2
100
AcDbLine
 10
72.7782
 20
25.6636
 30
0.0
 11
73.4494
 21
25.5344
 31
0.0
  0
LINE
  5
394
330
1D
100
AcDbEntity
  8
0
  6
CENTER2
100
AcDbLine
 10
73.4494
 20
25.5344
 30
0.0
 11
74.29500000000001
 21
25.3994
 31
0.0
  0
LINE
  5
395
330
1D
100
AcDbEntity
  8
0
  6
CENTER2
100
AcDbLine
 10
72.27859999999998
 20
25.7707
 30
0.0
 11
72.7782
 21
25.6636
 31
0.0
  0
LINE
  5
396
330
1D
100
AcDbEntity
  8
0
  6
CENTER2
100
AcDbLine
 10
64.56549999999999
 20
76.9034
 30
0.0
 11
67.49379999999999
 21
77.9967
 31
0.0
  0
LINE
  5
397
330
1D
100
AcDbEntity
  8
0
  6
CENTER2
100
AcDbLine
 10
67.49379999999999
 20
77.9967
 30
0.0
 11
70.5122
 21
78.8056
 31
0.0
  0
LINE
  5
398
330
1D
100
AcDbEntity
  8
0
  6
CENTER2
100
AcDbLine
 10
70.5122
 20
78.8056
 30
0.0
 11
73.59460000000002
 21
79.3243
 31
0.0
  0
LINE
  5
399
330
1D
100
AcDbEntity
  8
0
  6
CENTER2
100
AcDbLine
 10
73.59460000000002
 20
79.3243
 30
0.0
 11
74.11533437624569
 21
79.36171723881409
 31
0.0
  0
LINE
  5
39A
330
1D
100
AcDbEntity
  8
0
  6
CENTER2
100
AcDbLine
 10
73.43389999999999
 20
68.2427
 30
0.0
 11
73.70880238093099
 21
68.2792725657476
 31
0.0
  0
LINE
  5
39B
330
1D
100
AcDbEntity
  8
0
  6
CENTER2
100
AcDbLine
 10
73.75139999999999
 20
18.5
 30
0.0
 11
74.85140000000001
 21
18.5
 31
0.0
  0
LINE
  5
39C
330
1D
100
AcDbEntity
  8
0
  6
CENTER2
100
AcDbLine
 10
73.75139999999999
 20
18.5
 30
0.0
 11
74.85140000000001
 21
18.5
 31
0.0
  0
LINE
  5
39D
330
1D
100
AcDbEntity
  8
0
  6
CENTER2
100
AcDbLine
 10
73.68999999999999
 20
68.25669999999999
 30
0.0
 11
73.92239999999998
 21
68.53570000000001
 31
0.0
  0
LINE
  5
39E
330
1D
100
AcDbEntity
  8
0
  6
CENTER2
100
AcDbLine
 10
73.92239999999998
 20
68.53570000000001
 30
0.0
 11
74.00560000000002
 21
68.8879
 31
0.0
  0
LINE
  5
39F
330
1D
100
AcDbEntity
  8
0
  6
CENTER2
100
AcDbLine
 10
74.85140000000001
 20
18.5
 30
0.0
 11
76.1132
 21
18.5
 31
0.0
  0
LINE
  5
3A0
330
1D
100
AcDbEntity
  8
0
  6
CENTER2
100
AcDbLine
 10
76.1132
 20
18.5
 30
0.0
 11
77.47199999999998
 21
18.5
 31
0.0
  0
LINE
  5
3A1
330
1D
100
AcDbEntity
  8
0
  6
CENTER2
100
AcDbLine
 10
74.85140000000001
 20
18.5
 30
0.0
 11
76.1132
 21
18.5
 31
0.0
  0
LINE
  5
3A2
330
1D
100
AcDbEntity
  8
0
  6
CENTER2
100
AcDbLine
 10
76.1132
 20
18.5
 30
0.0
 11
77.47199999999998
 21
18.5
 31
0.0
  0
LINE
  5
3A3
330
1D
100
AcDbEntity
  8
0
  6
CENTER2
100
AcDbLine
 10
75.16390000000001
 20
13.9567
 30
0.0
 11
78.28800000000001
 21
13.883
 31
0.0
  0
LINE
  5
3A4
330
1D
100
AcDbEntity
  8
0
  6
CENTER2
100
AcDbLine
 10
77.4248
 20
25.1736
 30
0.0
 11
78.5189
 21
25.1962
 31
0.0
  0
LINE
  5
3A5
330
1D
100
AcDbEntity
  8
0
  6
CENTER2
100
AcDbLine
 10
76.3262
 20
25.2037
 30
0.0
 11
77.4248
 21
25.1736
 31
0.0
  0
LINE
  5
3A6
330
1D
100
AcDbEntity
  8
0
  6
CENTER2
100
AcDbLine
 10
74.00560000000002
 20
68.8879
 30
0.0
 11
74.00560000000002
 21
78.5365
 31
0.0
  0
LINE
  5
3A7
330
1D
100
AcDbEntity
  8
0
  6
CENTER2
100
AcDbLine
 10
74.29500000000001
 20
25.3994
 30
0.0
 11
75.26580000000001
 21
25.2832
 31
0.0
  0
LINE
  5
3A8
330
1D
100
AcDbEntity
  8
0
  6
CENTER2
100
AcDbLine
 10
75.26580000000001
 20
25.2832
 30
0.0
 11
76.3262
 21
25.2037
 31
0.0
  0
LINE
  5
3A9
330
1D
100
AcDbEntity
  8
0
  6
CENTER2
100
AcDbLine
 10
76.59559999999999
 20
81.882
 30
0.0
 11
77.5001
 21
82.0
 31
0.0
  0
LINE
  5
3AA
330
1D
100
AcDbEntity
  8
0
  6
CENTER2
100
AcDbLine
 10
75.75290000000001
 20
81.536
 30
0.0
 11
76.59559999999999
 21
81.882
 31
0.0
  0
LINE
  5
3AB
330
1D
100
AcDbEntity
  8
0
  6
CENTER2
100
AcDbLine
 10
75.02909999999999
 20
80.98550000000001
 30
0.0
 11
75.75290000000001
 21
81.536
 31
0.0
  0
LINE
  5
3AC
330
1D
100
AcDbEntity
  8
0
  6
CENTER2
100
AcDbLine
 10
74.47379999999999
 20
80.26819999999998
 30
0.0
 11
75.02909999999999
 21
80.98550000000001
 31
0.0
  0
LINE
  5
3AD
330
1D
100
AcDbEntity
  8
0
  6
CENTER2
100
AcDbLine
 10
74.12479999999999
 20
79.43290000000001
 30
0.0
 11
74.47379999999999
 21
80.26819999999998
 31
0.0
  0
LINE
  5
3AE
330
1D
100
AcDbEntity
  8
0
  6
CENTER2
100
AcDbLine
 10
74.00560000000002
 20
78.5365
 30
0.0
 11
74.00560000000002
 21
68.8879
 31
0.0
  0
LINE
  5
3AF
330
1D
100
AcDbEntity
  8
0
  6
CENTER2
100
AcDbLine
 10
74.00560000000002
 20
78.5365
 30
0.0
 11
74.12479999999999
 21
79.43290000000001
 31
0.0
  0
LINE
  5
3B0
330
1D
100
AcDbEntity
  8
0
  6
CENTER2
100
AcDbLine
 10
77.5001
 20
82.0
 30
0.0
 11
78.4044
 21
81.882
 31
0.0
  0
LINE
  5
3B1
330
1D
100
AcDbEntity
  8
0
  6
CENTER2
100
AcDbLine
 10
59.08629999999999
 20
73.9103
 30
0.0
 11
61.79476872866897
 21
75.52822169533371
 31
0.0
  0
LINE
  5
3B2
330
1D
100
AcDbEntity
  8
0
  6
CENTER2
100
AcDbLine
 10
61.79476872866897
 20
75.52822169533371
 30
0.0
 11
64.56549999999999
 21
76.9034
 31
0.0
  0
LINE
  5
3B3
330
1D
100
AcDbEntity
  8
0
  6
CENTER2
100
AcDbLine
 10
77.4999
 20
82.0
 30
0.0
 11
76.59559999999999
 21
81.882
 31
0.0
  0
LINE
  5
3B4
330
1D
100
AcDbEntity
  8
0
  6
CENTER2
100
AcDbLine
 10
79.9709
 20
80.98550000000001
 30
0.0
 11
79.24709999999999
 21
81.536
 31
0.0
  0
LINE
  5
3B5
330
1D
100
AcDbEntity
  8
0
  6
CENTER2
100
AcDbLine
 10
79.24709999999999
 20
81.536
 30
0.0
 11
78.4044
 21
81.882
 31
0.0
  0
LINE
  5
3B6
330
1D
100
AcDbEntity
  8
0
  6
CENTER2
100
AcDbLine
 10
80.99439999999999
 20
78.5365
 30
0.0
 11
80.87520000000001
 21
79.43290000000001
 31
0.0
  0
LINE
  5
3B7
330
1D
100
AcDbEntity
  8
0
  6
CENTER2
100
AcDbLine
 10
80.99439999999999
 20
78.5365
 30
0.0
 11
80.99439999999999
 21
68.8879
 31
0.0
  0
LINE
  5
3B8
330
1D
100
AcDbEntity
  8
0
  6
CENTER2
100
AcDbLine
 10
80.87520000000001
 20
79.43290000000001
 30
0.0
 11
80.52620000000002
 21
80.26819999999998
 31
0.0
  0
LINE
  5
3B9
330
1D
100
AcDbEntity
  8
0
  6
CENTER2
100
AcDbLine
 10
80.99439999999999
 20
68.8879
 30
0.0
 11
80.99439999999999
 21
78.5365
 31
0.0
  0
LINE
  5
3BA
330
1D
100
AcDbEntity
  8
0
  6
CENTER2
100
AcDbLine
 10
81.07760000000002
 20
68.53570000000001
 30
0.0
 11
80.99439999999999
 21
68.8879
 31
0.0
  0
LINE
  5
3BB
330
1D
100
AcDbEntity
  8
0
  6
CENTER2
100
AcDbLine
 10
81.31
 20
68.25669999999999
 30
0.0
 11
81.07760000000002
 21
68.53570000000001
 31
0.0
  0
LINE
  5
3BC
330
1D
100
AcDbEntity
  8
0
  6
CENTER2
100
AcDbLine
 10
81.5661
 20
68.2427
 30
0.0
 11
81.29119761906901
 21
68.2792725657476
 31
0.0
  0
LINE
  5
3BD
330
1D
100
AcDbEntity
  8
0
  6
CENTER2
100
AcDbLine
 10
81.40539999999999
 20
79.3243
 30
0.0
 11
80.8846656237543
 21
79.36171723881409
 31
0.0
  0
LINE
  5
3BE
330
1D
100
AcDbEntity
  8
0
  6
CENTER2
100
AcDbLine
 10
84.48779999999999
 20
78.8056
 30
0.0
 11
81.40539999999999
 21
79.3243
 31
0.0
  0
LINE
  5
3BF
330
1D
100
AcDbEntity
  8
0
  6
CENTER2
100
AcDbLine
 10
85.97370000000001
 20
66.9362
 30
0.0
 11
83.80459999999999
 21
67.7035
 31
0.0
  0
LINE
  5
3C0
330
1D
100
AcDbEntity
  8
0
  6
CENTER2
100
AcDbLine
 10
83.80459999999999
 20
67.7035
 30
0.0
 11
81.5661
 21
68.2427
 31
0.0
  0
LINE
  5
3C1
330
1D
100
AcDbEntity
  8
0
  6
CENTER2
100
AcDbLine
 10
93.20523127133103
 20
75.52822169533371
 30
0.0
 11
90.43450000000001
 21
76.9034
 31
0.0
  0
LINE
  5
3C2
330
1D
100
AcDbEntity
  8
0
  6
CENTER2
100
AcDbLine
 10
95.91370000000001
 20
73.9103
 30
0.0
 11
93.20523127133103
 21
75.52822169533371
 31
0.0
  0
LINE
  5
3C3
330
1D
100
AcDbEntity
  8
0
  6
CENTER2
100
AcDbLine
 10
90.43450000000001
 20
76.9034
 30
0.0
 11
87.50620000000001
 21
77.9967
 31
0.0
  0
LINE
  5
3C4
330
1D
100
AcDbEntity
  8
0
  6
CENTER2
100
AcDbLine
 10
90.01130000000001
 20
64.75010000000001
 30
0.0
 11
88.05039999999999
 21
65.94789999999999
 31
0.0
  0
LINE
  5
3C5
330
1D
100
AcDbEntity
  8
0
  6
CENTER2
100
AcDbLine
 10
91.83519999999999
 20
63.35549999999999
 30
0.0
 11
90.01130000000001
 21
64.75010000000001
 31
0.0
  0
LINE
  5
3C6
330
1D
100
AcDbEntity
  8
0
  6
CENTER2
100
AcDbLine
 10
93.50149999999999
 20
61.77969999999999
 30
0.0
 11
91.83519999999999
 21
63.35549999999999
 31
0.0
  0
LINE
  5
3C7
330
1D
100
AcDbEntity
  8
0
  6
CENTER2
100
AcDbLine
 10
87.50620000000001
 20
77.9967
 30
0.0
 11
84.48779999999999
 21
78.8056
 31
0.0
  0
LINE
  5
3C8
330
1D
100
AcDbEntity
  8
0
  6
CENTER2
100
AcDbLine
 10
88.05039999999999
 20
65.94789999999999
 30
0.0
 11
85.97370000000001
 21
66.9362
 31
0.0
  0
LINE
  5
3C9
330
1D
100
AcDbEntity
  8
0
  6
CENTER2
100
AcDbLine
 10
96.29290000000001
 20
58.1545
 30
0.0
 11
94.99309999999999
 21
60.03959999999999
 31
0.0
  0
LINE
  5
3CA
330
1D
100
AcDbEntity
  8
0
  6
CENTER2
100
AcDbLine
 10
94.99309999999999
 20
60.03959999999999
 30
0.0
 11
93.50149999999999
 21
61.77969999999999
 31
0.0
  0
LINE
  5
3CB
330
1D
100
AcDbEntity
  8
0
  6
CENTER2
100
AcDbLine
 10
100.7272
 20
69.93389999999999
 30
0.0
 11
98.41540000000001
 21
72.0364
 31
0.0
  0
LINE
  5
3CC
330
1D
100
AcDbEntity
  8
0
  6
CENTER2
100
AcDbLine
 10
102.8291
 20
67.6207
 30
0.0
 11
100.7272
 21
69.93389999999999
 31
0.0
  0
LINE
  5
3CD
330
1D
100
AcDbEntity
  8
0
  6
CENTER2
100
AcDbLine
 10
104.7016
 20
65.11839999999999
 30
0.0
 11
102.8291
 21
67.6207
 31
0.0
  0
LINE
  5
3CE
330
1D
100
AcDbEntity
  8
0
  6
CENTER2
100
AcDbLine
 10
106.3277
 20
62.44889999999999
 30
0.0
 11
104.7016
 21
65.11839999999999
 31
0.0
  0
LINE
  5
3CF
330
1D
100
AcDbEntity
  8
0
  6
CENTER2
100
AcDbLine
 10
98.2628
 20
54.03369999999999
 30
0.0
 11
97.38659999999999
 21
56.1456
 31
0.0
  0
LINE
  5
3D0
330
1D
100
AcDbEntity
  8
0
  6
CENTER2
100
AcDbLine
 10
98.91140000000001
 20
51.84309999999999
 30
0.0
 11
98.2628
 21
54.03369999999999
 31
0.0
  0
LINE
  5
3D1
330
1D
100
AcDbEntity
  8
0
  6
CENTER2
100
AcDbLine
 10
99.3252
 20
49.59749999999999
 30
0.0
 11
98.91140000000001
 21
51.84309999999999
 31
0.0
  0
LINE
  5
3D2
330
1D
100
AcDbEntity
  8
0
  6
CENTER2
100
AcDbLine
 10
99.50000000000001
 20
47.32059999999999
 30
0.0
 11
99.4339
 21
45.03879999999999
 31
0.0
  0
LINE
  5
3D3
330
1D
100
AcDbEntity
  8
0
  6
CENTER2
100
AcDbLine
 10
99.50000000000001
 20
47.32059999999999
 30
0.0
 11
99.3252
 21
49.59749999999999
 31
0.0
  0
LINE
  5
3D4
330
1D
100
AcDbEntity
  8
0
  6
CENTER2
100
AcDbLine
 10
99.4339
 20
45.03879999999999
 30
0.0
 11
99.127
 21
42.7756
 31
0.0
  0
LINE
  5
3D5
330
1D
100
AcDbEntity
  8
0
  6
CENTER2
100
AcDbLine
 10
108.7847
 20
56.7093
 30
0.0
 11
107.6932
 21
59.6377
 31
0.0
  0
LINE
  5
3D6
330
1D
100
AcDbEntity
  8
0
  6
CENTER2
100
AcDbLine
 10
109.5932
 20
53.6901
 30
0.0
 11
108.7847
 21
56.7093
 31
0.0
  0
LINE
  5
3D7
330
1D
100
AcDbEntity
  8
0
  6
CENTER2
100
AcDbLine
 10
110.1107
 20
50.60769999999999
 30
0.0
 11
109.5932
 21
53.6901
 31
0.0
  0
LINE
  5
3D8
330
1D
100
AcDbEntity
  8
0
  6
CENTER2
100
AcDbLine
 10
110.3326
 20
47.49029999999999
 30
0.0
 11
110.1107
 21
50.60769999999999
 31
0.0
  0
LINE
  5
3D9
330
1D
100
AcDbEntity
  8
0
  6
CENTER2
100
AcDbLine
 10
110.3326
 20
47.49029999999999
 30
0.0
 11
110.2581
 21
44.3663
 31
0.0
  0
LINE
  5
3DA
330
1D
100
AcDbEntity
  8
0
  6
CENTER2
100
AcDbLine
 10
107.6932
 20
59.6377
 30
0.0
 11
106.3277
 21
62.44889999999999
 31
0.0
  0
LINE
  5
3DB
330
1D
100
AcDbEntity
  8
0
  6
CENTER2
100
AcDbLine
 10
98.41540000000001
 20
72.0364
 30
0.0
 11
95.91370000000001
 21
73.9103
 31
0.0
  0
LINE
  5
3DC
330
1D
100
AcDbEntity
  8
0
  6
CENTER2
100
AcDbLine
 10
97.38659999999999
 20
56.1456
 30
0.0
 11
96.29290000000001
 21
58.1545
 31
0.0
  0
LINE
  5
3DD
330
1D
100
AcDbEntity
  8
0
  6
CENTER2
100
AcDbLine
 10
79.73419999999999
 20
25.2832
 30
0.0
 11
78.6738
 21
25.2037
 31
0.0
  0
LINE
  5
3DE
330
1D
100
AcDbEntity
  8
0
  6
CENTER2
100
AcDbLine
 10
80.70499999999999
 20
25.3994
 30
0.0
 11
79.73419999999999
 21
25.2832
 31
0.0
  0
LINE
  5
3DF
330
1D
100
AcDbEntity
  8
0
  6
CENTER2
100
AcDbLine
 10
78.6738
 20
25.2037
 30
0.0
 11
77.57519999999999
 21
25.1736
 31
0.0
  0
LINE
  5
3E0
330
1D
100
AcDbEntity
  8
0
  6
CENTER2
100
AcDbLine
 10
82.72140000000002
 20
25.7707
 30
0.0
 11
82.22179999999999
 21
25.6636
 31
0.0
  0
LINE
  5
3E1
330
1D
100
AcDbEntity
  8
0
  6
CENTER2
100
AcDbLine
 10
81.5506
 20
25.5344
 30
0.0
 11
80.70499999999999
 21
25.3994
 31
0.0
  0
LINE
  5
3E2
330
1D
100
AcDbEntity
  8
0
  6
CENTER2
100
AcDbLine
 10
82.22179999999999
 20
25.6636
 30
0.0
 11
81.5506
 21
25.5344
 31
0.0
  0
LINE
  5
3E3
330
1D
100
AcDbEntity
  8
0
  6
CENTER2
100
AcDbLine
 10
83.12940000000001
 20
25.8558
 30
0.0
 11
83.07894475756061
 21
25.858039966368
 31
0.0
  0
LINE
  5
3E4
330
1D
100
AcDbEntity
  8
0
  6
CENTER2
100
AcDbLine
 10
83.12940000000001
 20
25.8558
 30
0.0
 11
83.02840000000001
 21
25.8387
 31
0.0
  0
LINE
  5
3E5
330
1D
100
AcDbEntity
  8
0
  6
CENTER2
100
AcDbLine
 10
88.94990000000001
 20
28.1785
 30
0.0
 11
86.92239999999998
 21
27.0944
 31
0.0
  0
LINE
  5
3E6
330
1D
100
AcDbEntity
  8
0
  6
CENTER2
100
AcDbLine
 10
86.92239999999998
 20
27.0944
 30
0.0
 11
84.7921
 21
26.2265
 31
0.0
  0
LINE
  5
3E7
330
1D
100
AcDbEntity
  8
0
  6
CENTER2
100
AcDbLine
 10
84.7921
 20
26.2265
 30
0.0
 11
83.02800000000003
 21
25.7133609673333
 31
0.0
  0
LINE
  5
3E8
330
1D
100
AcDbEntity
  8
0
  6
CENTER2
100
AcDbLine
 10
90.85120000000001
 20
29.4669
 30
0.0
 11
88.94990000000001
 21
28.1785
 31
0.0
  0
LINE
  5
3E9
330
1D
100
AcDbEntity
  8
0
  6
CENTER2
100
AcDbLine
 10
83.02840000000001
 20
25.8387
 30
0.0
 11
82.72140000000002
 21
25.7707
 31
0.0
  0
LINE
  5
3EA
330
1D
100
AcDbEntity
  8
0
  6
CENTER2
100
AcDbLine
 10
92.60699999999999
 20
30.94520000000001
 30
0.0
 11
90.85120000000001
 21
29.4669
 31
0.0
  0
LINE
  5
3EB
330
1D
100
AcDbEntity
  8
0
  6
CENTER2
100
AcDbLine
 10
95.60349999999999
 20
34.4049
 30
0.0
 11
94.19690000000001
 21
32.5972
 31
0.0
  0
LINE
  5
3EC
330
1D
100
AcDbEntity
  8
0
  6
CENTER2
100
AcDbLine
 10
94.19690000000001
 20
32.5972
 30
0.0
 11
92.60699999999999
 21
30.94520000000001
 31
0.0
  0
LINE
  5
3ED
330
1D
100
AcDbEntity
  8
0
  6
CENTER2
100
AcDbLine
 10
96.8124
 20
36.34869999999999
 30
0.0
 11
95.60349999999999
 21
34.4049
 31
0.0
  0
LINE
  5
3EE
330
1D
100
AcDbEntity
  8
0
  6
CENTER2
100
AcDbLine
 10
78.88679999999999
 20
18.5
 30
0.0
 11
77.52800000000002
 21
18.5
 31
0.0
  0
LINE
  5
3EF
330
1D
100
AcDbEntity
  8
0
  6
CENTER2
100
AcDbLine
 10
80.14859999999998
 20
18.5
 30
0.0
 11
78.88679999999999
 21
18.5
 31
0.0
  0
LINE
  5
3F0
330
1D
100
AcDbEntity
  8
0
  6
CENTER2
100
AcDbLine
 10
78.88679999999999
 20
18.5
 30
0.0
 11
77.52800000000002
 21
18.5
 31
0.0
  0
LINE
  5
3F1
330
1D
100
AcDbEntity
  8
0
  6
CENTER2
100
AcDbLine
 10
80.14859999999998
 20
18.5
 30
0.0
 11
78.88679999999999
 21
18.5
 31
0.0
  0
LINE
  5
3F2
330
1D
100
AcDbEntity
  8
0
  6
CENTER2
100
AcDbLine
 10
81.24860000000001
 20
18.5
 30
0.0
 11
80.14859999999998
 21
18.5
 31
0.0
  0
LINE
  5
3F3
330
1D
100
AcDbEntity
  8
0
  6
CENTER2
100
AcDbLine
 10
81.24860000000001
 20
18.5
 30
0.0
 11
80.14859999999998
 21
18.5
 31
0.0
  0
LINE
  5
3F4
330
1D
100
AcDbEntity
  8
0
  6
CENTER2
100
AcDbLine
 10
82.07359999999999
 20
18.5
 30
0.0
 11
81.24860000000001
 21
18.5
 31
0.0
  0
LINE
  5
3F5
330
1D
100
AcDbEntity
  8
0
  6
CENTER2
100
AcDbLine
 10
82.07359999999999
 20
18.5
 30
0.0
 11
81.24860000000001
 21
18.5
 31
0.0
  0
LINE
  5
3F6
330
1D
100
AcDbEntity
  8
0
  6
CENTER2
100
AcDbLine
 10
82.78539999999997
 20
18.5
 30
0.0
 11
82.59120000000001
 21
18.5
 31
0.0
  0
LINE
  5
3F7
330
1D
100
AcDbEntity
  8
0
  6
CENTER2
100
AcDbLine
 10
82.78539999999997
 20
18.5
 30
0.0
 11
82.59120000000001
 21
18.5
 31
0.0
  0
LINE
  5
3F8
330
1D
100
AcDbEntity
  8
0
  6
CENTER2
100
AcDbLine
 10
83.02800000000003
 20
19.0769
 30
0.0
 11
82.9471
 21
18.6923
 31
0.0
  0
LINE
  5
3F9
330
1D
100
AcDbEntity
  8
0
  6
CENTER2
100
AcDbLine
 10
82.9471
 20
18.6923
 30
0.0
 11
82.78539999999997
 21
18.5
 31
0.0
  0
LINE
  5
3FA
330
1D
100
AcDbEntity
  8
0
  6
CENTER2
100
AcDbLine
 10
85.99340000000001
 20
14.9905
 30
0.0
 11
82.93930000000001
 21
14.3271
 31
0.0
  0
LINE
  5
3FB
330
1D
100
AcDbEntity
  8
0
  6
CENTER2
100
AcDbLine
 10
82.59120000000001
 20
18.5
 30
0.0
 11
82.07359999999999
 21
18.5
 31
0.0
  0
LINE
  5
3FC
330
1D
100
AcDbEntity
  8
0
  6
CENTER2
100
AcDbLine
 10
82.59120000000001
 20
18.5
 30
0.0
 11
82.07359999999999
 21
18.5
 31
0.0
  0
LINE
  5
3FD
330
1D
100
AcDbEntity
  8
0
  6
CENTER2
100
AcDbLine
 10
82.93930000000001
 20
14.3271
 30
0.0
 11
79.83609999999998
 21
13.9567
 31
0.0
  0
LINE
  5
3FE
330
1D
100
AcDbEntity
  8
0
  6
CENTER2
100
AcDbLine
 10
91.84409999999999
 20
17.1714
 30
0.0
 11
88.9709
 21
15.942
 31
0.0
  0
LINE
  5
3FF
330
1D
100
AcDbEntity
  8
0
  6
CENTER2
100
AcDbLine
 10
94.58769999999999
 20
18.6692
 30
0.0
 11
91.84409999999999
 21
17.1714
 31
0.0
  0
LINE
  5
400
330
1D
100
AcDbEntity
  8
0
  6
CENTER2
100
AcDbLine
 10
88.9709
 20
15.942
 30
0.0
 11
85.99340000000001
 21
14.9905
 31
0.0
  0
LINE
  5
401
330
1D
100
AcDbEntity
  8
0
  6
CENTER2
100
AcDbLine
 10
83.02800000000003
 20
25.8386114006515
 30
0.0
 11
83.02800000000003
 21
19.0769
 31
0.0
  0
LINE
  5
402
330
1D
100
AcDbEntity
  8
0
  6
CENTER2
100
AcDbLine
 10
83.02800000000003
 20
19.0769
 30
0.0
 11
83.02800000000003
 21
25.8386114006515
 31
0.0
  0
LINE
  5
403
330
1D
100
AcDbEntity
  8
0
  6
CENTER2
100
AcDbLine
 10
98.58359999999999
 20
40.5569
 30
0.0
 11
97.80930000000001
 21
38.4069
 31
0.0
  0
LINE
  5
404
330
1D
100
AcDbEntity
  8
0
  6
CENTER2
100
AcDbLine
 10
105.5399
 20
29.6165
 30
0.0
 11
103.7873
 21
27.0292
 31
0.0
  0
LINE
  5
405
330
1D
100
AcDbEntity
  8
0
  6
CENTER2
100
AcDbLine
 10
103.7873
 20
27.0292
 30
0.0
 11
101.7971
 21
24.6196
 31
0.0
  0
LINE
  5
406
330
1D
100
AcDbEntity
  8
0
  6
CENTER2
100
AcDbLine
 10
101.7971
 20
24.6196
 30
0.0
 11
99.58660000000001
 21
22.4093
 31
0.0
  0
LINE
  5
407
330
1D
100
AcDbEntity
  8
0
  6
CENTER2
100
AcDbLine
 10
109.8866
 20
41.26299999999999
 30
0.0
 11
109.221
 21
38.2089
 31
0.0
  0
LINE
  5
408
330
1D
100
AcDbEntity
  8
0
  6
CENTER2
100
AcDbLine
 10
109.221
 20
38.2089
 30
0.0
 11
108.2694
 21
35.2323
 31
0.0
  0
LINE
  5
409
330
1D
100
AcDbEntity
  8
0
  6
CENTER2
100
AcDbLine
 10
108.2694
 20
35.2323
 30
0.0
 11
107.038
 21
32.3597
 31
0.0
  0
LINE
  5
40A
330
1D
100
AcDbEntity
  8
0
  6
CENTER2
100
AcDbLine
 10
107.038
 20
32.3597
 30
0.0
 11
105.5399
 21
29.6165
 31
0.0
  0
LINE
  5
40B
330
1D
100
AcDbEntity
  8
0
  6
CENTER2
100
AcDbLine
 10
99.58660000000001
 20
22.4093
 30
0.0
 11
97.1765
 21
20.4202
 31
0.0
  0
LINE
  5
40C
330
1D
100
AcDbEntity
  8
0
  6
CENTER2
100
AcDbLine
 10
97.80930000000001
 20
38.4069
 30
0.0
 11
96.8124
 21
36.34869999999999
 31
0.0
  0
LINE
  5
40D
330
1D
100
AcDbEntity
  8
0
  6
CENTER2
100
AcDbLine
 10
97.1765
 20
20.4202
 30
0.0
 11
94.58769999999999
 21
18.6692
 31
0.0
  0
LINE
  5
40E
330
1D
100
AcDbEntity
  8
0
  6
CENTER2
100
AcDbLine
 10
99.127
 20
42.7756
 30
0.0
 11
98.58359999999999
 21
40.5569
 31
0.0
  0
LINE
  5
40F
330
1D
100
AcDbEntity
  8
0
  6
CENTER2
100
AcDbLine
 10
110.2581
 20
44.3663
 30
0.0
 11
109.8866
 21
41.26299999999999
 31
0.0
  0
LINE
  5
410
330
1D
100
AcDbEntity
  8
0
  6
CENTER2
100
AcDbLine
 10
80.52620000000002
 20
80.26819999999998
 30
0.0
 11
79.9709
 21
80.98550000000001
 31
0.0
  0
LINE
  5
411
330
1D
100
AcDbEntity
  8
0
  6
CENTER2
100
AcDbLine
 10
78.4044
 20
81.882
 30
0.0
 11
77.4999
 21
82.0
 31
0.0
  0
LINE
  5
412
330
1D
100
AcDbEntity
  8
0
  6
CENTER2
100
AcDbLine
 10
77.57519999999999
 20
25.1736
 30
0.0
 11
76.48109999999999
 21
25.1962
 31
0.0
  0
LINE
  5
413
330
1D
100
AcDbEntity
  8
0
  6
CENTER2
100
AcDbLine
 10
79.83609999999998
 20
13.9567
 30
0.0
 11
76.71199999999998
 21
13.883
 31
0.0
  0
LINE
  5
414
330
1D
100
AcDbEntity
  8
0
  6
CENTER2
100
AcDbLine
 10
98.7124
 20
87.23180000000001
 30
0.0
 11
96.4113
 21
87.20119999999999
 31
0.0
  0
LINE
  5
415
330
1D
100
AcDbEntity
  8
0
  6
CENTER2
100
AcDbLine
 10
98.52240000000001
 20
115.48
 30
0.0
 11
96.2222
 21
115.48
 31
0.0
  0
LINE
  5
416
330
1D
100
AcDbEntity
  8
0
  6
CENTER2
100
AcDbLine
 10
111.3489
 20
98.9582
 30
0.0
 11
110.7465
 21
96.63679999999999
 31
0.0
  0
LINE
  5
417
330
1D
100
AcDbEntity
  8
0
  6
CENTER2
100
AcDbLine
 10
106.982
 20
90.92119999999999
 30
0.0
 11
105.1685
 21
89.5039
 31
0.0
  0
LINE
  5
418
330
1D
100
AcDbEntity
  8
0
  6
CENTER2
100
AcDbLine
 10
105.1685
 20
89.5039
 30
0.0
 11
103.1495
 21
88.39870000000001
 31
0.0
  0
LINE
  5
419
330
1D
100
AcDbEntity
  8
0
  6
CENTER2
100
AcDbLine
 10
103.1495
 20
88.39870000000001
 30
0.0
 11
100.9784
 21
87.6346
 31
0.0
  0
LINE
  5
41A
330
1D
100
AcDbEntity
  8
0
  6
CENTER2
100
AcDbLine
 10
100.9784
 20
87.6346
 30
0.0
 11
98.7124
 21
87.23180000000001
 31
0.0
  0
LINE
  5
41B
330
1D
100
AcDbEntity
  8
0
  6
CENTER2
100
AcDbLine
 10
110.7465
 20
96.63679999999999
 30
0.0
 11
109.8079
 21
94.5353
 31
0.0
  0
LINE
  5
41C
330
1D
100
AcDbEntity
  8
0
  6
CENTER2
100
AcDbLine
 10
109.8079
 20
94.5353
 30
0.0
 11
108.5419
 21
92.61320000000001
 31
0.0
  0
LINE
  5
41D
330
1D
100
AcDbEntity
  8
0
  6
CENTER2
100
AcDbLine
 10
108.5419
 20
92.61320000000001
 30
0.0
 11
106.982
 21
90.92119999999999
 31
0.0
  0
LINE
  5
41E
330
1D
100
AcDbEntity
  8
0
  6
CENTER2
100
AcDbLine
 10
106.8394
 20
111.904
 30
0.0
 11
105.007
 21
113.296
 31
0.0
  0
LINE
  5
41F
330
1D
100
AcDbEntity
  8
0
  6
CENTER2
100
AcDbLine
 10
111.3323
 20
103.832
 30
0.0
 11
110.6811
 21
106.24
 31
0.0
  0
LINE
  5
420
330
1D
100
AcDbEntity
  8
0
  6
CENTER2
100
AcDbLine
 10
111.5517
 20
101.348
 30
0.0
 11
111.3489
 21
98.9582
 31
0.0
  0
LINE
  5
421
330
1D
100
AcDbEntity
  8
0
  6
CENTER2
100
AcDbLine
 10
111.5517
 20
101.348
 30
0.0
 11
111.3323
 21
103.832
 31
0.0
  0
LINE
  5
422
330
1D
100
AcDbEntity
  8
0
  6
CENTER2
100
AcDbLine
 10
110.6811
 20
106.24
 30
0.0
 11
109.7144
 21
108.329
 31
0.0
  0
LINE
  5
423
330
1D
100
AcDbEntity
  8
0
  6
CENTER2
100
AcDbLine
 10
108.4226
 20
110.233
 30
0.0
 11
106.8394
 21
111.904
 31
0.0
  0
LINE
  5
424
330
1D
100
AcDbEntity
  8
0
  6
CENTER2
100
AcDbLine
 10
109.7144
 20
108.329
 30
0.0
 11
108.4226
 21
110.233
 31
0.0
  0
LINE
  5
425
330
1D
100
AcDbEntity
  8
0
  6
CENTER2
100
AcDbLine
 10
105.007
 20
113.296
 30
0.0
 11
102.9731
 21
114.374
 31
0.0
  0
LINE
  5
426
330
1D
100
AcDbEntity
  8
0
  6
CENTER2
100
AcDbLine
 10
102.9731
 20
114.374
 30
0.0
 11
100.7919
 21
115.109
 31
0.0
  0
LINE
  5
427
330
1D
100
AcDbEntity
  8
0
  6
CENTER2
100
AcDbLine
 10
100.7919
 20
115.109
 30
0.0
 11
98.52240000000001
 21
115.48
 31
0.0
  0
LINE
  5
428
330
1D
100
AcDbEntity
  8
0
  6
CENTER2
100
AcDbLine
 10
84.12980000000001
 20
96.28050000000001
 30
0.0
 11
83.4295
 21
98.77119999999999
 31
0.0
  0
LINE
  5
429
330
1D
100
AcDbEntity
  8
0
  6
CENTER2
100
AcDbLine
 10
88.0461
 20
90.66769999999999
 30
0.0
 11
86.44099999999999
 21
92.3173
 31
0.0
  0
LINE
  5
42A
330
1D
100
AcDbEntity
  8
0
  6
CENTER2
100
AcDbLine
 10
94.13529999999999
 20
87.5431
 30
0.0
 11
91.9444
 21
88.2488
 31
0.0
  0
LINE
  5
42B
330
1D
100
AcDbEntity
  8
0
  6
CENTER2
100
AcDbLine
 10
96.4113
 20
87.20119999999999
 30
0.0
 11
94.13529999999999
 21
87.5431
 31
0.0
  0
LINE
  5
42C
330
1D
100
AcDbEntity
  8
0
  6
CENTER2
100
AcDbLine
 10
91.9444
 20
88.2488
 30
0.0
 11
89.89690000000001
 21
89.29949999999999
 31
0.0
  0
LINE
  5
42D
330
1D
100
AcDbEntity
  8
0
  6
CENTER2
100
AcDbLine
 10
89.89690000000001
 20
89.29949999999999
 30
0.0
 11
88.0461
 21
90.66769999999999
 31
0.0
  0
LINE
  5
42E
330
1D
100
AcDbEntity
  8
0
  6
CENTER2
100
AcDbLine
 10
86.44099999999999
 20
92.3173
 30
0.0
 11
85.1241
 21
94.20480000000001
 31
0.0
  0
LINE
  5
42F
330
1D
100
AcDbEntity
  8
0
  6
CENTER2
100
AcDbLine
 10
85.1241
 20
94.20480000000001
 30
0.0
 11
84.12980000000001
 21
96.28050000000001
 31
0.0
  0
LINE
  5
430
330
1D
100
AcDbEntity
  8
0
  6
CENTER2
100
AcDbLine
 10
87.90519999999999
 20
111.903
 30
0.0
 11
86.3225
 21
110.233
 31
0.0
  0
LINE
  5
431
330
1D
100
AcDbEntity
  8
0
  6
CENTER2
100
AcDbLine
 10
91.77150000000001
 20
114.374
 30
0.0
 11
89.7381
 21
113.296
 31
0.0
  0
LINE
  5
432
330
1D
100
AcDbEntity
  8
0
  6
CENTER2
100
AcDbLine
 10
89.7381
 20
113.296
 30
0.0
 11
87.90519999999999
 21
111.903
 31
0.0
  0
LINE
  5
433
330
1D
100
AcDbEntity
  8
0
  6
CENTER2
100
AcDbLine
 10
93.95279999999999
 20
115.108
 30
0.0
 11
91.77150000000001
 21
114.374
 31
0.0
  0
LINE
  5
434
330
1D
100
AcDbEntity
  8
0
  6
CENTER2
100
AcDbLine
 10
96.2222
 20
115.48
 30
0.0
 11
93.95279999999999
 21
115.108
 31
0.0
  0
LINE
  5
435
330
1D
100
AcDbEntity
  8
0
  6
CENTER2
100
AcDbLine
 10
84.06399999999999
 20
106.239
 30
0.0
 11
83.41280000000001
 21
103.832
 31
0.0
  0
LINE
  5
436
330
1D
100
AcDbEntity
  8
0
  6
CENTER2
100
AcDbLine
 10
85.03069999999999
 20
108.328
 30
0.0
 11
84.06399999999999
 21
106.239
 31
0.0
  0
LINE
  5
437
330
1D
100
AcDbEntity
  8
0
  6
CENTER2
100
AcDbLine
 10
86.3225
 20
110.233
 30
0.0
 11
85.03069999999999
 21
108.328
 31
0.0
  0
LINE
  5
438
330
1D
100
AcDbEntity
  8
0
  6
CENTER2
100
AcDbLine
 10
83.41280000000001
 20
103.832
 30
0.0
 11
83.1934
 21
101.348
 31
0.0
  0
LINE
  5
439
330
1D
100
AcDbEntity
  8
0
  6
CENTER2
100
AcDbLine
 10
83.4295
 20
98.77119999999999
 30
0.0
 11
83.1934
 21
101.348
 31
0.0
  0
LINE
  5
621
330
1D
100
AcDbEntity
  8
0
100
AcDbLine
 10
56.3278302048844
 20
214.1103690727756
 30
0.0
 11
56.51000005413039
 21
214.0363315740316
 31
0.0
  0
LINE
  5
622
330
1D
100
AcDbEntity
  8
0
100
AcDbLine
 10
56.51000005413039
 20
214.0363315740316
 30
0.0
 11
63.5075000541304
 21
213.6255555740316
 31
0.0
  0
LINE
  5
623
330
1D
100
AcDbEntity
  8
0
100
AcDbLine
 10
55.8703000541304
 20
214.4492515740317
 30
0.0
 11
56.14010005413039
 21
214.1605335740316
 31
0.0
  0
LINE
  5
624
330
1D
100
AcDbEntity
  8
0
100
AcDbLine
 10
55.5392000541304
 20
246.1443215740316
 30
0.0
 11
55.64900005413039
 21
246.2559215740316
 31
0.0
  0
LINE
  5
625
330
1D
100
AcDbEntity
  8
0
100
AcDbLine
 10
55.80000005413039
 20
246.2968215740316
 30
0.0
 11
55.97220005413039
 21
246.2968215740316
 31
0.0
  0
LINE
  5
626
330
1D
100
AcDbEntity
  8
0
100
AcDbLine
 10
55.64900005413039
 20
246.2559215740316
 30
0.0
 11
55.80000005413039
 21
246.2968215740316
 31
0.0
  0
LINE
  5
627
330
1D
100
AcDbEntity
  8
0
100
AcDbLine
 10
55.97220005413039
 20
246.2968215740316
 30
0.0
 11
56.3806000541304
 21
246.2968215740316
 31
0.0
  0
LINE
  5
628
330
1D
100
AcDbEntity
  8
0
100
AcDbLine
 10
57.50000005413039
 20
246.2968215740316
 30
0.0
 11
57.50000005413039
 21
247.2968215740316
 31
0.0
  0
LINE
  5
629
330
1D
100
AcDbEntity
  8
0
100
AcDbLine
 10
56.3806000541304
 20
246.2968215740316
 30
0.0
 11
57.0204000541304
 21
246.2968215740316
 31
0.0
  0
LINE
  5
62A
330
1D
100
AcDbEntity
  8
0
100
AcDbLine
 10
57.0204000541304
 20
246.2968215740316
 30
0.0
 11
57.88410005413039
 21
246.2968215740316
 31
0.0
  0
LINE
  5
62B
330
1D
100
AcDbEntity
  8
0
100
AcDbLine
 10
60.2453000541304
 20
246.2968215740316
 30
0.0
 11
61.7165000541304
 21
246.2968215740316
 31
0.0
  0
LINE
  5
62C
330
1D
100
AcDbEntity
  8
0
100
AcDbLine
 10
58.9636000541304
 20
246.2968215740316
 30
0.0
 11
60.2453000541304
 21
246.2968215740316
 31
0.0
  0
LINE
  5
62D
330
1D
100
AcDbEntity
  8
0
100
AcDbLine
 10
57.50000005413039
 20
247.2968215740316
 30
0.0
 11
57.50000005413039
 21
246.2968215740316
 31
0.0
  0
LINE
  5
62E
330
1D
100
AcDbEntity
  8
0
100
AcDbLine
 10
57.88410005413039
 20
246.2968215740316
 30
0.0
 11
58.9636000541304
 21
246.2968215740316
 31
0.0
  0
LINE
  5
62F
330
1D
100
AcDbEntity
  8
0
100
AcDbLine
 10
55.50000005413039
 20
245.9922215740316
 30
0.0
 11
55.77020005413039
 21
214.8325515740316
 31
0.0
  0
LINE
  5
630
330
1D
100
AcDbEntity
  8
0
100
AcDbLine
 10
55.50000005413039
 20
245.9922215740316
 30
0.0
 11
55.5392000541304
 21
246.1443215740316
 31
0.0
  0
LINE
  5
631
330
1D
100
AcDbEntity
  8
0
100
AcDbLine
 10
55.77020005413039
 20
214.8325515740316
 30
0.0
 11
55.8703000541304
 21
214.4492515740317
 31
0.0
  0
LINE
  5
632
330
1D
100
AcDbEntity
  8
0
100
AcDbLine
 10
63.36080005413039
 20
246.2968215740316
 30
0.0
 11
65.15950005413039
 21
246.2968215740316
 31
0.0
  0
LINE
  5
633
330
1D
100
AcDbEntity
  8
0
100
AcDbLine
 10
61.7165000541304
 20
246.2968215740316
 30
0.0
 11
63.36080005413039
 21
246.2968215740316
 31
0.0
  0
LINE
  5
634
330
1D
100
AcDbEntity
  8
0
100
AcDbLine
 10
67.0939000541304
 20
246.2968215740316
 30
0.0
 11
69.14150005413039
 21
246.2968215740316
 31
0.0
  0
LINE
  5
635
330
1D
100
AcDbEntity
  8
0
100
AcDbLine
 10
65.15950005413039
 20
246.2968215740316
 30
0.0
 11
67.0939000541304
 21
246.2968215740316
 31
0.0
  0
LINE
  5
636
330
1D
100
AcDbEntity
  8
0
100
AcDbLine
 10
69.14150005413039
 20
246.2968215740316
 30
0.0
 11
71.2813000541304
 21
246.2968215740316
 31
0.0
  0
LINE
  5
637
330
1D
100
AcDbEntity
  8
0
100
AcDbLine
 10
71.2813000541304
 20
246.2968215740316
 30
0.0
 11
73.48910005413038
 21
246.2968215740316
 31
0.0
  0
LINE
  5
638
330
1D
100
AcDbEntity
  8
0
100
AcDbLine
 10
43.24820005413039
 20
247.6422215740316
 30
0.0
 11
43.4707000541304
 21
247.6408215740316
 31
0.0
  0
LINE
  5
639
330
1D
100
AcDbEntity
  8
0
100
AcDbLine
 10
1.413840054130396
 20
248.0634215740316
 30
0.0
 11
1.647280054130396
 21
248.0601215740317
 31
0.0
  0
LINE
  5
63A
330
1D
100
AcDbEntity
  8
0
100
AcDbLine
 10
4.170846063930396
 20
248.0362358995157
 30
0.0
 11
4.262368503705395
 21
248.0353192434606
 31
0.0
  0
LINE
  5
63B
330
1D
100
AcDbEntity
  8
0
100
AcDbLine
 10
4.170846063930396
 20
248.0362358995157
 30
0.0
 11
4.262368503705395
 21
248.0353192434606
 31
0.0
  0
LINE
  5
63C
330
1D
100
AcDbEntity
  8
0
100
AcDbLine
 10
1.783730054130396
 20
248.0582215740316
 30
0.0
 11
43.24820005413039
 21
247.6422215740316
 31
0.0
  0
LINE
  5
63D
330
1D
100
AcDbEntity
  8
0
100
AcDbLine
 10
1.647280054130396
 20
248.0601215740317
 30
0.0
 11
1.783730054130396
 21
248.0582215740316
 31
0.0
  0
LINE
  5
63E
330
1D
100
AcDbEntity
  8
0
100
AcDbLine
 10
1.451910054130396
 20
248.0628215740316
 30
0.0
 11
1.630556379285396
 21
248.0603579865016
 31
0.0
  0
LINE
  5
63F
330
1D
100
AcDbEntity
  8
0
100
AcDbLine
 10
1.451910054130396
 20
248.0628215740316
 30
0.0
 11
1.630556379285396
 21
248.0603579865016
 31
0.0
  0
LINE
  5
640
330
1D
100
AcDbEntity
  8
0
100
AcDbLine
 10
0.4433330541303962
 20
248.5655215740316
 30
0.0
 11
0.800669054130396
 21
248.2025215740316
 31
0.0
  0
LINE
  5
641
330
1D
100
AcDbEntity
  8
0
100
AcDbLine
 10
1.293750054130396
 20
248.0650215740316
 30
0.0
 11
1.413840054130396
 21
248.0634215740316
 31
0.0
  0
LINE
  5
642
330
1D
100
AcDbEntity
  8
0
100
AcDbLine
 10
0.800669054130396
 20
248.2025215740316
 30
0.0
 11
1.286780054130396
 21
248.0651215740317
 31
0.0
  0
LINE
  5
643
330
1D
100
AcDbEntity
  8
0
100
AcDbLine
 10
1.359883828996396
 20
248.0641404512086
 30
0.0
 11
1.451910054130396
 21
248.0628215740316
 31
0.0
  0
LINE
  5
644
330
1D
100
AcDbEntity
  8
0
100
AcDbLine
 10
0.3068160541303961
 20
249.0608215740317
 30
0.0
 11
0.4433330541303962
 21
248.5655215740316
 31
0.0
  0
LINE
  5
645
330
1D
100
AcDbEntity
  8
0
100
AcDbLine
 10
0.0000000541303962
 20
266.9875215740316
 30
0.0
 11
0.0381780541303962
 21
267.1417215740316
 31
0.0
  0
LINE
  5
646
330
1D
100
AcDbEntity
  8
0
100
AcDbLine
 10
0.0000000541303962
 20
266.9875215740316
 30
0.0
 11
0.3068160541303961
 21
249.0608215740317
 31
0.0
  0
LINE
  5
647
330
1D
100
AcDbEntity
  8
0
100
AcDbLine
 10
0.0381780541303962
 20
267.1417215740316
 30
0.0
 11
0.1475040541303962
 21
267.2552215740316
 31
0.0
  0
LINE
  5
648
330
1D
100
AcDbEntity
  8
0
100
AcDbLine
 10
0.4893150541303961
 20
267.2968215740316
 30
0.0
 11
0.7551310541303962
 21
267.2968215740316
 31
0.0
  0
LINE
  5
649
330
1D
100
AcDbEntity
  8
0
100
AcDbLine
 10
0.2980580541303961
 20
267.2968215740316
 30
0.0
 11
0.4893150541303961
 21
267.2968215740316
 31
0.0
  0
LINE
  5
64A
330
1D
100
AcDbEntity
  8
0
100
AcDbLine
 10
0.1475040541303962
 20
267.2552215740316
 30
0.0
 11
0.2980580541303961
 21
267.2968215740316
 31
0.0
  0
LINE
  5
64B
330
1D
100
AcDbEntity
  8
0
100
AcDbLine
 10
0.7551310541303962
 20
267.2968215740316
 30
0.0
 11
1.101700054130396
 21
267.2968215740316
 31
0.0
  0
LINE
  5
64C
330
1D
100
AcDbEntity
  8
0
100
AcDbLine
 10
1.101700054130396
 20
267.2968215740316
 30
0.0
 11
1.490220054130396
 21
267.2968215740316
 31
0.0
  0
LINE
  5
64D
330
1D
100
AcDbEntity
  8
0
100
AcDbLine
 10
1.490220054130396
 20
267.2968215740316
 30
0.0
 11
153.5100000541303
 21
267.2968215740316
 31
0.0
  0
LINE
  5
64E
330
1D
100
AcDbEntity
  8
0
100
AcDbLine
 10
1.490220054130396
 20
267.2968215740316
 30
0.0
 11
153.5100000541303
 21
267.2968215740316
 31
0.0
  0
LINE
  5
64F
330
1D
100
AcDbEntity
  8
0
100
AcDbLine
 10
98.4915000541304
 20
214.0363315740316
 30
0.0
 11
98.8656000541304
 21
214.1605335740316
 31
0.0
  0
LINE
  5
650
330
1D
100
AcDbEntity
  8
0
100
AcDbLine
 10
92.04910005413038
 20
213.6518485740316
 30
0.0
 11
98.4915000541304
 21
214.0363315740316
 31
0.0
  0
LINE
  5
651
330
1D
100
AcDbEntity
  8
0
100
AcDbLine
 10
98.8656000541304
 20
214.1605335740316
 30
0.0
 11
99.1354000541304
 21
214.4492515740317
 31
0.0
  0
LINE
  5
652
330
1D
100
AcDbEntity
  8
0
100
AcDbLine
 10
99.1354000541304
 20
214.4492515740317
 30
0.0
 11
99.2358000541304
 21
214.8325515740316
 31
0.0
  0
LINE
  5
653
330
1D
100
AcDbEntity
  8
0
100
AcDbLine
 10
73.48910005413038
 20
246.2968215740316
 30
0.0
 11
75.74140005413039
 21
246.2968215740316
 31
0.0
  0
LINE
  5
654
330
1D
100
AcDbEntity
  8
0
100
AcDbLine
 10
75.74140005413039
 20
246.2968215740316
 30
0.0
 11
78.0122000541304
 21
246.2968215740316
 31
0.0
  0
LINE
  5
655
330
1D
100
AcDbEntity
  8
0
100
AcDbLine
 10
78.0122000541304
 20
246.2968215740316
 30
0.0
 11
80.2778000541304
 21
246.2968215740316
 31
0.0
  0
LINE
  5
656
330
1D
100
AcDbEntity
  8
0
100
AcDbLine
 10
80.2778000541304
 20
246.2968215740316
 30
0.0
 11
82.5128000541304
 21
246.2968215740316
 31
0.0
  0
LINE
  5
657
330
1D
100
AcDbEntity
  8
0
100
AcDbLine
 10
99.2358000541304
 20
214.8325515740316
 30
0.0
 11
99.50000005413039
 21
245.9922215740316
 31
0.0
  0
LINE
  5
658
330
1D
100
AcDbEntity
  8
0
100
AcDbLine
 10
82.5128000541304
 20
246.2968215740316
 30
0.0
 11
84.6928000541304
 21
246.2968215740316
 31
0.0
  0
LINE
  5
659
330
1D
100
AcDbEntity
  8
0
100
AcDbLine
 10
84.6928000541304
 20
246.2968215740316
 30
0.0
 11
86.7943000541304
 21
246.2968215740316
 31
0.0
  0
LINE
  5
65A
330
1D
100
AcDbEntity
  8
0
100
AcDbLine
 10
86.7943000541304
 20
246.2968215740316
 30
0.0
 11
88.79350005413039
 21
246.2968215740316
 31
0.0
  0
LINE
  5
65B
330
1D
100
AcDbEntity
  8
0
100
AcDbLine
 10
88.79350005413039
 20
246.2968215740316
 30
0.0
 11
90.66900005413039
 21
246.2968215740316
 31
0.0
  0
LINE
  5
65C
330
1D
100
AcDbEntity
  8
0
100
AcDbLine
 10
90.66900005413039
 20
246.2968215740316
 30
0.0
 11
92.40090005413039
 21
246.2968215740316
 31
0.0
  0
LINE
  5
65D
330
1D
100
AcDbEntity
  8
0
100
AcDbLine
 10
92.40090005413039
 20
246.2968215740316
 30
0.0
 11
93.96890005413039
 21
246.2968215740316
 31
0.0
  0
LINE
  5
65E
330
1D
100
AcDbEntity
  8
0
100
AcDbLine
 10
93.96890005413039
 20
246.2968215740316
 30
0.0
 11
95.3566000541304
 21
246.2968215740316
 31
0.0
  0
LINE
  5
65F
330
1D
100
AcDbEntity
  8
0
100
AcDbLine
 10
97.5000000541304
 20
246.2968215740316
 30
0.0
 11
97.5000000541304
 21
247.2968215740316
 31
0.0
  0
LINE
  5
660
330
1D
100
AcDbEntity
  8
0
100
AcDbLine
 10
95.3566000541304
 20
246.2968215740316
 30
0.0
 11
96.5490000541304
 21
246.2968215740316
 31
0.0
  0
LINE
  5
661
330
1D
100
AcDbEntity
  8
0
100
AcDbLine
 10
96.5490000541304
 20
246.2968215740316
 30
0.0
 11
97.5325000541304
 21
246.2968215740316
 31
0.0
  0
LINE
  5
662
330
1D
100
AcDbEntity
  8
0
100
AcDbLine
 10
97.5325000541304
 20
246.2968215740316
 30
0.0
 11
98.29600005413041
 21
246.2968215740316
 31
0.0
  0
LINE
  5
663
330
1D
100
AcDbEntity
  8
0
100
AcDbLine
 10
98.29600005413041
 20
246.2968215740316
 30
0.0
 11
98.83240005413041
 21
246.2968215740316
 31
0.0
  0
LINE
  5
664
330
1D
100
AcDbEntity
  8
0
100
AcDbLine
 10
98.83240005413041
 20
246.2968215740316
 30
0.0
 11
99.1344000541304
 21
246.2968215740316
 31
0.0
  0
LINE
  5
665
330
1D
100
AcDbEntity
  8
0
100
AcDbLine
 10
97.5000000541304
 20
247.2968215740316
 30
0.0
 11
97.5000000541304
 21
246.2968215740316
 31
0.0
  0
LINE
  5
666
330
1D
100
AcDbEntity
  8
0
100
AcDbLine
 10
99.1344000541304
 20
246.2968215740316
 30
0.0
 11
99.2000000541304
 21
246.2968215740316
 31
0.0
  0
LINE
  5
667
330
1D
100
AcDbEntity
  8
0
100
AcDbLine
 10
153.2154132912704
 20
248.0585521637436
 30
0.0
 11
153.3020000541304
 21
248.0594215740316
 31
0.0
  0
LINE
  5
668
330
1D
100
AcDbEntity
  8
0
100
AcDbLine
 10
153.2154132912704
 20
248.0585521637436
 30
0.0
 11
153.3020000541304
 21
248.0594215740316
 31
0.0
  0
LINE
  5
669
330
1D
100
AcDbEntity
  8
0
100
AcDbLine
 10
111.7520000541304
 20
247.6422215740316
 30
0.0
 11
152.8219809156944
 21
248.0546017428746
 31
0.0
  0
LINE
  5
66A
330
1D
100
AcDbEntity
  8
0
100
AcDbLine
 10
111.7520000541304
 20
247.6422215740316
 30
0.0
 11
152.8219809156944
 21
248.0546017428746
 31
0.0
  0
LINE
  5
66B
330
1D
100
AcDbEntity
  8
0
100
AcDbLine
 10
153.3020000541304
 20
248.0594215740316
 30
0.0
 11
153.5480000541304
 21
248.0628215740316
 31
0.0
  0
LINE
  5
66C
330
1D
100
AcDbEntity
  8
0
100
AcDbLine
 10
153.5710000541154
 20
248.0631501454596
 30
0.0
 11
153.7130000541304
 21
248.0651215740317
 31
0.0
  0
LINE
  5
66D
330
1D
100
AcDbEntity
  8
0
100
AcDbLine
 10
153.5710000541154
 20
248.0631501454596
 30
0.0
 11
153.7130000541304
 21
248.0651215740317
 31
0.0
  0
LINE
  5
66E
330
1D
100
AcDbEntity
  8
0
100
AcDbLine
 10
153.5480000541304
 20
248.0628215740316
 30
0.0
 11
153.6950000541304
 21
248.0649215740316
 31
0.0
  0
LINE
  5
66F
330
1D
100
AcDbEntity
  8
0
100
AcDbLine
 10
153.2160000541304
 20
248.0582215740316
 30
0.0
 11
153.3530000541303
 21
248.0601215740317
 31
0.0
  0
LINE
  5
670
330
1D
100
AcDbEntity
  8
0
100
AcDbLine
 10
153.2160000541304
 20
248.0582215740316
 30
0.0
 11
153.3991053174234
 21
248.0607636792967
 31
0.0
  0
LINE
  5
671
330
1D
100
AcDbEntity
  8
0
100
AcDbLine
 10
153.2160000541304
 20
248.0582215740316
 30
0.0
 11
153.3991053174234
 21
248.0607636792967
 31
0.0
  0
LINE
  5
672
330
1D
100
AcDbEntity
  8
0
100
AcDbLine
 10
153.7130000541304
 20
248.0651215740317
 30
0.0
 11
154.1990000541304
 21
248.2025215740316
 31
0.0
  0
LINE
  5
673
330
1D
100
AcDbEntity
  8
0
100
AcDbLine
 10
154.6930000541304
 20
249.0608215740317
 30
0.0
 11
155.0000000541304
 21
266.9875215740316
 31
0.0
  0
LINE
  5
674
330
1D
100
AcDbEntity
  8
0
100
AcDbLine
 10
154.4000000541304
 20
267.2968215740316
 30
0.0
 11
154.6860000541304
 21
267.2968215740316
 31
0.0
  0
LINE
  5
675
330
1D
100
AcDbEntity
  8
0
100
AcDbLine
 10
154.7020000541304
 20
267.2968215740316
 30
0.0
 11
154.8520000541304
 21
267.2552215740316
 31
0.0
  0
LINE
  5
676
330
1D
100
AcDbEntity
  8
0
100
AcDbLine
 10
154.8520000541304
 20
267.2552215740316
 30
0.0
 11
154.9620000541304
 21
267.1417215740316
 31
0.0
  0
LINE
  5
677
330
1D
100
AcDbEntity
  8
0
100
AcDbLine
 10
154.9620000541304
 20
267.1417215740316
 30
0.0
 11
155.0000000541304
 21
266.9875215740316
 31
0.0
  0
LINE
  5
678
330
1D
100
AcDbEntity
  8
0
100
AcDbLine
 10
153.8400000541304
 20
267.2968215740316
 30
0.0
 11
154.4000000541304
 21
267.2968215740316
 31
0.0
  0
LINE
  5
679
330
1D
100
AcDbEntity
  8
0
100
AcDbLine
 10
153.5100000541303
 20
267.2968215740316
 30
0.0
 11
153.8400000541304
 21
267.2968215740316
 31
0.0
  0
LINE
  5
67A
330
1D
100
AcDbEntity
  8
0
100
AcDbLine
 10
99.3510000541304
 20
246.2559215740316
 30
0.0
 11
99.4608000541304
 21
246.1443215740316
 31
0.0
  0
LINE
  5
67B
330
1D
100
AcDbEntity
  8
0
100
AcDbLine
 10
99.2000000541304
 20
246.2968215740316
 30
0.0
 11
99.3510000541304
 21
246.2559215740316
 31
0.0
  0
LINE
  5
67C
330
1D
100
AcDbEntity
  8
0
100
AcDbLine
 10
99.4608000541304
 20
246.1443215740316
 30
0.0
 11
99.50000005413039
 21
245.9922215740316
 31
0.0
  0
LINE
  5
67D
330
1D
100
AcDbEntity
  8
0
100
AcDbLine
 10
63.5075000541304
 20
213.6255555740316
 30
0.0
 11
92.04910005413038
 21
213.6518485740316
 31
0.0
  0
LINE
  5
67E
330
1D
100
AcDbEntity
  8
0
100
AcDbLine
 10
43.4707000541304
 20
247.6408215740316
 30
0.0
 11
57.50000005413039
 21
247.2968215740316
 31
0.0
  0
LINE
  5
67F
330
1D
100
AcDbEntity
  8
0
100
AcDbLine
 10
57.50000005413039
 20
247.2968215740316
 30
0.0
 11
97.5000000541304
 21
247.2968215740316
 31
0.0
  0
LINE
  5
680
330
1D
100
AcDbEntity
  8
0
100
AcDbLine
 10
97.5000000541304
 20
247.2968215740316
 30
0.0
 11
111.7520000541304
 21
247.6422215740316
 31
0.0
  0
LINE
  5
681
330
1D
100
AcDbEntity
  8
0
100
AcDbLine
 10
152.8219809156944
 20
248.0546017428746
 30
0.0
 11
153.2160000541304
 21
248.0582215740316
 31
0.0
  0
LINE
  5
682
330
1D
100
AcDbEntity
  8
0
100
AcDbLine
 10
154.1990000541304
 20
248.2025215740316
 30
0.0
 11
154.6930000541304
 21
249.0608215740317
 31
0.0
  0
LINE
  5
712
330
1D
100
AcDbEntity
  8
0
100
AcDbLine
 10
281.9255960257965
 20
23.01728991437467
 30
0.0
 11
282.0497980257965
 21
22.63398991437467
 31
0.0
  0
LINE
  5
713
330
1D
100
AcDbEntity
  8
0
100
AcDbLine
 10
282.0497980257965
 20
22.63398991437467
 30
0.0
 11
282.3385160257965
 21
22.36678991437467
 31
0.0
  0
LINE
  5
714
330
1D
100
AcDbEntity
  8
0
100
AcDbLine
 10
282.3385160257965
 20
22.36678991437467
 30
0.0
 11
282.7218160257965
 21
22.26738991437467
 31
0.0
  0
LINE
  5
715
330
1D
100
AcDbEntity
  8
0
100
AcDbLine
 10
281.9773400257965
 20
77.93238991437466
 30
0.0
 11
281.9773400257965
 21
77.57458991437466
 31
0.0
  0
LINE
  5
716
330
1D
100
AcDbEntity
  8
0
100
AcDbLine
 10
281.9773400257965
 20
78.05578991437467
 30
0.0
 11
282.0840690257965
 21
78.45038991437466
 31
0.0
  0
LINE
  5
717
330
1D
100
AcDbEntity
  8
0
100
AcDbLine
 10
281.9773400257965
 20
78.05578991437467
 30
0.0
 11
281.9773400257965
 21
77.93248991437467
 31
0.0
  0
LINE
  5
718
330
1D
100
AcDbEntity
  8
0
100
AcDbLine
 10
281.9773400257965
 20
77.93248991437467
 30
0.0
 11
281.9773400257965
 21
78.05578991437467
 31
0.0
  0
LINE
  5
719
330
1D
100
AcDbEntity
  8
0
100
AcDbLine
 10
281.9773400257965
 20
77.57458991437466
 30
0.0
 11
281.9773400257965
 21
77.93238991437466
 31
0.0
  0
LINE
  5
71A
330
1D
100
AcDbEntity
  8
0
100
AcDbLine
 10
281.9773400257965
 20
77.57458991437466
 30
0.0
 11
281.9773400257965
 21
77.01708991437467
 31
0.0
  0
LINE
  5
71B
330
1D
100
AcDbEntity
  8
0
100
AcDbLine
 10
281.9773400257965
 20
77.01708991437467
 30
0.0
 11
281.9773400257965
 21
77.57458991437466
 31
0.0
  0
LINE
  5
71C
330
1D
100
AcDbEntity
  8
0
100
AcDbLine
 10
281.9773400257965
 20
76.31468991437467
 30
0.0
 11
281.9773400257965
 21
77.01708991437467
 31
0.0
  0
LINE
  5
71D
330
1D
100
AcDbEntity
  8
0
100
AcDbLine
 10
281.9773400257965
 20
76.31468991437467
 30
0.0
 11
281.9773400257965
 21
75.53598991437467
 31
0.0
  0
LINE
  5
71E
330
1D
100
AcDbEntity
  8
0
100
AcDbLine
 10
281.9773400257965
 20
75.53598991437467
 30
0.0
 11
281.9773400257965
 21
76.31468991437467
 31
0.0
  0
LINE
  5
71F
330
1D
100
AcDbEntity
  8
0
100
AcDbLine
 10
282.0840690257965
 20
78.45038991437466
 30
0.0
 11
282.3759060257965
 21
78.74038991437465
 31
0.0
  0
LINE
  5
720
330
1D
100
AcDbEntity
  8
0
100
AcDbLine
 10
282.7218160257965
 20
22.26738991437467
 30
0.0
 11
292.9966860257965
 21
22.17318991437467
 31
0.0
  0
LINE
  5
721
330
1D
100
AcDbEntity
  8
0
100
AcDbLine
 10
282.7218160257965
 20
22.26738991437467
 30
0.0
 11
292.9966860257965
 21
22.17318991437467
 31
0.0
  0
LINE
  5
722
330
1D
100
AcDbEntity
  8
0
100
AcDbLine
 10
294.0102860257965
 20
15.49958991437466
 30
0.0
 11
294.8352860257965
 21
15.49958991437466
 31
0.0
  0
LINE
  5
723
330
1D
100
AcDbEntity
  8
0
100
AcDbLine
 10
293.4925860257965
 20
15.49958991437466
 30
0.0
 11
294.0102860257965
 21
15.49958991437466
 31
0.0
  0
LINE
  5
724
330
1D
100
AcDbEntity
  8
0
100
AcDbLine
 10
293.2984860257965
 20
15.49958991437466
 30
0.0
 11
293.4925860257965
 21
15.49958991437466
 31
0.0
  0
LINE
  5
725
330
1D
100
AcDbEntity
  8
0
100
AcDbLine
 10
294.8352860257965
 20
15.49958991437466
 30
0.0
 11
295.9352860257965
 21
15.49958991437466
 31
0.0
  0
LINE
  5
726
330
1D
100
AcDbEntity
  8
0
100
AcDbLine
 10
301.1764860257965
 20
15.49958991437466
 30
0.0
 11
302.2764860257965
 21
15.49958991437466
 31
0.0
  0
LINE
  5
727
330
1D
100
AcDbEntity
  8
0
100
AcDbLine
 10
299.9146860257965
 20
15.49958991437466
 30
0.0
 11
301.1764860257965
 21
15.49958991437466
 31
0.0
  0
LINE
  5
728
330
1D
100
AcDbEntity
  8
0
100
AcDbLine
 10
302.2764860257965
 20
15.49958991437466
 30
0.0
 11
303.1014860257965
 21
15.49958991437466
 31
0.0
  0
LINE
  5
729
330
1D
100
AcDbEntity
  8
0
100
AcDbLine
 10
303.1014860257965
 20
15.49958991437466
 30
0.0
 11
303.6190860257965
 21
15.49958991437466
 31
0.0
  0
LINE
  5
72A
330
1D
100
AcDbEntity
  8
0
100
AcDbLine
 10
303.6190860257965
 20
15.49958991437466
 30
0.0
 11
303.8132860257965
 21
15.49958991437466
 31
0.0
  0
LINE
  5
72B
330
1D
100
AcDbEntity
  8
0
100
AcDbLine
 10
303.8132860257965
 20
15.49958991437466
 30
0.0
 11
303.9749860257965
 21
15.69188991437466
 31
0.0
  0
LINE
  5
72C
330
1D
100
AcDbEntity
  8
0
100
AcDbLine
 10
298.5558860257965
 20
15.49958991437466
 30
0.0
 11
299.9146860257965
 21
15.49958991437466
 31
0.0
  0
LINE
  5
72D
330
1D
100
AcDbEntity
  8
0
100
AcDbLine
 10
295.9352860257965
 20
15.49958991437466
 30
0.0
 11
297.1969860257965
 21
15.49958991437466
 31
0.0
  0
LINE
  5
72E
330
1D
100
AcDbEntity
  8
0
100
AcDbLine
 10
293.1367860257965
 20
15.69188991437466
 30
0.0
 11
293.2984860257965
 21
15.49958991437466
 31
0.0
  0
LINE
  5
72F
330
1D
100
AcDbEntity
  8
0
100
AcDbLine
 10
293.0558860257965
 20
16.07648991437466
 30
0.0
 11
293.0558860257965
 21
22.18778009976167
 31
0.0
  0
LINE
  5
730
330
1D
100
AcDbEntity
  8
0
100
AcDbLine
 10
293.0558860257965
 20
16.07648991437466
 30
0.0
 11
293.1367860257965
 21
15.69188991437466
 31
0.0
  0
LINE
  5
731
330
1D
100
AcDbEntity
  8
0
100
AcDbLine
 10
297.1969860257965
 20
15.49958991437466
 30
0.0
 11
298.5558860257965
 21
15.49958991437466
 31
0.0
  0
LINE
  5
732
330
1D
100
AcDbEntity
  8
0
100
AcDbLine
 10
303.9749860257965
 20
15.69188991437466
 30
0.0
 11
304.0558860257965
 21
16.07648991437466
 31
0.0
  0
LINE
  5
733
330
1D
100
AcDbEntity
  8
0
100
AcDbLine
 10
304.0558860257965
 20
16.07648991437466
 30
0.0
 11
304.0558860257965
 21
22.10653260466867
 31
0.0
  0
LINE
  5
734
330
1D
100
AcDbEntity
  8
0
100
AcDbLine
 10
314.0335860257965
 20
22.03828991437466
 30
0.0
 11
314.1451860257965
 21
22.14768991437467
 31
0.0
  0
LINE
  5
735
330
1D
100
AcDbEntity
  8
0
100
AcDbLine
 10
313.8814860257965
 20
21.99958991437467
 30
0.0
 11
314.0335860257965
 21
22.03828991437466
 31
0.0
  0
LINE
  5
736
330
1D
100
AcDbEntity
  8
0
100
AcDbLine
 10
304.1686860257965
 20
22.07708991437467
 30
0.0
 11
313.8814860257965
 21
21.99958991437467
 31
0.0
  0
LINE
  5
737
330
1D
100
AcDbEntity
  8
0
100
AcDbLine
 10
304.0676011580185
 20
22.10445021858667
 30
0.0
 11
304.1686860257965
 21
22.07708991437467
 31
0.0
  0
LINE
  5
738
330
1D
100
AcDbEntity
  8
0
100
AcDbLine
 10
314.1451860257965
 20
22.14768991437467
 30
0.0
 11
314.1860860257965
 21
22.29698991437467
 31
0.0
  0
LINE
  5
739
330
1D
100
AcDbEntity
  8
0
100
AcDbLine
 10
304.0638860257965
 20
22.10448991437467
 30
0.0
 11
304.1686860257965
 21
22.07708991437467
 31
0.0
  0
LINE
  5
73A
330
1D
100
AcDbEntity
  8
0
100
AcDbLine
 10
303.8155860257965
 20
22.16788991437466
 30
0.0
 11
304.0638860257965
 21
22.10448991437467
 31
0.0
  0
LINE
  5
73B
330
1D
100
AcDbEntity
  8
0
100
AcDbLine
 10
303.4288860257965
 20
22.26128991437467
 30
0.0
 11
303.8155860257965
 21
22.16788991437466
 31
0.0
  0
LINE
  5
73C
330
1D
100
AcDbEntity
  8
0
100
AcDbLine
 10
314.1860860257965
 20
22.36198991437467
 30
0.0
 11
314.1860860257965
 21
22.66128991437467
 31
0.0
  0
LINE
  5
73D
330
1D
100
AcDbEntity
  8
0
100
AcDbLine
 10
314.1860860257965
 20
22.36198991437467
 30
0.0
 11
314.1860860257965
 21
22.29698991437467
 31
0.0
  0
LINE
  5
73E
330
1D
100
AcDbEntity
  8
0
100
AcDbLine
 10
314.1860860257965
 20
22.29698991437467
 30
0.0
 11
314.1860860257965
 21
22.36198991437467
 31
0.0
  0
LINE
  5
73F
330
1D
100
AcDbEntity
  8
0
100
AcDbLine
 10
302.9143860257965
 20
22.37508991437467
 30
0.0
 11
303.4288860257965
 21
22.26128991437467
 31
0.0
  0
LINE
  5
740
330
1D
100
AcDbEntity
  8
0
100
AcDbLine
 10
314.1860860257965
 20
22.66128991437467
 30
0.0
 11
314.1860860257965
 21
23.19298991437467
 31
0.0
  0
LINE
  5
741
330
1D
100
AcDbEntity
  8
0
100
AcDbLine
 10
314.1860860257965
 20
22.66128991437467
 30
0.0
 11
314.1860860257965
 21
22.36198991437467
 31
0.0
  0
LINE
  5
742
330
1D
100
AcDbEntity
  8
0
100
AcDbLine
 10
302.1336860257965
 20
22.52568991437467
 30
0.0
 11
302.9143860257965
 21
22.37508991437467
 31
0.0
  0
LINE
  5
743
330
1D
100
AcDbEntity
  8
0
100
AcDbLine
 10
301.2111860257965
 20
22.66828991437467
 30
0.0
 11
302.1336860257965
 21
22.52568991437467
 31
0.0
  0
LINE
  5
744
330
1D
100
AcDbEntity
  8
0
100
AcDbLine
 10
300.2005860257965
 20
22.77878991437467
 30
0.0
 11
301.2111860257965
 21
22.66828991437467
 31
0.0
  0
LINE
  5
745
330
1D
100
AcDbEntity
  8
0
100
AcDbLine
 10
299.1234860257965
 20
22.84368991437467
 30
0.0
 11
300.2005860257965
 21
22.77878991437467
 31
0.0
  0
LINE
  5
746
330
1D
100
AcDbEntity
  8
0
100
AcDbLine
 10
301.2103860257965
 20
65.89198991437466
 30
0.0
 11
301.5079860257965
 21
65.60158991437467
 31
0.0
  0
LINE
  5
747
330
1D
100
AcDbEntity
  8
0
100
AcDbLine
 10
301.5079860257965
 20
65.60158991437467
 30
0.0
 11
301.9135860257965
 21
65.49788991437466
 31
0.0
  0
LINE
  5
748
330
1D
100
AcDbEntity
  8
0
100
AcDbLine
 10
314.1860860257965
 20
23.99958991437467
 30
0.0
 11
315.3615324829425
 21
23.99958991437467
 31
0.0
  0
LINE
  5
749
330
1D
100
AcDbEntity
  8
0
100
AcDbLine
 10
314.0335860257965
 20
65.57288991437467
 30
0.0
 11
314.1451860257965
 21
65.46348991437466
 31
0.0
  0
LINE
  5
74A
330
1D
100
AcDbEntity
  8
0
100
AcDbLine
 10
314.1451860257965
 20
65.46348991437466
 30
0.0
 11
314.1860860257965
 21
65.31418991437466
 31
0.0
  0
LINE
  5
74B
330
1D
100
AcDbEntity
  8
0
100
AcDbLine
 10
313.8814860257965
 20
65.61158991437466
 30
0.0
 11
314.0335860257965
 21
65.57288991437467
 31
0.0
  0
LINE
  5
74C
330
1D
100
AcDbEntity
  8
0
100
AcDbLine
 10
301.9135860257965
 20
65.49788991437466
 30
0.0
 11
313.8814860257965
 21
65.61158991437466
 31
0.0
  0
LINE
  5
74D
330
1D
100
AcDbEntity
  8
0
100
AcDbLine
 10
314.1860860257965
 20
23.94978991437467
 30
0.0
 11
314.1860860257965
 21
24.92498991437467
 31
0.0
  0
LINE
  5
74E
330
1D
100
AcDbEntity
  8
0
100
AcDbLine
 10
314.1860860257965
 20
23.94978991437467
 30
0.0
 11
314.1860860257965
 21
23.19298991437467
 31
0.0
  0
LINE
  5
74F
330
1D
100
AcDbEntity
  8
0
100
AcDbLine
 10
314.1860860257965
 20
23.19298991437467
 30
0.0
 11
314.1860860257965
 21
23.94978991437467
 31
0.0
  0
LINE
  5
750
330
1D
100
AcDbEntity
  8
0
100
AcDbLine
 10
314.1860860257965
 20
23.19298991437467
 30
0.0
 11
314.1860860257965
 21
22.66128991437467
 31
0.0
  0
LINE
  5
751
330
1D
100
AcDbEntity
  8
0
100
AcDbLine
 10
298.5823860257965
 20
22.85558991437467
 30
0.0
 11
299.1234860257965
 21
22.84368991437467
 31
0.0
  0
LINE
  5
752
330
1D
100
AcDbEntity
  8
0
100
AcDbLine
 10
297.4274860257965
 20
22.83368991437467
 30
0.0
 11
298.5823860257965
 21
22.85558991437467
 31
0.0
  0
LINE
  5
753
330
1D
100
AcDbEntity
  8
0
100
AcDbLine
 10
296.3776860257965
 20
22.75948991437466
 30
0.0
 11
297.4274860257965
 21
22.83368991437467
 31
0.0
  0
LINE
  5
754
330
1D
100
AcDbEntity
  8
0
100
AcDbLine
 10
295.4175860257965
 20
22.64608991437467
 30
0.0
 11
296.3776860257965
 21
22.75948991437466
 31
0.0
  0
LINE
  5
755
330
1D
100
AcDbEntity
  8
0
100
AcDbLine
 10
294.5737860257965
 20
22.51128991437467
 30
0.0
 11
295.4175860257965
 21
22.64608991437467
 31
0.0
  0
LINE
  5
756
330
1D
100
AcDbEntity
  8
0
100
AcDbLine
 10
293.8876860257965
 20
22.37778991437467
 30
0.0
 11
294.5737860257965
 21
22.51128991437467
 31
0.0
  0
LINE
  5
757
330
1D
100
AcDbEntity
  8
0
100
AcDbLine
 10
293.3893860257965
 20
22.26758991437467
 30
0.0
 11
293.8876860257965
 21
22.37778991437467
 31
0.0
  0
LINE
  5
758
330
1D
100
AcDbEntity
  8
0
100
AcDbLine
 10
293.0883860257965
 20
22.19578991437467
 30
0.0
 11
293.3893860257965
 21
22.26758991437467
 31
0.0
  0
LINE
  5
759
330
1D
100
AcDbEntity
  8
0
100
AcDbLine
 10
292.9966860257965
 20
22.17318991437467
 30
0.0
 11
293.0558860257965
 21
22.18837938805867
 31
0.0
  0
LINE
  5
75A
330
1D
100
AcDbEntity
  8
0
100
AcDbLine
 10
292.9966860257965
 20
22.17318991437467
 30
0.0
 11
293.0558860257965
 21
22.18777191110167
 31
0.0
  0
LINE
  5
75B
330
1D
100
AcDbEntity
  8
0
100
AcDbLine
 10
292.9966860257965
 20
22.17318991437467
 30
0.0
 11
293.0883860257965
 21
22.19578991437467
 31
0.0
  0
LINE
  5
75C
330
1D
100
AcDbEntity
  8
0
100
AcDbLine
 10
314.1860860257965
 20
63.99958991437467
 30
0.0
 11
315.3622615199845
 21
63.99958991437467
 31
0.0
  0
LINE
  5
75D
330
1D
100
AcDbEntity
  8
0
100
AcDbLine
 10
314.1860860257965
 20
65.31418991437466
 30
0.0
 11
314.1860860257965
 21
65.14358991437467
 31
0.0
  0
LINE
  5
75E
330
1D
100
AcDbEntity
  8
0
100
AcDbLine
 10
314.1860860257965
 20
65.14358991437467
 30
0.0
 11
314.1860860257965
 21
65.31418991437466
 31
0.0
  0
LINE
  5
75F
330
1D
100
AcDbEntity
  8
0
100
AcDbLine
 10
314.1860860257965
 20
65.14358991437467
 30
0.0
 11
314.1860860257965
 21
64.73858991437467
 31
0.0
  0
LINE
  5
760
330
1D
100
AcDbEntity
  8
0
100
AcDbLine
 10
314.1860860257965
 20
64.73858991437467
 30
0.0
 11
314.1860860257965
 21
65.14358991437467
 31
0.0
  0
LINE
  5
761
330
1D
100
AcDbEntity
  8
0
100
AcDbLine
 10
314.1860860257965
 20
64.73858991437467
 30
0.0
 11
314.1860860257965
 21
64.10448991437466
 31
0.0
  0
LINE
  5
762
330
1D
100
AcDbEntity
  8
0
100
AcDbLine
 10
314.1860860257965
 20
64.10448991437466
 30
0.0
 11
314.1860860257965
 21
64.73858991437467
 31
0.0
  0
LINE
  5
763
330
1D
100
AcDbEntity
  8
0
100
AcDbLine
 10
314.1860860257965
 20
64.10448991437466
 30
0.0
 11
314.1860860257965
 21
63.24848991437466
 31
0.0
  0
LINE
  5
764
330
1D
100
AcDbEntity
  8
0
100
AcDbLine
 10
314.1860860257965
 20
63.24848991437466
 30
0.0
 11
314.1860860257965
 21
64.10448991437466
 31
0.0
  0
LINE
  5
765
330
1D
100
AcDbEntity
  8
0
100
AcDbLine
 10
314.1860860257965
 20
63.24848991437466
 30
0.0
 11
314.1860860257965
 21
24.92498991437467
 31
0.0
  0
LINE
  5
766
330
1D
100
AcDbEntity
  8
0
100
AcDbLine
 10
314.1860860257965
 20
24.92498991437467
 30
0.0
 11
314.1860860257965
 21
63.24848991437466
 31
0.0
  0
LINE
  5
767
330
1D
100
AcDbEntity
  8
0
100
AcDbLine
 10
314.1860860257965
 20
24.92498991437467
 30
0.0
 11
314.1860860257965
 21
23.94978991437467
 31
0.0
  0
LINE
  5
768
330
1D
100
AcDbEntity
  8
0
100
AcDbLine
 10
301.1012860257965
 20
75.53598991437467
 30
0.0
 11
301.1012860257965
 21
76.28838991437466
 31
0.0
  0
LINE
  5
769
330
1D
100
AcDbEntity
  8
0
100
AcDbLine
 10
301.1012860257965
 20
75.53598991437467
 30
0.0
 11
301.1012860257965
 21
66.14898991437467
 31
0.0
  0
LINE
  5
76A
330
1D
100
AcDbEntity
  8
0
100
AcDbLine
 10
301.1012860257965
 20
66.29038991437467
 30
0.0
 11
301.2103860257965
 21
65.89198991437466
 31
0.0
  0
LINE
  5
76B
330
1D
100
AcDbEntity
  8
0
100
AcDbLine
 10
300.9921860257965
 20
78.60498991437466
 30
0.0
 11
301.1012860257965
 21
78.17918991437466
 31
0.0
  0
LINE
  5
76C
330
1D
100
AcDbEntity
  8
0
100
AcDbLine
 10
301.1012860257965
 20
78.17918991437466
 30
0.0
 11
301.1012860257965
 21
77.96508991437467
 31
0.0
  0
LINE
  5
76D
330
1D
100
AcDbEntity
  8
0
100
AcDbLine
 10
301.1012860257965
 20
77.96508991437467
 30
0.0
 11
301.1012860257965
 21
77.55408991437467
 31
0.0
  0
LINE
  5
76E
330
1D
100
AcDbEntity
  8
0
100
AcDbLine
 10
301.1012860257965
 20
77.96508991437467
 30
0.0
 11
301.1012860257965
 21
78.17918991437466
 31
0.0
  0
LINE
  5
76F
330
1D
100
AcDbEntity
  8
0
100
AcDbLine
 10
301.1012860257965
 20
77.55408991437467
 30
0.0
 11
301.1012860257965
 21
76.97968991437466
 31
0.0
  0
LINE
  5
770
330
1D
100
AcDbEntity
  8
0
100
AcDbLine
 10
301.1012860257965
 20
77.55408991437467
 30
0.0
 11
301.1012860257965
 21
77.96508991437467
 31
0.0
  0
LINE
  5
771
330
1D
100
AcDbEntity
  8
0
100
AcDbLine
 10
301.1012860257965
 20
76.97968991437466
 30
0.0
 11
301.1012860257965
 21
76.28838991437466
 31
0.0
  0
LINE
  5
772
330
1D
100
AcDbEntity
  8
0
100
AcDbLine
 10
301.1012860257965
 20
76.97968991437466
 30
0.0
 11
301.1012860257965
 21
77.55408991437467
 31
0.0
  0
LINE
  5
773
330
1D
100
AcDbEntity
  8
0
100
AcDbLine
 10
301.1012860257965
 20
76.28838991437466
 30
0.0
 11
301.1012860257965
 21
75.53598991437467
 31
0.0
  0
LINE
  5
774
330
1D
100
AcDbEntity
  8
0
100
AcDbLine
 10
301.1012860257965
 20
76.28838991437466
 30
0.0
 11
301.1012860257965
 21
76.97968991437466
 31
0.0
  0
LINE
  5
775
330
1D
100
AcDbEntity
  8
0
100
AcDbLine
 10
301.1012860257965
 20
66.14898991437467
 30
0.0
 11
301.1012860257965
 21
75.53598991437467
 31
0.0
  0
LINE
  5
776
330
1D
100
AcDbEntity
  8
0
100
AcDbLine
 10
282.7755360257965
 20
78.84898991437466
 30
0.0
 11
300.2890860257965
 21
78.99958991437467
 31
0.0
  0
LINE
  5
777
330
1D
100
AcDbEntity
  8
0
100
AcDbLine
 10
300.6945860257965
 20
78.89558991437467
 30
0.0
 11
300.9921860257965
 21
78.60498991437466
 31
0.0
  0
LINE
  5
778
330
1D
100
AcDbEntity
  8
0
100
AcDbLine
 10
300.2890860257965
 20
78.99958991437467
 30
0.0
 11
300.6945860257965
 21
78.89558991437467
 31
0.0
  0
LINE
  5
779
330
1D
100
AcDbEntity
  8
0
100
AcDbLine
 10
282.7755360257965
 20
78.84898991437466
 30
0.0
 11
300.2890860257965
 21
78.99958991437467
 31
0.0
  0
LINE
  5
77A
330
1D
100
AcDbEntity
  8
0
100
AcDbLine
 10
282.3759060257965
 20
78.74038991437465
 30
0.0
 11
282.7755360257965
 21
78.84898991437466
 31
0.0
  0
LINE
  5
77B
330
1D
100
AcDbEntity
  8
0
100
AcDbLine
 10
315.4753860257965
 20
1.306999914374666
 30
0.0
 11
315.6081860257965
 21
0.8162949143746669
 31
0.0
  0
LINE
  5
77C
330
1D
100
AcDbEntity
  8
0
100
AcDbLine
 10
315.6081860257965
 20
0.8162949143746669
 30
0.0
 11
315.9718860257965
 21
0.4534129143746669
 31
0.0
  0
LINE
  5
77D
330
1D
100
AcDbEntity
  8
0
100
AcDbLine
 10
315.9718860257965
 20
0.4534129143746669
 30
0.0
 11
316.4782860257965
 21
0.3144679143746669
 31
0.0
  0
LINE
  5
77E
330
1D
100
AcDbEntity
  8
0
100
AcDbLine
 10
316.9608860257965
 20
0.3069999143746669
 30
0.0
 11
335.1107860257985
 21
-0.0000000856253331
 31
0.0
  0
LINE
  5
77F
330
1D
100
AcDbEntity
  8
0
100
AcDbLine
 10
316.9608860257965
 20
0.3069999143746669
 30
0.0
 11
335.1107860257965
 21
-0.0000000856253331
 31
0.0
  0
LINE
  5
780
330
1D
100
AcDbEntity
  8
0
100
AcDbLine
 10
316.4903860257965
 20
0.3149999143746669
 30
0.0
 11
316.9608860257965
 21
0.3069999143746669
 31
0.0
  0
LINE
  5
781
330
1D
100
AcDbEntity
  8
0
100
AcDbLine
 10
335.1107860257965
 20
-0.0000000856253331
 30
0.0
 11
335.2668860257965
 21
0.0379999143746669
 31
0.0
  0
LINE
  5
782
330
1D
100
AcDbEntity
  8
0
100
AcDbLine
 10
335.2668860257965
 20
0.0379999143746669
 30
0.0
 11
335.3817860257965
 21
0.1479999143746669
 31
0.0
  0
LINE
  5
783
330
1D
100
AcDbEntity
  8
0
100
AcDbLine
 10
335.2668860257965
 20
0.0379999143746669
 30
0.0
 11
335.3817860257965
 21
0.1479999143746669
 31
0.0
  0
LINE
  5
784
330
1D
100
AcDbEntity
  8
0
100
AcDbLine
 10
335.1107860257965
 20
-0.0000000856253331
 30
0.0
 11
335.2668860257965
 21
0.0379999143746669
 31
0.0
  0
LINE
  5
785
330
1D
100
AcDbEntity
  8
0
100
AcDbLine
 10
315.1217860257965
 20
103.4829999143747
 30
0.0
 11
315.2725860257965
 21
103.4439999143746
 31
0.0
  0
LINE
  5
786
330
1D
100
AcDbEntity
  8
0
100
AcDbLine
 10
315.2725860257965
 20
103.4439999143746
 30
0.0
 11
315.3832860257965
 21
103.3339999143746
 31
0.0
  0
LINE
  5
787
330
1D
100
AcDbEntity
  8
0
100
AcDbLine
 10
315.3832860257965
 20
103.3339999143746
 30
0.0
 11
315.4238860257965
 21
103.1839999143746
 31
0.0
  0
LINE
  5
788
330
1D
100
AcDbEntity
  8
0
100
AcDbLine
 10
316.4903860257965
 20
154.6849999143746
 30
0.0
 11
316.9608860257965
 21
154.6929999143746
 31
0.0
  0
LINE
  5
789
330
1D
100
AcDbEntity
  8
0
100
AcDbLine
 10
315.9851860257965
 20
154.5459999143746
 30
0.0
 11
316.4903860257965
 21
154.6849999143746
 31
0.0
  0
LINE
  5
78A
330
1D
100
AcDbEntity
  8
0
100
AcDbLine
 10
315.6171860257965
 20
154.1829999143747
 30
0.0
 11
315.9851860257965
 21
154.5459999143746
 31
0.0
  0
LINE
  5
78B
330
1D
100
AcDbEntity
  8
0
100
AcDbLine
 10
315.4826860257965
 20
153.6929999143746
 30
0.0
 11
315.6171860257965
 21
154.1829999143747
 31
0.0
  0
LINE
  5
78C
330
1D
100
AcDbEntity
  8
0
100
AcDbLine
 10
335.2668860257965
 20
154.9619999143746
 30
0.0
 11
335.3817860257965
 21
154.8519999143746
 31
0.0
  0
LINE
  5
78D
330
1D
100
AcDbEntity
  8
0
100
AcDbLine
 10
335.1107860257965
 20
154.9999999143746
 30
0.0
 11
335.2668860257965
 21
154.9619999143746
 31
0.0
  0
LINE
  5
78E
330
1D
100
AcDbEntity
  8
0
100
AcDbLine
 10
316.9608860257965
 20
154.6929999143746
 30
0.0
 11
335.1107860257965
 21
154.9999999143746
 31
0.0
  0
LINE
  5
78F
330
1D
100
AcDbEntity
  8
0
100
AcDbLine
 10
335.4238860257965
 20
0.313999914374667
 30
0.0
 11
335.4238860257965
 21
0.5989999143746669
 31
0.0
  0
LINE
  5
790
330
1D
100
AcDbEntity
  8
0
100
AcDbLine
 10
335.3817860257965
 20
154.8519999143746
 30
0.0
 11
335.4238860257965
 21
154.7019999143746
 31
0.0
  0
LINE
  5
791
330
1D
100
AcDbEntity
  8
0
100
AcDbLine
 10
335.4238860257965
 20
1.489999914374666
 30
0.0
 11
335.4238860257965
 21
153.5099999143747
 31
0.0
  0
LINE
  5
792
330
1D
100
AcDbEntity
  8
0
100
AcDbLine
 10
335.4238860257965
 20
0.5989999143746669
 30
0.0
 11
335.4238860257965
 21
1.159999914374666
 31
0.0
  0
LINE
  5
793
330
1D
100
AcDbEntity
  8
0
100
AcDbLine
 10
335.4238860257965
 20
153.7029999143746
 30
0.0
 11
335.4238860257965
 21
154.3019999143746
 31
0.0
  0
LINE
  5
794
330
1D
100
AcDbEntity
  8
0
100
AcDbLine
 10
335.4238860257965
 20
154.3019999143746
 30
0.0
 11
335.4238860257965
 21
154.6549999143746
 31
0.0
  0
LINE
  5
795
330
1D
100
AcDbEntity
  8
0
100
AcDbLine
 10
335.4238860257965
 20
153.5099999143747
 30
0.0
 11
335.4238860257965
 21
153.7029999143746
 31
0.0
  0
LINE
  5
796
330
1D
100
AcDbEntity
  8
0
100
AcDbLine
 10
335.4238860257965
 20
1.159999914374666
 30
0.0
 11
335.4238860257965
 21
1.489999914374666
 31
0.0
  0
LINE
  5
797
330
1D
100
AcDbEntity
  8
0
100
AcDbLine
 10
335.3817860257965
 20
0.1479999143746669
 30
0.0
 11
335.4238860257965
 21
0.2979999143746669
 31
0.0
  0
LINE
  5
798
330
1D
100
AcDbEntity
  8
0
100
AcDbLine
 10
315.4826860257965
 20
153.6929999143746
 30
0.0
 11
315.4238860257965
 21
103.1839999143746
 31
0.0
  0
LINE
  5
799
330
1D
100
AcDbEntity
  8
0
100
AcDbLine
 10
315.4238860257965
 20
103.1839999143746
 30
0.0
 11
315.4238860257965
 21
49.80019991437466
 31
0.0
  0
LINE
  5
79A
330
1D
100
AcDbEntity
  8
0
100
AcDbLine
 10
315.4238860257965
 20
49.80019991437466
 30
0.0
 11
315.4753860257965
 21
1.306999914374666
 31
0.0
  0
LINE
  5
79B
330
1D
100
AcDbEntity
  8
0
100
AcDbLine
 10
281.9773400257965
 20
75.53598991437467
 30
0.0
 11
281.9255960257965
 21
23.01728991437467
 31
0.0
  0
LINE
  5
79C
330
1D
100
AcDbEntity
  8
0
  6
CENTER2
 48
25.0
100
AcDbLine
 10
-31.37487670503924
 20
77.5
 30
0.0
 11
170.4223551291397
 21
77.5
 31
0.0
  0
LINE
  5
79F
330
1D
100
AcDbEntity
  8
0
  6
CENTER2
 48
25.0
100
AcDbLine
 10
271.7046182166287
 20
77.5
 30
0.0
 11
347.6663141277263
 21
77.5
 31
0.0
  0
LINE
  5
7A1
330
1D
100
AcDbEntity
  8
0
  6
CENTER2
 48
25.0
100
AcDbLine
 10
77.5
 20
-14.90371657182254
 30
0.0
 11
77.5
 21
167.6322714748094
 31
0.0
  0
LINE
  5
7A2
330
1D
100
AcDbEntity
  8
0
  6
CENTER2
 48
25.0
100
AcDbLine
 10
77.5
 20
207.5140846208756
 30
0.0
 11
77.5
 21
279.6081307551199
 31
0.0
  0
ENDSEC
  0
SECTION
  2
OBJECTS
  0
DICTIONARY
  5
C
330
0
100
AcDbDictionary
281
     1
  3
ACAD_CIP_PREVIOUS_PRODUCT_INFO
350
47E
  3
ACAD_COLOR
350
473
  3
ACAD_DETAILVIEWSTYLE
350
47A
  3
ACAD_GROUP
350
D
  3
ACAD_LAYOUT
350
1A
  3
ACAD_MATERIAL
350
441
  3
ACAD_MLEADERSTYLE
350
43B
  3
ACAD_MLINESTYLE
350
17
  3
ACAD_PLOTSETTINGS
350
19
  3
ACAD_PLOTSTYLENAME
350
E
  3
ACAD_SCALELIST
350
26B
  3
ACAD_SECTIONVIEWSTYLE
350
477
  3
ACAD_TABLESTYLE
350
474
  3
ACAD_VISUALSTYLE
350
45A
  3
ACDB_RECOMPOSE_DATA
350
803
  3
AcDbVariableDictionary
350
43C
  3
AcmDictionary
350
4AB
  3
AMG
350
480
  3
AMGSNAPSETTINGS
350
4E2
  3
DWGPROPS
350
804
  0
DICTIONARY
  5
7F5
330
10
100
AcDbDictionary
280
     1
281
     1
  3
ADSK_XREC_LAYER_RECONCILED
360
7F6
  0
DICTIONARY
  5
7F7
330
4E9
100
AcDbDictionary
280
     1
281
     1
  3
ADSK_XREC_LAYER_RECONCILED
360
7F8
  0
DICTIONARY
  5
4EC
330
1D
100
AcDbDictionary
280
     1
281
     1
  3
ACAD_SORTENTS
360
4ED
  0
XRECORD
  5
47E
102
{ACAD_REACTORS
330
C
102
}
330
C
100
AcDbXrecord
280
     1
300
AMECH_PP
300
2013
300
PDSS_F_S
  0
DICTIONARY
  5
473
102
{ACAD_REACTORS
330
C
102
}
330
C
100
AcDbDictionary
281
     1
  0
DICTIONARY
  5
47A
102
{ACAD_REACTORS
330
C
102
}
330
C
100
AcDbDictionary
281
     1
  3
Imperial24
350
47B
  0
DICTIONARY
  5
D
102
{ACAD_REACTORS
330
C
102
}
330
C
100
AcDbDictionary
281
     1
  0
DICTIONARY
  5
1A
102
{ACAD_REACTORS
330
C
102
}
330
C
100
AcDbDictionary
281
     1
  3
Layout1
350
1C
  3
Model
350
1E
  0
DICTIONARY
  5
441
102
{ACAD_REACTORS
330
C
102
}
330
C
100
AcDbDictionary
281
     1
  3
ByBlock
350
44A
  3
ByLayer
350
442
  3
Global
350
452
  0
DICTIONARY
  5
43B
102
{ACAD_REACTORS
330
C
102
}
330
C
100
AcDbDictionary
281
     1
  3
Standard
350
476
  0
DICTIONARY
  5
17
102
{ACAD_REACTORS
330
C
102
}
330
C
100
AcDbDictionary
281
     1
  3
Standard
350
18
  0
DICTIONARY
  5
19
102
{ACAD_REACTORS
330
C
102
}
330
C
100
AcDbDictionary
281
     1
  0
ACDBDICTIONARYWDFLT
  5
E
102
{ACAD_REACTORS
330
C
102
}
330
C
100
AcDbDictionary
281
     1
  3
Normal
350
F
100
AcDbDictionaryWithDefault
340
F
  0
DICTIONARY
  5
26B
102
{ACAD_REACTORS
330
C
102
}
330
C
100
AcDbDictionary
281
     1
  3
A0
350
26C
  3
A1
350
26D
  3
A2
350
26E
  3
A3
350
26F
  3
A4
350
270
  3
A5
350
271
  3
A6
350
272
  3
A7
350
273
  3
A8
350
274
  3
A9
350
275
  3
B0
350
276
  3
B1
350
277
  3
B2
350
278
  3
B3
350
279
  3
B4
350
27A
  3
B5
350
27B
  3
B6
350
27C
  3
B7
350
27D
  3
B8
350
27E
  3
B9
350
27F
  3
C0
350
280
  3
C1
350
281
  3
C2
350
282
  3
C3
350
283
  3
C4
350
284
  3
C5
350
285
  3
C6
350
286
  3
C7
350
287
  3
C8
350
288
  3
C9
350
289
  3
D0
350
28A
  3
D1
350
28B
  3
D2
350
28C
  0
DICTIONARY
  5
477
102
{ACAD_REACTORS
330
C
102
}
330
C
100
AcDbDictionary
281
     1
  3
Imperial24
350
479
  0
DICTIONARY
  5
474
102
{ACAD_REACTORS
330
C
102
}
330
C
100
AcDbDictionary
281
     1
  3
Standard
350
475
  0
DICTIONARY
  5
45A
102
{ACAD_REACTORS
330
C
102
}
330
C
100
AcDbDictionary
281
     1
  3
2dWireframe
350
460
  3
Basic
350
45F
  3
Brighten
350
466
  3
ColorChange
350
46A
  3
Conceptual
350
463
  3
Dim
350
465
  3
EdgeColorOff
350
472
  3
Facepattern
350
469
  3
Flat
350
45B
  3
FlatWithEdges
350
45C
  3
Gouraud
350
45D
  3
GouraudWithEdges
350
45E
  3
Hidden
350
462
  3
JitterOff
350
470
  3
Linepattern
350
468
  3
OverhangOff
350
471
  3
Realistic
350
464
  3
Shaded
350
46F
  3
Shaded with edges
350
46E
  3
Shades of Gray
350
46B
  3
Sketchy
350
46C
  3
Thicken
350
467
  3
Wireframe
350
461
  3
X-Ray
350
46D
  0
XRECORD
  5
803
102
{ACAD_REACTORS
330
C
102
}
330
C
100
AcDbXrecord
280
     1
 90
        1
330
475
  0
DICTIONARY
  5
43C
102
{ACAD_REACTORS
330
C
102
}
330
C
100
AcDbDictionary
281
     1
  3
CANNOSCALE
350
43D
  3
CMLEADERSTYLE
350
7FA
  3
CTABLESTYLE
350
7F9
  3
CVIEWDETAILSTYLE
350
7FB
  3
CVIEWSECTIONSTYLE
350
7FC
  3
DIMASSOC
350
7FF
  3
INDEXCTL
350
7FE
  3
SORTENTS
350
7FD
  3
XCLIPFRAME
350
800
  0
DICTIONARY
  5
4AB
102
{ACAD_REACTORS
330
C
102
}
330
C
100
AcDbDictionary
281
     1
  3
AcmStdDictionary
350
4B4
  0
DICTIONARY
  5
480
102
{ACAD_REACTORS
330
C
102
}
330
C
100
AcDbDictionary
281
     1
  0
DICTIONARY
  5
4E2
102
{ACAD_REACTORS
330
C
102
}
330
C
100
AcDbDictionary
281
     1
  0
XRECORD
  5
804
102
{ACAD_REACTORS
330
C
102
}
330
C
100
AcDbXrecord
280
     1
  1
DWGPROPS COOKIE
  2

  3

  4

  6

  7

  8
tomitais
  9

300
=
301
=
302
=
303
=
304
=
305
=
306
=
307
=
308
=
309
=
 40
0.0029904050925926
 41
2456462.999241713
 42
2457900.588408947
  1

 90
        0
  0
XRECORD
  5
7F6
102
{ACAD_REACTORS
330
7F5
102
}
330
7F5
100
AcDbXrecord
280
     1
290
     1
  0
XRECORD
  5
7F8
102
{ACAD_REACTORS
330
7F7
102
}
330
7F7
100
AcDbXrecord
280
     1
290
     1
  0
SORTENTSTABLE
  5
4ED
102
{ACAD_REACTORS
330
4EC
102
}
330
4EC
100
AcDbSortentsTable
330
1D
331
730
  5
738
331
3F8
  5
401
331
741
  5
749
331
409
  5
412
331
91
  5
D5
331
752
  5
75A
331
41A
  5
423
331
763
  5
76B
331
42B
  5
434
331
774
  5
77C
331
71C
  5
724
331
35C
  5
365
331
785
  5
78D
331
72D
  5
735
331
36D
  5
376
331
796
  5
79E
331
646
  5
64E
331
DE
  5
ED
331
657
  5
65F
331
377
  5
380
331
EF
  5
FF
331
62F
  5
637
331
668
  5
670
331
679
  5
681
331
399
  5
3A2
331
3AA
  5
3B3
331
122
  5
150
331
388
  5
391
331
3BB
  5
3C4
331
3DD
  5
3E6
331
3CC
  5
3D5
331
15C
  5
177
331
133
  5
159
331
3E8
  5
3F1
331
731
  5
739
331
3F9
  5
402
331
251
  5
356
331
742
  5
74A
331
40A
  5
413
331
753
  5
75B
331
41B
  5
424
331
764
  5
76C
331
42C
  5
435
331
775
  5
77D
331
71D
  5
725
331
35D
  5
366
331
786
  5
78E
331
72E
  5
736
331
36E
  5
377
331
797
  5
79F
331
647
  5
64F
331
DF
  5
EE
331
658
  5
660
331
378
  5
381
331
F0
  5
102
331
669
  5
671
331
389
  5
392
331
67A
  5
682
331
39A
  5
3A3
331
3AB
  5
3B4
331
112
  5
12B
331
630
  5
638
331
3BC
  5
3C5
331
3DE
  5
3E7
331
3CD
  5
3D6
331
15D
  5
185
331
134
  5
15A
331
3E9
  5
3F2
331
732
  5
73A
331
3FA
  5
403
331
252
  5
357
331
743
  5
74B
331
40B
  5
414
331
754
  5
75C
331
41C
  5
425
331
765
  5
76D
331
42D
  5
436
331
D5
  5
EB
331
776
  5
77E
331
71E
  5
726
331
35E
  5
367
331
787
  5
78F
331
72F
  5
737
331
36F
  5
378
331
798
  5
7A0
331
648
  5
650
331
659
  5
661
331
379
  5
382
331
631
  5
639
331
F1
  5
103
331
66A
  5
672
331
38A
  5
393
331
67B
  5
712
331
39B
  5
3A4
331
113
  5
12E
331
3AC
  5
3B5
331
102
  5
11E
331
3BD
  5
3C6
331
3DF
  5
3E8
331
3CE
  5
3D7
331
15E
  5
1DF
331
135
  5
15C
331
3E0
  5
3E9
331
3EA
  5
3F3
331
21
  5
2A
331
733
  5
73B
331
3FB
  5
404
331
253
  5
358
331
744
  5
74C
331
40C
  5
415
331
755
  5
75D
331
41D
  5
426
331
C5
  5
DF
331
766
  5
76E
331
42E
  5
437
331
D6
  5
EC
331
788
  5
790
331
777
  5
77F
331
71F
  5
727
331
35F
  5
368
331
649
  5
651
331
E1
  5
EF
331
799
  5
7A1
331
621
  5
629
331
65A
  5
662
331
37A
  5
383
331
66B
  5
673
331
38B
  5
394
331
103
  5
11F
331
67C
  5
713
331
39C
  5
3A5
331
114
  5
130
331
3BE
  5
3C7
331
136
  5
15D
331
3CF
  5
3D8
331
15F
  5
1E0
331
3AD
  5
3B6
331
632
  5
63A
331
3E1
  5
3EA
331
3D0
  5
3D9
331
3EB
  5
3F4
331
22
  5
2B
331
734
  5
73C
331
3FC
  5
405
331
254
  5
359
331
6C
  5
C7
331
745
  5
74D
331
40D
  5
416
331
756
  5
75E
331
41E
  5
427
331
767
  5
76F
331
42F
  5
438
331
789
  5
791
331
778
  5
780
331
720
  5
728
331
360
  5
369
331
64A
  5
652
331
E2
  5
F0
331
79A
  5
7A2
331
622
  5
62A
331
65B
  5
663
331
37B
  5
384
331
F3
  5
10B
331
66C
  5
674
331
38C
  5
395
331
67D
  5
714
331
3BF
  5
3C8
331
3AE
  5
3B7
331
39D
  5
3A6
331
633
  5
63B
331
3E2
  5
3EB
331
3D1
  5
3DA
331
3C0
  5
3C9
331
150
  5
15E
331
3EC
  5
3F5
331
23
  5
2C
331
735
  5
73D
331
3FD
  5
406
331
255
  5
35A
331
6D
  5
C8
331
746
  5
74E
331
40E
  5
417
331
757
  5
75F
331
41F
  5
428
331
C7
  5
E1
331
768
  5
770
331
430
  5
439
331
78A
  5
792
331
779
  5
781
331
721
  5
729
331
361
  5
36A
331
64B
  5
653
331
79B
  5
7A3
331
623
  5
62B
331
65C
  5
664
331
37C
  5
385
331
66D
  5
675
331
38D
  5
396
331
67E
  5
715
331
3AF
  5
3B8
331
39E
  5
3A7
331
634
  5
63C
331
3E3
  5
3EC
331
3D2
  5
3DB
331
3C1
  5
3CA
331
3B0
  5
3B9
331
736
  5
73E
331
3FE
  5
407
331
3ED
  5
3F6
331
174
  5
253
331
24
  5
5F
331
747
  5
74F
331
40F
  5
418
331
758
  5
760
331
420
  5
429
331
C8
  5
E2
331
769
  5
771
331
431
  5
4EB
331
78B
  5
793
331
77A
  5
782
331
722
  5
72A
331
362
  5
36B
331
64C
  5
654
331
624
  5
62C
331
65D
  5
665
331
37D
  5
386
331
79C
  5
26
331
66E
  5
676
331
38E
  5
397
331
635
  5
63D
331
67F
  5
716
331
39F
  5
3A8
331
680
  5
717
331
3A0
  5
3A9
331
3B1
  5
3BA
331
3E4
  5
3ED
331
3D3
  5
3DC
331
3C2
  5
3CB
331
152
  5
15F
331
3EE
  5
3F7
331
175
  5
254
331
25
  5
60
331
737
  5
73F
331
3FF
  5
408
331
6F
  5
C9
331
748
  5
750
331
410
  5
419
331
759
  5
761
331
421
  5
42A
331
C9
  5
E5
331
76A
  5
772
331
712
  5
71A
331
432
  5
621
331
352
  5
35B
331
78C
  5
794
331
77B
  5
783
331
723
  5
72B
331
363
  5
36C
331
64D
  5
655
331
E5
  5
F1
331
625
  5
62D
331
65E
  5
666
331
37E
  5
387
331
F6
  5
10C
331
636
  5
63E
331
66F
  5
677
331
38F
  5
398
331
670
  5
678
331
390
  5
399
331
681
  5
718
331
3A1
  5
3AA
331
3E5
  5
3EE
331
3D4
  5
3DD
331
3C3
  5
3CC
331
3B2
  5
3BB
331
12A
  5
152
331
176
  5
255
331
26
  5
6C
331
3EF
  5
3F8
331
1DF
  5
354
331
5F
  5
AF
331
738
  5
740
331
400
  5
409
331
70
  5
CB
331
749
  5
751
331
411
  5
41A
331
75A
  5
762
331
422
  5
42B
331
76B
  5
773
331
713
  5
71B
331
433
  5
622
331
353
  5
35C
331
78D
  5
795
331
77C
  5
784
331
724
  5
72C
331
364
  5
36D
331
64E
  5
656
331
626
  5
62E
331
65F
  5
667
331
37F
  5
388
331
F7
  5
10D
331
637
  5
63F
331
660
  5
668
331
380
  5
389
331
638
  5
640
331
671
  5
679
331
391
  5
39A
331
682
  5
719
331
3A2
  5
3AB
331
3C4
  5
3CD
331
3B3
  5
3BC
331
12B
  5
156
331
3E6
  5
3EF
331
3D5
  5
3DE
331
16D
  5
251
331
177
  5
352
331
27
  5
6D
331
3F0
  5
3F9
331
1E0
  5
355
331
60
  5
C5
331
739
  5
741
331
401
  5
40A
331
71
  5
CC
331
74A
  5
752
331
412
  5
41B
331
75B
  5
763
331
423
  5
42C
331
76C
  5
774
331
714
  5
71C
331
434
  5
623
331
354
  5
35D
331
CB
  5
E9
331
78E
  5
796
331
77D
  5
785
331
725
  5
72D
331
365
  5
36E
331
627
  5
62F
331
64F
  5
657
331
79F
  5
27
331
650
  5
658
331
370
  5
379
331
628
  5
630
331
661
  5
669
331
381
  5
38A
331
F9
  5
10E
331
639
  5
641
331
672
  5
67A
331
392
  5
39B
331
3C5
  5
3CE
331
3B4
  5
3BD
331
3A3
  5
3AC
331
3E7
  5
3F0
331
3D6
  5
3DF
331
16E
  5
252
331
73A
  5
742
331
402
  5
40B
331
3F1
  5
3FA
331
28
  5
6F
331
74B
  5
753
331
413
  5
41C
331
75C
  5
764
331
424
  5
42D
331
CC
  5
EA
331
76D
  5
775
331
715
  5
71D
331
435
  5
624
331
78F
  5
797
331
77E
  5
786
331
726
  5
72E
331
366
  5
36F
331
355
  5
35E
331
790
  5
798
331
640
  5
648
331
651
  5
659
331
371
  5
37A
331
E9
  5
F3
331
629
  5
631
331
662
  5
66A
331
382
  5
38B
331
FA
  5
112
331
63A
  5
642
331
673
  5
67B
331
393
  5
39C
331
10B
  5
120
331
7A1
  5
22
331
3B5
  5
3BE
331
3A4
  5
3AD
331
3D7
  5
3E0
331
3C6
  5
3CF
331
156
  5
16D
331
73B
  5
743
331
403
  5
40C
331
3F2
  5
3FB
331
29
  5
70
331
74C
  5
754
331
75D
  5
765
331
425
  5
42E
331
414
  5
41D
331
76E
  5
776
331
716
  5
71E
331
436
  5
625
331
77F
  5
787
331
727
  5
72F
331
367
  5
370
331
356
  5
35F
331
780
  5
788
331
728
  5
730
331
368
  5
371
331
791
  5
799
331
641
  5
649
331
652
  5
65A
331
372
  5
37B
331
EA
  5
F6
331
62A
  5
632
331
663
  5
66B
331
383
  5
38C
331
63B
  5
643
331
7A2
  5
24
331
674
  5
67C
331
394
  5
39D
331
10C
  5
121
331
3A5
  5
3AE
331
3B6
  5
3BF
331
12E
  5
157
331
3D8
  5
3E1
331
3C7
  5
3D0
331
157
  5
16E
331
73C
  5
744
331
404
  5
40D
331
3F3
  5
3FC
331
74D
  5
755
331
415
  5
41E
331
75E
  5
766
331
76F
  5
777
331
717
  5
71F
331
437
  5
626
331
357
  5
360
331
426
  5
42F
331
2A
  5
71
331
770
  5
778
331
718
  5
720
331
438
  5
627
331
358
  5
361
331
781
  5
789
331
729
  5
731
331
369
  5
372
331
792
  5
79A
331
642
  5
64A
331
653
  5
65B
331
373
  5
37C
331
EB
  5
F7
331
62B
  5
633
331
664
  5
66C
331
384
  5
38D
331
63C
  5
644
331
675
  5
67D
331
395
  5
39E
331
10D
  5
122
331
3B7
  5
3C0
331
3A6
  5
3AF
331
11E
  5
133
331
3D9
  5
3E2
331
3C8
  5
3D1
331
73D
  5
745
331
405
  5
40E
331
3F4
  5
3FD
331
2B
  5
91
331
158
  5
174
331
74E
  5
756
331
416
  5
41F
331
75F
  5
767
331
427
  5
430
331
AE
  5
D6
331
760
  5
768
331
428
  5
431
331
771
  5
779
331
719
  5
721
331
439
  5
628
331
359
  5
362
331
782
  5
78A
331
72A
  5
732
331
36A
  5
373
331
793
  5
79B
331
643
  5
64B
331
654
  5
65C
331
374
  5
37D
331
EC
  5
F9
331
62C
  5
634
331
665
  5
66D
331
385
  5
38E
331
63D
  5
645
331
676
  5
67E
331
396
  5
39F
331
10E
  5
12A
331
3A7
  5
3B0
331
11F
  5
134
331
3B8
  5
3C1
331
3DA
  5
3E3
331
3C9
  5
3D2
331
159
  5
175
331
73E
  5
746
331
406
  5
40F
331
3F5
  5
3FE
331
74F
  5
757
331
417
  5
420
331
AF
  5
DE
331
2C
  5
AE
331
130
  5
158
331
750
  5
758
331
418
  5
421
331
761
  5
769
331
429
  5
432
331
772
  5
77A
331
71A
  5
722
331
35A
  5
363
331
783
  5
78B
331
72B
  5
733
331
36B
  5
374
331
794
  5
79C
331
644
  5
64C
331
655
  5
65D
331
375
  5
37E
331
ED
  5
FA
331
62D
  5
635
331
666
  5
66E
331
386
  5
38F
331
FE
  5
113
331
63E
  5
646
331
677
  5
67F
331
397
  5
3A0
331
3B9
  5
3C2
331
3A8
  5
3B1
331
3DB
  5
3E4
331
3CA
  5
3D3
331
15A
  5
176
331
73F
  5
747
331
407
  5
410
331
3F6
  5
3FF
331
185
  5
353
331
120
  5
135
331
740
  5
748
331
408
  5
411
331
751
  5
759
331
419
  5
422
331
762
  5
76A
331
42A
  5
433
331
773
  5
77B
331
71B
  5
723
331
35B
  5
364
331
784
  5
78C
331
72C
  5
734
331
36C
  5
375
331
795
  5
79D
331
645
  5
64D
331
656
  5
65E
331
376
  5
37F
331
EE
  5
FE
331
62E
  5
636
331
667
  5
66F
331
387
  5
390
331
FF
  5
114
331
678
  5
680
331
398
  5
3A1
331
63F
  5
647
331
3F7
  5
400
331
3DC
  5
3E5
331
3CB
  5
3D4
331
3BA
  5
3C3
331
3A9
  5
3B2
331
121
  5
136
  0
ACDBDETAILVIEWSTYLE
  5
47B
102
{ACAD_REACTORS
330
47A
102
}
330
47A
100
AcDbModelDocViewStyle
 70
     0
  3
Imperial24
290
     0
100
AcDbDetailViewStyle
 70
     0
 71
     0
 90
        3
 71
     1
340
11
 40
0.24
340
0
 40
0.24
300

 40
0.36
280
     3
 71
     2
340
16
 90
       25
 71
     3
340
11
 40
0.24
 90
        1
 40
0.75
 90
        1
300
%<\AcVar ViewType \f "%tc1">% %<\AcVar ViewDetailId>%\PSCALE %<\AcVar ViewScale \f "%sn">%
 71
     4
340
16
 90
       25
340
16
 90
       25
280
     0
  0
LAYOUT
  5
1C
102
{ACAD_XDICTIONARY
360
805
102
}
102
{ACAD_REACTORS
330
1A
102
}
330
1A
100
AcDbPlotSettings
  1

  2
none_device
  4

  6

 40
0.0
 41
0.0
 42
0.0
 43
0.0
 44
0.0
 45
0.0
 46
0.0
 47
0.0
 48
0.0
 49
0.0
140
0.0
141
0.0
142
1.0
143
1.0
 70
   688
 72
     0
 73
     0
 74
     5
  7

 75
    16
147
1.0
148
0.0
149
0.0
100
AcDbLayout
  1
Layout1
 70
     1
 71
     1
 10
0.0
 20
0.0
 11
12.0
 21
9.0
 12
0.0
 22
0.0
 32
0.0
 14
1.000000000000000E+20
 24
1.000000000000000E+20
 34
1.000000000000000E+20
 15
-1.000000000000000E+20
 25
-1.000000000000000E+20
 35
-1.000000000000000E+20
146
0.0
 13
0.0
 23
0.0
 33
0.0
 16
1.0
 26
0.0
 36
0.0
 17
0.0
 27
1.0
 37
0.0
 76
     0
330
1B
  0
LAYOUT
  5
1E
102
{ACAD_XDICTIONARY
360
807
102
}
102
{ACAD_REACTORS
330
1A
102
}
330
1A
100
AcDbPlotSettings
  1

  2
none_device
  4

  6

 40
0.0
 41
0.0
 42
0.0
 43
0.0
 44
0.0
 45
0.0
 46
0.0
 47
0.0
 48
0.0
 49
0.0
140
0.0
141
0.0
142
1.0
143
1.0
 70
  1712
 72
     0
 73
     0
 74
     0
  7

 75
     0
147
1.0
148
0.0
149
0.0
100
AcDbLayout
  1
Model
 70
     1
 71
     0
 10
0.0
 20
0.0
 11
12.0
 21
9.0
 12
0.0
 22
0.0
 32
0.0
 14
0.0
 24
-0.0000000000000033
 34
0.0
 15
155.0
 25
155.0
 35
0.0
146
0.0
 13
0.0
 23
0.0
 33
0.0
 16
1.0
 26
0.0
 36
0.0
 17
0.0
 27
1.0
 37
0.0
 76
     0
330
1D
331
266
  0
MATERIAL
  5
44A
102
{ACAD_XDICTIONARY
360
44B
102
}
102
{ACAD_REACTORS
330
441
102
}
330
441
100
AcDbMaterial
  1
ByBlock
 72
     0
 43
0.0208333333333333
 43
0.0
 43
0.0
 43
0.0
 43
0.0
 43
0.0208333333333333
 43
0.0
 43
0.0
 43
0.0
 43
0.0
 43
1.0
 43
0.0
 43
0.0
 43
0.0
 43
0.0
 43
1.0
 77
     0
 47
0.0208333333333333
 47
0.0
 47
0.0
 47
0.0
 47
0.0
 47
0.0208333333333333
 47
0.0
 47
0.0
 47
0.0
 47
0.0
 47
1.0
 47
0.0
 47
0.0
 47
0.0
 47
0.0
 47
1.0
171
     0
 49
0.0208333333333333
 49
0.0
 49
0.0
 49
0.0
 49
0.0
 49
0.0208333333333333
 49
0.0
 49
0.0
 49
0.0
 49
0.0
 49
1.0
 49
0.0
 49
0.0
 49
0.0
 49
0.0
 49
1.0
175
     0
142
0.0208333333333333
142
0.0
142
0.0
142
0.0
142
0.0
142
0.0208333333333333
142
0.0
142
0.0
142
0.0
142
0.0
142
1.0
142
0.0
142
0.0
142
0.0
142
0.0
142
1.0
179
     0
144
0.0208333333333333
144
0.0
144
0.0
144
0.0
144
0.0
144
0.0208333333333333
144
0.0
144
0.0
144
0.0
144
0.0
144
1.0
144
0.0
144
0.0
144
0.0
144
0.0
144
1.0
147
0.0208333333333333
147
0.0
147
0.0
147
0.0
147
0.0
147
0.0208333333333333
147
0.0
147
0.0
147
0.0
147
0.0
147
1.0
147
0.0
147
0.0
147
0.0
147
0.0
147
1.0
  0
MATERIAL
  5
442
102
{ACAD_XDICTIONARY
360
443
102
}
102
{ACAD_REACTORS
330
441
102
}
330
441
100
AcDbMaterial
  1
ByLayer
 72
     0
 43
0.0208333333333333
 43
0.0
 43
0.0
 43
0.0
 43
0.0
 43
0.0208333333333333
 43
0.0
 43
0.0
 43
0.0
 43
0.0
 43
1.0
 43
0.0
 43
0.0
 43
0.0
 43
0.0
 43
1.0
 77
     0
 47
0.0208333333333333
 47
0.0
 47
0.0
 47
0.0
 47
0.0
 47
0.0208333333333333
 47
0.0
 47
0.0
 47
0.0
 47
0.0
 47
1.0
 47
0.0
 47
0.0
 47
0.0
 47
0.0
 47
1.0
171
     0
 49
0.0208333333333333
 49
0.0
 49
0.0
 49
0.0
 49
0.0
 49
0.0208333333333333
 49
0.0
 49
0.0
 49
0.0
 49
0.0
 49
1.0
 49
0.0
 49
0.0
 49
0.0
 49
0.0
 49
1.0
175
     0
142
0.0208333333333333
142
0.0
142
0.0
142
0.0
142
0.0
142
0.0208333333333333
142
0.0
142
0.0
142
0.0
142
0.0
142
1.0
142
0.0
142
0.0
142
0.0
142
0.0
142
1.0
179
     0
144
0.0208333333333333
144
0.0
144
0.0
144
0.0
144
0.0
144
0.0208333333333333
144
0.0
144
0.0
144
0.0
144
0.0
144
1.0
144
0.0
144
0.0
144
0.0
144
0.0
144
1.0
147
0.0208333333333333
147
0.0
147
0.0
147
0.0
147
0.0
147
0.0208333333333333
147
0.0
147
0.0
147
0.0
147
0.0
147
1.0
147
0.0
147
0.0
147
0.0
147
0.0
147
1.0
  0
MATERIAL
  5
452
102
{ACAD_XDICTIONARY
360
453
102
}
102
{ACAD_REACTORS
330
441
102
}
330
441
100
AcDbMaterial
  1
Global
 72
     0
 43
0.0208333333333333
 43
0.0
 43
0.0
 43
0.0
 43
0.0
 43
0.0208333333333333
 43
0.0
 43
0.0
 43
0.0
 43
0.0
 43
1.0
 43
0.0
 43
0.0
 43
0.0
 43
0.0
 43
1.0
 77
     0
 47
0.0208333333333333
 47
0.0
 47
0.0
 47
0.0
 47
0.0
 47
0.0208333333333333
 47
0.0
 47
0.0
 47
0.0
 47
0.0
 47
1.0
 47
0.0
 47
0.0
 47
0.0
 47
0.0
 47
1.0
171
     0
 49
0.0208333333333333
 49
0.0
 49
0.0
 49
0.0
 49
0.0
 49
0.0208333333333333
 49
0.0
 49
0.0
 49
0.0
 49
0.0
 49
1.0
 49
0.0
 49
0.0
 49
0.0
 49
0.0
 49
1.0
175
     0
142
0.0208333333333333
142
0.0
142
0.0
142
0.0
142
0.0
142
0.0208333333333333
142
0.0
142
0.0
142
0.0
142
0.0
142
1.0
142
0.0
142
0.0
142
0.0
142
0.0
142
1.0
179
     0
144
0.0208333333333333
144
0.0
144
0.0
144
0.0
144
0.0
144
0.0208333333333333
144
0.0
144
0.0
144
0.0
144
0.0
144
1.0
144
0.0
144
0.0
144
0.0
144
0.0
144
1.0
147
0.0208333333333333
147
0.0
147
0.0
147
0.0
147
0.0
147
0.0208333333333333
147
0.0
147
0.0
147
0.0
147
0.0
147
1.0
147
0.0
147
0.0
147
0.0
147
0.0
147
1.0
  0
MLEADERSTYLE
  5
476
102
{ACAD_XDICTIONARY
360
83E
102
}
102
{ACAD_REACTORS
330
43B
102
}
330
43B
100
AcDbMLeaderStyle
170
     2
171
     1
172
     0
 90
        2
 40
0.0
 41
0.0
173
     1
 91
-1056964608
340
14
 92
       -2
290
     1
 42
0.09
291
     1
 43
0.36
  3
Standard
 44
0.18
300

342
11
174
     1
178
     6
175
     1
176
     0
 93
-1056964608
 45
0.18
292
     0
297
     0
 46
0.18
 94
-1056964608
 47
1.0
 49
1.0
140
1.0
293
     1
141
0.0
294
     1
177
     0
142
1.0
295
     0
296
     0
143
0.125
1001
ACAD_MLEADERVER
1070
     2
  0
MLINESTYLE
  5
18
102
{ACAD_REACTORS
330
17
102
}
330
17
100
AcDbMlineStyle
  2
STANDARD
 70
     0
  3

 62
   256
 51
90.0
 52
90.0
 71
     2
 49
0.5
 62
   256
  6
BYLAYER
 49
-0.5
 62
   256
  6
BYLAYER
  0
ACDBPLACEHOLDER
  5
F
102
{ACAD_REACTORS
330
E
102
}
330
E
  0
SCALE
  5
26C
102
{ACAD_REACTORS
330
26B
102
}
330
26B
100
AcDbScale
 70
     0
300
1:1
140
1.0
141
1.0
290
     1
  0
SCALE
  5
26D
102
{ACAD_REACTORS
330
26B
102
}
330
26B
100
AcDbScale
 70
     0
300
1:2
140
1.0
141
2.0
290
     0
  0
SCALE
  5
26E
102
{ACAD_REACTORS
330
26B
102
}
330
26B
100
AcDbScale
 70
     0
300
1:4
140
1.0
141
4.0
290
     0
  0
SCALE
  5
26F
102
{ACAD_REACTORS
330
26B
102
}
330
26B
100
AcDbScale
 70
     0
300
1:5
140
1.0
141
5.0
290
     0
  0
SCALE
  5
270
102
{ACAD_REACTORS
330
26B
102
}
330
26B
100
AcDbScale
 70
     0
300
1:8
140
1.0
141
8.0
290
     0
  0
SCALE
  5
271
102
{ACAD_REACTORS
330
26B
102
}
330
26B
100
AcDbScale
 70
     0
300
1:10
140
1.0
141
10.0
290
     0
  0
SCALE
  5
272
102
{ACAD_REACTORS
330
26B
102
}
330
26B
100
AcDbScale
 70
     0
300
1:16
140
1.0
141
16.0
290
     0
  0
SCALE
  5
273
102
{ACAD_REACTORS
330
26B
102
}
330
26B
100
AcDbScale
 70
     0
300
1:20
140
1.0
141
20.0
290
     0
  0
SCALE
  5
274
102
{ACAD_REACTORS
330
26B
102
}
330
26B
100
AcDbScale
 70
     0
300
1:30
140
1.0
141
30.0
290
     0
  0
SCALE
  5
275
102
{ACAD_REACTORS
330
26B
102
}
330
26B
100
AcDbScale
 70
     0
300
1:40
140
1.0
141
40.0
290
     0
  0
SCALE
  5
276
102
{ACAD_REACTORS
330
26B
102
}
330
26B
100
AcDbScale
 70
     0
300
1:50
140
1.0
141
50.0
290
     0
  0
SCALE
  5
277
102
{ACAD_REACTORS
330
26B
102
}
330
26B
100
AcDbScale
 70
     0
300
1:100
140
1.0
141
100.0
290
     0
  0
SCALE
  5
278
102
{ACAD_REACTORS
330
26B
102
}
330
26B
100
AcDbScale
 70
     0
300
2:1
140
2.0
141
1.0
290
     0
  0
SCALE
  5
279
102
{ACAD_REACTORS
330
26B
102
}
330
26B
100
AcDbScale
 70
     0
300
4:1
140
4.0
141
1.0
290
     0
  0
SCALE
  5
27A
102
{ACAD_REACTORS
330
26B
102
}
330
26B
100
AcDbScale
 70
     0
300
8:1
140
8.0
141
1.0
290
     0
  0
SCALE
  5
27B
102
{ACAD_REACTORS
330
26B
102
}
330
26B
100
AcDbScale
 70
     0
300
10:1
140
10.0
141
1.0
290
     0
  0
SCALE
  5
27C
102
{ACAD_REACTORS
330
26B
102
}
330
26B
100
AcDbScale
 70
     0
300
100:1
140
100.0
141
1.0
290
     0
  0
SCALE
  5
27D
102
{ACAD_REACTORS
330
26B
102
}
330
26B
100
AcDbScale
 70
     0
300
1/128" = 1'-0"
140
0.0078125
141
12.0
290
     0
  0
SCALE
  5
27E
102
{ACAD_REACTORS
330
26B
102
}
330
26B
100
AcDbScale
 70
     0
300
1/64" = 1'-0"
140
0.015625
141
12.0
290
     0
  0
SCALE
  5
27F
102
{ACAD_REACTORS
330
26B
102
}
330
26B
100
AcDbScale
 70
     0
300
1/32" = 1'-0"
140
0.03125
141
12.0
290
     0
  0
SCALE
  5
280
102
{ACAD_REACTORS
330
26B
102
}
330
26B
100
AcDbScale
 70
     0
300
1/16" = 1'-0"
140
0.0625
141
12.0
290
     0
  0
SCALE
  5
281
102
{ACAD_REACTORS
330
26B
102
}
330
26B
100
AcDbScale
 70
     0
300
3/32" = 1'-0"
140
0.09375
141
12.0
290
     0
  0
SCALE
  5
282
102
{ACAD_REACTORS
330
26B
102
}
330
26B
100
AcDbScale
 70
     0
300
1/8" = 1'-0"
140
0.125
141
12.0
290
     0
  0
SCALE
  5
283
102
{ACAD_REACTORS
330
26B
102
}
330
26B
100
AcDbScale
 70
     0
300
3/16" = 1'-0"
140
0.1875
141
12.0
290
     0
  0
SCALE
  5
284
102
{ACAD_REACTORS
330
26B
102
}
330
26B
100
AcDbScale
 70
     0
300
1/4" = 1'-0"
140
0.25
141
12.0
290
     0
  0
SCALE
  5
285
102
{ACAD_REACTORS
330
26B
102
}
330
26B
100
AcDbScale
 70
     0
300
3/8" = 1'-0"
140
0.375
141
12.0
290
     0
  0
SCALE
  5
286
102
{ACAD_REACTORS
330
26B
102
}
330
26B
100
AcDbScale
 70
     0
300
1/2" = 1'-0"
140
0.5
141
12.0
290
     0
  0
SCALE
  5
287
102
{ACAD_REACTORS
330
26B
102
}
330
26B
100
AcDbScale
 70
     0
300
3/4" = 1'-0"
140
0.75
141
12.0
290
     0
  0
SCALE
  5
288
102
{ACAD_REACTORS
330
26B
102
}
330
26B
100
AcDbScale
 70
     0
300
1" = 1'-0"
140
1.0
141
12.0
290
     0
  0
SCALE
  5
289
102
{ACAD_REACTORS
330
26B
102
}
330
26B
100
AcDbScale
 70
     0
300
1-1/2" = 1'-0"
140
1.5
141
12.0
290
     0
  0
SCALE
  5
28A
102
{ACAD_REACTORS
330
26B
102
}
330
26B
100
AcDbScale
 70
     0
300
3" = 1'-0"
140
3.0
141
12.0
290
     0
  0
SCALE
  5
28B
102
{ACAD_REACTORS
330
26B
102
}
330
26B
100
AcDbScale
 70
     0
300
6" = 1'-0"
140
6.0
141
12.0
290
     0
  0
SCALE
  5
28C
102
{ACAD_REACTORS
330
26B
102
}
330
26B
100
AcDbScale
 70
     0
300
1'-0" = 1'-0"
140
12.0
141
12.0
290
     0
  0
ACDBSECTIONVIEWSTYLE
  5
479
102
{ACAD_REACTORS
330
477
102
}
330
477
100
AcDbModelDocViewStyle
 70
     0
  3
Imperial24
290
     0
100
AcDbSectionViewStyle
 70
     0
 71
     0
 90
       78
 71
     1
340
11
 40
0.24
340
0
340
0
 40
0.24
300
I, O, Q, S, X, Z
 40
0.48
 90
        3
 40
0.18
 90
        1
 71
     2
340
478
 90
       25
340
16
 90
       50
 40
0.24
 40
0.0
 40
0.24
 71
     3
340
11
 40
0.24
 90
        1
 40
0.75
 90
        1
300
%<\AcVar ViewType \f "%tc1">% %<\AcVar ViewSectionStartId>%-%<\AcVar ViewSectionEndId>%\PSCALE %<\AcVar ViewScale \f "%sn">%
 71
     4
300
ANSI31
 40
1.0
 90
        0
290
     0
290
     0
 90
        6
 40
0.0
 40
1.570796326794896
 40
0.2617993877991494
 40
1.308996938995747
 40
-0.2617993877991494
 40
1.832595714594046
  0
TABLESTYLE
  5
475
102
{ACAD_XDICTIONARY
360
801
102
}
102
{ACAD_REACTORS
330
474
102
}
330
474
100
AcDbTableStyle
  3
Standard
 70
     0
 71
     0
 40
0.06
 41
0.06
280
     0
281
     0
  7
Standard
140
0.18
170
     2
 62
     0
 63
     7
283
     0
274
    -2
284
     1
 64
     0
275
    -2
285
     1
 65
     0
276
    -2
286
     1
 66
     0
277
    -2
287
     1
 67
     0
278
    -2
288
     1
 68
     0
279
    -2
289
     1
 69
     0
  7
Standard
140
0.25
170
     5
 62
     0
 63
     7
283
     0
274
    -2
284
     1
 64
     0
275
    -2
285
     1
 65
     0
276
    -2
286
     1
 66
     0
277
    -2
287
     1
 67
     0
278
    -2
288
     1
 68
     0
279
    -2
289
     1
 69
     0
  7
Standard
140
0.18
170
     5
 62
     0
 63
     7
283
     0
274
    -2
284
     1
 64
     0
275
    -2
285
     1
 65
     0
276
    -2
286
     1
 66
     0
277
    -2
287
     1
 67
     0
278
    -2
288
     1
 68
     0
279
    -2
289
     1
 69
     0
  0
VISUALSTYLE
  5
460
102
{ACAD_XDICTIONARY
360
816
102
}
102
{ACAD_REACTORS
330
45A
102
}
330
45A
100
AcDbVisualStyle
  2
2dWireframe
 70
     4
 71
     0
 72
     2
 73
     0
 90
        0
 40
-0.6
 41
-30.0
 62
     5
 63
     7
 74
     1
 91
        4
 64
     7
 65
   257
 75
     1
175
     1
 42
1.0
 92
        0
 66
   257
 43
1.0
 76
     1
 77
     6
 78
     2
 67
     7
 79
     5
170
     0
171
     0
290
     0
174
     0
 93
        1
 44
0.0
173
     0
291
     0
 45
0.0
1001
ACAD
1000
AcDbSavedByObjectVersion
1070
     0
  0
VISUALSTYLE
  5
45F
102
{ACAD_XDICTIONARY
360
814
102
}
102
{ACAD_REACTORS
330
45A
102
}
330
45A
100
AcDbVisualStyle
  2
Basic
 70
     7
 71
     1
 72
     0
 73
     1
 90
        0
 40
-0.6
 41
-30.0
 62
     5
 63
     7
 74
     0
 91
        4
 64
     7
 65
   257
 75
     1
175
     1
 42
1.0
 92
        8
 66
     7
 43
1.0
 76
     1
 77
     6
 78
     2
 67
     7
 79
     5
170
     0
171
     0
290
     0
174
     0
 93
        1
 44
0.0
173
     0
291
     1
 45
0.0
1001
ACAD
1000
AcDbSavedByObjectVersion
1070
     0
  0
VISUALSTYLE
  5
466
102
{ACAD_XDICTIONARY
360
822
102
}
102
{ACAD_REACTORS
330
45A
102
}
330
45A
100
AcDbVisualStyle
  2
Brighten
 70
    12
 71
     2
 72
     2
 73
     0
 90
        0
 40
-0.6
 41
-30.0
 62
     5
 63
     7
 74
     1
 91
        4
 64
     7
 65
   257
 75
     1
175
     1
 42
1.0
 92
        8
 66
     7
 43
1.0
 76
     1
 77
     6
 78
     2
 67
     7
 79
     5
170
     0
171
     0
290
     0
174
     0
 93
        1
 44
50.0
173
     0
291
     1
 45
0.0
1001
ACAD
1000
AcDbSavedByObjectVersion
1070
     0
  0
VISUALSTYLE
  5
46A
102
{ACAD_XDICTIONARY
360
82A
102
}
102
{ACAD_REACTORS
330
45A
102
}
330
45A
100
AcDbVisualStyle
  2
ColorChange
 70
    16
 71
     2
 72
     2
 73
     3
 90
        0
 40
-0.6
 41
-30.0
 62
     5
 63
     8
 74
     1
 91
        4
 64
     7
 65
   257
 75
     1
175
     1
 42
1.0
 92
        8
 66
     8
 43
1.0
 76
     1
 77
     6
 78
     2
 67
     7
 79
     5
170
     0
171
     0
290
     0
174
     0
 93
        1
 44
0.0
173
     0
291
     1
 45
0.0
1001
ACAD
1000
AcDbSavedByObjectVersion
1070
     0
  0
VISUALSTYLE
  5
463
102
{ACAD_XDICTIONARY
360
81C
102
}
102
{ACAD_REACTORS
330
45A
102
}
330
45A
100
AcDbVisualStyle
  2
Conceptual
 70
     9
 71
     3
 72
     2
 73
     0
 90
        0
 40
-0.6
 41
-30.0
 62
     5
 63
     7
 74
     2
 91
        2
 64
     7
 65
   257
 75
     1
175
     1
 42
179.0
 92
        8
 66
     7
 43
1.0
 76
     1
 77
     6
 78
     2
 67
     7
 79
     3
170
     0
171
     0
290
     0
174
     0
 93
        1
 44
0.0
173
     0
291
     0
 45
0.0
1001
ACAD
1000
AcDbSavedByObjectVersion
1070
     0
  0
VISUALSTYLE
  5
465
102
{ACAD_XDICTIONARY
360
820
102
}
102
{ACAD_REACTORS
330
45A
102
}
330
45A
100
AcDbVisualStyle
  2
Dim
 70
    11
 71
     2
 72
     2
 73
     0
 90
        0
 40
-0.6
 41
-30.0
 62
     5
 63
     7
 74
     1
 91
        4
 64
     7
 65
   257
 75
     1
175
     1
 42
1.0
 92
        8
 66
     7
 43
1.0
 76
     1
 77
     6
 78
     2
 67
     7
 79
     5
170
     0
171
     0
290
     0
174
     0
 93
        1
 44
-50.0
173
     0
291
     1
 45
0.0
1001
ACAD
1000
AcDbSavedByObjectVersion
1070
     0
  0
VISUALSTYLE
  5
472
102
{ACAD_XDICTIONARY
360
83A
102
}
102
{ACAD_REACTORS
330
45A
102
}
330
45A
100
AcDbVisualStyle
  2
EdgeColorOff
 70
    22
 71
     2
 72
     2
 73
     0
 90
        0
 40
-0.6
 41
-30.0
 62
     5
 63
     7
 74
     1
 91
        4
 64
     7
 65
   257
 75
     1
175
     1
 42
1.0
 92
        8
 66
     7
 43
1.0
 76
     1
 77
     6
 78
     2
 67
     7
 79
     5
170
     0
171
     0
290
     0
174
     0
 93
        1
 44
0.0
173
     0
291
     1
 45
0.0
1001
ACAD
1000
AcDbSavedByObjectVersion
1070
     0
  0
VISUALSTYLE
  5
469
102
{ACAD_XDICTIONARY
360
828
102
}
102
{ACAD_REACTORS
330
45A
102
}
330
45A
100
AcDbVisualStyle
  2
Facepattern
 70
    15
 71
     2
 72
     2
 73
     0
 90
        0
 40
-0.6
 41
-30.0
 62
     5
 63
     7
 74
     1
 91
        4
 64
     7
 65
   257
 75
     1
175
     1
 42
1.0
 92
        8
 66
     7
 43
1.0
 76
     1
 77
     6
 78
     2
 67
     7
 79
     5
170
     0
171
     0
290
     0
174
     0
 93
        1
 44
0.0
173
     0
291
     1
 45
0.0
1001
ACAD
1000
AcDbSavedByObjectVersion
1070
     0
  0
VISUALSTYLE
  5
45B
102
{ACAD_XDICTIONARY
360
80C
102
}
102
{ACAD_REACTORS
330
45A
102
}
330
45A
100
AcDbVisualStyle
  2
Flat
 70
     0
 71
     2
 72
     1
 73
     1
 90
        2
 40
-0.6
 41
30.0
 62
     5
 63
     7
 74
     0
 91
        0
 64
     7
 65
   257
 75
     1
175
     1
 42
1.0
 92
        8
 66
     7
 43
1.0
 76
     1
 77
     6
 78
     2
 67
     7
 79
     5
170
     0
171
     0
290
     0
174
     0
 93
       13
 44
0.0
173
     0
291
     1
 45
0.0
1001
ACAD
1000
AcDbSavedByObjectVersion
1070
     0
  0
VISUALSTYLE
  5
45C
102
{ACAD_XDICTIONARY
360
80E
102
}
102
{ACAD_REACTORS
330
45A
102
}
330
45A
100
AcDbVisualStyle
  2
FlatWithEdges
 70
     1
 71
     2
 72
     1
 73
     1
 90
        2
 40
-0.6
 41
30.0
 62
     5
 63
     7
 74
     1
 91
        0
 64
     7
 65
   257
 75
     1
175
     1
 42
1.0
 92
        0
 66
   257
 43
1.0
 76
     1
 77
     6
 78
     2
 67
     7
 79
     5
170
     0
171
     0
290
     0
174
     0
 93
       13
 44
0.0
173
     0
291
     1
 45
0.0
1001
ACAD
1000
AcDbSavedByObjectVersion
1070
     0
  0
VISUALSTYLE
  5
45D
102
{ACAD_XDICTIONARY
360
810
102
}
102
{ACAD_REACTORS
330
45A
102
}
330
45A
100
AcDbVisualStyle
  2
Gouraud
 70
     2
 71
     2
 72
     2
 73
     1
 90
        2
 40
-0.6
 41
30.0
 62
     5
 63
     7
 74
     0
 91
        0
 64
     7
 65
   257
 75
     1
175
     1
 42
1.0
 92
        0
 66
     7
 43
1.0
 76
     1
 77
     6
 78
     2
 67
     7
 79
     5
170
     0
171
     0
290
     0
174
     0
 93
       13
 44
0.0
173
     0
291
     1
 45
0.0
1001
ACAD
1000
AcDbSavedByObjectVersion
1070
     0
  0
VISUALSTYLE
  5
45E
102
{ACAD_XDICTIONARY
360
812
102
}
102
{ACAD_REACTORS
330
45A
102
}
330
45A
100
AcDbVisualStyle
  2
GouraudWithEdges
 70
     3
 71
     2
 72
     2
 73
     1
 90
        2
 40
-0.6
 41
30.0
 62
     5
 63
     7
 74
     1
 91
        0
 64
     7
 65
   257
 75
     1
175
     1
 42
1.0
 92
        0
 66
   257
 43
1.0
 76
     1
 77
     6
 78
     2
 67
     7
 79
     5
170
     0
171
     0
290
     0
174
     0
 93
       13
 44
0.0
173
     0
291
     1
 45
0.0
1001
ACAD
1000
AcDbSavedByObjectVersion
1070
     0
  0
VISUALSTYLE
  5
462
102
{ACAD_XDICTIONARY
360
81A
102
}
102
{ACAD_REACTORS
330
45A
102
}
330
45A
100
AcDbVisualStyle
  2
Hidden
 70
     6
 71
     1
 72
     2
 73
     2
 90
        0
 40
-0.6
 41
-30.0
 62
     5
 63
     7
 74
     2
 91
        2
 64
     7
 65
   257
 75
     2
175
     1
 42
40.0
 92
        0
 66
   257
 43
1.0
 76
     1
 77
     6
 78
     2
 67
     7
 79
     3
170
     0
171
     0
290
     0
174
     0
 93
        1
 44
0.0
173
     0
291
     0
 45
0.0
1001
ACAD
1000
AcDbSavedByObjectVersion
1070
     0
  0
VISUALSTYLE
  5
470
102
{ACAD_XDICTIONARY
360
836
102
}
102
{ACAD_REACTORS
330
45A
102
}
330
45A
100
AcDbVisualStyle
  2
JitterOff
 70
    20
 71
     2
 72
     2
 73
     0
 90
        0
 40
-0.6
 41
-30.0
 62
     5
 63
     7
 74
     1
 91
        4
 64
     7
 65
   257
 75
     1
175
     1
 42
1.0
 92
       10
 66
     7
 43
1.0
 76
     1
 77
     6
 78
     2
 67
     7
 79
     5
170
     0
171
     0
290
     0
174
     0
 93
        1
 44
0.0
173
     0
291
     1
 45
0.0
1001
ACAD
1000
AcDbSavedByObjectVersion
1070
     0
  0
VISUALSTYLE
  5
468
102
{ACAD_XDICTIONARY
360
826
102
}
102
{ACAD_REACTORS
330
45A
102
}
330
45A
100
AcDbVisualStyle
  2
Linepattern
 70
    14
 71
     2
 72
     2
 73
     0
 90
        0
 40
-0.6
 41
-30.0
 62
     5
 63
     7
 74
     1
 91
        4
 64
     7
 65
   257
 75
     7
175
     7
 42
1.0
 92
        8
 66
     7
 43
1.0
 76
     1
 77
     6
 78
     2
 67
     7
 79
     5
170
     0
171
     0
290
     0
174
     0
 93
        1
 44
0.0
173
     0
291
     1
 45
0.0
1001
ACAD
1000
AcDbSavedByObjectVersion
1070
     0
  0
VISUALSTYLE
  5
471
102
{ACAD_XDICTIONARY
360
838
102
}
102
{ACAD_REACTORS
330
45A
102
}
330
45A
100
AcDbVisualStyle
  2
OverhangOff
 70
    21
 71
     2
 72
     2
 73
     0
 90
        0
 40
-0.6
 41
-30.0
 62
     5
 63
     7
 74
     1
 91
        4
 64
     7
 65
   257
 75
     1
175
     1
 42
1.0
 92
        9
 66
     7
 43
1.0
 76
     1
 77
     6
 78
     2
 67
     7
 79
     5
170
     0
171
     0
290
     0
174
     0
 93
        1
 44
0.0
173
     0
291
     1
 45
0.0
1001
ACAD
1000
AcDbSavedByObjectVersion
1070
     0
  0
VISUALSTYLE
  5
464
102
{ACAD_XDICTIONARY
360
81E
102
}
102
{ACAD_REACTORS
330
45A
102
}
330
45A
100
AcDbVisualStyle
  2
Realistic
 70
     8
 71
     2
 72
     3
 73
     0
 90
        2
 40
-0.6
 41
30.0
 62
     5
 63
     7
 74
     0
 91
        0
 64
     7
 65
   257
 75
     1
175
     1
 42
1.0
 92
        8
 66
   257
 43
1.0
 76
     1
 77
     6
 78
     2
 67
     7
 79
     3
170
     0
171
     0
290
     0
174
     0
 93
       13
 44
0.0
173
     0
291
     0
 45
0.0
1001
ACAD
1000
AcDbSavedByObjectVersion
1070
     0
  0
VISUALSTYLE
  5
46F
102
{ACAD_XDICTIONARY
360
834
102
}
102
{ACAD_REACTORS
330
45A
102
}
330
45A
100
AcDbVisualStyle
  2
Shaded
 70
    27
 71
     2
 72
     2
 73
     1
 90
        2
 40
-0.6
 41
30.0
 62
     5
 63
     7
 74
     0
 91
        4
 64
     7
 65
   257
 75
     1
175
     1
 42
1.0
 92
        8
 66
   257
 43
1.0
 76
     1
 77
     6
 78
     2
 67
     8
 79
     3
170
     0
171
     0
290
     0
174
     0
 93
        5
 44
0.0
173
     0
291
     0
 45
0.0
1001
ACAD
1000
AcDbSavedByObjectVersion
1070
     0
  0
VISUALSTYLE
  5
46E
102
{ACAD_XDICTIONARY
360
832
102
}
102
{ACAD_REACTORS
330
45A
102
}
330
45A
100
AcDbVisualStyle
  2
Shaded with edges
 70
    26
 71
     2
 72
     2
 73
     1
 90
        2
 40
-0.6
 41
30.0
 62
     5
 63
     7
 74
     1
 91
       10
 64
     7
 65
   257
 75
     2
175
     1
 42
1.0
 92
        8
 66
   257
 43
1.0
 76
     1
 77
     6
 78
     2
 67
     7
 79
     3
170
     0
171
     0
290
     0
174
     0
 93
        5
 44
0.0
173
     0
291
     0
 45
0.0
1001
ACAD
1000
AcDbSavedByObjectVersion
1070
     0
  0
VISUALSTYLE
  5
46B
102
{ACAD_XDICTIONARY
360
82C
102
}
102
{ACAD_REACTORS
330
45A
102
}
330
45A
100
AcDbVisualStyle
  2
Shades of Gray
 70
    23
 71
     2
 72
     2
 73
     3
 90
        0
 40
-0.6
 41
-30.0
 62
     5
 63
     7
 74
     2
 91
        2
 64
     7
 65
     7
 75
     1
175
     1
 42
40.0
 92
        8
 66
     7
 43
1.0
 76
     1
 77
     6
 78
     2
 67
     7
 79
     3
170
     0
171
     0
290
     0
174
     0
 93
        1
 44
0.0
173
     0
291
     0
 45
0.0
1001
ACAD
1000
AcDbSavedByObjectVersion
1070
     0
  0
VISUALSTYLE
  5
46C
102
{ACAD_XDICTIONARY
360
82E
102
}
102
{ACAD_REACTORS
330
45A
102
}
330
45A
100
AcDbVisualStyle
  2
Sketchy
 70
    24
 71
     1
 72
     2
 73
     2
 90
        0
 40
-0.6
 41
-30.0
 62
     5
 63
     7
 74
     2
 91
        2
 64
     7
 65
     7
 75
     1
175
     1
 42
40.0
 92
       11
 66
     7
 43
1.0
 76
     1
 77
     6
 78
     2
 67
     7
 79
     6
170
     0
171
     0
290
     0
174
     0
 93
        1
 44
0.0
173
     0
291
     0
 45
0.0
1001
ACAD
1000
AcDbSavedByObjectVersion
1070
     0
  0
VISUALSTYLE
  5
467
102
{ACAD_XDICTIONARY
360
824
102
}
102
{ACAD_REACTORS
330
45A
102
}
330
45A
100
AcDbVisualStyle
  2
Thicken
 70
    13
 71
     2
 72
     2
 73
     0
 90
        0
 40
-0.6
 41
-30.0
 62
     5
 63
     7
 74
     1
 91
        4
 64
     7
 65
   257
 75
     1
175
     1
 42
1.0
 92
       12
 66
     7
 43
1.0
 76
     1
 77
     6
 78
     2
 67
     7
 79
     5
170
     0
171
     0
290
     0
174
     0
 93
        1
 44
0.0
173
     0
291
     1
 45
0.0
1001
ACAD
1000
AcDbSavedByObjectVersion
1070
     0
  0
VISUALSTYLE
  5
461
102
{ACAD_XDICTIONARY
360
818
102
}
102
{ACAD_REACTORS
330
45A
102
}
330
45A
100
AcDbVisualStyle
  2
Wireframe
 70
     5
 71
     0
 72
     2
 73
     0
 90
        0
 40
-0.6
 41
-30.0
 62
     5
 63
     7
 74
     1
 91
        4
 64
     7
 65
   257
 75
     1
175
     1
 42
1.0
 92
        0
 66
   257
 43
1.0
 76
     1
 77
     6
 78
     2
 67
     7
 79
     3
170
     0
171
     0
290
     0
174
     0
 93
        1
 44
0.0
173
     0
291
     0
 45
0.0
1001
ACAD
1000
AcDbSavedByObjectVersion
1070
     0
  0
VISUALSTYLE
  5
46D
102
{ACAD_XDICTIONARY
360
830
102
}
102
{ACAD_REACTORS
330
45A
102
}
330
45A
100
AcDbVisualStyle
  2
X-Ray
 70
    25
 71
     2
 72
     2
 73
     1
 90
        1
 40
0.5
 41
-30.0
 62
     5
 63
     7
 74
     1
 91
        0
 64
     7
 65
   257
 75
     1
175
     1
 42
1.0
 92
        8
 66
     7
 43
1.0
 76
     1
 77
     6
 78
     2
 67
     7
 79
     3
170
     0
171
     0
290
     0
174
     0
 93
       13
 44
0.0
173
     0
291
     0
 45
0.0
1001
ACAD
1000
AcDbSavedByObjectVersion
1070
     0
  0
DICTIONARYVAR
  5
43D
102
{ACAD_REACTORS
330
43C
102
}
330
43C
100
DictionaryVariables
280
     0
  1
1:1
  0
DICTIONARYVAR
  5
7FA
102
{ACAD_REACTORS
330
43C
102
}
330
43C
100
DictionaryVariables
280
     0
  1
STANDARD
  0
DICTIONARYVAR
  5
7F9
102
{ACAD_REACTORS
330
43C
102
}
330
43C
100
DictionaryVariables
280
     0
  1
STANDARD
  0
DICTIONARYVAR
  5
7FB
102
{ACAD_REACTORS
330
43C
102
}
330
43C
100
DictionaryVariables
280
     0
  1
Imperial24
  0
DICTIONARYVAR
  5
7FC
102
{ACAD_REACTORS
330
43C
102
}
330
43C
100
DictionaryVariables
280
     0
  1
Imperial24
  0
DICTIONARYVAR
  5
7FF
102
{ACAD_REACTORS
330
43C
102
}
330
43C
100
DictionaryVariables
280
     0
  1
1
  0
DICTIONARYVAR
  5
7FE
102
{ACAD_REACTORS
330
43C
102
}
330
43C
100
DictionaryVariables
280
     0
  1
0
  0
DICTIONARYVAR
  5
7FD
102
{ACAD_REACTORS
330
43C
102
}
330
43C
100
DictionaryVariables
280
     0
  1
127
  0
DICTIONARYVAR
  5
800
102
{ACAD_REACTORS
330
43C
102
}
330
43C
100
DictionaryVariables
280
     0
  1
2
  0
DICTIONARY
  5
4B4
102
{ACAD_REACTORS
330
4AB
102
}
330
4AB
100
AcDbDictionary
281
     1
  0
DICTIONARY
  5
805
330
1C
100
AcDbDictionary
280
     1
281
     1
  3
ACAD_XREC_ROUNDTRIP
360
806
  0
DICTIONARY
  5
807
330
1E
100
AcDbDictionary
280
     1
281
     1
  3
ACAD_XREC_ROUNDTRIP
360
808
  0
DICTIONARY
  5
44B
330
44A
100
AcDbDictionary
280
     1
281
     1
  3
ACAD_XREC_ROUNDTRIP
360
80A
  3
BUMPTILE
360
44D
  3
DIFFUSETILE
360
44C
  3
OPACITYTILE
360
450
  3
REFLECTIONTILE
360
44F
  3
REFRACTIONTILE
360
451
  3
SPECULARTILE
360
44E
  0
DICTIONARY
  5
443
330
442
100
AcDbDictionary
280
     1
281
     1
  3
ACAD_XREC_ROUNDTRIP
360
809
  3
BUMPTILE
360
445
  3
DIFFUSETILE
360
444
  3
OPACITYTILE
360
448
  3
REFLECTIONTILE
360
447
  3
REFRACTIONTILE
360
449
  3
SPECULARTILE
360
446
  0
DICTIONARY
  5
453
330
452
100
AcDbDictionary
280
     1
281
     1
  3
ACAD_XREC_ROUNDTRIP
360
80B
  3
BUMPTILE
360
455
  3
DIFFUSETILE
360
454
  3
OPACITYTILE
360
458
  3
REFLECTIONTILE
360
457
  3
REFRACTIONTILE
360
459
  3
SPECULARTILE
360
456
  0
DICTIONARY
  5
83E
330
476
100
AcDbDictionary
280
     1
281
     1
  3
ACAD_XREC_ROUNDTRIP
360
83F
  0
DICTIONARY
  5
801
330
475
100
AcDbDictionary
280
     1
281
     1
  3
ACAD_ROUNDTRIP_2008_TABLESTYLE_CELLSTYLEMAP
360
802
  3
ACAD_XREC_ROUNDTRIP
360
83C
  0
DICTIONARY
  5
816
330
460
100
AcDbDictionary
280
     1
281
     1
  3
ACAD_XREC_ROUNDTRIP
360
817
  0
DICTIONARY
  5
814
330
45F
100
AcDbDictionary
280
     1
281
     1
  3
ACAD_XREC_ROUNDTRIP
360
815
  0
DICTIONARY
  5
822
330
466
100
AcDbDictionary
280
     1
281
     1
  3
ACAD_XREC_ROUNDTRIP
360
823
  0
DICTIONARY
  5
82A
330
46A
100
AcDbDictionary
280
     1
281
     1
  3
ACAD_XREC_ROUNDTRIP
360
82B
  0
DICTIONARY
  5
81C
330
463
100
AcDbDictionary
280
     1
281
     1
  3
ACAD_XREC_ROUNDTRIP
360
81D
  0
DICTIONARY
  5
820
330
465
100
AcDbDictionary
280
     1
281
     1
  3
ACAD_XREC_ROUNDTRIP
360
821
  0
DICTIONARY
  5
83A
330
472
100
AcDbDictionary
280
     1
281
     1
  3
ACAD_XREC_ROUNDTRIP
360
83B
  0
DICTIONARY
  5
828
330
469
100
AcDbDictionary
280
     1
281
     1
  3
ACAD_XREC_ROUNDTRIP
360
829
  0
DICTIONARY
  5
80C
330
45B
100
AcDbDictionary
280
     1
281
     1
  3
ACAD_XREC_ROUNDTRIP
360
80D
  0
DICTIONARY
  5
80E
330
45C
100
AcDbDictionary
280
     1
281
     1
  3
ACAD_XREC_ROUNDTRIP
360
80F
  0
DICTIONARY
  5
810
330
45D
100
AcDbDictionary
280
     1
281
     1
  3
ACAD_XREC_ROUNDTRIP
360
811
  0
DICTIONARY
  5
812
330
45E
100
AcDbDictionary
280
     1
281
     1
  3
ACAD_XREC_ROUNDTRIP
360
813
  0
DICTIONARY
  5
81A
330
462
100
AcDbDictionary
280
     1
281
     1
  3
ACAD_XREC_ROUNDTRIP
360
81B
  0
DICTIONARY
  5
836
330
470
100
AcDbDictionary
280
     1
281
     1
  3
ACAD_XREC_ROUNDTRIP
360
837
  0
DICTIONARY
  5
826
330
468
100
AcDbDictionary
280
     1
281
     1
  3
ACAD_XREC_ROUNDTRIP
360
827
  0
DICTIONARY
  5
838
330
471
100
AcDbDictionary
280
     1
281
     1
  3
ACAD_XREC_ROUNDTRIP
360
839
  0
DICTIONARY
  5
81E
330
464
100
AcDbDictionary
280
     1
281
     1
  3
ACAD_XREC_ROUNDTRIP
360
81F
  0
DICTIONARY
  5
834
330
46F
100
AcDbDictionary
280
     1
281
     1
  3
ACAD_XREC_ROUNDTRIP
360
835
  0
DICTIONARY
  5
832
330
46E
100
AcDbDictionary
280
     1
281
     1
  3
ACAD_XREC_ROUNDTRIP
360
833
  0
DICTIONARY
  5
82C
330
46B
100
AcDbDictionary
280
     1
281
     1
  3
ACAD_XREC_ROUNDTRIP
360
82D
  0
DICTIONARY
  5
82E
330
46C
100
AcDbDictionary
280
     1
281
     1
  3
ACAD_XREC_ROUNDTRIP
360
82F
  0
DICTIONARY
  5
824
330
467
100
AcDbDictionary
280
     1
281
     1
  3
ACAD_XREC_ROUNDTRIP
360
825
  0
DICTIONARY
  5
818
330
461
100
AcDbDictionary
280
     1
281
     1
  3
ACAD_XREC_ROUNDTRIP
360
819
  0
DICTIONARY
  5
830
330
46D
100
AcDbDictionary
280
     1
281
     1
  3
ACAD_XREC_ROUNDTRIP
360
831
  0
XRECORD
  5
806
102
{ACAD_REACTORS
330
805
102
}
330
805
100
AcDbXrecord
280
     1
102
SHADEPLOT
 70
     0
102
SHADEPLOTRESLEVEL
 70
     2
102
SHADEPLOTCUSTOMDPI
 70
   300
  0
XRECORD
  5
808
102
{ACAD_REACTORS
330
807
102
}
330
807
100
AcDbXrecord
280
     1
102
SHADEPLOT
 70
     0
102
SHADEPLOTRESLEVEL
 70
     2
102
SHADEPLOTCUSTOMDPI
 70
   300
  0
XRECORD
  5
80A
102
{ACAD_REACTORS
330
44B
102
}
330
44B
100
AcDbXrecord
280
     1
102
MATERIAL
148
0.0
149
0.0
149
0.0
 93
        0
 94
      127
282
     0
 72
     0
 77
     0
171
     0
175
     0
179
     0
273
     0
  0
XRECORD
  5
44D
102
{ACAD_REACTORS
330
44B
102
}
330
44B
100
AcDbXrecord
280
     1
270
     1
271
     1
  0
XRECORD
  5
44C
102
{ACAD_REACTORS
330
44B
102
}
330
44B
100
AcDbXrecord
280
     1
270
     1
271
     1
  0
XRECORD
  5
450
102
{ACAD_REACTORS
330
44B
102
}
330
44B
100
AcDbXrecord
280
     1
270
     1
271
     1
  0
XRECORD
  5
44F
102
{ACAD_REACTORS
330
44B
102
}
330
44B
100
AcDbXrecord
280
     1
270
     1
271
     1
  0
XRECORD
  5
451
102
{ACAD_REACTORS
330
44B
102
}
330
44B
100
AcDbXrecord
280
     1
270
     1
271
     1
  0
XRECORD
  5
44E
102
{ACAD_REACTORS
330
44B
102
}
330
44B
100
AcDbXrecord
280
     1
270
     1
271
     1
  0
XRECORD
  5
809
102
{ACAD_REACTORS
330
443
102
}
330
443
100
AcDbXrecord
280
     1
102
MATERIAL
148
0.0
149
0.0
149
0.0
 93
        0
 94
      127
282
     0
 72
     0
 77
     0
171
     0
175
     0
179
     0
273
     0
  0
XRECORD
  5
445
102
{ACAD_REACTORS
330
443
102
}
330
443
100
AcDbXrecord
280
     1
270
     1
271
     1
  0
XRECORD
  5
444
102
{ACAD_REACTORS
330
443
102
}
330
443
100
AcDbXrecord
280
     1
270
     1
271
     1
  0
XRECORD
  5
448
102
{ACAD_REACTORS
330
443
102
}
330
443
100
AcDbXrecord
280
     1
270
     1
271
     1
  0
XRECORD
  5
447
102
{ACAD_REACTORS
330
443
102
}
330
443
100
AcDbXrecord
280
     1
270
     1
271
     1
  0
XRECORD
  5
449
102
{ACAD_REACTORS
330
443
102
}
330
443
100
AcDbXrecord
280
     1
270
     1
271
     1
  0
XRECORD
  5
446
102
{ACAD_REACTORS
330
443
102
}
330
443
100
AcDbXrecord
280
     1
270
     1
271
     1
  0
XRECORD
  5
80B
102
{ACAD_REACTORS
330
453
102
}
330
453
100
AcDbXrecord
280
     1
102
MATERIAL
148
0.0
149
0.0
149
0.0
 93
        0
 94
      127
282
     0
 72
     0
 77
     0
171
     0
175
     0
179
     0
273
     0
  0
XRECORD
  5
455
102
{ACAD_REACTORS
330
453
102
}
330
453
100
AcDbXrecord
280
     1
270
     1
271
     1
  0
XRECORD
  5
454
102
{ACAD_REACTORS
330
453
102
}
330
453
100
AcDbXrecord
280
     1
270
     1
271
     1
  0
XRECORD
  5
458
102
{ACAD_REACTORS
330
453
102
}
330
453
100
AcDbXrecord
280
     1
270
     1
271
     1
  0
XRECORD
  5
457
102
{ACAD_REACTORS
330
453
102
}
330
453
100
AcDbXrecord
280
     1
270
     1
271
     1
  0
XRECORD
  5
459
102
{ACAD_REACTORS
330
453
102
}
330
453
100
AcDbXrecord
280
     1
270
     1
271
     1
  0
XRECORD
  5
456
102
{ACAD_REACTORS
330
453
102
}
330
453
100
AcDbXrecord
280
     1
270
     1
271
     1
  0
XRECORD
  5
83F
102
{ACAD_REACTORS
330
83E
102
}
330
83E
100
AcDbXrecord
280
     1
102
ACAD_ROUNDTRIP_2012_MLEADER_STYLE
298
     1
  0
CELLSTYLEMAP
  5
802
102
{ACAD_REACTORS
330
801
102
}
330
801
100
AcDbCellStyleMap
 90
        3
300
CELLSTYLE
  1
TABLEFORMAT_BEGIN
 90
        5
170
     1
 91
        0
 92
    32768
 62
   257
 93
        1
300
CONTENTFORMAT
  1
CONTENTFORMAT_BEGIN
 90
        0
 91
        0
 92
      512
 93
        0
300

 40
0.0
140
1.0
 94
        5
 62
     0
340
11
144
0.25
309
CONTENTFORMAT_END
171
     0
 94
        0
309
TABLEFORMAT_END
  1
CELLSTYLE_BEGIN
 90
        1
 91
        1
300
_TITLE
309
CELLSTYLE_END
300
CELLSTYLE
  1
TABLEFORMAT_BEGIN
 90
        5
170
     1
 91
        0
 92
        0
 62
   257
 93
        1
300
CONTENTFORMAT
  1
CONTENTFORMAT_BEGIN
 90
        0
 91
        0
 92
      512
 93
        0
300

 40
0.0
140
1.0
 94
        5
 62
     0
340
11
144
0.18
309
CONTENTFORMAT_END
171
     0
 94
        0
309
TABLEFORMAT_END
  1
CELLSTYLE_BEGIN
 90
        2
 91
        1
300
_HEADER
309
CELLSTYLE_END
300
CELLSTYLE
  1
TABLEFORMAT_BEGIN
 90
        5
170
     1
 91
        0
 92
        0
 62
   257
 93
        1
300
CONTENTFORMAT
  1
CONTENTFORMAT_BEGIN
 90
        0
 91
        0
 92
      512
 93
        0
300

 40
0.0
140
1.0
 94
        2
 62
     0
340
11
144
0.18
309
CONTENTFORMAT_END
171
     0
 94
        0
309
TABLEFORMAT_END
  1
CELLSTYLE_BEGIN
 90
        3
 91
        2
300
_DATA
309
CELLSTYLE_END
  0
XRECORD
  5
83C
102
{ACAD_REACTORS
330
801
102
}
330
801
100
AcDbXrecord
280
     1
102
ACAD_ROUNDTRIP_PRE2007_TABLESTYLE
 90
      512
 91
        0
  1

 92
      512
 93
        0
  2

 94
      512
 95
        0
  3

  0
XRECORD
  5
817
102
{ACAD_REACTORS
330
816
102
}
330
816
100
AcDbXrecord
280
     1
102
RTVSPost2010Prop28
280
     1
102
RTVSPost2010PropOp28
 70
     1
102
RTVSPost2010Prop29
280
     1
102
RTVSPost2010PropOp29
 70
     1
102
RTVSPost2010Prop30
280
     0
102
RTVSPost2010PropOp30
 70
     1
102
RTVSPost2010Prop31
280
     0
102
RTVSPost2010PropOp31
 70
     1
102
RTVSPost2010Prop32
280
     0
102
RTVSPost2010PropOp32
 70
     1
102
RTVSPost2010Prop33
280
     0
102
RTVSPost2010PropOp33
 70
     1
102
RTVSPost2010Prop34
280
     0
102
RTVSPost2010PropOp34
 70
     1
102
RTVSPost2010Prop35
280
     0
102
RTVSPost2010PropOp35
 70
     1
102
RTVSPost2010Prop36
280
     0
102
RTVSPost2010PropOp36
 70
     1
102
RTVSPost2010Prop37
 90
       50
102
RTVSPost2010PropOp37
 70
     1
102
RTVSPost2010Prop38
140
0.0
102
RTVSPost2010PropOp38
 70
     1
102
RTVSPost2010Prop39
140
1.0
102
RTVSPost2010PropOp39
 70
     1
102
RTVSPost2010Prop40
 90
        0
102
RTVSPost2010PropOp40
 70
     1
102
RTVSPost2010Prop41ColorIndex
 90
       18
102
RTVSPost2010Prop41ColorRGB
 90
        0
102
RTVSPost2010PropOp41
 70
     1
102
RTVSPost2010Prop42
 90
       50
102
RTVSPost2010PropOp42
 70
     1
102
RTVSPost2010Prop43
 90
        3
102
RTVSPost2010PropOp43
 70
     1
102
RTVSPost2010Prop44ColorIndex
 90
        5
102
RTVSPost2010Prop44ColorRGB
 90
      255
102
RTVSPost2010PropOp44
 70
     1
102
RTVSPost2010Prop45
280
     0
102
RTVSPost2010PropOp45
 70
     1
102
RTVSPost2010Prop46
 90
       50
102
RTVSPost2010PropOp46
 70
     1
102
RTVSPost2010Prop47
 90
       50
102
RTVSPost2010PropOp47
 70
     1
102
RTVSPost2010Prop48
 90
       50
102
RTVSPost2010PropOp48
 70
     1
102
RTVSPost2010Prop49
280
     0
102
RTVSPost2010PropOp49
 70
     1
102
RTVSPost2010Prop50
 90
       50
102
RTVSPost2010PropOp50
 70
     1
102
RTVSPost2010Prop51ColorIndex
 90
      256
102
RTVSPost2010Prop51ColorRGB
 90
-16777216
102
RTVSPost2010PropOp51
 70
     0
102
RTVSPost2010Prop52
140
1.0
102
RTVSPost2010PropOp52
 70
     0
102
RTVSPost2010Prop53
 90
        2
102
RTVSPost2010PropOp53
 70
     1
102
RTVSPost2010Prop54
  1
strokes_ogs.tif
102
RTVSPost2010PropOp54
 70
     1
102
RTVSPost2010Prop55
280
     0
102
RTVSPost2010PropOp55
 70
     1
102
RTVSPost2010Prop56
140
1.0
102
RTVSPost2010PropOp56
 70
     1
102
RTVSPost2010Prop57
140
1.0
102
RTVSPost2010PropOp57
 70
     1
102
RTVSPropertyOp0
 70
     1
102
RTVSPropertyOp1
 70
     1
102
RTVSPropertyOp2
 70
     1
102
RTVSPropertyOp3
 70
     1
102
RTVSPropertyOp4
 70
     1
102
RTVSPropertyOp5
 70
     1
102
RTVSPropertyOp6
 70
     1
102
RTVSPropertyOp7
 70
     1
102
RTVSPropertyOp8
 70
     1
102
RTVSPropertyOp9
 70
     1
102
RTVSPropertyOp10
 70
     1
102
RTVSPropertyOp11
 70
     1
102
RTVSPropertyOp12
 70
     1
102
RTVSPropertyOp13
 70
     1
102
RTVSPropertyOp14
 70
     1
102
RTVSPropertyOp15
 70
     1
102
RTVSPropertyOp16
 70
     1
102
RTVSPropertyOp17
 70
     1
102
RTVSPropertyOp18
 70
     1
102
RTVSPropertyOp19
 70
     1
102
RTVSPropertyOp20
 70
     1
102
RTVSPropertyOp21
 70
     1
102
RTVSPropertyOp22
 70
     1
102
RTVSPropertyOp23
 70
     1
102
RTVSPropertyOp24
 70
     1
102
RTVSPropertyOp25
 70
     1
102
RTVSPropertyOp26
 70
     1
102
RTVSPropertyOp27
 70
     1
102
RTVSPropertyOp28
 70
     1
102
RTVSPropertyOp29
 70
     1
102
RTVSPropertyOp30
 70
     1
102
RTVSPropertyOp31
 70
     1
102
RTVSPropertyOp32
 70
     1
102
RTVSPropertyOp33
 70
     1
102
RTVSPropertyOp34
 70
     1
102
RTVSPropertyOp35
 70
     1
102
RTVSPropertyOp36
 70
     1
102
RTVSPropertyOp37
 70
     1
102
RTVSPropertyOp38
 70
     1
102
RTVSPropertyOp39
 70
     1
102
RTVSPropertyOp40
 70
     1
102
RTVSPropertyOp41
 70
     1
102
RTVSPropertyOp42
 70
     1
102
RTVSPropertyOp43
 70
     1
102
RTVSPropertyOp44
 70
     1
102
RTVSPropertyOp45
 70
     1
102
RTVSPropertyOp46
 70
     1
102
RTVSPropertyOp47
 70
     1
102
RTVSPropertyOp48
 70
     1
102
RTVSPropertyOp49
 70
     1
102
RTVSPropertyOp50
 70
     1
102
RTVSPropertyOp51
 70
     0
102
RTVSPropertyOp52
 70
     0
102
RTVSPropertyOp53
 70
     1
102
RTVSPropertyOp54
 70
     1
102
RTVSPropertyOp55
 70
     1
102
RTVSPropertyOp56
 70
     1
102
RTVSPropertyOp57
 70
     1
102
RTVSPropertyOp58
 70
     1
102
RTVSPropertyOp59
 70
     1
102
RTVSPropertyOp60
 70
     1
102
RTVSPropertyOp61
 70
     1
102
RTVSPropertyOp62
 70
     1
  0
XRECORD
  5
815
102
{ACAD_REACTORS
330
814
102
}
330
814
100
AcDbXrecord
280
     1
102
RTVSPost2010Prop28
280
     0
102
RTVSPost2010PropOp28
 70
     1
102
RTVSPost2010Prop29
280
     1
102
RTVSPost2010PropOp29
 70
     1
102
RTVSPost2010Prop30
280
     1
102
RTVSPost2010PropOp30
 70
     1
102
RTVSPost2010Prop31
280
     0
102
RTVSPost2010PropOp31
 70
     1
102
RTVSPost2010Prop32
280
     0
102
RTVSPost2010PropOp32
 70
     1
102
RTVSPost2010Prop33
280
     0
102
RTVSPost2010PropOp33
 70
     1
102
RTVSPost2010Prop34
280
     0
102
RTVSPost2010PropOp34
 70
     1
102
RTVSPost2010Prop35
280
     0
102
RTVSPost2010PropOp35
 70
     1
102
RTVSPost2010Prop36
280
     0
102
RTVSPost2010PropOp36
 70
     1
102
RTVSPost2010Prop37
 90
       50
102
RTVSPost2010PropOp37
 70
     1
102
RTVSPost2010Prop38
140
0.0
102
RTVSPost2010PropOp38
 70
     1
102
RTVSPost2010Prop39
140
1.0
102
RTVSPost2010PropOp39
 70
     1
102
RTVSPost2010Prop40
 90
        0
102
RTVSPost2010PropOp40
 70
     1
102
RTVSPost2010Prop41ColorIndex
 90
       18
102
RTVSPost2010Prop41ColorRGB
 90
        0
102
RTVSPost2010PropOp41
 70
     1
102
RTVSPost2010Prop42
 90
       50
102
RTVSPost2010PropOp42
 70
     1
102
RTVSPost2010Prop43
 90
        3
102
RTVSPost2010PropOp43
 70
     1
102
RTVSPost2010Prop44ColorIndex
 90
        5
102
RTVSPost2010Prop44ColorRGB
 90
      255
102
RTVSPost2010PropOp44
 70
     1
102
RTVSPost2010Prop45
280
     0
102
RTVSPost2010PropOp45
 70
     1
102
RTVSPost2010Prop46
 90
       50
102
RTVSPost2010PropOp46
 70
     1
102
RTVSPost2010Prop47
 90
       50
102
RTVSPost2010PropOp47
 70
     1
102
RTVSPost2010Prop48
 90
       50
102
RTVSPost2010PropOp48
 70
     1
102
RTVSPost2010Prop49
280
     0
102
RTVSPost2010PropOp49
 70
     1
102
RTVSPost2010Prop50
 90
       50
102
RTVSPost2010PropOp50
 70
     1
102
RTVSPost2010Prop51ColorIndex
 90
      256
102
RTVSPost2010Prop51ColorRGB
 90
-16777216
102
RTVSPost2010PropOp51
 70
     0
102
RTVSPost2010Prop52
140
1.0
102
RTVSPost2010PropOp52
 70
     0
102
RTVSPost2010Prop53
 90
        2
102
RTVSPost2010PropOp53
 70
     1
102
RTVSPost2010Prop54
  1
strokes_ogs.tif
102
RTVSPost2010PropOp54
 70
     1
102
RTVSPost2010Prop55
280
     0
102
RTVSPost2010PropOp55
 70
     1
102
RTVSPost2010Prop56
140
1.0
102
RTVSPost2010PropOp56
 70
     1
102
RTVSPost2010Prop57
140
1.0
102
RTVSPost2010PropOp57
 70
     1
102
RTVSPropertyOp0
 70
     1
102
RTVSPropertyOp1
 70
     1
102
RTVSPropertyOp2
 70
     1
102
RTVSPropertyOp3
 70
     1
102
RTVSPropertyOp4
 70
     1
102
RTVSPropertyOp5
 70
     1
102
RTVSPropertyOp6
 70
     1
102
RTVSPropertyOp7
 70
     1
102
RTVSPropertyOp8
 70
     1
102
RTVSPropertyOp9
 70
     1
102
RTVSPropertyOp10
 70
     1
102
RTVSPropertyOp11
 70
     1
102
RTVSPropertyOp12
 70
     1
102
RTVSPropertyOp13
 70
     1
102
RTVSPropertyOp14
 70
     1
102
RTVSPropertyOp15
 70
     1
102
RTVSPropertyOp16
 70
     1
102
RTVSPropertyOp17
 70
     1
102
RTVSPropertyOp18
 70
     1
102
RTVSPropertyOp19
 70
     1
102
RTVSPropertyOp20
 70
     1
102
RTVSPropertyOp21
 70
     1
102
RTVSPropertyOp22
 70
     1
102
RTVSPropertyOp23
 70
     1
102
RTVSPropertyOp24
 70
     1
102
RTVSPropertyOp25
 70
     1
102
RTVSPropertyOp26
 70
     1
102
RTVSPropertyOp27
 70
     1
102
RTVSPropertyOp28
 70
     1
102
RTVSPropertyOp29
 70
     1
102
RTVSPropertyOp30
 70
     1
102
RTVSPropertyOp31
 70
     1
102
RTVSPropertyOp32
 70
     1
102
RTVSPropertyOp33
 70
     1
102
RTVSPropertyOp34
 70
     1
102
RTVSPropertyOp35
 70
     1
102
RTVSPropertyOp36
 70
     1
102
RTVSPropertyOp37
 70
     1
102
RTVSPropertyOp38
 70
     1
102
RTVSPropertyOp39
 70
     1
102
RTVSPropertyOp40
 70
     1
102
RTVSPropertyOp41
 70
     1
102
RTVSPropertyOp42
 70
     1
102
RTVSPropertyOp43
 70
     1
102
RTVSPropertyOp44
 70
     1
102
RTVSPropertyOp45
 70
     1
102
RTVSPropertyOp46
 70
     1
102
RTVSPropertyOp47
 70
     1
102
RTVSPropertyOp48
 70
     1
102
RTVSPropertyOp49
 70
     1
102
RTVSPropertyOp50
 70
     1
102
RTVSPropertyOp51
 70
     0
102
RTVSPropertyOp52
 70
     0
102
RTVSPropertyOp53
 70
     1
102
RTVSPropertyOp54
 70
     1
102
RTVSPropertyOp55
 70
     1
102
RTVSPropertyOp56
 70
     1
102
RTVSPropertyOp57
 70
     1
102
RTVSPropertyOp58
 70
     1
102
RTVSPropertyOp59
 70
     1
102
RTVSPropertyOp60
 70
     1
102
RTVSPropertyOp61
 70
     1
102
RTVSPropertyOp62
 70
     1
  0
XRECORD
  5
823
102
{ACAD_REACTORS
330
822
102
}
330
822
100
AcDbXrecord
280
     1
102
RTVSPost2010Prop28
280
     0
102
RTVSPost2010PropOp28
 70
     1
102
RTVSPost2010Prop29
280
     1
102
RTVSPost2010PropOp29
 70
     1
102
RTVSPost2010Prop30
280
     1
102
RTVSPost2010PropOp30
 70
     1
102
RTVSPost2010Prop31
280
     0
102
RTVSPost2010PropOp31
 70
     1
102
RTVSPost2010Prop32
280
     0
102
RTVSPost2010PropOp32
 70
     1
102
RTVSPost2010Prop33
280
     0
102
RTVSPost2010PropOp33
 70
     1
102
RTVSPost2010Prop34
280
     0
102
RTVSPost2010PropOp34
 70
     1
102
RTVSPost2010Prop35
280
     0
102
RTVSPost2010PropOp35
 70
     1
102
RTVSPost2010Prop36
280
     0
102
RTVSPost2010PropOp36
 70
     1
102
RTVSPost2010Prop37
 90
       50
102
RTVSPost2010PropOp37
 70
     1
102
RTVSPost2010Prop38
140
0.0
102
RTVSPost2010PropOp38
 70
     1
102
RTVSPost2010Prop39
140
1.0
102
RTVSPost2010PropOp39
 70
     1
102
RTVSPost2010Prop40
 90
        0
102
RTVSPost2010PropOp40
 70
     1
102
RTVSPost2010Prop41ColorIndex
 90
       18
102
RTVSPost2010Prop41ColorRGB
 90
        0
102
RTVSPost2010PropOp41
 70
     1
102
RTVSPost2010Prop42
 90
       50
102
RTVSPost2010PropOp42
 70
     1
102
RTVSPost2010Prop43
 90
        3
102
RTVSPost2010PropOp43
 70
     1
102
RTVSPost2010Prop44ColorIndex
 90
        5
102
RTVSPost2010Prop44ColorRGB
 90
      255
102
RTVSPost2010PropOp44
 70
     1
102
RTVSPost2010Prop45
280
     0
102
RTVSPost2010PropOp45
 70
     1
102
RTVSPost2010Prop46
 90
       50
102
RTVSPost2010PropOp46
 70
     1
102
RTVSPost2010Prop47
 90
       50
102
RTVSPost2010PropOp47
 70
     1
102
RTVSPost2010Prop48
 90
       50
102
RTVSPost2010PropOp48
 70
     1
102
RTVSPost2010Prop49
280
     0
102
RTVSPost2010PropOp49
 70
     1
102
RTVSPost2010Prop50
 90
       50
102
RTVSPost2010PropOp50
 70
     1
102
RTVSPost2010Prop51ColorIndex
 90
      256
102
RTVSPost2010Prop51ColorRGB
 90
-16777216
102
RTVSPost2010PropOp51
 70
     0
102
RTVSPost2010Prop52
140
1.0
102
RTVSPost2010PropOp52
 70
     0
102
RTVSPost2010Prop53
 90
        2
102
RTVSPost2010PropOp53
 70
     1
102
RTVSPost2010Prop54
  1
strokes_ogs.tif
102
RTVSPost2010PropOp54
 70
     1
102
RTVSPost2010Prop55
280
     0
102
RTVSPost2010PropOp55
 70
     1
102
RTVSPost2010Prop56
140
1.0
102
RTVSPost2010PropOp56
 70
     1
102
RTVSPost2010Prop57
140
1.0
102
RTVSPost2010PropOp57
 70
     1
102
RTVSPropertyOp0
 70
     1
102
RTVSPropertyOp1
 70
     1
102
RTVSPropertyOp2
 70
     1
102
RTVSPropertyOp3
 70
     1
102
RTVSPropertyOp4
 70
     1
102
RTVSPropertyOp5
 70
     1
102
RTVSPropertyOp6
 70
     1
102
RTVSPropertyOp7
 70
     1
102
RTVSPropertyOp8
 70
     1
102
RTVSPropertyOp9
 70
     1
102
RTVSPropertyOp10
 70
     1
102
RTVSPropertyOp11
 70
     1
102
RTVSPropertyOp12
 70
     1
102
RTVSPropertyOp13
 70
     1
102
RTVSPropertyOp14
 70
     1
102
RTVSPropertyOp15
 70
     1
102
RTVSPropertyOp16
 70
     1
102
RTVSPropertyOp17
 70
     1
102
RTVSPropertyOp18
 70
     1
102
RTVSPropertyOp19
 70
     1
102
RTVSPropertyOp20
 70
     1
102
RTVSPropertyOp21
 70
     1
102
RTVSPropertyOp22
 70
     1
102
RTVSPropertyOp23
 70
     1
102
RTVSPropertyOp24
 70
     1
102
RTVSPropertyOp25
 70
     1
102
RTVSPropertyOp26
 70
     1
102
RTVSPropertyOp27
 70
     1
102
RTVSPropertyOp28
 70
     1
102
RTVSPropertyOp29
 70
     1
102
RTVSPropertyOp30
 70
     1
102
RTVSPropertyOp31
 70
     1
102
RTVSPropertyOp32
 70
     1
102
RTVSPropertyOp33
 70
     1
102
RTVSPropertyOp34
 70
     1
102
RTVSPropertyOp35
 70
     1
102
RTVSPropertyOp36
 70
     1
102
RTVSPropertyOp37
 70
     1
102
RTVSPropertyOp38
 70
     1
102
RTVSPropertyOp39
 70
     1
102
RTVSPropertyOp40
 70
     1
102
RTVSPropertyOp41
 70
     1
102
RTVSPropertyOp42
 70
     1
102
RTVSPropertyOp43
 70
     1
102
RTVSPropertyOp44
 70
     1
102
RTVSPropertyOp45
 70
     1
102
RTVSPropertyOp46
 70
     1
102
RTVSPropertyOp47
 70
     1
102
RTVSPropertyOp48
 70
     1
102
RTVSPropertyOp49
 70
     1
102
RTVSPropertyOp50
 70
     1
102
RTVSPropertyOp51
 70
     0
102
RTVSPropertyOp52
 70
     0
102
RTVSPropertyOp53
 70
     1
102
RTVSPropertyOp54
 70
     1
102
RTVSPropertyOp55
 70
     1
102
RTVSPropertyOp56
 70
     1
102
RTVSPropertyOp57
 70
     1
102
RTVSPropertyOp58
 70
     1
102
RTVSPropertyOp59
 70
     1
102
RTVSPropertyOp60
 70
     1
102
RTVSPropertyOp61
 70
     1
102
RTVSPropertyOp62
 70
     1
  0
XRECORD
  5
82B
102
{ACAD_REACTORS
330
82A
102
}
330
82A
100
AcDbXrecord
280
     1
102
RTVSPost2010Prop28
280
     0
102
RTVSPost2010PropOp28
 70
     1
102
RTVSPost2010Prop29
280
     1
102
RTVSPost2010PropOp29
 70
     1
102
RTVSPost2010Prop30
280
     1
102
RTVSPost2010PropOp30
 70
     1
102
RTVSPost2010Prop31
280
     0
102
RTVSPost2010PropOp31
 70
     1
102
RTVSPost2010Prop32
280
     0
102
RTVSPost2010PropOp32
 70
     1
102
RTVSPost2010Prop33
280
     0
102
RTVSPost2010PropOp33
 70
     1
102
RTVSPost2010Prop34
280
     0
102
RTVSPost2010PropOp34
 70
     1
102
RTVSPost2010Prop35
280
     0
102
RTVSPost2010PropOp35
 70
     1
102
RTVSPost2010Prop36
280
     0
102
RTVSPost2010PropOp36
 70
     1
102
RTVSPost2010Prop37
 90
       50
102
RTVSPost2010PropOp37
 70
     1
102
RTVSPost2010Prop38
140
0.0
102
RTVSPost2010PropOp38
 70
     1
102
RTVSPost2010Prop39
140
1.0
102
RTVSPost2010PropOp39
 70
     1
102
RTVSPost2010Prop40
 90
        0
102
RTVSPost2010PropOp40
 70
     1
102
RTVSPost2010Prop41ColorIndex
 90
       18
102
RTVSPost2010Prop41ColorRGB
 90
        0
102
RTVSPost2010PropOp41
 70
     1
102
RTVSPost2010Prop42
 90
       50
102
RTVSPost2010PropOp42
 70
     1
102
RTVSPost2010Prop43
 90
        3
102
RTVSPost2010PropOp43
 70
     1
102
RTVSPost2010Prop44ColorIndex
 90
        5
102
RTVSPost2010Prop44ColorRGB
 90
      255
102
RTVSPost2010PropOp44
 70
     1
102
RTVSPost2010Prop45
280
     0
102
RTVSPost2010PropOp45
 70
     1
102
RTVSPost2010Prop46
 90
       50
102
RTVSPost2010PropOp46
 70
     1
102
RTVSPost2010Prop47
 90
       50
102
RTVSPost2010PropOp47
 70
     1
102
RTVSPost2010Prop48
 90
       50
102
RTVSPost2010PropOp48
 70
     1
102
RTVSPost2010Prop49
280
     0
102
RTVSPost2010PropOp49
 70
     1
102
RTVSPost2010Prop50
 90
       50
102
RTVSPost2010PropOp50
 70
     1
102
RTVSPost2010Prop51ColorIndex
 90
      256
102
RTVSPost2010Prop51ColorRGB
 90
-16777216
102
RTVSPost2010PropOp51
 70
     0
102
RTVSPost2010Prop52
140
1.0
102
RTVSPost2010PropOp52
 70
     0
102
RTVSPost2010Prop53
 90
        2
102
RTVSPost2010PropOp53
 70
     1
102
RTVSPost2010Prop54
  1
strokes_ogs.tif
102
RTVSPost2010PropOp54
 70
     1
102
RTVSPost2010Prop55
280
     0
102
RTVSPost2010PropOp55
 70
     1
102
RTVSPost2010Prop56
140
1.0
102
RTVSPost2010PropOp56
 70
     1
102
RTVSPost2010Prop57
140
1.0
102
RTVSPost2010PropOp57
 70
     1
102
RTVSPropertyOp0
 70
     1
102
RTVSPropertyOp1
 70
     1
102
RTVSPropertyOp2
 70
     1
102
RTVSPropertyOp3
 70
     1
102
RTVSPropertyOp4
 70
     1
102
RTVSPropertyOp5
 70
     1
102
RTVSPropertyOp6
 70
     1
102
RTVSPropertyOp7
 70
     1
102
RTVSPropertyOp8
 70
     1
102
RTVSPropertyOp9
 70
     1
102
RTVSPropertyOp10
 70
     1
102
RTVSPropertyOp11
 70
     1
102
RTVSPropertyOp12
 70
     1
102
RTVSPropertyOp13
 70
     1
102
RTVSPropertyOp14
 70
     1
102
RTVSPropertyOp15
 70
     1
102
RTVSPropertyOp16
 70
     1
102
RTVSPropertyOp17
 70
     1
102
RTVSPropertyOp18
 70
     1
102
RTVSPropertyOp19
 70
     1
102
RTVSPropertyOp20
 70
     1
102
RTVSPropertyOp21
 70
     1
102
RTVSPropertyOp22
 70
     1
102
RTVSPropertyOp23
 70
     1
102
RTVSPropertyOp24
 70
     1
102
RTVSPropertyOp25
 70
     1
102
RTVSPropertyOp26
 70
     1
102
RTVSPropertyOp27
 70
     1
102
RTVSPropertyOp28
 70
     1
102
RTVSPropertyOp29
 70
     1
102
RTVSPropertyOp30
 70
     1
102
RTVSPropertyOp31
 70
     1
102
RTVSPropertyOp32
 70
     1
102
RTVSPropertyOp33
 70
     1
102
RTVSPropertyOp34
 70
     1
102
RTVSPropertyOp35
 70
     1
102
RTVSPropertyOp36
 70
     1
102
RTVSPropertyOp37
 70
     1
102
RTVSPropertyOp38
 70
     1
102
RTVSPropertyOp39
 70
     1
102
RTVSPropertyOp40
 70
     1
102
RTVSPropertyOp41
 70
     1
102
RTVSPropertyOp42
 70
     1
102
RTVSPropertyOp43
 70
     1
102
RTVSPropertyOp44
 70
     1
102
RTVSPropertyOp45
 70
     1
102
RTVSPropertyOp46
 70
     1
102
RTVSPropertyOp47
 70
     1
102
RTVSPropertyOp48
 70
     1
102
RTVSPropertyOp49
 70
     1
102
RTVSPropertyOp50
 70
     1
102
RTVSPropertyOp51
 70
     0
102
RTVSPropertyOp52
 70
     0
102
RTVSPropertyOp53
 70
     1
102
RTVSPropertyOp54
 70
     1
102
RTVSPropertyOp55
 70
     1
102
RTVSPropertyOp56
 70
     1
102
RTVSPropertyOp57
 70
     1
102
RTVSPropertyOp58
 70
     1
102
RTVSPropertyOp59
 70
     1
102
RTVSPropertyOp60
 70
     1
102
RTVSPropertyOp61
 70
     1
102
RTVSPropertyOp62
 70
     1
  0
XRECORD
  5
81D
102
{ACAD_REACTORS
330
81C
102
}
330
81C
100
AcDbXrecord
280
     1
102
RTVSPost2010Prop28
280
     0
102
RTVSPost2010PropOp28
 70
     1
102
RTVSPost2010Prop29
280
     1
102
RTVSPost2010PropOp29
 70
     1
102
RTVSPost2010Prop30
280
     1
102
RTVSPost2010PropOp30
 70
     1
102
RTVSPost2010Prop31
280
     0
102
RTVSPost2010PropOp31
 70
     1
102
RTVSPost2010Prop32
280
     0
102
RTVSPost2010PropOp32
 70
     1
102
RTVSPost2010Prop33
280
     0
102
RTVSPost2010PropOp33
 70
     1
102
RTVSPost2010Prop34
280
     0
102
RTVSPost2010PropOp34
 70
     1
102
RTVSPost2010Prop35
280
     0
102
RTVSPost2010PropOp35
 70
     1
102
RTVSPost2010Prop36
280
     0
102
RTVSPost2010PropOp36
 70
     1
102
RTVSPost2010Prop37
 90
       50
102
RTVSPost2010PropOp37
 70
     1
102
RTVSPost2010Prop38
140
0.0
102
RTVSPost2010PropOp38
 70
     1
102
RTVSPost2010Prop39
140
1.0
102
RTVSPost2010PropOp39
 70
     1
102
RTVSPost2010Prop40
 90
        0
102
RTVSPost2010PropOp40
 70
     1
102
RTVSPost2010Prop41ColorIndex
 90
       18
102
RTVSPost2010Prop41ColorRGB
 90
        0
102
RTVSPost2010PropOp41
 70
     1
102
RTVSPost2010Prop42
 90
       50
102
RTVSPost2010PropOp42
 70
     1
102
RTVSPost2010Prop43
 90
        3
102
RTVSPost2010PropOp43
 70
     1
102
RTVSPost2010Prop44ColorIndex
 90
        5
102
RTVSPost2010Prop44ColorRGB
 90
      255
102
RTVSPost2010PropOp44
 70
     1
102
RTVSPost2010Prop45
280
     0
102
RTVSPost2010PropOp45
 70
     1
102
RTVSPost2010Prop46
 90
       50
102
RTVSPost2010PropOp46
 70
     1
102
RTVSPost2010Prop47
 90
       50
102
RTVSPost2010PropOp47
 70
     1
102
RTVSPost2010Prop48
 90
       50
102
RTVSPost2010PropOp48
 70
     1
102
RTVSPost2010Prop49
280
     0
102
RTVSPost2010PropOp49
 70
     1
102
RTVSPost2010Prop50
 90
       50
102
RTVSPost2010PropOp50
 70
     1
102
RTVSPost2010Prop51ColorIndex
 90
      256
102
RTVSPost2010Prop51ColorRGB
 90
-16777216
102
RTVSPost2010PropOp51
 70
     0
102
RTVSPost2010Prop52
140
1.0
102
RTVSPost2010PropOp52
 70
     0
102
RTVSPost2010Prop53
 90
        2
102
RTVSPost2010PropOp53
 70
     1
102
RTVSPost2010Prop54
  1
strokes_ogs.tif
102
RTVSPost2010PropOp54
 70
     1
102
RTVSPost2010Prop55
280
     0
102
RTVSPost2010PropOp55
 70
     1
102
RTVSPost2010Prop56
140
1.0
102
RTVSPost2010PropOp56
 70
     1
102
RTVSPost2010Prop57
140
1.0
102
RTVSPost2010PropOp57
 70
     1
102
RTVSPropertyOp0
 70
     1
102
RTVSPropertyOp1
 70
     1
102
RTVSPropertyOp2
 70
     1
102
RTVSPropertyOp3
 70
     1
102
RTVSPropertyOp4
 70
     1
102
RTVSPropertyOp5
 70
     1
102
RTVSPropertyOp6
 70
     1
102
RTVSPropertyOp7
 70
     1
102
RTVSPropertyOp8
 70
     1
102
RTVSPropertyOp9
 70
     1
102
RTVSPropertyOp10
 70
     1
102
RTVSPropertyOp11
 70
     1
102
RTVSPropertyOp12
 70
     1
102
RTVSPropertyOp13
 70
     1
102
RTVSPropertyOp14
 70
     1
102
RTVSPropertyOp15
 70
     1
102
RTVSPropertyOp16
 70
     1
102
RTVSPropertyOp17
 70
     1
102
RTVSPropertyOp18
 70
     1
102
RTVSPropertyOp19
 70
     1
102
RTVSPropertyOp20
 70
     1
102
RTVSPropertyOp21
 70
     1
102
RTVSPropertyOp22
 70
     1
102
RTVSPropertyOp23
 70
     1
102
RTVSPropertyOp24
 70
     1
102
RTVSPropertyOp25
 70
     1
102
RTVSPropertyOp26
 70
     1
102
RTVSPropertyOp27
 70
     1
102
RTVSPropertyOp28
 70
     1
102
RTVSPropertyOp29
 70
     1
102
RTVSPropertyOp30
 70
     1
102
RTVSPropertyOp31
 70
     1
102
RTVSPropertyOp32
 70
     1
102
RTVSPropertyOp33
 70
     1
102
RTVSPropertyOp34
 70
     1
102
RTVSPropertyOp35
 70
     1
102
RTVSPropertyOp36
 70
     1
102
RTVSPropertyOp37
 70
     1
102
RTVSPropertyOp38
 70
     1
102
RTVSPropertyOp39
 70
     1
102
RTVSPropertyOp40
 70
     1
102
RTVSPropertyOp41
 70
     1
102
RTVSPropertyOp42
 70
     1
102
RTVSPropertyOp43
 70
     1
102
RTVSPropertyOp44
 70
     1
102
RTVSPropertyOp45
 70
     1
102
RTVSPropertyOp46
 70
     1
102
RTVSPropertyOp47
 70
     1
102
RTVSPropertyOp48
 70
     1
102
RTVSPropertyOp49
 70
     1
102
RTVSPropertyOp50
 70
     1
102
RTVSPropertyOp51
 70
     0
102
RTVSPropertyOp52
 70
     0
102
RTVSPropertyOp53
 70
     1
102
RTVSPropertyOp54
 70
     1
102
RTVSPropertyOp55
 70
     1
102
RTVSPropertyOp56
 70
     1
102
RTVSPropertyOp57
 70
     1
102
RTVSPropertyOp58
 70
     1
102
RTVSPropertyOp59
 70
     1
102
RTVSPropertyOp60
 70
     1
102
RTVSPropertyOp61
 70
     1
102
RTVSPropertyOp62
 70
     1
  0
XRECORD
  5
821
102
{ACAD_REACTORS
330
820
102
}
330
820
100
AcDbXrecord
280
     1
102
RTVSPost2010Prop28
280
     0
102
RTVSPost2010PropOp28
 70
     1
102
RTVSPost2010Prop29
280
     1
102
RTVSPost2010PropOp29
 70
     1
102
RTVSPost2010Prop30
280
     1
102
RTVSPost2010PropOp30
 70
     1
102
RTVSPost2010Prop31
280
     0
102
RTVSPost2010PropOp31
 70
     1
102
RTVSPost2010Prop32
280
     0
102
RTVSPost2010PropOp32
 70
     1
102
RTVSPost2010Prop33
280
     0
102
RTVSPost2010PropOp33
 70
     1
102
RTVSPost2010Prop34
280
     0
102
RTVSPost2010PropOp34
 70
     1
102
RTVSPost2010Prop35
280
     0
102
RTVSPost2010PropOp35
 70
     1
102
RTVSPost2010Prop36
280
     0
102
RTVSPost2010PropOp36
 70
     1
102
RTVSPost2010Prop37
 90
       50
102
RTVSPost2010PropOp37
 70
     1
102
RTVSPost2010Prop38
140
0.0
102
RTVSPost2010PropOp38
 70
     1
102
RTVSPost2010Prop39
140
1.0
102
RTVSPost2010PropOp39
 70
     1
102
RTVSPost2010Prop40
 90
        0
102
RTVSPost2010PropOp40
 70
     1
102
RTVSPost2010Prop41ColorIndex
 90
       18
102
RTVSPost2010Prop41ColorRGB
 90
        0
102
RTVSPost2010PropOp41
 70
     1
102
RTVSPost2010Prop42
 90
       50
102
RTVSPost2010PropOp42
 70
     1
102
RTVSPost2010Prop43
 90
        3
102
RTVSPost2010PropOp43
 70
     1
102
RTVSPost2010Prop44ColorIndex
 90
        5
102
RTVSPost2010Prop44ColorRGB
 90
      255
102
RTVSPost2010PropOp44
 70
     1
102
RTVSPost2010Prop45
280
     0
102
RTVSPost2010PropOp45
 70
     1
102
RTVSPost2010Prop46
 90
       50
102
RTVSPost2010PropOp46
 70
     1
102
RTVSPost2010Prop47
 90
       50
102
RTVSPost2010PropOp47
 70
     1
102
RTVSPost2010Prop48
 90
       50
102
RTVSPost2010PropOp48
 70
     1
102
RTVSPost2010Prop49
280
     0
102
RTVSPost2010PropOp49
 70
     1
102
RTVSPost2010Prop50
 90
       50
102
RTVSPost2010PropOp50
 70
     1
102
RTVSPost2010Prop51ColorIndex
 90
      256
102
RTVSPost2010Prop51ColorRGB
 90
-16777216
102
RTVSPost2010PropOp51
 70
     0
102
RTVSPost2010Prop52
140
1.0
102
RTVSPost2010PropOp52
 70
     0
102
RTVSPost2010Prop53
 90
        2
102
RTVSPost2010PropOp53
 70
     1
102
RTVSPost2010Prop54
  1
strokes_ogs.tif
102
RTVSPost2010PropOp54
 70
     1
102
RTVSPost2010Prop55
280
     0
102
RTVSPost2010PropOp55
 70
     1
102
RTVSPost2010Prop56
140
1.0
102
RTVSPost2010PropOp56
 70
     1
102
RTVSPost2010Prop57
140
1.0
102
RTVSPost2010PropOp57
 70
     1
102
RTVSPropertyOp0
 70
     1
102
RTVSPropertyOp1
 70
     1
102
RTVSPropertyOp2
 70
     1
102
RTVSPropertyOp3
 70
     1
102
RTVSPropertyOp4
 70
     1
102
RTVSPropertyOp5
 70
     1
102
RTVSPropertyOp6
 70
     1
102
RTVSPropertyOp7
 70
     1
102
RTVSPropertyOp8
 70
     1
102
RTVSPropertyOp9
 70
     1
102
RTVSPropertyOp10
 70
     1
102
RTVSPropertyOp11
 70
     1
102
RTVSPropertyOp12
 70
     1
102
RTVSPropertyOp13
 70
     1
102
RTVSPropertyOp14
 70
     1
102
RTVSPropertyOp15
 70
     1
102
RTVSPropertyOp16
 70
     1
102
RTVSPropertyOp17
 70
     1
102
RTVSPropertyOp18
 70
     1
102
RTVSPropertyOp19
 70
     1
102
RTVSPropertyOp20
 70
     1
102
RTVSPropertyOp21
 70
     1
102
RTVSPropertyOp22
 70
     1
102
RTVSPropertyOp23
 70
     1
102
RTVSPropertyOp24
 70
     1
102
RTVSPropertyOp25
 70
     1
102
RTVSPropertyOp26
 70
     1
102
RTVSPropertyOp27
 70
     1
102
RTVSPropertyOp28
 70
     1
102
RTVSPropertyOp29
 70
     1
102
RTVSPropertyOp30
 70
     1
102
RTVSPropertyOp31
 70
     1
102
RTVSPropertyOp32
 70
     1
102
RTVSPropertyOp33
 70
     1
102
RTVSPropertyOp34
 70
     1
102
RTVSPropertyOp35
 70
     1
102
RTVSPropertyOp36
 70
     1
102
RTVSPropertyOp37
 70
     1
102
RTVSPropertyOp38
 70
     1
102
RTVSPropertyOp39
 70
     1
102
RTVSPropertyOp40
 70
     1
102
RTVSPropertyOp41
 70
     1
102
RTVSPropertyOp42
 70
     1
102
RTVSPropertyOp43
 70
     1
102
RTVSPropertyOp44
 70
     1
102
RTVSPropertyOp45
 70
     1
102
RTVSPropertyOp46
 70
     1
102
RTVSPropertyOp47
 70
     1
102
RTVSPropertyOp48
 70
     1
102
RTVSPropertyOp49
 70
     1
102
RTVSPropertyOp50
 70
     1
102
RTVSPropertyOp51
 70
     0
102
RTVSPropertyOp52
 70
     0
102
RTVSPropertyOp53
 70
     1
102
RTVSPropertyOp54
 70
     1
102
RTVSPropertyOp55
 70
     1
102
RTVSPropertyOp56
 70
     1
102
RTVSPropertyOp57
 70
     1
102
RTVSPropertyOp58
 70
     1
102
RTVSPropertyOp59
 70
     1
102
RTVSPropertyOp60
 70
     1
102
RTVSPropertyOp61
 70
     1
102
RTVSPropertyOp62
 70
     1
  0
XRECORD
  5
83B
102
{ACAD_REACTORS
330
83A
102
}
330
83A
100
AcDbXrecord
280
     1
102
RTVSPost2010Prop28
280
     0
102
RTVSPost2010PropOp28
 70
     0
102
RTVSPost2010Prop29
280
     1
102
RTVSPost2010PropOp29
 70
     0
102
RTVSPost2010Prop30
280
     1
102
RTVSPost2010PropOp30
 70
     0
102
RTVSPost2010Prop31
280
     0
102
RTVSPost2010PropOp31
 70
     0
102
RTVSPost2010Prop32
280
     0
102
RTVSPost2010PropOp32
 70
     0
102
RTVSPost2010Prop33
280
     0
102
RTVSPost2010PropOp33
 70
     0
102
RTVSPost2010Prop34
280
     0
102
RTVSPost2010PropOp34
 70
     0
102
RTVSPost2010Prop35
280
     0
102
RTVSPost2010PropOp35
 70
     0
102
RTVSPost2010Prop36
280
     0
102
RTVSPost2010PropOp36
 70
     0
102
RTVSPost2010Prop37
 90
       50
102
RTVSPost2010PropOp37
 70
     0
102
RTVSPost2010Prop38
140
0.0
102
RTVSPost2010PropOp38
 70
     0
102
RTVSPost2010Prop39
140
1.0
102
RTVSPost2010PropOp39
 70
     0
102
RTVSPost2010Prop40
 90
        0
102
RTVSPost2010PropOp40
 70
     0
102
RTVSPost2010Prop41ColorIndex
 90
       18
102
RTVSPost2010Prop41ColorRGB
 90
        0
102
RTVSPost2010PropOp41
 70
     0
102
RTVSPost2010Prop42
 90
       50
102
RTVSPost2010PropOp42
 70
     0
102
RTVSPost2010Prop43
 90
        3
102
RTVSPost2010PropOp43
 70
     0
102
RTVSPost2010Prop44ColorIndex
 90
        5
102
RTVSPost2010Prop44ColorRGB
 90
      255
102
RTVSPost2010PropOp44
 70
     0
102
RTVSPost2010Prop45
280
     0
102
RTVSPost2010PropOp45
 70
     0
102
RTVSPost2010Prop46
 90
       50
102
RTVSPost2010PropOp46
 70
     0
102
RTVSPost2010Prop47
 90
       50
102
RTVSPost2010PropOp47
 70
     0
102
RTVSPost2010Prop48
 90
       50
102
RTVSPost2010PropOp48
 70
     0
102
RTVSPost2010Prop49
280
     0
102
RTVSPost2010PropOp49
 70
     0
102
RTVSPost2010Prop50
 90
       50
102
RTVSPost2010PropOp50
 70
     0
102
RTVSPost2010Prop51ColorIndex
 90
      256
102
RTVSPost2010Prop51ColorRGB
 90
-16777216
102
RTVSPost2010PropOp51
 70
     0
102
RTVSPost2010Prop52
140
1.0
102
RTVSPost2010PropOp52
 70
     0
102
RTVSPost2010Prop53
 90
        2
102
RTVSPost2010PropOp53
 70
     0
102
RTVSPost2010Prop54
  1
strokes_ogs.tif
102
RTVSPost2010PropOp54
 70
     0
102
RTVSPost2010Prop55
280
     0
102
RTVSPost2010PropOp55
 70
     0
102
RTVSPost2010Prop56
140
1.0
102
RTVSPost2010PropOp56
 70
     0
102
RTVSPost2010Prop57
140
1.0
102
RTVSPost2010PropOp57
 70
     0
102
RTVSPropertyOp0
 70
     0
102
RTVSPropertyOp1
 70
     0
102
RTVSPropertyOp2
 70
     0
102
RTVSPropertyOp3
 70
     0
102
RTVSPropertyOp4
 70
     0
102
RTVSPropertyOp5
 70
     0
102
RTVSPropertyOp6
 70
     0
102
RTVSPropertyOp7
 70
     0
102
RTVSPropertyOp8
 70
     0
102
RTVSPropertyOp9
 70
     0
102
RTVSPropertyOp10
 70
     0
102
RTVSPropertyOp11
 70
     0
102
RTVSPropertyOp12
 70
     0
102
RTVSPropertyOp13
 70
     0
102
RTVSPropertyOp14
 70
     2
102
RTVSPropertyOp15
 70
     0
102
RTVSPropertyOp16
 70
     0
102
RTVSPropertyOp17
 70
     0
102
RTVSPropertyOp18
 70
     0
102
RTVSPropertyOp19
 70
     0
102
RTVSPropertyOp20
 70
     0
102
RTVSPropertyOp21
 70
     0
102
RTVSPropertyOp22
 70
     0
102
RTVSPropertyOp23
 70
     0
102
RTVSPropertyOp24
 70
     0
102
RTVSPropertyOp25
 70
     0
102
RTVSPropertyOp26
 70
     0
102
RTVSPropertyOp27
 70
     0
102
RTVSPropertyOp28
 70
     0
102
RTVSPropertyOp29
 70
     0
102
RTVSPropertyOp30
 70
     0
102
RTVSPropertyOp31
 70
     0
102
RTVSPropertyOp32
 70
     0
102
RTVSPropertyOp33
 70
     0
102
RTVSPropertyOp34
 70
     0
102
RTVSPropertyOp35
 70
     0
102
RTVSPropertyOp36
 70
     0
102
RTVSPropertyOp37
 70
     0
102
RTVSPropertyOp38
 70
     0
102
RTVSPropertyOp39
 70
     0
102
RTVSPropertyOp40
 70
     0
102
RTVSPropertyOp41
 70
     0
102
RTVSPropertyOp42
 70
     0
102
RTVSPropertyOp43
 70
     0
102
RTVSPropertyOp44
 70
     0
102
RTVSPropertyOp45
 70
     0
102
RTVSPropertyOp46
 70
     0
102
RTVSPropertyOp47
 70
     0
102
RTVSPropertyOp48
 70
     0
102
RTVSPropertyOp49
 70
     0
102
RTVSPropertyOp50
 70
     0
102
RTVSPropertyOp51
 70
     0
102
RTVSPropertyOp52
 70
     0
102
RTVSPropertyOp53
 70
     0
102
RTVSPropertyOp54
 70
     0
102
RTVSPropertyOp55
 70
     0
102
RTVSPropertyOp56
 70
     0
102
RTVSPropertyOp57
 70
     0
102
RTVSPropertyOp58
 70
     0
102
RTVSPropertyOp59
 70
     0
102
RTVSPropertyOp60
 70
     0
102
RTVSPropertyOp61
 70
     0
102
RTVSPropertyOp62
 70
     0
  0
XRECORD
  5
829
102
{ACAD_REACTORS
330
828
102
}
330
828
100
AcDbXrecord
280
     1
102
RTVSPost2010Prop28
280
     0
102
RTVSPost2010PropOp28
 70
     1
102
RTVSPost2010Prop29
280
     1
102
RTVSPost2010PropOp29
 70
     1
102
RTVSPost2010Prop30
280
     1
102
RTVSPost2010PropOp30
 70
     1
102
RTVSPost2010Prop31
280
     0
102
RTVSPost2010PropOp31
 70
     1
102
RTVSPost2010Prop32
280
     0
102
RTVSPost2010PropOp32
 70
     1
102
RTVSPost2010Prop33
280
     0
102
RTVSPost2010PropOp33
 70
     1
102
RTVSPost2010Prop34
280
     0
102
RTVSPost2010PropOp34
 70
     1
102
RTVSPost2010Prop35
280
     0
102
RTVSPost2010PropOp35
 70
     1
102
RTVSPost2010Prop36
280
     0
102
RTVSPost2010PropOp36
 70
     1
102
RTVSPost2010Prop37
 90
       50
102
RTVSPost2010PropOp37
 70
     1
102
RTVSPost2010Prop38
140
0.0
102
RTVSPost2010PropOp38
 70
     1
102
RTVSPost2010Prop39
140
1.0
102
RTVSPost2010PropOp39
 70
     1
102
RTVSPost2010Prop40
 90
        0
102
RTVSPost2010PropOp40
 70
     1
102
RTVSPost2010Prop41ColorIndex
 90
       18
102
RTVSPost2010Prop41ColorRGB
 90
        0
102
RTVSPost2010PropOp41
 70
     1
102
RTVSPost2010Prop42
 90
       50
102
RTVSPost2010PropOp42
 70
     1
102
RTVSPost2010Prop43
 90
        3
102
RTVSPost2010PropOp43
 70
     1
102
RTVSPost2010Prop44ColorIndex
 90
        5
102
RTVSPost2010Prop44ColorRGB
 90
      255
102
RTVSPost2010PropOp44
 70
     1
102
RTVSPost2010Prop45
280
     0
102
RTVSPost2010PropOp45
 70
     1
102
RTVSPost2010Prop46
 90
       50
102
RTVSPost2010PropOp46
 70
     1
102
RTVSPost2010Prop47
 90
       50
102
RTVSPost2010PropOp47
 70
     1
102
RTVSPost2010Prop48
 90
       50
102
RTVSPost2010PropOp48
 70
     1
102
RTVSPost2010Prop49
280
     0
102
RTVSPost2010PropOp49
 70
     1
102
RTVSPost2010Prop50
 90
       50
102
RTVSPost2010PropOp50
 70
     1
102
RTVSPost2010Prop51ColorIndex
 90
      256
102
RTVSPost2010Prop51ColorRGB
 90
-16777216
102
RTVSPost2010PropOp51
 70
     0
102
RTVSPost2010Prop52
140
1.0
102
RTVSPost2010PropOp52
 70
     0
102
RTVSPost2010Prop53
 90
        2
102
RTVSPost2010PropOp53
 70
     1
102
RTVSPost2010Prop54
  1
strokes_ogs.tif
102
RTVSPost2010PropOp54
 70
     1
102
RTVSPost2010Prop55
280
     0
102
RTVSPost2010PropOp55
 70
     1
102
RTVSPost2010Prop56
140
1.0
102
RTVSPost2010PropOp56
 70
     1
102
RTVSPost2010Prop57
140
1.0
102
RTVSPost2010PropOp57
 70
     1
102
RTVSPropertyOp0
 70
     1
102
RTVSPropertyOp1
 70
     1
102
RTVSPropertyOp2
 70
     1
102
RTVSPropertyOp3
 70
     1
102
RTVSPropertyOp4
 70
     1
102
RTVSPropertyOp5
 70
     1
102
RTVSPropertyOp6
 70
     1
102
RTVSPropertyOp7
 70
     1
102
RTVSPropertyOp8
 70
     1
102
RTVSPropertyOp9
 70
     1
102
RTVSPropertyOp10
 70
     1
102
RTVSPropertyOp11
 70
     1
102
RTVSPropertyOp12
 70
     1
102
RTVSPropertyOp13
 70
     1
102
RTVSPropertyOp14
 70
     1
102
RTVSPropertyOp15
 70
     1
102
RTVSPropertyOp16
 70
     1
102
RTVSPropertyOp17
 70
     1
102
RTVSPropertyOp18
 70
     1
102
RTVSPropertyOp19
 70
     1
102
RTVSPropertyOp20
 70
     1
102
RTVSPropertyOp21
 70
     1
102
RTVSPropertyOp22
 70
     1
102
RTVSPropertyOp23
 70
     1
102
RTVSPropertyOp24
 70
     1
102
RTVSPropertyOp25
 70
     1
102
RTVSPropertyOp26
 70
     1
102
RTVSPropertyOp27
 70
     1
102
RTVSPropertyOp28
 70
     1
102
RTVSPropertyOp29
 70
     1
102
RTVSPropertyOp30
 70
     1
102
RTVSPropertyOp31
 70
     1
102
RTVSPropertyOp32
 70
     1
102
RTVSPropertyOp33
 70
     1
102
RTVSPropertyOp34
 70
     1
102
RTVSPropertyOp35
 70
     1
102
RTVSPropertyOp36
 70
     1
102
RTVSPropertyOp37
 70
     1
102
RTVSPropertyOp38
 70
     1
102
RTVSPropertyOp39
 70
     1
102
RTVSPropertyOp40
 70
     1
102
RTVSPropertyOp41
 70
     1
102
RTVSPropertyOp42
 70
     1
102
RTVSPropertyOp43
 70
     1
102
RTVSPropertyOp44
 70
     1
102
RTVSPropertyOp45
 70
     1
102
RTVSPropertyOp46
 70
     1
102
RTVSPropertyOp47
 70
     1
102
RTVSPropertyOp48
 70
     1
102
RTVSPropertyOp49
 70
     1
102
RTVSPropertyOp50
 70
     1
102
RTVSPropertyOp51
 70
     0
102
RTVSPropertyOp52
 70
     0
102
RTVSPropertyOp53
 70
     1
102
RTVSPropertyOp54
 70
     1
102
RTVSPropertyOp55
 70
     1
102
RTVSPropertyOp56
 70
     1
102
RTVSPropertyOp57
 70
     1
102
RTVSPropertyOp58
 70
     1
102
RTVSPropertyOp59
 70
     1
102
RTVSPropertyOp60
 70
     1
102
RTVSPropertyOp61
 70
     1
102
RTVSPropertyOp62
 70
     1
  0
XRECORD
  5
80D
102
{ACAD_REACTORS
330
80C
102
}
330
80C
100
AcDbXrecord
280
     1
102
RTVSPost2010Prop28
280
     0
102
RTVSPost2010PropOp28
 70
     1
102
RTVSPost2010Prop29
280
     1
102
RTVSPost2010PropOp29
 70
     1
102
RTVSPost2010Prop30
280
     1
102
RTVSPost2010PropOp30
 70
     1
102
RTVSPost2010Prop31
280
     0
102
RTVSPost2010PropOp31
 70
     1
102
RTVSPost2010Prop32
280
     0
102
RTVSPost2010PropOp32
 70
     1
102
RTVSPost2010Prop33
280
     0
102
RTVSPost2010PropOp33
 70
     1
102
RTVSPost2010Prop34
280
     0
102
RTVSPost2010PropOp34
 70
     1
102
RTVSPost2010Prop35
280
     0
102
RTVSPost2010PropOp35
 70
     1
102
RTVSPost2010Prop36
280
     0
102
RTVSPost2010PropOp36
 70
     1
102
RTVSPost2010Prop37
 90
       50
102
RTVSPost2010PropOp37
 70
     1
102
RTVSPost2010Prop38
140
0.0
102
RTVSPost2010PropOp38
 70
     1
102
RTVSPost2010Prop39
140
1.0
102
RTVSPost2010PropOp39
 70
     1
102
RTVSPost2010Prop40
 90
        0
102
RTVSPost2010PropOp40
 70
     1
102
RTVSPost2010Prop41ColorIndex
 90
       18
102
RTVSPost2010Prop41ColorRGB
 90
        0
102
RTVSPost2010PropOp41
 70
     1
102
RTVSPost2010Prop42
 90
       50
102
RTVSPost2010PropOp42
 70
     1
102
RTVSPost2010Prop43
 90
        3
102
RTVSPost2010PropOp43
 70
     1
102
RTVSPost2010Prop44ColorIndex
 90
        5
102
RTVSPost2010Prop44ColorRGB
 90
      255
102
RTVSPost2010PropOp44
 70
     1
102
RTVSPost2010Prop45
280
     0
102
RTVSPost2010PropOp45
 70
     1
102
RTVSPost2010Prop46
 90
       50
102
RTVSPost2010PropOp46
 70
     1
102
RTVSPost2010Prop47
 90
       50
102
RTVSPost2010PropOp47
 70
     1
102
RTVSPost2010Prop48
 90
       50
102
RTVSPost2010PropOp48
 70
     1
102
RTVSPost2010Prop49
280
     0
102
RTVSPost2010PropOp49
 70
     1
102
RTVSPost2010Prop50
 90
       50
102
RTVSPost2010PropOp50
 70
     1
102
RTVSPost2010Prop51ColorIndex
 90
      256
102
RTVSPost2010Prop51ColorRGB
 90
-16777216
102
RTVSPost2010PropOp51
 70
     0
102
RTVSPost2010Prop52
140
1.0
102
RTVSPost2010PropOp52
 70
     0
102
RTVSPost2010Prop53
 90
        2
102
RTVSPost2010PropOp53
 70
     1
102
RTVSPost2010Prop54
  1
strokes_ogs.tif
102
RTVSPost2010PropOp54
 70
     1
102
RTVSPost2010Prop55
280
     0
102
RTVSPost2010PropOp55
 70
     1
102
RTVSPost2010Prop56
140
1.0
102
RTVSPost2010PropOp56
 70
     1
102
RTVSPost2010Prop57
140
1.0
102
RTVSPost2010PropOp57
 70
     1
102
RTVSPropertyOp0
 70
     1
102
RTVSPropertyOp1
 70
     1
102
RTVSPropertyOp2
 70
     1
102
RTVSPropertyOp3
 70
     1
102
RTVSPropertyOp4
 70
     1
102
RTVSPropertyOp5
 70
     1
102
RTVSPropertyOp6
 70
     1
102
RTVSPropertyOp7
 70
     1
102
RTVSPropertyOp8
 70
     1
102
RTVSPropertyOp9
 70
     1
102
RTVSPropertyOp10
 70
     1
102
RTVSPropertyOp11
 70
     1
102
RTVSPropertyOp12
 70
     1
102
RTVSPropertyOp13
 70
     1
102
RTVSPropertyOp14
 70
     1
102
RTVSPropertyOp15
 70
     1
102
RTVSPropertyOp16
 70
     1
102
RTVSPropertyOp17
 70
     1
102
RTVSPropertyOp18
 70
     1
102
RTVSPropertyOp19
 70
     1
102
RTVSPropertyOp20
 70
     1
102
RTVSPropertyOp21
 70
     1
102
RTVSPropertyOp22
 70
     1
102
RTVSPropertyOp23
 70
     1
102
RTVSPropertyOp24
 70
     1
102
RTVSPropertyOp25
 70
     1
102
RTVSPropertyOp26
 70
     1
102
RTVSPropertyOp27
 70
     1
102
RTVSPropertyOp28
 70
     1
102
RTVSPropertyOp29
 70
     1
102
RTVSPropertyOp30
 70
     1
102
RTVSPropertyOp31
 70
     1
102
RTVSPropertyOp32
 70
     1
102
RTVSPropertyOp33
 70
     1
102
RTVSPropertyOp34
 70
     1
102
RTVSPropertyOp35
 70
     1
102
RTVSPropertyOp36
 70
     1
102
RTVSPropertyOp37
 70
     1
102
RTVSPropertyOp38
 70
     1
102
RTVSPropertyOp39
 70
     1
102
RTVSPropertyOp40
 70
     1
102
RTVSPropertyOp41
 70
     1
102
RTVSPropertyOp42
 70
     1
102
RTVSPropertyOp43
 70
     1
102
RTVSPropertyOp44
 70
     1
102
RTVSPropertyOp45
 70
     1
102
RTVSPropertyOp46
 70
     1
102
RTVSPropertyOp47
 70
     1
102
RTVSPropertyOp48
 70
     1
102
RTVSPropertyOp49
 70
     1
102
RTVSPropertyOp50
 70
     1
102
RTVSPropertyOp51
 70
     0
102
RTVSPropertyOp52
 70
     0
102
RTVSPropertyOp53
 70
     1
102
RTVSPropertyOp54
 70
     1
102
RTVSPropertyOp55
 70
     1
102
RTVSPropertyOp56
 70
     1
102
RTVSPropertyOp57
 70
     1
102
RTVSPropertyOp58
 70
     1
102
RTVSPropertyOp59
 70
     1
102
RTVSPropertyOp60
 70
     1
102
RTVSPropertyOp61
 70
     1
102
RTVSPropertyOp62
 70
     1
  0
XRECORD
  5
80F
102
{ACAD_REACTORS
330
80E
102
}
330
80E
100
AcDbXrecord
280
     1
102
RTVSPost2010Prop28
280
     0
102
RTVSPost2010PropOp28
 70
     1
102
RTVSPost2010Prop29
280
     1
102
RTVSPost2010PropOp29
 70
     1
102
RTVSPost2010Prop30
280
     1
102
RTVSPost2010PropOp30
 70
     1
102
RTVSPost2010Prop31
280
     0
102
RTVSPost2010PropOp31
 70
     1
102
RTVSPost2010Prop32
280
     0
102
RTVSPost2010PropOp32
 70
     1
102
RTVSPost2010Prop33
280
     0
102
RTVSPost2010PropOp33
 70
     1
102
RTVSPost2010Prop34
280
     0
102
RTVSPost2010PropOp34
 70
     1
102
RTVSPost2010Prop35
280
     0
102
RTVSPost2010PropOp35
 70
     1
102
RTVSPost2010Prop36
280
     0
102
RTVSPost2010PropOp36
 70
     1
102
RTVSPost2010Prop37
 90
       50
102
RTVSPost2010PropOp37
 70
     1
102
RTVSPost2010Prop38
140
0.0
102
RTVSPost2010PropOp38
 70
     1
102
RTVSPost2010Prop39
140
1.0
102
RTVSPost2010PropOp39
 70
     1
102
RTVSPost2010Prop40
 90
        0
102
RTVSPost2010PropOp40
 70
     1
102
RTVSPost2010Prop41ColorIndex
 90
       18
102
RTVSPost2010Prop41ColorRGB
 90
        0
102
RTVSPost2010PropOp41
 70
     1
102
RTVSPost2010Prop42
 90
       50
102
RTVSPost2010PropOp42
 70
     1
102
RTVSPost2010Prop43
 90
        3
102
RTVSPost2010PropOp43
 70
     1
102
RTVSPost2010Prop44ColorIndex
 90
        5
102
RTVSPost2010Prop44ColorRGB
 90
      255
102
RTVSPost2010PropOp44
 70
     1
102
RTVSPost2010Prop45
280
     0
102
RTVSPost2010PropOp45
 70
     1
102
RTVSPost2010Prop46
 90
       50
102
RTVSPost2010PropOp46
 70
     1
102
RTVSPost2010Prop47
 90
       50
102
RTVSPost2010PropOp47
 70
     1
102
RTVSPost2010Prop48
 90
       50
102
RTVSPost2010PropOp48
 70
     1
102
RTVSPost2010Prop49
280
     0
102
RTVSPost2010PropOp49
 70
     1
102
RTVSPost2010Prop50
 90
       50
102
RTVSPost2010PropOp50
 70
     1
102
RTVSPost2010Prop51ColorIndex
 90
      256
102
RTVSPost2010Prop51ColorRGB
 90
-16777216
102
RTVSPost2010PropOp51
 70
     0
102
RTVSPost2010Prop52
140
1.0
102
RTVSPost2010PropOp52
 70
     0
102
RTVSPost2010Prop53
 90
        2
102
RTVSPost2010PropOp53
 70
     1
102
RTVSPost2010Prop54
  1
strokes_ogs.tif
102
RTVSPost2010PropOp54
 70
     1
102
RTVSPost2010Prop55
280
     0
102
RTVSPost2010PropOp55
 70
     1
102
RTVSPost2010Prop56
140
1.0
102
RTVSPost2010PropOp56
 70
     1
102
RTVSPost2010Prop57
140
1.0
102
RTVSPost2010PropOp57
 70
     1
102
RTVSPropertyOp0
 70
     1
102
RTVSPropertyOp1
 70
     1
102
RTVSPropertyOp2
 70
     1
102
RTVSPropertyOp3
 70
     1
102
RTVSPropertyOp4
 70
     1
102
RTVSPropertyOp5
 70
     1
102
RTVSPropertyOp6
 70
     1
102
RTVSPropertyOp7
 70
     1
102
RTVSPropertyOp8
 70
     1
102
RTVSPropertyOp9
 70
     1
102
RTVSPropertyOp10
 70
     1
102
RTVSPropertyOp11
 70
     1
102
RTVSPropertyOp12
 70
     1
102
RTVSPropertyOp13
 70
     1
102
RTVSPropertyOp14
 70
     1
102
RTVSPropertyOp15
 70
     1
102
RTVSPropertyOp16
 70
     1
102
RTVSPropertyOp17
 70
     1
102
RTVSPropertyOp18
 70
     1
102
RTVSPropertyOp19
 70
     1
102
RTVSPropertyOp20
 70
     1
102
RTVSPropertyOp21
 70
     1
102
RTVSPropertyOp22
 70
     1
102
RTVSPropertyOp23
 70
     1
102
RTVSPropertyOp24
 70
     1
102
RTVSPropertyOp25
 70
     1
102
RTVSPropertyOp26
 70
     1
102
RTVSPropertyOp27
 70
     1
102
RTVSPropertyOp28
 70
     1
102
RTVSPropertyOp29
 70
     1
102
RTVSPropertyOp30
 70
     1
102
RTVSPropertyOp31
 70
     1
102
RTVSPropertyOp32
 70
     1
102
RTVSPropertyOp33
 70
     1
102
RTVSPropertyOp34
 70
     1
102
RTVSPropertyOp35
 70
     1
102
RTVSPropertyOp36
 70
     1
102
RTVSPropertyOp37
 70
     1
102
RTVSPropertyOp38
 70
     1
102
RTVSPropertyOp39
 70
     1
102
RTVSPropertyOp40
 70
     1
102
RTVSPropertyOp41
 70
     1
102
RTVSPropertyOp42
 70
     1
102
RTVSPropertyOp43
 70
     1
102
RTVSPropertyOp44
 70
     1
102
RTVSPropertyOp45
 70
     1
102
RTVSPropertyOp46
 70
     1
102
RTVSPropertyOp47
 70
     1
102
RTVSPropertyOp48
 70
     1
102
RTVSPropertyOp49
 70
     1
102
RTVSPropertyOp50
 70
     1
102
RTVSPropertyOp51
 70
     0
102
RTVSPropertyOp52
 70
     0
102
RTVSPropertyOp53
 70
     1
102
RTVSPropertyOp54
 70
     1
102
RTVSPropertyOp55
 70
     1
102
RTVSPropertyOp56
 70
     1
102
RTVSPropertyOp57
 70
     1
102
RTVSPropertyOp58
 70
     1
102
RTVSPropertyOp59
 70
     1
102
RTVSPropertyOp60
 70
     1
102
RTVSPropertyOp61
 70
     1
102
RTVSPropertyOp62
 70
     1
  0
XRECORD
  5
811
102
{ACAD_REACTORS
330
810
102
}
330
810
100
AcDbXrecord
280
     1
102
RTVSPost2010Prop28
280
     0
102
RTVSPost2010PropOp28
 70
     1
102
RTVSPost2010Prop29
280
     1
102
RTVSPost2010PropOp29
 70
     1
102
RTVSPost2010Prop30
280
     1
102
RTVSPost2010PropOp30
 70
     1
102
RTVSPost2010Prop31
280
     0
102
RTVSPost2010PropOp31
 70
     1
102
RTVSPost2010Prop32
280
     0
102
RTVSPost2010PropOp32
 70
     1
102
RTVSPost2010Prop33
280
     0
102
RTVSPost2010PropOp33
 70
     1
102
RTVSPost2010Prop34
280
     0
102
RTVSPost2010PropOp34
 70
     1
102
RTVSPost2010Prop35
280
     0
102
RTVSPost2010PropOp35
 70
     1
102
RTVSPost2010Prop36
280
     0
102
RTVSPost2010PropOp36
 70
     1
102
RTVSPost2010Prop37
 90
       50
102
RTVSPost2010PropOp37
 70
     1
102
RTVSPost2010Prop38
140
0.0
102
RTVSPost2010PropOp38
 70
     1
102
RTVSPost2010Prop39
140
1.0
102
RTVSPost2010PropOp39
 70
     1
102
RTVSPost2010Prop40
 90
        0
102
RTVSPost2010PropOp40
 70
     1
102
RTVSPost2010Prop41ColorIndex
 90
       18
102
RTVSPost2010Prop41ColorRGB
 90
        0
102
RTVSPost2010PropOp41
 70
     1
102
RTVSPost2010Prop42
 90
       50
102
RTVSPost2010PropOp42
 70
     1
102
RTVSPost2010Prop43
 90
        3
102
RTVSPost2010PropOp43
 70
     1
102
RTVSPost2010Prop44ColorIndex
 90
        5
102
RTVSPost2010Prop44ColorRGB
 90
      255
102
RTVSPost2010PropOp44
 70
     1
102
RTVSPost2010Prop45
280
     0
102
RTVSPost2010PropOp45
 70
     1
102
RTVSPost2010Prop46
 90
       50
102
RTVSPost2010PropOp46
 70
     1
102
RTVSPost2010Prop47
 90
       50
102
RTVSPost2010PropOp47
 70
     1
102
RTVSPost2010Prop48
 90
       50
102
RTVSPost2010PropOp48
 70
     1
102
RTVSPost2010Prop49
280
     0
102
RTVSPost2010PropOp49
 70
     1
102
RTVSPost2010Prop50
 90
       50
102
RTVSPost2010PropOp50
 70
     1
102
RTVSPost2010Prop51ColorIndex
 90
      256
102
RTVSPost2010Prop51ColorRGB
 90
-16777216
102
RTVSPost2010PropOp51
 70
     0
102
RTVSPost2010Prop52
140
1.0
102
RTVSPost2010PropOp52
 70
     0
102
RTVSPost2010Prop53
 90
        2
102
RTVSPost2010PropOp53
 70
     1
102
RTVSPost2010Prop54
  1
strokes_ogs.tif
102
RTVSPost2010PropOp54
 70
     1
102
RTVSPost2010Prop55
280
     0
102
RTVSPost2010PropOp55
 70
     1
102
RTVSPost2010Prop56
140
1.0
102
RTVSPost2010PropOp56
 70
     1
102
RTVSPost2010Prop57
140
1.0
102
RTVSPost2010PropOp57
 70
     1
102
RTVSPropertyOp0
 70
     1
102
RTVSPropertyOp1
 70
     1
102
RTVSPropertyOp2
 70
     1
102
RTVSPropertyOp3
 70
     1
102
RTVSPropertyOp4
 70
     1
102
RTVSPropertyOp5
 70
     1
102
RTVSPropertyOp6
 70
     1
102
RTVSPropertyOp7
 70
     1
102
RTVSPropertyOp8
 70
     1
102
RTVSPropertyOp9
 70
     1
102
RTVSPropertyOp10
 70
     1
102
RTVSPropertyOp11
 70
     1
102
RTVSPropertyOp12
 70
     1
102
RTVSPropertyOp13
 70
     1
102
RTVSPropertyOp14
 70
     1
102
RTVSPropertyOp15
 70
     1
102
RTVSPropertyOp16
 70
     1
102
RTVSPropertyOp17
 70
     1
102
RTVSPropertyOp18
 70
     1
102
RTVSPropertyOp19
 70
     1
102
RTVSPropertyOp20
 70
     1
102
RTVSPropertyOp21
 70
     1
102
RTVSPropertyOp22
 70
     1
102
RTVSPropertyOp23
 70
     1
102
RTVSPropertyOp24
 70
     1
102
RTVSPropertyOp25
 70
     1
102
RTVSPropertyOp26
 70
     1
102
RTVSPropertyOp27
 70
     1
102
RTVSPropertyOp28
 70
     1
102
RTVSPropertyOp29
 70
     1
102
RTVSPropertyOp30
 70
     1
102
RTVSPropertyOp31
 70
     1
102
RTVSPropertyOp32
 70
     1
102
RTVSPropertyOp33
 70
     1
102
RTVSPropertyOp34
 70
     1
102
RTVSPropertyOp35
 70
     1
102
RTVSPropertyOp36
 70
     1
102
RTVSPropertyOp37
 70
     1
102
RTVSPropertyOp38
 70
     1
102
RTVSPropertyOp39
 70
     1
102
RTVSPropertyOp40
 70
     1
102
RTVSPropertyOp41
 70
     1
102
RTVSPropertyOp42
 70
     1
102
RTVSPropertyOp43
 70
     1
102
RTVSPropertyOp44
 70
     1
102
RTVSPropertyOp45
 70
     1
102
RTVSPropertyOp46
 70
     1
102
RTVSPropertyOp47
 70
     1
102
RTVSPropertyOp48
 70
     1
102
RTVSPropertyOp49
 70
     1
102
RTVSPropertyOp50
 70
     1
102
RTVSPropertyOp51
 70
     0
102
RTVSPropertyOp52
 70
     0
102
RTVSPropertyOp53
 70
     1
102
RTVSPropertyOp54
 70
     1
102
RTVSPropertyOp55
 70
     1
102
RTVSPropertyOp56
 70
     1
102
RTVSPropertyOp57
 70
     1
102
RTVSPropertyOp58
 70
     1
102
RTVSPropertyOp59
 70
     1
102
RTVSPropertyOp60
 70
     1
102
RTVSPropertyOp61
 70
     1
102
RTVSPropertyOp62
 70
     1
  0
XRECORD
  5
813
102
{ACAD_REACTORS
330
812
102
}
330
812
100
AcDbXrecord
280
     1
102
RTVSPost2010Prop28
280
     0
102
RTVSPost2010PropOp28
 70
     1
102
RTVSPost2010Prop29
280
     1
102
RTVSPost2010PropOp29
 70
     1
102
RTVSPost2010Prop30
280
     1
102
RTVSPost2010PropOp30
 70
     1
102
RTVSPost2010Prop31
280
     0
102
RTVSPost2010PropOp31
 70
     1
102
RTVSPost2010Prop32
280
     0
102
RTVSPost2010PropOp32
 70
     1
102
RTVSPost2010Prop33
280
     0
102
RTVSPost2010PropOp33
 70
     1
102
RTVSPost2010Prop34
280
     0
102
RTVSPost2010PropOp34
 70
     1
102
RTVSPost2010Prop35
280
     0
102
RTVSPost2010PropOp35
 70
     1
102
RTVSPost2010Prop36
280
     0
102
RTVSPost2010PropOp36
 70
     1
102
RTVSPost2010Prop37
 90
       50
102
RTVSPost2010PropOp37
 70
     1
102
RTVSPost2010Prop38
140
0.0
102
RTVSPost2010PropOp38
 70
     1
102
RTVSPost2010Prop39
140
1.0
102
RTVSPost2010PropOp39
 70
     1
102
RTVSPost2010Prop40
 90
        0
102
RTVSPost2010PropOp40
 70
     1
102
RTVSPost2010Prop41ColorIndex
 90
       18
102
RTVSPost2010Prop41ColorRGB
 90
        0
102
RTVSPost2010PropOp41
 70
     1
102
RTVSPost2010Prop42
 90
       50
102
RTVSPost2010PropOp42
 70
     1
102
RTVSPost2010Prop43
 90
        3
102
RTVSPost2010PropOp43
 70
     1
102
RTVSPost2010Prop44ColorIndex
 90
        5
102
RTVSPost2010Prop44ColorRGB
 90
      255
102
RTVSPost2010PropOp44
 70
     1
102
RTVSPost2010Prop45
280
     0
102
RTVSPost2010PropOp45
 70
     1
102
RTVSPost2010Prop46
 90
       50
102
RTVSPost2010PropOp46
 70
     1
102
RTVSPost2010Prop47
 90
       50
102
RTVSPost2010PropOp47
 70
     1
102
RTVSPost2010Prop48
 90
       50
102
RTVSPost2010PropOp48
 70
     1
102
RTVSPost2010Prop49
280
     0
102
RTVSPost2010PropOp49
 70
     1
102
RTVSPost2010Prop50
 90
       50
102
RTVSPost2010PropOp50
 70
     1
102
RTVSPost2010Prop51ColorIndex
 90
      256
102
RTVSPost2010Prop51ColorRGB
 90
-16777216
102
RTVSPost2010PropOp51
 70
     0
102
RTVSPost2010Prop52
140
1.0
102
RTVSPost2010PropOp52
 70
     0
102
RTVSPost2010Prop53
 90
        2
102
RTVSPost2010PropOp53
 70
     1
102
RTVSPost2010Prop54
  1
strokes_ogs.tif
102
RTVSPost2010PropOp54
 70
     1
102
RTVSPost2010Prop55
280
     0
102
RTVSPost2010PropOp55
 70
     1
102
RTVSPost2010Prop56
140
1.0
102
RTVSPost2010PropOp56
 70
     1
102
RTVSPost2010Prop57
140
1.0
102
RTVSPost2010PropOp57
 70
     1
102
RTVSPropertyOp0
 70
     1
102
RTVSPropertyOp1
 70
     1
102
RTVSPropertyOp2
 70
     1
102
RTVSPropertyOp3
 70
     1
102
RTVSPropertyOp4
 70
     1
102
RTVSPropertyOp5
 70
     1
102
RTVSPropertyOp6
 70
     1
102
RTVSPropertyOp7
 70
     1
102
RTVSPropertyOp8
 70
     1
102
RTVSPropertyOp9
 70
     1
102
RTVSPropertyOp10
 70
     1
102
RTVSPropertyOp11
 70
     1
102
RTVSPropertyOp12
 70
     1
102
RTVSPropertyOp13
 70
     1
102
RTVSPropertyOp14
 70
     1
102
RTVSPropertyOp15
 70
     1
102
RTVSPropertyOp16
 70
     1
102
RTVSPropertyOp17
 70
     1
102
RTVSPropertyOp18
 70
     1
102
RTVSPropertyOp19
 70
     1
102
RTVSPropertyOp20
 70
     1
102
RTVSPropertyOp21
 70
     1
102
RTVSPropertyOp22
 70
     1
102
RTVSPropertyOp23
 70
     1
102
RTVSPropertyOp24
 70
     1
102
RTVSPropertyOp25
 70
     1
102
RTVSPropertyOp26
 70
     1
102
RTVSPropertyOp27
 70
     1
102
RTVSPropertyOp28
 70
     1
102
RTVSPropertyOp29
 70
     1
102
RTVSPropertyOp30
 70
     1
102
RTVSPropertyOp31
 70
     1
102
RTVSPropertyOp32
 70
     1
102
RTVSPropertyOp33
 70
     1
102
RTVSPropertyOp34
 70
     1
102
RTVSPropertyOp35
 70
     1
102
RTVSPropertyOp36
 70
     1
102
RTVSPropertyOp37
 70
     1
102
RTVSPropertyOp38
 70
     1
102
RTVSPropertyOp39
 70
     1
102
RTVSPropertyOp40
 70
     1
102
RTVSPropertyOp41
 70
     1
102
RTVSPropertyOp42
 70
     1
102
RTVSPropertyOp43
 70
     1
102
RTVSPropertyOp44
 70
     1
102
RTVSPropertyOp45
 70
     1
102
RTVSPropertyOp46
 70
     1
102
RTVSPropertyOp47
 70
     1
102
RTVSPropertyOp48
 70
     1
102
RTVSPropertyOp49
 70
     1
102
RTVSPropertyOp50
 70
     1
102
RTVSPropertyOp51
 70
     0
102
RTVSPropertyOp52
 70
     0
102
RTVSPropertyOp53
 70
     1
102
RTVSPropertyOp54
 70
     1
102
RTVSPropertyOp55
 70
     1
102
RTVSPropertyOp56
 70
     1
102
RTVSPropertyOp57
 70
     1
102
RTVSPropertyOp58
 70
     1
102
RTVSPropertyOp59
 70
     1
102
RTVSPropertyOp60
 70
     1
102
RTVSPropertyOp61
 70
     1
102
RTVSPropertyOp62
 70
     1
  0
XRECORD
  5
81B
102
{ACAD_REACTORS
330
81A
102
}
330
81A
100
AcDbXrecord
280
     1
102
RTVSPost2010Prop28
280
     0
102
RTVSPost2010PropOp28
 70
     1
102
RTVSPost2010Prop29
280
     1
102
RTVSPost2010PropOp29
 70
     1
102
RTVSPost2010Prop30
280
     1
102
RTVSPost2010PropOp30
 70
     1
102
RTVSPost2010Prop31
280
     0
102
RTVSPost2010PropOp31
 70
     1
102
RTVSPost2010Prop32
280
     0
102
RTVSPost2010PropOp32
 70
     1
102
RTVSPost2010Prop33
280
     0
102
RTVSPost2010PropOp33
 70
     1
102
RTVSPost2010Prop34
280
     0
102
RTVSPost2010PropOp34
 70
     1
102
RTVSPost2010Prop35
280
     0
102
RTVSPost2010PropOp35
 70
     1
102
RTVSPost2010Prop36
280
     0
102
RTVSPost2010PropOp36
 70
     1
102
RTVSPost2010Prop37
 90
       50
102
RTVSPost2010PropOp37
 70
     1
102
RTVSPost2010Prop38
140
0.0
102
RTVSPost2010PropOp38
 70
     1
102
RTVSPost2010Prop39
140
1.0
102
RTVSPost2010PropOp39
 70
     1
102
RTVSPost2010Prop40
 90
        0
102
RTVSPost2010PropOp40
 70
     1
102
RTVSPost2010Prop41ColorIndex
 90
       18
102
RTVSPost2010Prop41ColorRGB
 90
        0
102
RTVSPost2010PropOp41
 70
     1
102
RTVSPost2010Prop42
 90
       50
102
RTVSPost2010PropOp42
 70
     1
102
RTVSPost2010Prop43
 90
        3
102
RTVSPost2010PropOp43
 70
     1
102
RTVSPost2010Prop44ColorIndex
 90
        5
102
RTVSPost2010Prop44ColorRGB
 90
      255
102
RTVSPost2010PropOp44
 70
     1
102
RTVSPost2010Prop45
280
     0
102
RTVSPost2010PropOp45
 70
     1
102
RTVSPost2010Prop46
 90
       50
102
RTVSPost2010PropOp46
 70
     1
102
RTVSPost2010Prop47
 90
       50
102
RTVSPost2010PropOp47
 70
     1
102
RTVSPost2010Prop48
 90
       50
102
RTVSPost2010PropOp48
 70
     1
102
RTVSPost2010Prop49
280
     0
102
RTVSPost2010PropOp49
 70
     1
102
RTVSPost2010Prop50
 90
       50
102
RTVSPost2010PropOp50
 70
     1
102
RTVSPost2010Prop51ColorIndex
 90
      256
102
RTVSPost2010Prop51ColorRGB
 90
-16777216
102
RTVSPost2010PropOp51
 70
     0
102
RTVSPost2010Prop52
140
1.0
102
RTVSPost2010PropOp52
 70
     0
102
RTVSPost2010Prop53
 90
        2
102
RTVSPost2010PropOp53
 70
     1
102
RTVSPost2010Prop54
  1
strokes_ogs.tif
102
RTVSPost2010PropOp54
 70
     1
102
RTVSPost2010Prop55
280
     0
102
RTVSPost2010PropOp55
 70
     1
102
RTVSPost2010Prop56
140
1.0
102
RTVSPost2010PropOp56
 70
     1
102
RTVSPost2010Prop57
140
1.0
102
RTVSPost2010PropOp57
 70
     1
102
RTVSPropertyOp0
 70
     1
102
RTVSPropertyOp1
 70
     1
102
RTVSPropertyOp2
 70
     1
102
RTVSPropertyOp3
 70
     1
102
RTVSPropertyOp4
 70
     1
102
RTVSPropertyOp5
 70
     1
102
RTVSPropertyOp6
 70
     1
102
RTVSPropertyOp7
 70
     1
102
RTVSPropertyOp8
 70
     1
102
RTVSPropertyOp9
 70
     1
102
RTVSPropertyOp10
 70
     1
102
RTVSPropertyOp11
 70
     1
102
RTVSPropertyOp12
 70
     1
102
RTVSPropertyOp13
 70
     1
102
RTVSPropertyOp14
 70
     1
102
RTVSPropertyOp15
 70
     1
102
RTVSPropertyOp16
 70
     1
102
RTVSPropertyOp17
 70
     1
102
RTVSPropertyOp18
 70
     1
102
RTVSPropertyOp19
 70
     1
102
RTVSPropertyOp20
 70
     1
102
RTVSPropertyOp21
 70
     1
102
RTVSPropertyOp22
 70
     1
102
RTVSPropertyOp23
 70
     1
102
RTVSPropertyOp24
 70
     1
102
RTVSPropertyOp25
 70
     1
102
RTVSPropertyOp26
 70
     1
102
RTVSPropertyOp27
 70
     1
102
RTVSPropertyOp28
 70
     1
102
RTVSPropertyOp29
 70
     1
102
RTVSPropertyOp30
 70
     1
102
RTVSPropertyOp31
 70
     1
102
RTVSPropertyOp32
 70
     1
102
RTVSPropertyOp33
 70
     1
102
RTVSPropertyOp34
 70
     1
102
RTVSPropertyOp35
 70
     1
102
RTVSPropertyOp36
 70
     1
102
RTVSPropertyOp37
 70
     1
102
RTVSPropertyOp38
 70
     1
102
RTVSPropertyOp39
 70
     1
102
RTVSPropertyOp40
 70
     1
102
RTVSPropertyOp41
 70
     1
102
RTVSPropertyOp42
 70
     1
102
RTVSPropertyOp43
 70
     1
102
RTVSPropertyOp44
 70
     1
102
RTVSPropertyOp45
 70
     1
102
RTVSPropertyOp46
 70
     1
102
RTVSPropertyOp47
 70
     1
102
RTVSPropertyOp48
 70
     1
102
RTVSPropertyOp49
 70
     1
102
RTVSPropertyOp50
 70
     1
102
RTVSPropertyOp51
 70
     0
102
RTVSPropertyOp52
 70
     0
102
RTVSPropertyOp53
 70
     1
102
RTVSPropertyOp54
 70
     1
102
RTVSPropertyOp55
 70
     1
102
RTVSPropertyOp56
 70
     1
102
RTVSPropertyOp57
 70
     1
102
RTVSPropertyOp58
 70
     1
102
RTVSPropertyOp59
 70
     1
102
RTVSPropertyOp60
 70
     1
102
RTVSPropertyOp61
 70
     1
102
RTVSPropertyOp62
 70
     1
  0
XRECORD
  5
837
102
{ACAD_REACTORS
330
836
102
}
330
836
100
AcDbXrecord
280
     1
102
RTVSPost2010Prop28
280
     0
102
RTVSPost2010PropOp28
 70
     0
102
RTVSPost2010Prop29
280
     1
102
RTVSPost2010PropOp29
 70
     0
102
RTVSPost2010Prop30
280
     1
102
RTVSPost2010PropOp30
 70
     0
102
RTVSPost2010Prop31
280
     0
102
RTVSPost2010PropOp31
 70
     0
102
RTVSPost2010Prop32
280
     0
102
RTVSPost2010PropOp32
 70
     0
102
RTVSPost2010Prop33
280
     0
102
RTVSPost2010PropOp33
 70
     0
102
RTVSPost2010Prop34
280
     0
102
RTVSPost2010PropOp34
 70
     0
102
RTVSPost2010Prop35
280
     0
102
RTVSPost2010PropOp35
 70
     0
102
RTVSPost2010Prop36
280
     0
102
RTVSPost2010PropOp36
 70
     0
102
RTVSPost2010Prop37
 90
       50
102
RTVSPost2010PropOp37
 70
     0
102
RTVSPost2010Prop38
140
0.0
102
RTVSPost2010PropOp38
 70
     0
102
RTVSPost2010Prop39
140
1.0
102
RTVSPost2010PropOp39
 70
     0
102
RTVSPost2010Prop40
 90
        0
102
RTVSPost2010PropOp40
 70
     0
102
RTVSPost2010Prop41ColorIndex
 90
       18
102
RTVSPost2010Prop41ColorRGB
 90
        0
102
RTVSPost2010PropOp41
 70
     0
102
RTVSPost2010Prop42
 90
       50
102
RTVSPost2010PropOp42
 70
     0
102
RTVSPost2010Prop43
 90
        3
102
RTVSPost2010PropOp43
 70
     0
102
RTVSPost2010Prop44ColorIndex
 90
        5
102
RTVSPost2010Prop44ColorRGB
 90
      255
102
RTVSPost2010PropOp44
 70
     0
102
RTVSPost2010Prop45
280
     0
102
RTVSPost2010PropOp45
 70
     0
102
RTVSPost2010Prop46
 90
       50
102
RTVSPost2010PropOp46
 70
     0
102
RTVSPost2010Prop47
 90
       50
102
RTVSPost2010PropOp47
 70
     0
102
RTVSPost2010Prop48
 90
       50
102
RTVSPost2010PropOp48
 70
     0
102
RTVSPost2010Prop49
280
     0
102
RTVSPost2010PropOp49
 70
     0
102
RTVSPost2010Prop50
 90
       50
102
RTVSPost2010PropOp50
 70
     0
102
RTVSPost2010Prop51ColorIndex
 90
      256
102
RTVSPost2010Prop51ColorRGB
 90
-16777216
102
RTVSPost2010PropOp51
 70
     0
102
RTVSPost2010Prop52
140
1.0
102
RTVSPost2010PropOp52
 70
     0
102
RTVSPost2010Prop53
 90
        2
102
RTVSPost2010PropOp53
 70
     0
102
RTVSPost2010Prop54
  1
strokes_ogs.tif
102
RTVSPost2010PropOp54
 70
     0
102
RTVSPost2010Prop55
280
     0
102
RTVSPost2010PropOp55
 70
     0
102
RTVSPost2010Prop56
140
1.0
102
RTVSPost2010PropOp56
 70
     0
102
RTVSPost2010Prop57
140
1.0
102
RTVSPost2010PropOp57
 70
     0
102
RTVSPropertyOp0
 70
     0
102
RTVSPropertyOp1
 70
     0
102
RTVSPropertyOp2
 70
     0
102
RTVSPropertyOp3
 70
     0
102
RTVSPropertyOp4
 70
     0
102
RTVSPropertyOp5
 70
     0
102
RTVSPropertyOp6
 70
     0
102
RTVSPropertyOp7
 70
     0
102
RTVSPropertyOp8
 70
     0
102
RTVSPropertyOp9
 70
     0
102
RTVSPropertyOp10
 70
     0
102
RTVSPropertyOp11
 70
     0
102
RTVSPropertyOp12
 70
     0
102
RTVSPropertyOp13
 70
     0
102
RTVSPropertyOp14
 70
     2
102
RTVSPropertyOp15
 70
     0
102
RTVSPropertyOp16
 70
     0
102
RTVSPropertyOp17
 70
     0
102
RTVSPropertyOp18
 70
     0
102
RTVSPropertyOp19
 70
     0
102
RTVSPropertyOp20
 70
     0
102
RTVSPropertyOp21
 70
     0
102
RTVSPropertyOp22
 70
     0
102
RTVSPropertyOp23
 70
     0
102
RTVSPropertyOp24
 70
     0
102
RTVSPropertyOp25
 70
     0
102
RTVSPropertyOp26
 70
     0
102
RTVSPropertyOp27
 70
     0
102
RTVSPropertyOp28
 70
     0
102
RTVSPropertyOp29
 70
     0
102
RTVSPropertyOp30
 70
     0
102
RTVSPropertyOp31
 70
     0
102
RTVSPropertyOp32
 70
     0
102
RTVSPropertyOp33
 70
     0
102
RTVSPropertyOp34
 70
     0
102
RTVSPropertyOp35
 70
     0
102
RTVSPropertyOp36
 70
     0
102
RTVSPropertyOp37
 70
     0
102
RTVSPropertyOp38
 70
     0
102
RTVSPropertyOp39
 70
     0
102
RTVSPropertyOp40
 70
     0
102
RTVSPropertyOp41
 70
     0
102
RTVSPropertyOp42
 70
     0
102
RTVSPropertyOp43
 70
     0
102
RTVSPropertyOp44
 70
     0
102
RTVSPropertyOp45
 70
     0
102
RTVSPropertyOp46
 70
     0
102
RTVSPropertyOp47
 70
     0
102
RTVSPropertyOp48
 70
     0
102
RTVSPropertyOp49
 70
     0
102
RTVSPropertyOp50
 70
     0
102
RTVSPropertyOp51
 70
     0
102
RTVSPropertyOp52
 70
     0
102
RTVSPropertyOp53
 70
     0
102
RTVSPropertyOp54
 70
     0
102
RTVSPropertyOp55
 70
     0
102
RTVSPropertyOp56
 70
     0
102
RTVSPropertyOp57
 70
     0
102
RTVSPropertyOp58
 70
     0
102
RTVSPropertyOp59
 70
     0
102
RTVSPropertyOp60
 70
     0
102
RTVSPropertyOp61
 70
     0
102
RTVSPropertyOp62
 70
     0
  0
XRECORD
  5
827
102
{ACAD_REACTORS
330
826
102
}
330
826
100
AcDbXrecord
280
     1
102
RTVSPost2010Prop28
280
     0
102
RTVSPost2010PropOp28
 70
     1
102
RTVSPost2010Prop29
280
     1
102
RTVSPost2010PropOp29
 70
     1
102
RTVSPost2010Prop30
280
     1
102
RTVSPost2010PropOp30
 70
     1
102
RTVSPost2010Prop31
280
     0
102
RTVSPost2010PropOp31
 70
     1
102
RTVSPost2010Prop32
280
     0
102
RTVSPost2010PropOp32
 70
     1
102
RTVSPost2010Prop33
280
     0
102
RTVSPost2010PropOp33
 70
     1
102
RTVSPost2010Prop34
280
     0
102
RTVSPost2010PropOp34
 70
     1
102
RTVSPost2010Prop35
280
     0
102
RTVSPost2010PropOp35
 70
     1
102
RTVSPost2010Prop36
280
     0
102
RTVSPost2010PropOp36
 70
     1
102
RTVSPost2010Prop37
 90
       50
102
RTVSPost2010PropOp37
 70
     1
102
RTVSPost2010Prop38
140
0.0
102
RTVSPost2010PropOp38
 70
     1
102
RTVSPost2010Prop39
140
1.0
102
RTVSPost2010PropOp39
 70
     1
102
RTVSPost2010Prop40
 90
        0
102
RTVSPost2010PropOp40
 70
     1
102
RTVSPost2010Prop41ColorIndex
 90
       18
102
RTVSPost2010Prop41ColorRGB
 90
        0
102
RTVSPost2010PropOp41
 70
     1
102
RTVSPost2010Prop42
 90
       50
102
RTVSPost2010PropOp42
 70
     1
102
RTVSPost2010Prop43
 90
        3
102
RTVSPost2010PropOp43
 70
     1
102
RTVSPost2010Prop44ColorIndex
 90
        5
102
RTVSPost2010Prop44ColorRGB
 90
      255
102
RTVSPost2010PropOp44
 70
     1
102
RTVSPost2010Prop45
280
     0
102
RTVSPost2010PropOp45
 70
     1
102
RTVSPost2010Prop46
 90
       50
102
RTVSPost2010PropOp46
 70
     1
102
RTVSPost2010Prop47
 90
       50
102
RTVSPost2010PropOp47
 70
     1
102
RTVSPost2010Prop48
 90
       50
102
RTVSPost2010PropOp48
 70
     1
102
RTVSPost2010Prop49
280
     0
102
RTVSPost2010PropOp49
 70
     1
102
RTVSPost2010Prop50
 90
       50
102
RTVSPost2010PropOp50
 70
     1
102
RTVSPost2010Prop51ColorIndex
 90
      256
102
RTVSPost2010Prop51ColorRGB
 90
-16777216
102
RTVSPost2010PropOp51
 70
     0
102
RTVSPost2010Prop52
140
1.0
102
RTVSPost2010PropOp52
 70
     0
102
RTVSPost2010Prop53
 90
        2
102
RTVSPost2010PropOp53
 70
     1
102
RTVSPost2010Prop54
  1
strokes_ogs.tif
102
RTVSPost2010PropOp54
 70
     1
102
RTVSPost2010Prop55
280
     0
102
RTVSPost2010PropOp55
 70
     1
102
RTVSPost2010Prop56
140
1.0
102
RTVSPost2010PropOp56
 70
     1
102
RTVSPost2010Prop57
140
1.0
102
RTVSPost2010PropOp57
 70
     1
102
RTVSPropertyOp0
 70
     1
102
RTVSPropertyOp1
 70
     1
102
RTVSPropertyOp2
 70
     1
102
RTVSPropertyOp3
 70
     1
102
RTVSPropertyOp4
 70
     1
102
RTVSPropertyOp5
 70
     1
102
RTVSPropertyOp6
 70
     1
102
RTVSPropertyOp7
 70
     1
102
RTVSPropertyOp8
 70
     1
102
RTVSPropertyOp9
 70
     1
102
RTVSPropertyOp10
 70
     1
102
RTVSPropertyOp11
 70
     1
102
RTVSPropertyOp12
 70
     1
102
RTVSPropertyOp13
 70
     1
102
RTVSPropertyOp14
 70
     1
102
RTVSPropertyOp15
 70
     1
102
RTVSPropertyOp16
 70
     1
102
RTVSPropertyOp17
 70
     1
102
RTVSPropertyOp18
 70
     1
102
RTVSPropertyOp19
 70
     1
102
RTVSPropertyOp20
 70
     1
102
RTVSPropertyOp21
 70
     1
102
RTVSPropertyOp22
 70
     1
102
RTVSPropertyOp23
 70
     1
102
RTVSPropertyOp24
 70
     1
102
RTVSPropertyOp25
 70
     1
102
RTVSPropertyOp26
 70
     1
102
RTVSPropertyOp27
 70
     1
102
RTVSPropertyOp28
 70
     1
102
RTVSPropertyOp29
 70
     1
102
RTVSPropertyOp30
 70
     1
102
RTVSPropertyOp31
 70
     1
102
RTVSPropertyOp32
 70
     1
102
RTVSPropertyOp33
 70
     1
102
RTVSPropertyOp34
 70
     1
102
RTVSPropertyOp35
 70
     1
102
RTVSPropertyOp36
 70
     1
102
RTVSPropertyOp37
 70
     1
102
RTVSPropertyOp38
 70
     1
102
RTVSPropertyOp39
 70
     1
102
RTVSPropertyOp40
 70
     1
102
RTVSPropertyOp41
 70
     1
102
RTVSPropertyOp42
 70
     1
102
RTVSPropertyOp43
 70
     1
102
RTVSPropertyOp44
 70
     1
102
RTVSPropertyOp45
 70
     1
102
RTVSPropertyOp46
 70
     1
102
RTVSPropertyOp47
 70
     1
102
RTVSPropertyOp48
 70
     1
102
RTVSPropertyOp49
 70
     1
102
RTVSPropertyOp50
 70
     1
102
RTVSPropertyOp51
 70
     0
102
RTVSPropertyOp52
 70
     0
102
RTVSPropertyOp53
 70
     1
102
RTVSPropertyOp54
 70
     1
102
RTVSPropertyOp55
 70
     1
102
RTVSPropertyOp56
 70
     1
102
RTVSPropertyOp57
 70
     1
102
RTVSPropertyOp58
 70
     1
102
RTVSPropertyOp59
 70
     1
102
RTVSPropertyOp60
 70
     1
102
RTVSPropertyOp61
 70
     1
102
RTVSPropertyOp62
 70
     1
  0
XRECORD
  5
839
102
{ACAD_REACTORS
330
838
102
}
330
838
100
AcDbXrecord
280
     1
102
RTVSPost2010Prop28
280
     0
102
RTVSPost2010PropOp28
 70
     0
102
RTVSPost2010Prop29
280
     1
102
RTVSPost2010PropOp29
 70
     0
102
RTVSPost2010Prop30
280
     1
102
RTVSPost2010PropOp30
 70
     0
102
RTVSPost2010Prop31
280
     0
102
RTVSPost2010PropOp31
 70
     0
102
RTVSPost2010Prop32
280
     0
102
RTVSPost2010PropOp32
 70
     0
102
RTVSPost2010Prop33
280
     0
102
RTVSPost2010PropOp33
 70
     0
102
RTVSPost2010Prop34
280
     0
102
RTVSPost2010PropOp34
 70
     0
102
RTVSPost2010Prop35
280
     0
102
RTVSPost2010PropOp35
 70
     0
102
RTVSPost2010Prop36
280
     0
102
RTVSPost2010PropOp36
 70
     0
102
RTVSPost2010Prop37
 90
       50
102
RTVSPost2010PropOp37
 70
     0
102
RTVSPost2010Prop38
140
0.0
102
RTVSPost2010PropOp38
 70
     0
102
RTVSPost2010Prop39
140
1.0
102
RTVSPost2010PropOp39
 70
     0
102
RTVSPost2010Prop40
 90
        0
102
RTVSPost2010PropOp40
 70
     0
102
RTVSPost2010Prop41ColorIndex
 90
       18
102
RTVSPost2010Prop41ColorRGB
 90
        0
102
RTVSPost2010PropOp41
 70
     0
102
RTVSPost2010Prop42
 90
       50
102
RTVSPost2010PropOp42
 70
     0
102
RTVSPost2010Prop43
 90
        3
102
RTVSPost2010PropOp43
 70
     0
102
RTVSPost2010Prop44ColorIndex
 90
        5
102
RTVSPost2010Prop44ColorRGB
 90
      255
102
RTVSPost2010PropOp44
 70
     0
102
RTVSPost2010Prop45
280
     0
102
RTVSPost2010PropOp45
 70
     0
102
RTVSPost2010Prop46
 90
       50
102
RTVSPost2010PropOp46
 70
     0
102
RTVSPost2010Prop47
 90
       50
102
RTVSPost2010PropOp47
 70
     0
102
RTVSPost2010Prop48
 90
       50
102
RTVSPost2010PropOp48
 70
     0
102
RTVSPost2010Prop49
280
     0
102
RTVSPost2010PropOp49
 70
     0
102
RTVSPost2010Prop50
 90
       50
102
RTVSPost2010PropOp50
 70
     0
102
RTVSPost2010Prop51ColorIndex
 90
      256
102
RTVSPost2010Prop51ColorRGB
 90
-16777216
102
RTVSPost2010PropOp51
 70
     0
102
RTVSPost2010Prop52
140
1.0
102
RTVSPost2010PropOp52
 70
     0
102
RTVSPost2010Prop53
 90
        2
102
RTVSPost2010PropOp53
 70
     0
102
RTVSPost2010Prop54
  1
strokes_ogs.tif
102
RTVSPost2010PropOp54
 70
     0
102
RTVSPost2010Prop55
280
     0
102
RTVSPost2010PropOp55
 70
     0
102
RTVSPost2010Prop56
140
1.0
102
RTVSPost2010PropOp56
 70
     0
102
RTVSPost2010Prop57
140
1.0
102
RTVSPost2010PropOp57
 70
     0
102
RTVSPropertyOp0
 70
     0
102
RTVSPropertyOp1
 70
     0
102
RTVSPropertyOp2
 70
     0
102
RTVSPropertyOp3
 70
     0
102
RTVSPropertyOp4
 70
     0
102
RTVSPropertyOp5
 70
     0
102
RTVSPropertyOp6
 70
     0
102
RTVSPropertyOp7
 70
     0
102
RTVSPropertyOp8
 70
     0
102
RTVSPropertyOp9
 70
     0
102
RTVSPropertyOp10
 70
     0
102
RTVSPropertyOp11
 70
     0
102
RTVSPropertyOp12
 70
     0
102
RTVSPropertyOp13
 70
     0
102
RTVSPropertyOp14
 70
     2
102
RTVSPropertyOp15
 70
     0
102
RTVSPropertyOp16
 70
     0
102
RTVSPropertyOp17
 70
     0
102
RTVSPropertyOp18
 70
     0
102
RTVSPropertyOp19
 70
     0
102
RTVSPropertyOp20
 70
     0
102
RTVSPropertyOp21
 70
     0
102
RTVSPropertyOp22
 70
     0
102
RTVSPropertyOp23
 70
     0
102
RTVSPropertyOp24
 70
     0
102
RTVSPropertyOp25
 70
     0
102
RTVSPropertyOp26
 70
     0
102
RTVSPropertyOp27
 70
     0
102
RTVSPropertyOp28
 70
     0
102
RTVSPropertyOp29
 70
     0
102
RTVSPropertyOp30
 70
     0
102
RTVSPropertyOp31
 70
     0
102
RTVSPropertyOp32
 70
     0
102
RTVSPropertyOp33
 70
     0
102
RTVSPropertyOp34
 70
     0
102
RTVSPropertyOp35
 70
     0
102
RTVSPropertyOp36
 70
     0
102
RTVSPropertyOp37
 70
     0
102
RTVSPropertyOp38
 70
     0
102
RTVSPropertyOp39
 70
     0
102
RTVSPropertyOp40
 70
     0
102
RTVSPropertyOp41
 70
     0
102
RTVSPropertyOp42
 70
     0
102
RTVSPropertyOp43
 70
     0
102
RTVSPropertyOp44
 70
     0
102
RTVSPropertyOp45
 70
     0
102
RTVSPropertyOp46
 70
     0
102
RTVSPropertyOp47
 70
     0
102
RTVSPropertyOp48
 70
     0
102
RTVSPropertyOp49
 70
     0
102
RTVSPropertyOp50
 70
     0
102
RTVSPropertyOp51
 70
     0
102
RTVSPropertyOp52
 70
     0
102
RTVSPropertyOp53
 70
     0
102
RTVSPropertyOp54
 70
     0
102
RTVSPropertyOp55
 70
     0
102
RTVSPropertyOp56
 70
     0
102
RTVSPropertyOp57
 70
     0
102
RTVSPropertyOp58
 70
     0
102
RTVSPropertyOp59
 70
     0
102
RTVSPropertyOp60
 70
     0
102
RTVSPropertyOp61
 70
     0
102
RTVSPropertyOp62
 70
     0
  0
XRECORD
  5
81F
102
{ACAD_REACTORS
330
81E
102
}
330
81E
100
AcDbXrecord
280
     1
102
RTVSPost2010Prop28
280
     0
102
RTVSPost2010PropOp28
 70
     1
102
RTVSPost2010Prop29
280
     1
102
RTVSPost2010PropOp29
 70
     1
102
RTVSPost2010Prop30
280
     1
102
RTVSPost2010PropOp30
 70
     1
102
RTVSPost2010Prop31
280
     0
102
RTVSPost2010PropOp31
 70
     1
102
RTVSPost2010Prop32
280
     0
102
RTVSPost2010PropOp32
 70
     1
102
RTVSPost2010Prop33
280
     0
102
RTVSPost2010PropOp33
 70
     1
102
RTVSPost2010Prop34
280
     0
102
RTVSPost2010PropOp34
 70
     1
102
RTVSPost2010Prop35
280
     0
102
RTVSPost2010PropOp35
 70
     1
102
RTVSPost2010Prop36
280
     0
102
RTVSPost2010PropOp36
 70
     1
102
RTVSPost2010Prop37
 90
       50
102
RTVSPost2010PropOp37
 70
     1
102
RTVSPost2010Prop38
140
0.0
102
RTVSPost2010PropOp38
 70
     1
102
RTVSPost2010Prop39
140
1.0
102
RTVSPost2010PropOp39
 70
     1
102
RTVSPost2010Prop40
 90
        0
102
RTVSPost2010PropOp40
 70
     1
102
RTVSPost2010Prop41ColorIndex
 90
       18
102
RTVSPost2010Prop41ColorRGB
 90
        0
102
RTVSPost2010PropOp41
 70
     1
102
RTVSPost2010Prop42
 90
       50
102
RTVSPost2010PropOp42
 70
     1
102
RTVSPost2010Prop43
 90
        3
102
RTVSPost2010PropOp43
 70
     1
102
RTVSPost2010Prop44ColorIndex
 90
        5
102
RTVSPost2010Prop44ColorRGB
 90
      255
102
RTVSPost2010PropOp44
 70
     1
102
RTVSPost2010Prop45
280
     0
102
RTVSPost2010PropOp45
 70
     1
102
RTVSPost2010Prop46
 90
       50
102
RTVSPost2010PropOp46
 70
     1
102
RTVSPost2010Prop47
 90
       50
102
RTVSPost2010PropOp47
 70
     1
102
RTVSPost2010Prop48
 90
       50
102
RTVSPost2010PropOp48
 70
     1
102
RTVSPost2010Prop49
280
     0
102
RTVSPost2010PropOp49
 70
     1
102
RTVSPost2010Prop50
 90
       50
102
RTVSPost2010PropOp50
 70
     1
102
RTVSPost2010Prop51ColorIndex
 90
      256
102
RTVSPost2010Prop51ColorRGB
 90
-16777216
102
RTVSPost2010PropOp51
 70
     0
102
RTVSPost2010Prop52
140
1.0
102
RTVSPost2010PropOp52
 70
     0
102
RTVSPost2010Prop53
 90
        2
102
RTVSPost2010PropOp53
 70
     1
102
RTVSPost2010Prop54
  1
strokes_ogs.tif
102
RTVSPost2010PropOp54
 70
     1
102
RTVSPost2010Prop55
280
     0
102
RTVSPost2010PropOp55
 70
     1
102
RTVSPost2010Prop56
140
1.0
102
RTVSPost2010PropOp56
 70
     1
102
RTVSPost2010Prop57
140
1.0
102
RTVSPost2010PropOp57
 70
     1
102
RTVSPropertyOp0
 70
     1
102
RTVSPropertyOp1
 70
     1
102
RTVSPropertyOp2
 70
     1
102
RTVSPropertyOp3
 70
     1
102
RTVSPropertyOp4
 70
     1
102
RTVSPropertyOp5
 70
     1
102
RTVSPropertyOp6
 70
     1
102
RTVSPropertyOp7
 70
     1
102
RTVSPropertyOp8
 70
     1
102
RTVSPropertyOp9
 70
     1
102
RTVSPropertyOp10
 70
     1
102
RTVSPropertyOp11
 70
     1
102
RTVSPropertyOp12
 70
     1
102
RTVSPropertyOp13
 70
     1
102
RTVSPropertyOp14
 70
     1
102
RTVSPropertyOp15
 70
     1
102
RTVSPropertyOp16
 70
     1
102
RTVSPropertyOp17
 70
     1
102
RTVSPropertyOp18
 70
     1
102
RTVSPropertyOp19
 70
     1
102
RTVSPropertyOp20
 70
     1
102
RTVSPropertyOp21
 70
     1
102
RTVSPropertyOp22
 70
     1
102
RTVSPropertyOp23
 70
     1
102
RTVSPropertyOp24
 70
     1
102
RTVSPropertyOp25
 70
     1
102
RTVSPropertyOp26
 70
     1
102
RTVSPropertyOp27
 70
     1
102
RTVSPropertyOp28
 70
     1
102
RTVSPropertyOp29
 70
     1
102
RTVSPropertyOp30
 70
     1
102
RTVSPropertyOp31
 70
     1
102
RTVSPropertyOp32
 70
     1
102
RTVSPropertyOp33
 70
     1
102
RTVSPropertyOp34
 70
     1
102
RTVSPropertyOp35
 70
     1
102
RTVSPropertyOp36
 70
     1
102
RTVSPropertyOp37
 70
     1
102
RTVSPropertyOp38
 70
     1
102
RTVSPropertyOp39
 70
     1
102
RTVSPropertyOp40
 70
     1
102
RTVSPropertyOp41
 70
     1
102
RTVSPropertyOp42
 70
     1
102
RTVSPropertyOp43
 70
     1
102
RTVSPropertyOp44
 70
     1
102
RTVSPropertyOp45
 70
     1
102
RTVSPropertyOp46
 70
     1
102
RTVSPropertyOp47
 70
     1
102
RTVSPropertyOp48
 70
     1
102
RTVSPropertyOp49
 70
     1
102
RTVSPropertyOp50
 70
     1
102
RTVSPropertyOp51
 70
     0
102
RTVSPropertyOp52
 70
     0
102
RTVSPropertyOp53
 70
     1
102
RTVSPropertyOp54
 70
     1
102
RTVSPropertyOp55
 70
     1
102
RTVSPropertyOp56
 70
     1
102
RTVSPropertyOp57
 70
     1
102
RTVSPropertyOp58
 70
     1
102
RTVSPropertyOp59
 70
     1
102
RTVSPropertyOp60
 70
     1
102
RTVSPropertyOp61
 70
     1
102
RTVSPropertyOp62
 70
     1
  0
XRECORD
  5
835
102
{ACAD_REACTORS
330
834
102
}
330
834
100
AcDbXrecord
280
     1
102
RTVSPost2010Prop28
280
     0
102
RTVSPost2010PropOp28
 70
     1
102
RTVSPost2010Prop29
280
     1
102
RTVSPost2010PropOp29
 70
     1
102
RTVSPost2010Prop30
280
     1
102
RTVSPost2010PropOp30
 70
     1
102
RTVSPost2010Prop31
280
     0
102
RTVSPost2010PropOp31
 70
     1
102
RTVSPost2010Prop32
280
     0
102
RTVSPost2010PropOp32
 70
     1
102
RTVSPost2010Prop33
280
     0
102
RTVSPost2010PropOp33
 70
     1
102
RTVSPost2010Prop34
280
     0
102
RTVSPost2010PropOp34
 70
     1
102
RTVSPost2010Prop35
280
     0
102
RTVSPost2010PropOp35
 70
     1
102
RTVSPost2010Prop36
280
     0
102
RTVSPost2010PropOp36
 70
     1
102
RTVSPost2010Prop37
 90
       50
102
RTVSPost2010PropOp37
 70
     1
102
RTVSPost2010Prop38
140
0.0
102
RTVSPost2010PropOp38
 70
     1
102
RTVSPost2010Prop39
140
1.0
102
RTVSPost2010PropOp39
 70
     1
102
RTVSPost2010Prop40
 90
        0
102
RTVSPost2010PropOp40
 70
     1
102
RTVSPost2010Prop41ColorIndex
 90
       18
102
RTVSPost2010Prop41ColorRGB
 90
        0
102
RTVSPost2010PropOp41
 70
     1
102
RTVSPost2010Prop42
 90
       50
102
RTVSPost2010PropOp42
 70
     1
102
RTVSPost2010Prop43
 90
        3
102
RTVSPost2010PropOp43
 70
     1
102
RTVSPost2010Prop44ColorIndex
 90
        5
102
RTVSPost2010Prop44ColorRGB
 90
      255
102
RTVSPost2010PropOp44
 70
     1
102
RTVSPost2010Prop45
280
     0
102
RTVSPost2010PropOp45
 70
     1
102
RTVSPost2010Prop46
 90
       50
102
RTVSPost2010PropOp46
 70
     1
102
RTVSPost2010Prop47
 90
       50
102
RTVSPost2010PropOp47
 70
     1
102
RTVSPost2010Prop48
 90
       50
102
RTVSPost2010PropOp48
 70
     1
102
RTVSPost2010Prop49
280
     0
102
RTVSPost2010PropOp49
 70
     1
102
RTVSPost2010Prop50
 90
       50
102
RTVSPost2010PropOp50
 70
     1
102
RTVSPost2010Prop51ColorIndex
 90
      256
102
RTVSPost2010Prop51ColorRGB
 90
-16777216
102
RTVSPost2010PropOp51
 70
     0
102
RTVSPost2010Prop52
140
1.0
102
RTVSPost2010PropOp52
 70
     0
102
RTVSPost2010Prop53
 90
        2
102
RTVSPost2010PropOp53
 70
     1
102
RTVSPost2010Prop54
  1
strokes_ogs.tif
102
RTVSPost2010PropOp54
 70
     1
102
RTVSPost2010Prop55
280
     0
102
RTVSPost2010PropOp55
 70
     1
102
RTVSPost2010Prop56
140
1.0
102
RTVSPost2010PropOp56
 70
     1
102
RTVSPost2010Prop57
140
1.0
102
RTVSPost2010PropOp57
 70
     1
102
RTVSPropertyOp0
 70
     1
102
RTVSPropertyOp1
 70
     1
102
RTVSPropertyOp2
 70
     1
102
RTVSPropertyOp3
 70
     1
102
RTVSPropertyOp4
 70
     1
102
RTVSPropertyOp5
 70
     1
102
RTVSPropertyOp6
 70
     1
102
RTVSPropertyOp7
 70
     1
102
RTVSPropertyOp8
 70
     1
102
RTVSPropertyOp9
 70
     1
102
RTVSPropertyOp10
 70
     1
102
RTVSPropertyOp11
 70
     1
102
RTVSPropertyOp12
 70
     1
102
RTVSPropertyOp13
 70
     1
102
RTVSPropertyOp14
 70
     1
102
RTVSPropertyOp15
 70
     1
102
RTVSPropertyOp16
 70
     1
102
RTVSPropertyOp17
 70
     1
102
RTVSPropertyOp18
 70
     1
102
RTVSPropertyOp19
 70
     1
102
RTVSPropertyOp20
 70
     1
102
RTVSPropertyOp21
 70
     1
102
RTVSPropertyOp22
 70
     1
102
RTVSPropertyOp23
 70
     1
102
RTVSPropertyOp24
 70
     1
102
RTVSPropertyOp25
 70
     1
102
RTVSPropertyOp26
 70
     1
102
RTVSPropertyOp27
 70
     1
102
RTVSPropertyOp28
 70
     1
102
RTVSPropertyOp29
 70
     1
102
RTVSPropertyOp30
 70
     1
102
RTVSPropertyOp31
 70
     1
102
RTVSPropertyOp32
 70
     1
102
RTVSPropertyOp33
 70
     1
102
RTVSPropertyOp34
 70
     1
102
RTVSPropertyOp35
 70
     1
102
RTVSPropertyOp36
 70
     1
102
RTVSPropertyOp37
 70
     1
102
RTVSPropertyOp38
 70
     1
102
RTVSPropertyOp39
 70
     1
102
RTVSPropertyOp40
 70
     1
102
RTVSPropertyOp41
 70
     1
102
RTVSPropertyOp42
 70
     1
102
RTVSPropertyOp43
 70
     1
102
RTVSPropertyOp44
 70
     1
102
RTVSPropertyOp45
 70
     1
102
RTVSPropertyOp46
 70
     1
102
RTVSPropertyOp47
 70
     1
102
RTVSPropertyOp48
 70
     1
102
RTVSPropertyOp49
 70
     1
102
RTVSPropertyOp50
 70
     1
102
RTVSPropertyOp51
 70
     0
102
RTVSPropertyOp52
 70
     0
102
RTVSPropertyOp53
 70
     1
102
RTVSPropertyOp54
 70
     1
102
RTVSPropertyOp55
 70
     1
102
RTVSPropertyOp56
 70
     1
102
RTVSPropertyOp57
 70
     1
102
RTVSPropertyOp58
 70
     1
102
RTVSPropertyOp59
 70
     1
102
RTVSPropertyOp60
 70
     1
102
RTVSPropertyOp61
 70
     1
102
RTVSPropertyOp62
 70
     1
  0
XRECORD
  5
833
102
{ACAD_REACTORS
330
832
102
}
330
832
100
AcDbXrecord
280
     1
102
RTVSPost2010Prop28
280
     0
102
RTVSPost2010PropOp28
 70
     1
102
RTVSPost2010Prop29
280
     1
102
RTVSPost2010PropOp29
 70
     1
102
RTVSPost2010Prop30
280
     1
102
RTVSPost2010PropOp30
 70
     1
102
RTVSPost2010Prop31
280
     0
102
RTVSPost2010PropOp31
 70
     1
102
RTVSPost2010Prop32
280
     0
102
RTVSPost2010PropOp32
 70
     1
102
RTVSPost2010Prop33
280
     0
102
RTVSPost2010PropOp33
 70
     1
102
RTVSPost2010Prop34
280
     0
102
RTVSPost2010PropOp34
 70
     1
102
RTVSPost2010Prop35
280
     0
102
RTVSPost2010PropOp35
 70
     1
102
RTVSPost2010Prop36
280
     0
102
RTVSPost2010PropOp36
 70
     1
102
RTVSPost2010Prop37
 90
       50
102
RTVSPost2010PropOp37
 70
     1
102
RTVSPost2010Prop38
140
0.0
102
RTVSPost2010PropOp38
 70
     1
102
RTVSPost2010Prop39
140
1.0
102
RTVSPost2010PropOp39
 70
     1
102
RTVSPost2010Prop40
 90
        0
102
RTVSPost2010PropOp40
 70
     1
102
RTVSPost2010Prop41ColorIndex
 90
       18
102
RTVSPost2010Prop41ColorRGB
 90
        0
102
RTVSPost2010PropOp41
 70
     1
102
RTVSPost2010Prop42
 90
       50
102
RTVSPost2010PropOp42
 70
     1
102
RTVSPost2010Prop43
 90
        3
102
RTVSPost2010PropOp43
 70
     1
102
RTVSPost2010Prop44ColorIndex
 90
        5
102
RTVSPost2010Prop44ColorRGB
 90
      255
102
RTVSPost2010PropOp44
 70
     1
102
RTVSPost2010Prop45
280
     0
102
RTVSPost2010PropOp45
 70
     1
102
RTVSPost2010Prop46
 90
       50
102
RTVSPost2010PropOp46
 70
     1
102
RTVSPost2010Prop47
 90
       50
102
RTVSPost2010PropOp47
 70
     1
102
RTVSPost2010Prop48
 90
       50
102
RTVSPost2010PropOp48
 70
     1
102
RTVSPost2010Prop49
280
     0
102
RTVSPost2010PropOp49
 70
     1
102
RTVSPost2010Prop50
 90
       50
102
RTVSPost2010PropOp50
 70
     1
102
RTVSPost2010Prop51ColorIndex
 90
      256
102
RTVSPost2010Prop51ColorRGB
 90
-16777216
102
RTVSPost2010PropOp51
 70
     0
102
RTVSPost2010Prop52
140
1.0
102
RTVSPost2010PropOp52
 70
     0
102
RTVSPost2010Prop53
 90
        2
102
RTVSPost2010PropOp53
 70
     1
102
RTVSPost2010Prop54
  1
strokes_ogs.tif
102
RTVSPost2010PropOp54
 70
     1
102
RTVSPost2010Prop55
280
     0
102
RTVSPost2010PropOp55
 70
     1
102
RTVSPost2010Prop56
140
1.0
102
RTVSPost2010PropOp56
 70
     1
102
RTVSPost2010Prop57
140
1.0
102
RTVSPost2010PropOp57
 70
     1
102
RTVSPropertyOp0
 70
     1
102
RTVSPropertyOp1
 70
     1
102
RTVSPropertyOp2
 70
     1
102
RTVSPropertyOp3
 70
     1
102
RTVSPropertyOp4
 70
     1
102
RTVSPropertyOp5
 70
     1
102
RTVSPropertyOp6
 70
     1
102
RTVSPropertyOp7
 70
     1
102
RTVSPropertyOp8
 70
     1
102
RTVSPropertyOp9
 70
     1
102
RTVSPropertyOp10
 70
     1
102
RTVSPropertyOp11
 70
     1
102
RTVSPropertyOp12
 70
     1
102
RTVSPropertyOp13
 70
     1
102
RTVSPropertyOp14
 70
     1
102
RTVSPropertyOp15
 70
     1
102
RTVSPropertyOp16
 70
     1
102
RTVSPropertyOp17
 70
     1
102
RTVSPropertyOp18
 70
     1
102
RTVSPropertyOp19
 70
     1
102
RTVSPropertyOp20
 70
     1
102
RTVSPropertyOp21
 70
     1
102
RTVSPropertyOp22
 70
     1
102
RTVSPropertyOp23
 70
     1
102
RTVSPropertyOp24
 70
     1
102
RTVSPropertyOp25
 70
     1
102
RTVSPropertyOp26
 70
     1
102
RTVSPropertyOp27
 70
     1
102
RTVSPropertyOp28
 70
     1
102
RTVSPropertyOp29
 70
     1
102
RTVSPropertyOp30
 70
     1
102
RTVSPropertyOp31
 70
     1
102
RTVSPropertyOp32
 70
     1
102
RTVSPropertyOp33
 70
     1
102
RTVSPropertyOp34
 70
     1
102
RTVSPropertyOp35
 70
     1
102
RTVSPropertyOp36
 70
     1
102
RTVSPropertyOp37
 70
     1
102
RTVSPropertyOp38
 70
     1
102
RTVSPropertyOp39
 70
     1
102
RTVSPropertyOp40
 70
     1
102
RTVSPropertyOp41
 70
     1
102
RTVSPropertyOp42
 70
     1
102
RTVSPropertyOp43
 70
     1
102
RTVSPropertyOp44
 70
     1
102
RTVSPropertyOp45
 70
     1
102
RTVSPropertyOp46
 70
     1
102
RTVSPropertyOp47
 70
     1
102
RTVSPropertyOp48
 70
     1
102
RTVSPropertyOp49
 70
     1
102
RTVSPropertyOp50
 70
     1
102
RTVSPropertyOp51
 70
     0
102
RTVSPropertyOp52
 70
     0
102
RTVSPropertyOp53
 70
     1
102
RTVSPropertyOp54
 70
     1
102
RTVSPropertyOp55
 70
     1
102
RTVSPropertyOp56
 70
     1
102
RTVSPropertyOp57
 70
     1
102
RTVSPropertyOp58
 70
     1
102
RTVSPropertyOp59
 70
     1
102
RTVSPropertyOp60
 70
     1
102
RTVSPropertyOp61
 70
     1
102
RTVSPropertyOp62
 70
     1
  0
XRECORD
  5
82D
102
{ACAD_REACTORS
330
82C
102
}
330
82C
100
AcDbXrecord
280
     1
102
RTVSPost2010Prop28
280
     0
102
RTVSPost2010PropOp28
 70
     1
102
RTVSPost2010Prop29
280
     1
102
RTVSPost2010PropOp29
 70
     1
102
RTVSPost2010Prop30
280
     1
102
RTVSPost2010PropOp30
 70
     1
102
RTVSPost2010Prop31
280
     0
102
RTVSPost2010PropOp31
 70
     1
102
RTVSPost2010Prop32
280
     0
102
RTVSPost2010PropOp32
 70
     1
102
RTVSPost2010Prop33
280
     0
102
RTVSPost2010PropOp33
 70
     1
102
RTVSPost2010Prop34
280
     0
102
RTVSPost2010PropOp34
 70
     1
102
RTVSPost2010Prop35
280
     0
102
RTVSPost2010PropOp35
 70
     1
102
RTVSPost2010Prop36
280
     0
102
RTVSPost2010PropOp36
 70
     1
102
RTVSPost2010Prop37
 90
       50
102
RTVSPost2010PropOp37
 70
     1
102
RTVSPost2010Prop38
140
0.0
102
RTVSPost2010PropOp38
 70
     1
102
RTVSPost2010Prop39
140
1.0
102
RTVSPost2010PropOp39
 70
     1
102
RTVSPost2010Prop40
 90
        0
102
RTVSPost2010PropOp40
 70
     1
102
RTVSPost2010Prop41ColorIndex
 90
       18
102
RTVSPost2010Prop41ColorRGB
 90
        0
102
RTVSPost2010PropOp41
 70
     1
102
RTVSPost2010Prop42
 90
       50
102
RTVSPost2010PropOp42
 70
     1
102
RTVSPost2010Prop43
 90
        3
102
RTVSPost2010PropOp43
 70
     1
102
RTVSPost2010Prop44ColorIndex
 90
        5
102
RTVSPost2010Prop44ColorRGB
 90
      255
102
RTVSPost2010PropOp44
 70
     1
102
RTVSPost2010Prop45
280
     0
102
RTVSPost2010PropOp45
 70
     1
102
RTVSPost2010Prop46
 90
       50
102
RTVSPost2010PropOp46
 70
     1
102
RTVSPost2010Prop47
 90
       50
102
RTVSPost2010PropOp47
 70
     1
102
RTVSPost2010Prop48
 90
       50
102
RTVSPost2010PropOp48
 70
     1
102
RTVSPost2010Prop49
280
     0
102
RTVSPost2010PropOp49
 70
     1
102
RTVSPost2010Prop50
 90
       50
102
RTVSPost2010PropOp50
 70
     1
102
RTVSPost2010Prop51ColorIndex
 90
      256
102
RTVSPost2010Prop51ColorRGB
 90
-16777216
102
RTVSPost2010PropOp51
 70
     0
102
RTVSPost2010Prop52
140
1.0
102
RTVSPost2010PropOp52
 70
     0
102
RTVSPost2010Prop53
 90
        2
102
RTVSPost2010PropOp53
 70
     1
102
RTVSPost2010Prop54
  1
strokes_ogs.tif
102
RTVSPost2010PropOp54
 70
     1
102
RTVSPost2010Prop55
280
     0
102
RTVSPost2010PropOp55
 70
     1
102
RTVSPost2010Prop56
140
1.0
102
RTVSPost2010PropOp56
 70
     1
102
RTVSPost2010Prop57
140
1.0
102
RTVSPost2010PropOp57
 70
     1
102
RTVSPropertyOp0
 70
     1
102
RTVSPropertyOp1
 70
     1
102
RTVSPropertyOp2
 70
     1
102
RTVSPropertyOp3
 70
     1
102
RTVSPropertyOp4
 70
     1
102
RTVSPropertyOp5
 70
     1
102
RTVSPropertyOp6
 70
     1
102
RTVSPropertyOp7
 70
     1
102
RTVSPropertyOp8
 70
     1
102
RTVSPropertyOp9
 70
     1
102
RTVSPropertyOp10
 70
     1
102
RTVSPropertyOp11
 70
     1
102
RTVSPropertyOp12
 70
     1
102
RTVSPropertyOp13
 70
     1
102
RTVSPropertyOp14
 70
     1
102
RTVSPropertyOp15
 70
     1
102
RTVSPropertyOp16
 70
     1
102
RTVSPropertyOp17
 70
     1
102
RTVSPropertyOp18
 70
     1
102
RTVSPropertyOp19
 70
     1
102
RTVSPropertyOp20
 70
     1
102
RTVSPropertyOp21
 70
     1
102
RTVSPropertyOp22
 70
     1
102
RTVSPropertyOp23
 70
     1
102
RTVSPropertyOp24
 70
     1
102
RTVSPropertyOp25
 70
     1
102
RTVSPropertyOp26
 70
     1
102
RTVSPropertyOp27
 70
     1
102
RTVSPropertyOp28
 70
     1
102
RTVSPropertyOp29
 70
     1
102
RTVSPropertyOp30
 70
     1
102
RTVSPropertyOp31
 70
     1
102
RTVSPropertyOp32
 70
     1
102
RTVSPropertyOp33
 70
     1
102
RTVSPropertyOp34
 70
     1
102
RTVSPropertyOp35
 70
     1
102
RTVSPropertyOp36
 70
     1
102
RTVSPropertyOp37
 70
     1
102
RTVSPropertyOp38
 70
     1
102
RTVSPropertyOp39
 70
     1
102
RTVSPropertyOp40
 70
     1
102
RTVSPropertyOp41
 70
     1
102
RTVSPropertyOp42
 70
     1
102
RTVSPropertyOp43
 70
     1
102
RTVSPropertyOp44
 70
     1
102
RTVSPropertyOp45
 70
     1
102
RTVSPropertyOp46
 70
     1
102
RTVSPropertyOp47
 70
     1
102
RTVSPropertyOp48
 70
     1
102
RTVSPropertyOp49
 70
     1
102
RTVSPropertyOp50
 70
     1
102
RTVSPropertyOp51
 70
     0
102
RTVSPropertyOp52
 70
     0
102
RTVSPropertyOp53
 70
     1
102
RTVSPropertyOp54
 70
     1
102
RTVSPropertyOp55
 70
     1
102
RTVSPropertyOp56
 70
     1
102
RTVSPropertyOp57
 70
     1
102
RTVSPropertyOp58
 70
     1
102
RTVSPropertyOp59
 70
     1
102
RTVSPropertyOp60
 70
     1
102
RTVSPropertyOp61
 70
     1
102
RTVSPropertyOp62
 70
     1
  0
XRECORD
  5
82F
102
{ACAD_REACTORS
330
82E
102
}
330
82E
100
AcDbXrecord
280
     1
102
RTVSPost2010Prop28
280
     0
102
RTVSPost2010PropOp28
 70
     1
102
RTVSPost2010Prop29
280
     1
102
RTVSPost2010PropOp29
 70
     1
102
RTVSPost2010Prop30
280
     1
102
RTVSPost2010PropOp30
 70
     1
102
RTVSPost2010Prop31
280
     0
102
RTVSPost2010PropOp31
 70
     1
102
RTVSPost2010Prop32
280
     0
102
RTVSPost2010PropOp32
 70
     1
102
RTVSPost2010Prop33
280
     0
102
RTVSPost2010PropOp33
 70
     1
102
RTVSPost2010Prop34
280
     0
102
RTVSPost2010PropOp34
 70
     1
102
RTVSPost2010Prop35
280
     0
102
RTVSPost2010PropOp35
 70
     1
102
RTVSPost2010Prop36
280
     0
102
RTVSPost2010PropOp36
 70
     1
102
RTVSPost2010Prop37
 90
       50
102
RTVSPost2010PropOp37
 70
     1
102
RTVSPost2010Prop38
140
0.0
102
RTVSPost2010PropOp38
 70
     1
102
RTVSPost2010Prop39
140
1.0
102
RTVSPost2010PropOp39
 70
     1
102
RTVSPost2010Prop40
 90
        0
102
RTVSPost2010PropOp40
 70
     1
102
RTVSPost2010Prop41ColorIndex
 90
       18
102
RTVSPost2010Prop41ColorRGB
 90
        0
102
RTVSPost2010PropOp41
 70
     1
102
RTVSPost2010Prop42
 90
       50
102
RTVSPost2010PropOp42
 70
     1
102
RTVSPost2010Prop43
 90
        3
102
RTVSPost2010PropOp43
 70
     1
102
RTVSPost2010Prop44ColorIndex
 90
        5
102
RTVSPost2010Prop44ColorRGB
 90
      255
102
RTVSPost2010PropOp44
 70
     1
102
RTVSPost2010Prop45
280
     0
102
RTVSPost2010PropOp45
 70
     1
102
RTVSPost2010Prop46
 90
       50
102
RTVSPost2010PropOp46
 70
     1
102
RTVSPost2010Prop47
 90
       50
102
RTVSPost2010PropOp47
 70
     1
102
RTVSPost2010Prop48
 90
       50
102
RTVSPost2010PropOp48
 70
     1
102
RTVSPost2010Prop49
280
     0
102
RTVSPost2010PropOp49
 70
     1
102
RTVSPost2010Prop50
 90
       50
102
RTVSPost2010PropOp50
 70
     1
102
RTVSPost2010Prop51ColorIndex
 90
      256
102
RTVSPost2010Prop51ColorRGB
 90
-16777216
102
RTVSPost2010PropOp51
 70
     0
102
RTVSPost2010Prop52
140
1.0
102
RTVSPost2010PropOp52
 70
     0
102
RTVSPost2010Prop53
 90
        2
102
RTVSPost2010PropOp53
 70
     1
102
RTVSPost2010Prop54
  1
strokes_ogs.tif
102
RTVSPost2010PropOp54
 70
     1
102
RTVSPost2010Prop55
280
     0
102
RTVSPost2010PropOp55
 70
     1
102
RTVSPost2010Prop56
140
1.0
102
RTVSPost2010PropOp56
 70
     1
102
RTVSPost2010Prop57
140
1.0
102
RTVSPost2010PropOp57
 70
     1
102
RTVSPropertyOp0
 70
     1
102
RTVSPropertyOp1
 70
     1
102
RTVSPropertyOp2
 70
     1
102
RTVSPropertyOp3
 70
     1
102
RTVSPropertyOp4
 70
     1
102
RTVSPropertyOp5
 70
     1
102
RTVSPropertyOp6
 70
     1
102
RTVSPropertyOp7
 70
     1
102
RTVSPropertyOp8
 70
     1
102
RTVSPropertyOp9
 70
     1
102
RTVSPropertyOp10
 70
     1
102
RTVSPropertyOp11
 70
     1
102
RTVSPropertyOp12
 70
     1
102
RTVSPropertyOp13
 70
     1
102
RTVSPropertyOp14
 70
     1
102
RTVSPropertyOp15
 70
     1
102
RTVSPropertyOp16
 70
     1
102
RTVSPropertyOp17
 70
     1
102
RTVSPropertyOp18
 70
     1
102
RTVSPropertyOp19
 70
     1
102
RTVSPropertyOp20
 70
     1
102
RTVSPropertyOp21
 70
     1
102
RTVSPropertyOp22
 70
     1
102
RTVSPropertyOp23
 70
     1
102
RTVSPropertyOp24
 70
     1
102
RTVSPropertyOp25
 70
     1
102
RTVSPropertyOp26
 70
     1
102
RTVSPropertyOp27
 70
     1
102
RTVSPropertyOp28
 70
     1
102
RTVSPropertyOp29
 70
     1
102
RTVSPropertyOp30
 70
     1
102
RTVSPropertyOp31
 70
     1
102
RTVSPropertyOp32
 70
     1
102
RTVSPropertyOp33
 70
     1
102
RTVSPropertyOp34
 70
     1
102
RTVSPropertyOp35
 70
     1
102
RTVSPropertyOp36
 70
     1
102
RTVSPropertyOp37
 70
     1
102
RTVSPropertyOp38
 70
     1
102
RTVSPropertyOp39
 70
     1
102
RTVSPropertyOp40
 70
     1
102
RTVSPropertyOp41
 70
     1
102
RTVSPropertyOp42
 70
     1
102
RTVSPropertyOp43
 70
     1
102
RTVSPropertyOp44
 70
     1
102
RTVSPropertyOp45
 70
     1
102
RTVSPropertyOp46
 70
     1
102
RTVSPropertyOp47
 70
     1
102
RTVSPropertyOp48
 70
     1
102
RTVSPropertyOp49
 70
     1
102
RTVSPropertyOp50
 70
     1
102
RTVSPropertyOp51
 70
     0
102
RTVSPropertyOp52
 70
     0
102
RTVSPropertyOp53
 70
     1
102
RTVSPropertyOp54
 70
     1
102
RTVSPropertyOp55
 70
     1
102
RTVSPropertyOp56
 70
     1
102
RTVSPropertyOp57
 70
     1
102
RTVSPropertyOp58
 70
     1
102
RTVSPropertyOp59
 70
     1
102
RTVSPropertyOp60
 70
     1
102
RTVSPropertyOp61
 70
     1
102
RTVSPropertyOp62
 70
     1
  0
XRECORD
  5
825
102
{ACAD_REACTORS
330
824
102
}
330
824
100
AcDbXrecord
280
     1
102
RTVSPost2010Prop28
280
     0
102
RTVSPost2010PropOp28
 70
     1
102
RTVSPost2010Prop29
280
     1
102
RTVSPost2010PropOp29
 70
     1
102
RTVSPost2010Prop30
280
     1
102
RTVSPost2010PropOp30
 70
     1
102
RTVSPost2010Prop31
280
     0
102
RTVSPost2010PropOp31
 70
     1
102
RTVSPost2010Prop32
280
     0
102
RTVSPost2010PropOp32
 70
     1
102
RTVSPost2010Prop33
280
     0
102
RTVSPost2010PropOp33
 70
     1
102
RTVSPost2010Prop34
280
     0
102
RTVSPost2010PropOp34
 70
     1
102
RTVSPost2010Prop35
280
     0
102
RTVSPost2010PropOp35
 70
     1
102
RTVSPost2010Prop36
280
     0
102
RTVSPost2010PropOp36
 70
     1
102
RTVSPost2010Prop37
 90
       50
102
RTVSPost2010PropOp37
 70
     1
102
RTVSPost2010Prop38
140
0.0
102
RTVSPost2010PropOp38
 70
     1
102
RTVSPost2010Prop39
140
1.0
102
RTVSPost2010PropOp39
 70
     1
102
RTVSPost2010Prop40
 90
        0
102
RTVSPost2010PropOp40
 70
     1
102
RTVSPost2010Prop41ColorIndex
 90
       18
102
RTVSPost2010Prop41ColorRGB
 90
        0
102
RTVSPost2010PropOp41
 70
     1
102
RTVSPost2010Prop42
 90
       50
102
RTVSPost2010PropOp42
 70
     1
102
RTVSPost2010Prop43
 90
        3
102
RTVSPost2010PropOp43
 70
     1
102
RTVSPost2010Prop44ColorIndex
 90
        5
102
RTVSPost2010Prop44ColorRGB
 90
      255
102
RTVSPost2010PropOp44
 70
     1
102
RTVSPost2010Prop45
280
     0
102
RTVSPost2010PropOp45
 70
     1
102
RTVSPost2010Prop46
 90
       50
102
RTVSPost2010PropOp46
 70
     1
102
RTVSPost2010Prop47
 90
       50
102
RTVSPost2010PropOp47
 70
     1
102
RTVSPost2010Prop48
 90
       50
102
RTVSPost2010PropOp48
 70
     1
102
RTVSPost2010Prop49
280
     0
102
RTVSPost2010PropOp49
 70
     1
102
RTVSPost2010Prop50
 90
       50
102
RTVSPost2010PropOp50
 70
     1
102
RTVSPost2010Prop51ColorIndex
 90
      256
102
RTVSPost2010Prop51ColorRGB
 90
-16777216
102
RTVSPost2010PropOp51
 70
     0
102
RTVSPost2010Prop52
140
1.0
102
RTVSPost2010PropOp52
 70
     0
102
RTVSPost2010Prop53
 90
        2
102
RTVSPost2010PropOp53
 70
     1
102
RTVSPost2010Prop54
  1
strokes_ogs.tif
102
RTVSPost2010PropOp54
 70
     1
102
RTVSPost2010Prop55
280
     0
102
RTVSPost2010PropOp55
 70
     1
102
RTVSPost2010Prop56
140
1.0
102
RTVSPost2010PropOp56
 70
     1
102
RTVSPost2010Prop57
140
1.0
102
RTVSPost2010PropOp57
 70
     1
102
RTVSPropertyOp0
 70
     1
102
RTVSPropertyOp1
 70
     1
102
RTVSPropertyOp2
 70
     1
102
RTVSPropertyOp3
 70
     1
102
RTVSPropertyOp4
 70
     1
102
RTVSPropertyOp5
 70
     1
102
RTVSPropertyOp6
 70
     1
102
RTVSPropertyOp7
 70
     1
102
RTVSPropertyOp8
 70
     1
102
RTVSPropertyOp9
 70
     1
102
RTVSPropertyOp10
 70
     1
102
RTVSPropertyOp11
 70
     1
102
RTVSPropertyOp12
 70
     1
102
RTVSPropertyOp13
 70
     1
102
RTVSPropertyOp14
 70
     1
102
RTVSPropertyOp15
 70
     1
102
RTVSPropertyOp16
 70
     1
102
RTVSPropertyOp17
 70
     1
102
RTVSPropertyOp18
 70
     1
102
RTVSPropertyOp19
 70
     1
102
RTVSPropertyOp20
 70
     1
102
RTVSPropertyOp21
 70
     1
102
RTVSPropertyOp22
 70
     1
102
RTVSPropertyOp23
 70
     1
102
RTVSPropertyOp24
 70
     1
102
RTVSPropertyOp25
 70
     1
102
RTVSPropertyOp26
 70
     1
102
RTVSPropertyOp27
 70
     1
102
RTVSPropertyOp28
 70
     1
102
RTVSPropertyOp29
 70
     1
102
RTVSPropertyOp30
 70
     1
102
RTVSPropertyOp31
 70
     1
102
RTVSPropertyOp32
 70
     1
102
RTVSPropertyOp33
 70
     1
102
RTVSPropertyOp34
 70
     1
102
RTVSPropertyOp35
 70
     1
102
RTVSPropertyOp36
 70
     1
102
RTVSPropertyOp37
 70
     1
102
RTVSPropertyOp38
 70
     1
102
RTVSPropertyOp39
 70
     1
102
RTVSPropertyOp40
 70
     1
102
RTVSPropertyOp41
 70
     1
102
RTVSPropertyOp42
 70
     1
102
RTVSPropertyOp43
 70
     1
102
RTVSPropertyOp44
 70
     1
102
RTVSPropertyOp45
 70
     1
102
RTVSPropertyOp46
 70
     1
102
RTVSPropertyOp47
 70
     1
102
RTVSPropertyOp48
 70
     1
102
RTVSPropertyOp49
 70
     1
102
RTVSPropertyOp50
 70
     1
102
RTVSPropertyOp51
 70
     0
102
RTVSPropertyOp52
 70
     0
102
RTVSPropertyOp53
 70
     1
102
RTVSPropertyOp54
 70
     1
102
RTVSPropertyOp55
 70
     1
102
RTVSPropertyOp56
 70
     1
102
RTVSPropertyOp57
 70
     1
102
RTVSPropertyOp58
 70
     1
102
RTVSPropertyOp59
 70
     1
102
RTVSPropertyOp60
 70
     1
102
RTVSPropertyOp61
 70
     1
102
RTVSPropertyOp62
 70
     1
  0
XRECORD
  5
819
102
{ACAD_REACTORS
330
818
102
}
330
818
100
AcDbXrecord
280
     1
102
RTVSPost2010Prop28
280
     0
102
RTVSPost2010PropOp28
 70
     1
102
RTVSPost2010Prop29
280
     1
102
RTVSPost2010PropOp29
 70
     1
102
RTVSPost2010Prop30
280
     1
102
RTVSPost2010PropOp30
 70
     1
102
RTVSPost2010Prop31
280
     0
102
RTVSPost2010PropOp31
 70
     1
102
RTVSPost2010Prop32
280
     0
102
RTVSPost2010PropOp32
 70
     1
102
RTVSPost2010Prop33
280
     0
102
RTVSPost2010PropOp33
 70
     1
102
RTVSPost2010Prop34
280
     0
102
RTVSPost2010PropOp34
 70
     1
102
RTVSPost2010Prop35
280
     0
102
RTVSPost2010PropOp35
 70
     1
102
RTVSPost2010Prop36
280
     0
102
RTVSPost2010PropOp36
 70
     1
102
RTVSPost2010Prop37
 90
       50
102
RTVSPost2010PropOp37
 70
     1
102
RTVSPost2010Prop38
140
0.0
102
RTVSPost2010PropOp38
 70
     1
102
RTVSPost2010Prop39
140
1.0
102
RTVSPost2010PropOp39
 70
     1
102
RTVSPost2010Prop40
 90
        0
102
RTVSPost2010PropOp40
 70
     1
102
RTVSPost2010Prop41ColorIndex
 90
       18
102
RTVSPost2010Prop41ColorRGB
 90
        0
102
RTVSPost2010PropOp41
 70
     1
102
RTVSPost2010Prop42
 90
       50
102
RTVSPost2010PropOp42
 70
     1
102
RTVSPost2010Prop43
 90
        3
102
RTVSPost2010PropOp43
 70
     1
102
RTVSPost2010Prop44ColorIndex
 90
        5
102
RTVSPost2010Prop44ColorRGB
 90
      255
102
RTVSPost2010PropOp44
 70
     1
102
RTVSPost2010Prop45
280
     0
102
RTVSPost2010PropOp45
 70
     1
102
RTVSPost2010Prop46
 90
       50
102
RTVSPost2010PropOp46
 70
     1
102
RTVSPost2010Prop47
 90
       50
102
RTVSPost2010PropOp47
 70
     1
102
RTVSPost2010Prop48
 90
       50
102
RTVSPost2010PropOp48
 70
     1
102
RTVSPost2010Prop49
280
     0
102
RTVSPost2010PropOp49
 70
     1
102
RTVSPost2010Prop50
 90
       50
102
RTVSPost2010PropOp50
 70
     1
102
RTVSPost2010Prop51ColorIndex
 90
      256
102
RTVSPost2010Prop51ColorRGB
 90
-16777216
102
RTVSPost2010PropOp51
 70
     0
102
RTVSPost2010Prop52
140
1.0
102
RTVSPost2010PropOp52
 70
     0
102
RTVSPost2010Prop53
 90
        2
102
RTVSPost2010PropOp53
 70
     1
102
RTVSPost2010Prop54
  1
strokes_ogs.tif
102
RTVSPost2010PropOp54
 70
     1
102
RTVSPost2010Prop55
280
     0
102
RTVSPost2010PropOp55
 70
     1
102
RTVSPost2010Prop56
140
1.0
102
RTVSPost2010PropOp56
 70
     1
102
RTVSPost2010Prop57
140
1.0
102
RTVSPost2010PropOp57
 70
     1
102
RTVSPropertyOp0
 70
     1
102
RTVSPropertyOp1
 70
     1
102
RTVSPropertyOp2
 70
     1
102
RTVSPropertyOp3
 70
     1
102
RTVSPropertyOp4
 70
     1
102
RTVSPropertyOp5
 70
     1
102
RTVSPropertyOp6
 70
     1
102
RTVSPropertyOp7
 70
     1
102
RTVSPropertyOp8
 70
     1
102
RTVSPropertyOp9
 70
     1
102
RTVSPropertyOp10
 70
     1
102
RTVSPropertyOp11
 70
     1
102
RTVSPropertyOp12
 70
     1
102
RTVSPropertyOp13
 70
     1
102
RTVSPropertyOp14
 70
     1
102
RTVSPropertyOp15
 70
     1
102
RTVSPropertyOp16
 70
     1
102
RTVSPropertyOp17
 70
     1
102
RTVSPropertyOp18
 70
     1
102
RTVSPropertyOp19
 70
     1
102
RTVSPropertyOp20
 70
     1
102
RTVSPropertyOp21
 70
     1
102
RTVSPropertyOp22
 70
     1
102
RTVSPropertyOp23
 70
     1
102
RTVSPropertyOp24
 70
     1
102
RTVSPropertyOp25
 70
     1
102
RTVSPropertyOp26
 70
     1
102
RTVSPropertyOp27
 70
     1
102
RTVSPropertyOp28
 70
     1
102
RTVSPropertyOp29
 70
     1
102
RTVSPropertyOp30
 70
     1
102
RTVSPropertyOp31
 70
     1
102
RTVSPropertyOp32
 70
     1
102
RTVSPropertyOp33
 70
     1
102
RTVSPropertyOp34
 70
     1
102
RTVSPropertyOp35
 70
     1
102
RTVSPropertyOp36
 70
     1
102
RTVSPropertyOp37
 70
     1
102
RTVSPropertyOp38
 70
     1
102
RTVSPropertyOp39
 70
     1
102
RTVSPropertyOp40
 70
     1
102
RTVSPropertyOp41
 70
     1
102
RTVSPropertyOp42
 70
     1
102
RTVSPropertyOp43
 70
     1
102
RTVSPropertyOp44
 70
     1
102
RTVSPropertyOp45
 70
     1
102
RTVSPropertyOp46
 70
     1
102
RTVSPropertyOp47
 70
     1
102
RTVSPropertyOp48
 70
     1
102
RTVSPropertyOp49
 70
     1
102
RTVSPropertyOp50
 70
     1
102
RTVSPropertyOp51
 70
     0
102
RTVSPropertyOp52
 70
     0
102
RTVSPropertyOp53
 70
     1
102
RTVSPropertyOp54
 70
     1
102
RTVSPropertyOp55
 70
     1
102
RTVSPropertyOp56
 70
     1
102
RTVSPropertyOp57
 70
     1
102
RTVSPropertyOp58
 70
     1
102
RTVSPropertyOp59
 70
     1
102
RTVSPropertyOp60
 70
     1
102
RTVSPropertyOp61
 70
     1
102
RTVSPropertyOp62
 70
     1
  0
XRECORD
  5
831
102
{ACAD_REACTORS
330
830
102
}
330
830
100
AcDbXrecord
280
     1
102
RTVSPost2010Prop28
280
     0
102
RTVSPost2010PropOp28
 70
     1
102
RTVSPost2010Prop29
280
     1
102
RTVSPost2010PropOp29
 70
     1
102
RTVSPost2010Prop30
280
     1
102
RTVSPost2010PropOp30
 70
     1
102
RTVSPost2010Prop31
280
     0
102
RTVSPost2010PropOp31
 70
     1
102
RTVSPost2010Prop32
280
     0
102
RTVSPost2010PropOp32
 70
     1
102
RTVSPost2010Prop33
280
     0
102
RTVSPost2010PropOp33
 70
     1
102
RTVSPost2010Prop34
280
     0
102
RTVSPost2010PropOp34
 70
     1
102
RTVSPost2010Prop35
280
     0
102
RTVSPost2010PropOp35
 70
     1
102
RTVSPost2010Prop36
280
     0
102
RTVSPost2010PropOp36
 70
     1
102
RTVSPost2010Prop37
 90
       50
102
RTVSPost2010PropOp37
 70
     1
102
RTVSPost2010Prop38
140
0.0
102
RTVSPost2010PropOp38
 70
     1
102
RTVSPost2010Prop39
140
1.0
102
RTVSPost2010PropOp39
 70
     1
102
RTVSPost2010Prop40
 90
        0
102
RTVSPost2010PropOp40
 70
     1
102
RTVSPost2010Prop41ColorIndex
 90
       18
102
RTVSPost2010Prop41ColorRGB
 90
        0
102
RTVSPost2010PropOp41
 70
     1
102
RTVSPost2010Prop42
 90
       50
102
RTVSPost2010PropOp42
 70
     1
102
RTVSPost2010Prop43
 90
        3
102
RTVSPost2010PropOp43
 70
     1
102
RTVSPost2010Prop44ColorIndex
 90
        5
102
RTVSPost2010Prop44ColorRGB
 90
      255
102
RTVSPost2010PropOp44
 70
     1
102
RTVSPost2010Prop45
280
     0
102
RTVSPost2010PropOp45
 70
     1
102
RTVSPost2010Prop46
 90
       50
102
RTVSPost2010PropOp46
 70
     1
102
RTVSPost2010Prop47
 90
       50
102
RTVSPost2010PropOp47
 70
     1
102
RTVSPost2010Prop48
 90
       50
102
RTVSPost2010PropOp48
 70
     1
102
RTVSPost2010Prop49
280
     0
102
RTVSPost2010PropOp49
 70
     1
102
RTVSPost2010Prop50
 90
       50
102
RTVSPost2010PropOp50
 70
     1
102
RTVSPost2010Prop51ColorIndex
 90
      256
102
RTVSPost2010Prop51ColorRGB
 90
-16777216
102
RTVSPost2010PropOp51
 70
     0
102
RTVSPost2010Prop52
140
1.0
102
RTVSPost2010PropOp52
 70
     0
102
RTVSPost2010Prop53
 90
        2
102
RTVSPost2010PropOp53
 70
     1
102
RTVSPost2010Prop54
  1
strokes_ogs.tif
102
RTVSPost2010PropOp54
 70
     1
102
RTVSPost2010Prop55
280
     0
102
RTVSPost2010PropOp55
 70
     1
102
RTVSPost2010Prop56
140
1.0
102
RTVSPost2010PropOp56
 70
     1
102
RTVSPost2010Prop57
140
1.0
102
RTVSPost2010PropOp57
 70
     1
102
RTVSPropertyOp0
 70
     1
102
RTVSPropertyOp1
 70
     1
102
RTVSPropertyOp2
 70
     1
102
RTVSPropertyOp3
 70
     1
102
RTVSPropertyOp4
 70
     1
102
RTVSPropertyOp5
 70
     1
102
RTVSPropertyOp6
 70
     1
102
RTVSPropertyOp7
 70
     1
102
RTVSPropertyOp8
 70
     1
102
RTVSPropertyOp9
 70
     1
102
RTVSPropertyOp10
 70
     1
102
RTVSPropertyOp11
 70
     1
102
RTVSPropertyOp12
 70
     1
102
RTVSPropertyOp13
 70
     1
102
RTVSPropertyOp14
 70
     1
102
RTVSPropertyOp15
 70
     1
102
RTVSPropertyOp16
 70
     1
102
RTVSPropertyOp17
 70
     1
102
RTVSPropertyOp18
 70
     1
102
RTVSPropertyOp19
 70
     1
102
RTVSPropertyOp20
 70
     1
102
RTVSPropertyOp21
 70
     1
102
RTVSPropertyOp22
 70
     1
102
RTVSPropertyOp23
 70
     1
102
RTVSPropertyOp24
 70
     1
102
RTVSPropertyOp25
 70
     1
102
RTVSPropertyOp26
 70
     1
102
RTVSPropertyOp27
 70
     1
102
RTVSPropertyOp28
 70
     1
102
RTVSPropertyOp29
 70
     1
102
RTVSPropertyOp30
 70
     1
102
RTVSPropertyOp31
 70
     1
102
RTVSPropertyOp32
 70
     1
102
RTVSPropertyOp33
 70
     1
102
RTVSPropertyOp34
 70
     1
102
RTVSPropertyOp35
 70
     1
102
RTVSPropertyOp36
 70
     1
102
RTVSPropertyOp37
 70
     1
102
RTVSPropertyOp38
 70
     1
102
RTVSPropertyOp39
 70
     1
102
RTVSPropertyOp40
 70
     1
102
RTVSPropertyOp41
 70
     1
102
RTVSPropertyOp42
 70
     1
102
RTVSPropertyOp43
 70
     1
102
RTVSPropertyOp44
 70
     1
102
RTVSPropertyOp45
 70
     1
102
RTVSPropertyOp46
 70
     1
102
RTVSPropertyOp47
 70
     1
102
RTVSPropertyOp48
 70
     1
102
RTVSPropertyOp49
 70
     1
102
RTVSPropertyOp50
 70
     1
102
RTVSPropertyOp51
 70
     0
102
RTVSPropertyOp52
 70
     0
102
RTVSPropertyOp53
 70
     1
102
RTVSPropertyOp54
 70
     1
102
RTVSPropertyOp55
 70
     1
102
RTVSPropertyOp56
 70
     1
102
RTVSPropertyOp57
 70
     1
102
RTVSPropertyOp58
 70
     1
102
RTVSPropertyOp59
 70
     1
102
RTVSPropertyOp60
 70
     1
102
RTVSPropertyOp61
 70
     1
102
RTVSPropertyOp62
 70
     1
  0
ENDSEC
  0
EOF
