  0
SECTION
  2
HEADER
  9
$ACADVER
  1
AC1015
  9
$ACADMAINTVER
 70
    20
  9
$DWGCODEPAGE
  3
ANSI_932
  9
$INSBASE
 10
0.0
 20
0.0
 30
0.0
  9
$EXTMIN
 10
-142.133
 20
-30.70024500000001
 30
0.0
  9
$EXTMAX
 10
335.4421564557569
 20
206.5748255647699
 30
0.0
  9
$LIMMIN
 10
0.0
 20
0.0
  9
$LIMMAX
 10
12.0
 20
9.0
  9
$ORTHOMODE
 70
     0
  9
$REGENMODE
 70
     1
  9
$FILLMODE
 70
     1
  9
$QTEXTMODE
 70
     0
  9
$MIRRTEXT
 70
     1
  9
$LTSCALE
 40
1.0
  9
$ATTMODE
 70
     1
  9
$TEXTSIZE
 40
0.2
  9
$TRACEWID
 40
0.05
  9
$TEXTSTYLE
  7
Standard
  9
$CLAYER
  8
0
  9
$CELTYPE
  6
ByBlock
  9
$CECOLOR
 62
   256
  9
$CELTSCALE
 40
1.0
  9
$DISPSILH
 70
     0
  9
$DIMSCALE
 40
1.0
  9
$DIMASZ
 40
0.18
  9
$DIMEXO
 40
0.0625
  9
$DIMDLI
 40
0.38
  9
$DIMRND
 40
0.0
  9
$DIMDLE
 40
0.0
  9
$DIMEXE
 40
0.18
  9
$DIMTP
 40
0.0
  9
$DIMTM
 40
0.0
  9
$DIMTXT
 40
0.18
  9
$DIMCEN
 40
0.09
  9
$DIMTSZ
 40
0.0
  9
$DIMTOL
 70
     0
  9
$DIMLIM
 70
     0
  9
$DIMTIH
 70
     1
  9
$DIMTOH
 70
     1
  9
$DIMSE1
 70
     0
  9
$DIMSE2
 70
     0
  9
$DIMTAD
 70
     0
  9
$DIMZIN
 70
     0
  9
$DIMBLK
  1

  9
$DIMASO
 70
     1
  9
$DIMSHO
 70
     1
  9
$DIMPOST
  1

  9
$DIMAPOST
  1

  9
$DIMALT
 70
     0
  9
$DIMALTD
 70
     2
  9
$DIMALTF
 40
25.4
  9
$DIMLFAC
 40
1.0
  9
$DIMTOFL
 70
     0
  9
$DIMTVP
 40
0.0
  9
$DIMTIX
 70
     0
  9
$DIMSOXD
 70
     0
  9
$DIMSAH
 70
     0
  9
$DIMBLK1
  1

  9
$DIMBLK2
  1

  9
$DIMSTYLE
  2
Standard
  9
$DIMCLRD
 70
     0
  9
$DIMCLRE
 70
     0
  9
$DIMCLRT
 70
     0
  9
$DIMTFAC
 40
1.0
  9
$DIMGAP
 40
0.09
  9
$DIMJUST
 70
     0
  9
$DIMSD1
 70
     0
  9
$DIMSD2
 70
     0
  9
$DIMTOLJ
 70
     1
  9
$DIMTZIN
 70
     0
  9
$DIMALTZ
 70
     0
  9
$DIMALTTZ
 70
     0
  9
$DIMUPT
 70
     0
  9
$DIMDEC
 70
     4
  9
$DIMTDEC
 70
     4
  9
$DIMALTU
 70
     2
  9
$DIMALTTD
 70
     2
  9
$DIMTXSTY
  7
Standard
  9
$DIMAUNIT
 70
     0
  9
$DIMADEC
 70
     0
  9
$DIMALTRND
 40
0.0
  9
$DIMAZIN
 70
     0
  9
$DIMDSEP
 70
    46
  9
$DIMATFIT
 70
     3
  9
$DIMFRAC
 70
     0
  9
$DIMLDRBLK
  1

  9
$DIMLUNIT
 70
     2
  9
$DIMLWD
 70
    -2
  9
$DIMLWE
 70
    -2
  9
$DIMTMOVE
 70
     0
  9
$LUNITS
 70
     2
  9
$LUPREC
 70
     4
  9
$SKETCHINC
 40
0.1
  9
$FILLETRAD
 40
0.5
  9
$AUNITS
 70
     0
  9
$AUPREC
 70
     0
  9
$MENU
  1
.
  9
$ELEVATION
 40
0.0
  9
$PELEVATION
 40
0.0
  9
$THICKNESS
 40
0.0
  9
$LIMCHECK
 70
     0
  9
$CHAMFERA
 40
0.5
  9
$CHAMFERB
 40
0.5
  9
$CHAMFERC
 40
1.0
  9
$CHAMFERD
 40
0.0
  9
$SKPOLY
 70
     0
  9
$TDCREATE
 40
2457268.974976852
  9
$TDUCREATE
 40
2457268.599985046
  9
$TDUPDATE
 40
2458103.712650463
  9
$TDUUPDATE
 40
2458103.337650463
  9
$TDINDWG
 40
0.0031713079
  9
$TDUSRTIMER
 40
0.0031713079
  9
$USRTIMER
 70
     1
  9
$ANGBASE
 50
0.0
  9
$ANGDIR
 70
     0
  9
$PDMODE
 70
     0
  9
$PDSIZE
 40
0.0
  9
$PLINEWID
 40
0.0
  9
$SPLFRAME
 70
     0
  9
$SPLINETYPE
 70
     6
  9
$SPLINESEGS
 70
     8
  9
$HANDSEED
  5
644
  9
$SURFTAB1
 70
     6
  9
$SURFTAB2
 70
     6
  9
$SURFTYPE
 70
     6
  9
$SURFU
 70
     6
  9
$SURFV
 70
     6
  9
$UCSBASE
  2

  9
$UCSNAME
  2

  9
$UCSORG
 10
0.0
 20
0.0
 30
0.0
  9
$UCSXDIR
 10
1.0
 20
0.0
 30
0.0
  9
$UCSYDIR
 10
0.0
 20
1.0
 30
0.0
  9
$UCSORTHOREF
  2

  9
$UCSORTHOVIEW
 70
     0
  9
$UCSORGTOP
 10
0.0
 20
0.0
 30
0.0
  9
$UCSORGBOTTOM
 10
0.0
 20
0.0
 30
0.0
  9
$UCSORGLEFT
 10
0.0
 20
0.0
 30
0.0
  9
$UCSORGRIGHT
 10
0.0
 20
0.0
 30
0.0
  9
$UCSORGFRONT
 10
0.0
 20
0.0
 30
0.0
  9
$UCSORGBACK
 10
0.0
 20
0.0
 30
0.0
  9
$PUCSBASE
  2

  9
$PUCSNAME
  2

  9
$PUCSORG
 10
0.0
 20
0.0
 30
0.0
  9
$PUCSXDIR
 10
1.0
 20
0.0
 30
0.0
  9
$PUCSYDIR
 10
0.0
 20
1.0
 30
0.0
  9
$PUCSORTHOREF
  2

  9
$PUCSORTHOVIEW
 70
     0
  9
$PUCSORGTOP
 10
0.0
 20
0.0
 30
0.0
  9
$PUCSORGBOTTOM
 10
0.0
 20
0.0
 30
0.0
  9
$PUCSORGLEFT
 10
0.0
 20
0.0
 30
0.0
  9
$PUCSORGRIGHT
 10
0.0
 20
0.0
 30
0.0
  9
$PUCSORGFRONT
 10
0.0
 20
0.0
 30
0.0
  9
$PUCSORGBACK
 10
0.0
 20
0.0
 30
0.0
  9
$USERI1
 70
     0
  9
$USERI2
 70
     0
  9
$USERI3
 70
     0
  9
$USERI4
 70
     0
  9
$USERI5
 70
     0
  9
$USERR1
 40
0.0
  9
$USERR2
 40
0.0
  9
$USERR3
 40
0.0
  9
$USERR4
 40
0.0
  9
$USERR5
 40
0.0
  9
$WORLDVIEW
 70
     1
  9
$SHADEDGE
 70
     3
  9
$SHADEDIF
 70
    70
  9
$TILEMODE
 70
     1
  9
$MAXACTVP
 70
    64
  9
$PINSBASE
 10
0.0
 20
0.0
 30
0.0
  9
$PLIMCHECK
 70
     0
  9
$PEXTMIN
 10
1.000000000000000E+20
 20
1.000000000000000E+20
 30
1.000000000000000E+20
  9
$PEXTMAX
 10
-1.000000000000000E+20
 20
-1.000000000000000E+20
 30
-1.000000000000000E+20
  9
$PLIMMIN
 10
0.0
 20
0.0
  9
$PLIMMAX
 10
12.0
 20
9.0
  9
$UNITMODE
 70
     0
  9
$VISRETAIN
 70
     1
  9
$PLINEGEN
 70
     0
  9
$PSLTSCALE
 70
     1
  9
$TREEDEPTH
 70
  3020
  9
$CMLSTYLE
  2
Standard
  9
$CMLJUST
 70
     0
  9
$CMLSCALE
 40
1.0
  9
$PROXYGRAPHICS
 70
     1
  9
$MEASUREMENT
 70
     0
  9
$CELWEIGHT
370
    -1
  9
$ENDCAPS
280
     0
  9
$JOINSTYLE
280
     0
  9
$LWDISPLAY
290
     0
  9
$INSUNITS
 70
     0
  9
$HYPERLINKBASE
  1

  9
$STYLESHEET
  1

  9
$XEDIT
290
     1
  9
$CEPSNTYPE
380
     0
  9
$PSTYLEMODE
290
     1
  9
$FINGERPRINTGUID
  2
{04A82605-29EF-4CB5-BD7F-57999C6AA686}
  9
$VERSIONGUID
  2
{0DC22B1F-F296-0A43-A2C1-A0AE9B16C082}
  9
$EXTNAMES
290
     1
  9
$PSVPSCALE
 40
0.0
  9
$OLESTARTUP
290
     0
  0
ENDSEC
  0
SECTION
  2
CLASSES
  0
CLASS
  1
ACDBDICTIONARYWDFLT
  2
AcDbDictionaryWithDefault
  3
ObjectDBX Classes
 90
        0
280
     0
281
     0
  0
CLASS
  1
MATERIAL
  2
AcDbMaterial
  3
ObjectDBX Classes
 90
     1153
280
     0
281
     0
  0
CLASS
  1
VISUALSTYLE
  2
AcDbVisualStyle
  3
ObjectDBX Classes
 90
     4095
280
     0
281
     0
  0
CLASS
  1
TABLESTYLE
  2
AcDbTableStyle
  3
ObjectDBX Classes
 90
     4095
280
     0
281
     0
  0
CLASS
  1
SCALE
  2
AcDbScale
  3
ObjectDBX Classes
 90
     1153
280
     0
281
     0
  0
CLASS
  1
MLEADERSTYLE
  2
AcDbMLeaderStyle
  3
ACDB_MLEADERSTYLE_CLASS
 90
     4095
280
     0
281
     0
  0
CLASS
  1
ACDBSECTIONVIEWSTYLE
  2
AcDbSectionViewStyle
  3
ObjectDBX Classes
 90
     1025
280
     0
281
     0
  0
CLASS
  1
ACDBDETAILVIEWSTYLE
  2
AcDbDetailViewStyle
  3
ObjectDBX Classes
 90
     1025
280
     0
281
     0
  0
CLASS
  1
ACME_DOCUMENT
  2
AcMeDbDoc
  3
AcMeServices
 90
     1024
280
     0
281
     0
  0
CLASS
  1
ACMESCOPE
  2
AcMeScope
  3
AcMeServices
 90
     1024
280
     0
281
     0
  0
CLASS
  1
ACMECOMMANDHISTORY
  2
AcMeCommandHistory
  3
AcMeServices
 90
     1024
280
     0
281
     0
  0
CLASS
  1
ACIMSYSVARMAN
  2
AcImSysVarManager
  3
AcMeServices
 90
     1024
280
     0
281
     0
  0
CLASS
  1
ACIMINTSYSVAR
  2
AcImIntSysVar
  3
AcMeServices
 90
     1024
280
     0
281
     0
  0
CLASS
  1
ACMESTATEMGR
  2
AcMeStateMgr
  3
AcMeServices
 90
     1024
280
     0
281
     0
  0
CLASS
  1
ACDBENTITYCACHE
  2
AcMeEntityCache
  3
AcMeServices
 90
     1024
280
     0
281
     0
  0
CLASS
  1
ACGREFMASTER
  2
AcGrefMaster
  3
AcAttribServices
 90
     1024
280
     0
281
     0
  0
CLASS
  1
ACME_DATABASE
  2
AcMeDbDatabase
  3
AcMeServices
 90
     1024
280
     0
281
     0
  0
CLASS
  1
ACRFINSADJUSTERMGR
  2
AcRfInsAdjusterMgr
  3
AcMeServices
 90
     1024
280
     0
281
     0
  0
CLASS
  1
ACGREFACADMASTER
  2
AcGrefacadMaster
  3
AcGrefServices
 90
     1024
280
     0
281
     0
  0
CLASS
  1
AMIMASTER
  2
AmiMaster
  3
AmiServices
 90
     1024
280
     0
281
     0
  0
CLASS
  1
AMGSETTINGSOBJ
  2
AmgSettingsObj
  3
"AcadM|Product Description: AutoCAD Mechanical|Company: Autodesk, Inc."
 90
     1024
280
     0
281
     0
  0
CLASS
  1
AMDTMENUSTATEMGR
  2
AmdtMenuStateMgr
  3
McadcomServices
 90
     1024
280
     0
281
     0
  0
CLASS
  1
AMDTMCOMMENUSTATE
  2
AmdtMcomMenuState
  3
McadcomServices
 90
     1024
280
     0
281
     0
  0
CLASS
  1
MAPIAMMOUDLE
  2
MApiAmModule
  3
MApiAmServices
 90
     1024
280
     0
281
     0
  0
CLASS
  1
ACIMSTRSYSVAR
  2
AcImStrSysVar
  3
AcMeServices
 90
     1024
280
     0
281
     0
  0
CLASS
  1
AMDTAMMENUSTATE
  2
AmdtAmMenuState
  3
DesignerAssemblies_arx
 90
     1024
280
     0
281
     0
  0
CLASS
  1
ACAMPROJECT
  2
AcAmProject
  3
DesignerAssemblies
 90
     1024
280
     0
281
     0
  0
CLASS
  1
ACAMGRCOMPDEF
  2
AcAmGrCompDef
  3
DesignerAssemblies
 90
     1024
280
     0
281
     0
  0
CLASS
  1
ACAMCOMPDEF
  2
AcAmCompDef
  3
DesignerAssemblies
 90
     1024
280
     0
281
     0
  0
CLASS
  1
ACAMCOMPDEFMGR
  2
AcAmCompDefMgr
  3
DesignerAssemblies
 90
     1024
280
     0
281
     0
  0
CLASS
  1
AMCONTEXTMGR
  2
AcAmContextMgr
  3
DesignerAssemblies
 90
     1024
280
     0
281
     0
  0
CLASS
  1
ACAMCONTEXTMODELER
  2
AcAmContextModeler
  3
DesignerAssemblies
 90
     1024
280
     0
281
     0
  0
CLASS
  1
ACMDATADICTIONARY
  2
AcmDataDictionary
  3
"AcmSymBB|Product Description: AutoCAD Mechanical|Company: Autodesk, Inc."
 90
     1024
280
     0
281
     0
  0
CLASS
  1
ACAMGRCOMPDEFSET
  2
AcAmGrCompDefSet
  3
DesignerAssemblies
 90
     1024
280
     0
281
     0
  0
CLASS
  1
AMDTBROWSERDBTAB
  2
AmdtBrowserDbTab
  3
McadcomServices
 90
     1024
280
     0
281
     0
  0
CLASS
  1
CBROWSERAPPOBJECT
  2
CBrowserAppObject
  3
McadcomServices
 90
     1024
280
     0
281
     0
  0
CLASS
  1
DM_PLACEHOLDER
  2
AcDmSelsetPlaceholder
  3
McadcomServices
 90
     1024
280
     0
281
     0
  0
CLASS
  1
ACMSTANDARDANSI
  2
AcmStandardANSI
  3
"Amdt_StdImp|Product Description: AutoCAD Mechanical|Company: Autodesk, Inc."
 90
     1024
280
     0
281
     0
  0
CLASS
  1
ACMSURFSTANDARDANSI
  2
AcmSurfTextStdANSI
  3
"Amdt_StdImp|Product Description: AutoCAD Mechanical|Company: Autodesk, Inc."
 90
     1024
280
     0
281
     0
  0
CLASS
  1
ACMFCFSTANDARDANSI
  2
AcmFCFStdANSI
  3
"Amdt_StdImp|Product Description: AutoCAD Mechanical|Company: Autodesk, Inc."
 90
     1024
280
     0
281
     0
  0
CLASS
  1
ACMWELDSTANDARDANSI
  2
AcmWeldingStdANSI
  3
"Amdt_StdImp|Product Description: AutoCAD Mechanical|Company: Autodesk, Inc."
 90
     1024
280
     0
281
     0
  0
CLASS
  1
ACMIDSTANDARDANSI
  2
AcmIdStdANSI
  3
"Amdt_StdImp|Product Description: AutoCAD Mechanical|Company: Autodesk, Inc."
 90
     1024
280
     0
281
     0
  0
CLASS
  1
ACMDATUMSTANDARDANSI
  2
AcmDatumStdANSI
  3
"Amdt_StdImp|Product Description: AutoCAD Mechanical|Company: Autodesk, Inc."
 90
     1024
280
     0
281
     0
  0
CLASS
  1
ACMBOMSTANDARDANSI
  2
AcmBOMStdANSI
  3
"Amdt_StdImp|Product Description: AutoCAD Mechanical|Company: Autodesk, Inc."
 90
     1024
280
     0
281
     0
  0
CLASS
  1
ACMDETAILSTANDARDANSI
  2
AmdtDetailSymStdANSI
  3
"Amdt_StdImp|Product Description: AutoCAD Mechanical|Company: Autodesk, Inc."
 90
     1024
280
     0
281
     0
  0
CLASS
  1
ACMSECTIONSTANDARDANSI
  2
AmdtSectionSymStdANSI
  3
"Amdt_StdImp|Product Description: AutoCAD Mechanical|Company: Autodesk, Inc."
 90
     1024
280
     0
281
     0
  0
CLASS
  1
ACMCENTERLINESTANDARDANSI
  2
AmdtCenterLineStdANSI
  3
"Amdt_StdImp|Product Description: AutoCAD Mechanical|Company: Autodesk, Inc."
 90
     1024
280
     0
281
     0
  0
CLASS
  1
ACMTHREADLINESTANDARDANSI
  2
AmdtThreadLineStdANSI
  3
"Amdt_StdImp|Product Description: AutoCAD Mechanical|Company: Autodesk, Inc."
 90
     1024
280
     0
281
     0
  0
CLASS
  1
ACMNOTESTANDARDANSI
  2
AmdtNoteStdANSI
  3
"Amdt_StdImp|Product Description: AutoCAD Mechanical|Company: Autodesk, Inc."
 90
     1024
280
     0
281
     0
  0
CLASS
  1
ACMTAPERSTANDARDANSI
  2
AcmTaperStdANSI
  3
"Amdt_StdImp|Product Description: AutoCAD Mechanical|Company: Autodesk, Inc."
 90
     1024
280
     0
281
     0
  0
CLASS
  1
ACMANOOTATIONVIEWSTANDARDANSI
  2
AmdtAnViewStdANSI
  3
"Amdt_StdImp|Product Description: AutoCAD Mechanical|Company: Autodesk, Inc."
 90
     1024
280
     0
281
     0
  0
CLASS
  1
ACAMGLAYSTD
  2
AcAmgLayStd
  3
"AmgLay|Product Description: AutoCAD Mechanical|Company: Autodesk, Inc."
 90
     1024
280
     0
281
     0
  0
CLASS
  1
ACAMGDIMSTD
  2
AcAmgDimStd
  3
"AmgDim|Product Description: AutoCAD Mechanical|Company: Autodesk, Inc."
 90
     1024
280
     0
281
     0
  0
CLASS
  1
AMGOBJPROPCFG
  2
AmgObjPropCfg
  3
"AmgLay|Product Description: AutoCAD Mechanical|Company: Autodesk, Inc."
 90
     1024
280
     0
281
     0
  0
CLASS
  1
ACAMGHOLECHARTSTDANSI
  2
AcAmgHoleChartStdANSI
  3
"AmgDim" "Product Description: AutoCAD Mechanical|Company: Autodesk, Inc."
 90
     1024
280
     0
281
     0
  0
CLASS
  1
ACAMGTITLESTD
  2
AcAmgTitleStd
  3
"AmgTitle|Product Description: AutoCAD Mechanical|Company: Autodesk, Inc."
 90
     1024
280
     0
281
     0
  0
CLASS
  1
ACMSECTIONSTANDARDCUSTOM
  2
AmdtSectionSymStdCustom
  3
"Amdt_StdImp|Product Description: AutoCAD Mechanical|Company: Autodesk, Inc."
 90
     1024
280
     0
281
     0
  0
CLASS
  1
ACMDETAILTANDARDCUSTOM
  2
AmdtDetailSymStdCustom
  3
"Amdt_StdImp|Product Description: AutoCAD Mechanical|Company: Autodesk, Inc."
 90
     1024
280
     0
281
     0
  0
CLASS
  1
FIELD
  2
AcDbField
  3
ObjectDBX Classes
 90
     1152
280
     0
281
     0
  0
CLASS
  1
FIELDLIST
  2
AcDbFieldList
  3
ObjectDBX Classes
 90
     1152
280
     0
281
     0
  0
CLASS
  1
AMDTNOTETEMPLATEDB
  2
AmdtNoteTemplateDB
  3
"AcmSymBB" "Product Description: AutoCAD Mechanical|Company: Autodesk, Inc."
 90
     1024
280
     0
281
     0
  0
CLASS
  1
ACAMGFILTERDAT
  2
AcAmgFilterDat
  3
"AcadM|Product Description: AutoCAD Mechanical|Company: Autodesk, Inc."
 90
    33792
280
     0
281
     0
  0
CLASS
  1
SORTENTSTABLE
  2
AcDbSortentsTable
  3
ObjectDBX Classes
 90
        0
280
     0
281
     0
  0
CLASS
  1
DICTIONARYVAR
  2
AcDbDictionaryVar
  3
ObjectDBX Classes
 90
        0
280
     0
281
     0
  0
CLASS
  1
CELLSTYLEMAP
  2
AcDbCellStyleMap
  3
ObjectDBX Classes
 90
     1152
280
     0
281
     0
  0
CLASS
  1
ACDBPLACEHOLDER
  2
AcDbPlaceHolder
  3
ObjectDBX Classes
 90
        0
280
     0
281
     0
  0
CLASS
  1
LAYOUT
  2
AcDbLayout
  3
ObjectDBX Classes
 90
        0
280
     0
281
     0
  0
ENDSEC
  0
SECTION
  2
TABLES
  0
TABLE
  2
VPORT
  5
8
330
0
100
AcDbSymbolTable
 70
     1
  0
VPORT
  5
126
330
8
100
AcDbSymbolTableRecord
100
AcDbViewportTableRecord
  2
*Active
 70
     0
 10
0.0
 20
0.0
 11
1.0
 21
1.0
 12
143.1477452555709
 22
106.5306182344222
 13
0.0
 23
0.0
 14
0.5
 24
0.5
 15
0.5
 25
0.5
 16
0.0
 26
0.0
 36
1.0
 17
0.0
 27
0.0
 37
0.0
 40
427.3968360875505
 41
2.16295427901524
 42
50.0
 43
0.0
 44
0.0
 50
0.0
 51
0.0
 71
     0
 72
   100
 73
     1
 74
     3
 75
     0
 76
     0
 77
     0
 78
     0
281
     0
 65
     0
110
0.0
120
0.0
130
0.0
111
1.0
121
0.0
131
0.0
112
0.0
122
1.0
132
0.0
 79
     0
146
0.0
1001
ACAD_NAV_VCDISPLAY
1070
     3
  0
ENDTAB
  0
TABLE
  2
LTYPE
  5
5
330
0
100
AcDbSymbolTable
 70
    16
  0
LTYPE
  5
14
330
5
100
AcDbSymbolTableRecord
100
AcDbLinetypeTableRecord
  2
ByBlock
 70
     0
  3

 72
    65
 73
     0
 40
0.0
  0
LTYPE
  5
15
330
5
100
AcDbSymbolTableRecord
100
AcDbLinetypeTableRecord
  2
ByLayer
 70
     0
  3

 72
    65
 73
     0
 40
0.0
  0
LTYPE
  5
16
330
5
100
AcDbSymbolTableRecord
100
AcDbLinetypeTableRecord
  2
Continuous
 70
     0
  3
Solid line
 72
    65
 73
     0
 40
0.0
  0
LTYPE
  5
185
330
5
100
AcDbSymbolTableRecord
100
AcDbLinetypeTableRecord
  2
HIDDEN
 70
     0
  3
Hidden __ __ __ __ __ __ __ __ __ __ __ __ __ _
 72
    65
 73
     2
 40
0.375
 49
0.25
 74
     0
 49
-0.125
 74
     0
  0
LTYPE
  5
186
330
5
100
AcDbSymbolTableRecord
100
AcDbLinetypeTableRecord
  2
PHANTOM2
 70
     0
  3
Phantom (.5x) ___ _ _ ___ _ _ ___ _ _ ___ _ _
 72
    65
 73
     6
 40
1.25
 49
0.625
 74
     0
 49
-0.125
 74
     0
 49
0.125
 74
     0
 49
-0.125
 74
     0
 49
0.125
 74
     0
 49
-0.125
 74
     0
  0
LTYPE
  5
187
330
5
100
AcDbSymbolTableRecord
100
AcDbLinetypeTableRecord
  2
CENTER
 70
     0
  3
Center ____ _ ____ _ ____ _ ____ _ ____ _ ____
 72
    65
 73
     4
 40
2.0
 49
1.25
 74
     0
 49
-0.25
 74
     0
 49
0.25
 74
     0
 49
-0.25
 74
     0
  0
LTYPE
  5
1C5
330
5
100
AcDbSymbolTableRecord
100
AcDbLinetypeTableRecord
  2
AM_ISO02W050
 70
     0
  3
__ __ __ __ __ __ __ __ __ __ __ __ __ __ __
 72
    65
 73
     2
 40
7.5
 49
6.0
 74
     0
 49
-1.5
 74
     0
  0
LTYPE
  5
1C6
330
5
100
AcDbSymbolTableRecord
100
AcDbLinetypeTableRecord
  2
AM_ISO08W050
 70
     0
  3
____ . ____ . ____ . ____ . ____ . ____ . ____
 72
    65
 73
     4
 40
18.0
 49
12.0
 74
     0
 49
-1.5
 74
     0
 49
3.0
 74
     0
 49
-1.5
 74
     0
  0
LTYPE
  5
1C7
330
5
100
AcDbSymbolTableRecord
100
AcDbLinetypeTableRecord
  2
AM_ISO09W050
 70
     0
  3
_____ . . _____ . . _____ . . ____ .. ____
 72
    65
 73
     6
 40
22.5
 49
12.0
 74
     0
 49
-1.5
 74
     0
 49
3.0
 74
     0
 49
-1.5
 74
     0
 49
3.0
 74
     0
 49
-1.5
 74
     0
  0
LTYPE
  5
1C8
330
5
100
AcDbSymbolTableRecord
100
AcDbLinetypeTableRecord
  2
Amconstr
 70
     0
  3
_______________________
 72
    65
 73
     2
 40
9999.0
 49
9999.0
 74
     0
 49
0.0
 74
     0
  0
LTYPE
  5
1C9
330
5
100
AcDbSymbolTableRecord
100
AcDbLinetypeTableRecord
  2
AM_ISO08W050x2
 70
     0
  3
__ . __ . __ . __ . __ . __
 72
    65
 73
     4
 40
9.0
 49
6.0
 74
     0
 49
-0.75
 74
     0
 49
1.5
 74
     0
 49
-0.75
 74
     0
  0
LTYPE
  5
1CA
330
5
100
AcDbSymbolTableRecord
100
AcDbLinetypeTableRecord
  2
AM_ISO02W050x2
 70
     0
  3
 _ _ _ _ _ _ _ _ _ _ _ _
 72
    65
 73
     2
 40
3.75
 49
3.0
 74
     0
 49
-0.75
 74
     0
  0
LTYPE
  5
1CD
330
5
100
AcDbSymbolTableRecord
100
AcDbLinetypeTableRecord
  2
Amzigzag
 70
     0
  3
/\/-/\/-/\/-/\/-/\/-/\/
 72
    65
 73
     2
 40
11.0001
 49
0.0001
 74
     4
 75
   136
340
1CC
 46
0.04
 50
0.0
 44
0.0
 45
0.0
 49
-11.0
 74
     0
  0
LTYPE
  5
1CE
330
5
100
AcDbSymbolTableRecord
100
AcDbLinetypeTableRecord
  2
CENTER2
 70
     0
  3
Center (.5x) ___ _ ___ _ ___ _ ___ _ ___ _ ___
 72
    65
 73
     4
 40
1.125
 49
0.75
 74
     0
 49
-0.125
 74
     0
 49
0.125
 74
     0
 49
-0.125
 74
     0
  0
LTYPE
  5
1CF
330
5
100
AcDbSymbolTableRecord
100
AcDbLinetypeTableRecord
  2
HIDDEN2
 70
     0
  3
Hidden (.5x) _ _ _ _ _ _ _ _ _ _ _ _ _ _ _ _ _
 72
    65
 73
     2
 40
0.1875
 49
0.125
 74
     0
 49
-0.0625
 74
     0
  0
LTYPE
  5
1D0
330
5
100
AcDbSymbolTableRecord
100
AcDbLinetypeTableRecord
  2
Amzigzag2
 70
     0
  3
/\/-/\/-/\/-/\/-/\/-/\/
 72
    65
 73
     2
 40
0.4401
 49
0.0001
 74
     4
 75
   136
340
1CC
 46
0.0016
 50
0.0
 44
0.0
 45
0.0
 49
-0.4400000000000002
 74
     0
  0
LTYPE
  5
1E0
330
5
100
AcDbSymbolTableRecord
100
AcDbLinetypeTableRecord
  2
ACANSTGB
 70
     0
  3
__ . . __ . .
 72
    65
 73
     6
 40
0.35433070866
 49
0.15748031496
 74
     0
 49
-0.03937007874
 74
     0
 49
0.03937007874
 74
     0
 49
-0.03937007874
 74
     0
 49
0.03937007874
 74
     0
 49
-0.03937007874
 74
     0
  0
LTYPE
  5
1E1
330
5
100
AcDbSymbolTableRecord
100
AcDbLinetypeTableRecord
  2
ACANSTGL
 70
     0
  3
_ _ _ _ _
 72
    65
 73
     2
 40
0.11811023622
 49
0.07874015748
 74
     0
 49
-0.03937007874
 74
     0
  0
ENDTAB
  0
TABLE
  2
LAYER
  5
2
330
0
100
AcDbSymbolTable
 70
     2
  0
LAYER
  5
10
102
{ACAD_XDICTIONARY
360
547
102
}
330
2
100
AcDbSymbolTableRecord
100
AcDbLayerTableRecord
  2
0
 70
     0
 62
     7
  6
Continuous
370
    -3
390
F
  0
LAYER
  5
205
102
{ACAD_XDICTIONARY
360
549
102
}
330
2
100
AcDbSymbolTableRecord
100
AcDbLayerTableRecord
  2
AM_CL
 70
     0
 62
     1
  6
Amconstr
370
    15
390
F
1001
AcAecLayerStandard
1000

1000

  0
ENDTAB
  0
TABLE
  2
STYLE
  5
3
330
0
100
AcDbSymbolTable
 70
     4
  0
STYLE
  5
11
330
3
100
AcDbSymbolTableRecord
100
AcDbTextStyleTableRecord
  2
Standard
 70
     0
 40
0.0
 41
1.0
 50
0.0
 71
     0
 42
0.2
  3
txt
  4

  0
STYLE
  5
1CC
330
3
100
AcDbSymbolTableRecord
100
AcDbTextStyleTableRecord
  2

 70
     1
 40
0.0
 41
1.0
 50
0.0
 71
     0
 42
0.2
  3
genltshp.shx
  4

  0
STYLE
  5
1DE
330
3
100
AcDbSymbolTableRecord
100
AcDbTextStyleTableRecord
  2
ACANSTS
 70
     0
 40
0.0
 41
1.0
 50
0.0
 71
     0
 42
0.2
  3
romans.shx
  4
extfont.shx
  0
STYLE
  5
1DF
330
3
100
AcDbSymbolTableRecord
100
AcDbTextStyleTableRecord
  2
ACANSGDT
 70
     0
 40
0.0
 41
1.0
 50
0.0
 71
     0
 42
0.2
  3
amgdt.shx
  4

  0
ENDTAB
  0
TABLE
  2
VIEW
  5
6
330
0
100
AcDbSymbolTable
 70
     0
  0
ENDTAB
  0
TABLE
  2
UCS
  5
7
330
0
100
AcDbSymbolTable
 70
     0
  0
ENDTAB
  0
TABLE
  2
APPID
  5
9
330
0
100
AcDbSymbolTable
 70
    14
  0
APPID
  5
12
330
9
100
AcDbSymbolTableRecord
100
AcDbRegAppTableRecord
  2
ACAD
 70
     0
  0
APPID
  5
17E
330
9
100
AcDbSymbolTableRecord
100
AcDbRegAppTableRecord
  2
MCAD_NO_VIS
 70
     0
  0
APPID
  5
17F
330
9
100
AcDbSymbolTableRecord
100
AcDbRegAppTableRecord
  2
ACAD_TEMP_GRAPHIC
 70
     0
  0
APPID
  5
18C
330
9
100
AcDbSymbolTableRecord
100
AcDbRegAppTableRecord
  2
ACATTRIBSERVICES
 70
     0
  0
APPID
  5
1A8
330
9
100
AcDbSymbolTableRecord
100
AcDbRegAppTableRecord
  2
DESIGNERASSEMBLIES
 70
     0
  0
APPID
  5
1C2
330
9
100
AcDbSymbolTableRecord
100
AcDbRegAppTableRecord
  2
ACAD_DSTYLE_DIMJAG
 70
     0
  0
APPID
  5
1C3
330
9
100
AcDbSymbolTableRecord
100
AcDbRegAppTableRecord
  2
ACAD_DSTYLE_DIMBREAK
 70
     0
  0
APPID
  5
1FD
330
9
100
AcDbSymbolTableRecord
100
AcDbRegAppTableRecord
  2
ACAD_NAV_VCDISPLAY
 70
     0
  0
APPID
  5
206
330
9
100
AcDbSymbolTableRecord
100
AcDbRegAppTableRecord
  2
AcAecLayerStandard
 70
     0
  0
APPID
  5
596
330
9
100
AcDbSymbolTableRecord
100
AcDbRegAppTableRecord
  2
ACAD_MLEADERVER
 70
     0
  0
APPID
  5
59D
330
9
100
AcDbSymbolTableRecord
100
AcDbRegAppTableRecord
  2
ACAD_DSTYLE_DIMARC_LENGTH_SYMBOL
 70
     0
  0
APPID
  5
59E
330
9
100
AcDbSymbolTableRecord
100
AcDbRegAppTableRecord
  2
ACAD_DSTYLE_DIM_LINETYPE
 70
     0
  0
APPID
  5
59F
330
9
100
AcDbSymbolTableRecord
100
AcDbRegAppTableRecord
  2
ACAD_DSTYLE_DIM_EXT1_LINETYPE
 70
     0
  0
APPID
  5
5A0
330
9
100
AcDbSymbolTableRecord
100
AcDbRegAppTableRecord
  2
ACAD_DSTYLE_DIM_EXT2_LINETYPE
 70
     0
  0
ENDTAB
  0
TABLE
  2
DIMSTYLE
  5
A
330
0
100
AcDbSymbolTable
 70
     7
100
AcDbDimStyleTable
 71
     0
  0
DIMSTYLE
105
21
330
A
100
AcDbSymbolTableRecord
100
AcDbDimStyleTableRecord
  2
Standard
 70
     0
340
11
  0
DIMSTYLE
105
1C1
102
{ACAD_REACTORS
330
5D3
102
}
330
A
100
AcDbSymbolTableRecord
100
AcDbDimStyleTableRecord
  2
AM_ANSI
 70
     0
  4
mm
 41
0.12
 42
0.05
 43
0.5
 44
0.1
 47
0.1
 48
0.1
 78
     7
 79
     2
140
0.12
141
0.0
146
0.71
147
0.06
176
   256
177
   256
178
     2
274
     4
284
     7
340
11
371
    -1
372
    -1
1001
ACAD_DSTYLE_DIMJAG
1070
   388
1040
1.5
1001
ACAD_DSTYLE_DIMBREAK
1070
   391
1040
0.125
1001
ACAD_DSTYLE_DIMARC_LENGTH_SYMBOL
1070
   379
1070
     1
1001
ACAD_DSTYLE_DIM_LINETYPE
1070
   380
1005
14
1001
ACAD_DSTYLE_DIM_EXT1_LINETYPE
1070
   381
1005
14
1001
ACAD_DSTYLE_DIM_EXT2_LINETYPE
1070
   382
1005
14
  0
DIMSTYLE
105
1D1
330
A
100
AcDbSymbolTableRecord
100
AcDbDimStyleTableRecord
  2
AM_ANSI$3
 70
     0
  4
mm
 41
0.12
 42
0.05
 43
0.5
 44
0.1
 47
0.1
 48
0.1
 78
     7
 79
     2
140
0.12
141
0.0
146
0.71
147
0.06
176
   256
177
   256
178
     2
274
     4
284
     7
288
     1
289
     0
340
11
371
    -1
372
    -1
1001
ACAD_DSTYLE_DIMBREAK
1070
   391
1040
0.125
1001
ACAD_DSTYLE_DIMJAG
1070
   388
1040
1.5
1001
ACAD_DSTYLE_DIMARC_LENGTH_SYMBOL
1070
   379
1070
     1
1001
ACAD_DSTYLE_DIM_LINETYPE
1070
   380
1005
14
1001
ACAD_DSTYLE_DIM_EXT1_LINETYPE
1070
   381
1005
14
1001
ACAD_DSTYLE_DIM_EXT2_LINETYPE
1070
   382
1005
14
  0
DIMSTYLE
105
1D2
330
A
100
AcDbSymbolTableRecord
100
AcDbDimStyleTableRecord
  2
AM_ANSI$4
 70
     0
  4
mm
 41
0.12
 42
0.05
 43
0.5
 44
0.1
 47
0.1
 48
0.1
 78
     7
 79
     2
140
0.12
141
0.0
146
0.71
147
0.06
176
   256
177
   256
178
     2
274
     4
284
     7
288
     1
289
     0
340
11
371
    -1
372
    -1
1001
ACAD_DSTYLE_DIMBREAK
1070
   391
1040
0.125
1001
ACAD_DSTYLE_DIMJAG
1070
   388
1040
1.5
1001
ACAD_DSTYLE_DIMARC_LENGTH_SYMBOL
1070
   379
1070
     1
1001
ACAD_DSTYLE_DIM_LINETYPE
1070
   380
1005
14
1001
ACAD_DSTYLE_DIM_EXT1_LINETYPE
1070
   381
1005
14
1001
ACAD_DSTYLE_DIM_EXT2_LINETYPE
1070
   382
1005
14
  0
DIMSTYLE
105
1D3
330
A
100
AcDbSymbolTableRecord
100
AcDbDimStyleTableRecord
  2
AM_ANSI$7
 70
     0
  4
mm
 41
0.12
 42
0.05
 43
0.5
 44
0.1
 47
0.1
 48
0.1
 78
     7
 79
     2
140
0.12
141
0.0
146
0.71
147
0.06
176
   256
177
   256
178
     2
274
     4
284
     7
340
11
371
    -1
372
    -1
1001
ACAD_DSTYLE_DIMBREAK
1070
   391
1040
0.125
1001
ACAD_DSTYLE_DIMJAG
1070
   388
1040
1.5
1001
ACAD_DSTYLE_DIMARC_LENGTH_SYMBOL
1070
   379
1070
     1
1001
ACAD_DSTYLE_DIM_LINETYPE
1070
   380
1005
14
1001
ACAD_DSTYLE_DIM_EXT1_LINETYPE
1070
   381
1005
14
1001
ACAD_DSTYLE_DIM_EXT2_LINETYPE
1070
   382
1005
14
  0
DIMSTYLE
105
1D4
330
A
100
AcDbSymbolTableRecord
100
AcDbDimStyleTableRecord
  2
AM_ANSI$SF
 70
     0
  4
mm
 41
0.12
 42
0.05
 43
0.5
 44
0.1
 47
0.1
 48
0.1
 75
     1
 76
     1
 78
     7
 79
     2
140
0.12
141
0.0
146
0.71
147
0.06
176
   256
177
   256
178
     2
274
     4
284
     7
340
11
371
    -1
372
    -1
1001
ACAD_DSTYLE_DIMBREAK
1070
   391
1040
0.125
1001
ACAD_DSTYLE_DIMJAG
1070
   388
1040
1.5
1001
ACAD_DSTYLE_DIMARC_LENGTH_SYMBOL
1070
   379
1070
     1
1001
ACAD_DSTYLE_DIM_LINETYPE
1070
   380
1005
14
1001
ACAD_DSTYLE_DIM_EXT1_LINETYPE
1070
   381
1005
14
1001
ACAD_DSTYLE_DIM_EXT2_LINETYPE
1070
   382
1005
14
  0
DIMSTYLE
105
1D9
330
A
100
AcDbSymbolTableRecord
100
AcDbDimStyleTableRecord
  2
AM_ANSI$SH
 70
     0
  4
mm
 41
0.12
 42
0.05
 43
0.5
 44
0.1
 47
0.1
 48
0.1
 75
     1
 76
     1
 78
     7
 79
     2
140
0.12
141
0.0
146
0.71
147
0.06
173
     1
176
   256
177
   256
178
     2
274
     4
284
     7
340
11
343
1D5
371
    -1
372
    -1
1001
ACAD_DSTYLE_DIMBREAK
1070
   391
1040
0.125
1001
ACAD_DSTYLE_DIMJAG
1070
   388
1040
1.5
1001
ACAD_DSTYLE_DIMARC_LENGTH_SYMBOL
1070
   379
1070
     1
1001
ACAD_DSTYLE_DIM_LINETYPE
1070
   380
1005
14
1001
ACAD_DSTYLE_DIM_EXT1_LINETYPE
1070
   381
1005
14
1001
ACAD_DSTYLE_DIM_EXT2_LINETYPE
1070
   382
1005
14
  0
ENDTAB
  0
TABLE
  2
BLOCK_RECORD
  5
1
330
0
100
AcDbSymbolTable
 70
     3
  0
BLOCK_RECORD
  5
1D
102
{ACAD_XDICTIONARY
360
208
102
}
330
1
100
AcDbSymbolTableRecord
100
AcDbBlockTableRecord
  2
*Model_Space
340
1E
  0
BLOCK_RECORD
  5
1B
330
1
100
AcDbSymbolTableRecord
100
AcDbBlockTableRecord
  2
*Paper_Space
340
1C
  0
BLOCK_RECORD
  5
1D5
330
1
100
AcDbSymbolTableRecord
100
AcDbBlockTableRecord
  2
GENAXEH
340
0
  0
BLOCK_RECORD
  5
1E3
330
1
100
AcDbSymbolTableRecord
100
AcDbBlockTableRecord
  2
_ACMFILLEDHALF
340
0
  0
ENDTAB
  0
ENDSEC
  0
SECTION
  2
BLOCKS
  0
BLOCK
  5
127
330
1D
100
AcDbEntity
  8
0
100
AcDbBlockBegin
  2
*Model_Space
 70
     0
 10
0.0
 20
0.0
 30
0.0
  3
*Model_Space
  1

  0
ENDBLK
  5
128
330
1D
100
AcDbEntity
  8
0
100
AcDbBlockEnd
  0
BLOCK
  5
129
330
1B
100
AcDbEntity
 67
     1
  8
0
100
AcDbBlockBegin
  2
*Paper_Space
 70
     0
 10
0.0
 20
0.0
 30
0.0
  3
*Paper_Space
  1

  0
ENDBLK
  5
12A
330
1B
100
AcDbEntity
 67
     1
  8
0
100
AcDbBlockEnd
  0
BLOCK
  5
1D7
330
1D5
100
AcDbEntity
  8
0
100
AcDbBlockBegin
  2
GENAXEH
 70
     0
 10
0.0
 20
0.0
 30
0.0
  3
GENAXEH
  1

  0
LINE
  5
1D6
330
1D5
100
AcDbEntity
  8
0
100
AcDbLine
 10
-1.0
 20
0.0
 30
0.0
 11
1.0
 21
0.0
 31
0.0
  0
ENDBLK
  5
1D8
330
1D5
100
AcDbEntity
  8
0
100
AcDbBlockEnd
  0
BLOCK
  5
1E4
330
1E3
100
AcDbEntity
  8
0
100
AcDbBlockBegin
  2
_ACMFILLEDHALF
 70
     0
 10
0.0
 20
0.0
 30
0.0
  3
_ACMFILLEDHALF
  1

  0
TRACE
  5
1E6
330
1E3
100
AcDbEntity
  8
0
  6
ByBlock
 62
     0
100
AcDbTrace
 10
-0.8
 20
0.0
 30
0.0
 11
-1.0
 21
0.166666666
 31
0.0
 12
0.0
 22
0.0
 32
0.0
 13
0.0
 23
0.0
 33
0.0
  0
LINE
  5
1E7
330
1E3
100
AcDbEntity
  8
0
  6
ByBlock
 62
     0
100
AcDbLine
 10
-1.0
 20
0.0
 30
0.0
 11
-0.8
 21
0.0
 31
0.0
  0
ENDBLK
  5
1E5
330
1E3
100
AcDbEntity
  8
0
100
AcDbBlockEnd
  0
ENDSEC
  0
SECTION
  2
ENTITIES
  0
LINE
  5
22
330
1D
100
AcDbEntity
  8
0
  6
Continuous
100
AcDbLine
 10
-79.81537000000004
 20
4.250314999999993
 30
0.0
 11
-79.81537000000004
 21
-0.0070450000000053
 31
0.0
  0
LINE
  5
23
330
1D
100
AcDbEntity
  8
0
  6
Continuous
100
AcDbLine
 10
-79.81537000000004
 20
-13.784155
 30
0.0
 11
0.1846399999999733
 21
-13.784155
 31
0.0
  0
LINE
  5
24
330
1D
100
AcDbEntity
  8
0
  6
Continuous
100
AcDbLine
 10
-79.81537000000004
 20
-13.109855
 30
0.0
 11
-79.81537000000004
 21
-13.784155
 31
0.0
  0
LINE
  5
25
330
1D
100
AcDbEntity
  8
0
  6
Continuous
100
AcDbLine
 10
-79.81537000000004
 20
8.090924999999995
 30
0.0
 11
-79.81537000000004
 21
4.250314999999993
 31
0.0
  0
LINE
  5
26
330
1D
100
AcDbEntity
  8
0
  6
Continuous
100
AcDbLine
 10
-79.81537000000004
 20
-11.152955
 30
0.0
 11
-79.81537000000004
 21
-13.109855
 31
0.0
  0
LINE
  5
27
330
1D
100
AcDbEntity
  8
0
  6
Continuous
100
AcDbLine
 10
-79.81537000000004
 20
11.13885499999999
 30
0.0
 11
-79.81537000000004
 21
8.090924999999995
 31
0.0
  0
LINE
  5
28
330
1D
100
AcDbEntity
  8
0
  6
Continuous
100
AcDbLine
 10
-79.81537000000004
 20
13.09574499999999
 30
0.0
 11
-79.81537000000004
 21
11.13885499999999
 31
0.0
  0
LINE
  5
29
330
1D
100
AcDbEntity
  8
0
  6
Continuous
100
AcDbLine
 10
0.1846399999999733
 20
13.77003499999999
 30
0.0
 11
-79.81537000000004
 21
13.77003499999999
 31
0.0
  0
LINE
  5
2A
330
1D
100
AcDbEntity
  8
0
  6
Continuous
100
AcDbLine
 10
-79.81537000000004
 20
13.77003499999999
 30
0.0
 11
-79.81537000000004
 21
13.09574499999999
 31
0.0
  0
LINE
  5
2B
330
1D
100
AcDbEntity
  8
0
  6
Continuous
100
AcDbLine
 10
-79.81537000000004
 20
-8.105025000000004
 30
0.0
 11
-79.81537000000004
 21
-11.152955
 31
0.0
  0
LINE
  5
2C
330
1D
100
AcDbEntity
  8
0
  6
Continuous
100
AcDbLine
 10
-79.81537000000004
 20
-4.264405000000005
 30
0.0
 11
-79.81537000000004
 21
-8.105025000000004
 31
0.0
  0
LINE
  5
2D
330
1D
100
AcDbEntity
  8
0
  6
Continuous
100
AcDbLine
 10
-79.81537000000004
 20
-0.0070450000000053
 30
0.0
 11
-79.81537000000004
 21
-4.264405000000005
 31
0.0
  0
LINE
  5
2E
330
1D
100
AcDbEntity
  8
0
  6
Continuous
100
AcDbLine
 10
80.18464999999999
 20
-0.0070450000000053
 30
0.0
 11
80.18464999999999
 21
4.250314999999993
 31
0.0
  0
LINE
  5
2F
330
1D
100
AcDbEntity
  8
0
  6
Continuous
100
AcDbLine
 10
80.18464999999999
 20
-13.784155
 30
0.0
 11
80.18464999999999
 21
-13.109855
 31
0.0
  0
LINE
  5
30
330
1D
100
AcDbEntity
  8
0
  6
Continuous
100
AcDbLine
 10
0.1846399999999733
 20
-13.784155
 30
0.0
 11
80.18464999999999
 21
-13.784155
 31
0.0
  0
LINE
  5
31
330
1D
100
AcDbEntity
  8
0
  6
Continuous
100
AcDbLine
 10
80.18464999999999
 20
4.250314999999993
 30
0.0
 11
80.18464999999999
 21
8.090924999999995
 31
0.0
  0
LINE
  5
32
330
1D
100
AcDbEntity
  8
0
  6
Continuous
100
AcDbLine
 10
80.18464999999999
 20
-13.109855
 30
0.0
 11
80.18464999999999
 21
-11.152955
 31
0.0
  0
LINE
  5
33
330
1D
100
AcDbEntity
  8
0
  6
Continuous
100
AcDbLine
 10
80.18464999999999
 20
8.090924999999995
 30
0.0
 11
80.18464999999999
 21
11.13885499999999
 31
0.0
  0
LINE
  5
34
330
1D
100
AcDbEntity
  8
0
  6
Continuous
100
AcDbLine
 10
80.18464999999999
 20
11.13885499999999
 30
0.0
 11
80.18464999999999
 21
13.09574499999999
 31
0.0
  0
LINE
  5
35
330
1D
100
AcDbEntity
  8
0
  6
Continuous
100
AcDbLine
 10
80.18464999999999
 20
13.09574499999999
 30
0.0
 11
80.18464999999999
 21
13.77003499999999
 31
0.0
  0
LINE
  5
36
330
1D
100
AcDbEntity
  8
0
  6
Continuous
100
AcDbLine
 10
80.18464999999999
 20
13.77003499999999
 30
0.0
 11
0.1846399999999733
 21
13.77003499999999
 31
0.0
  0
LINE
  5
37
330
1D
100
AcDbEntity
  8
0
  6
Continuous
100
AcDbLine
 10
80.18464999999999
 20
-11.152955
 30
0.0
 11
80.18464999999999
 21
-8.105025000000004
 31
0.0
  0
LINE
  5
38
330
1D
100
AcDbEntity
  8
0
  6
Continuous
100
AcDbLine
 10
80.18464999999999
 20
-8.105025000000004
 30
0.0
 11
80.18464999999999
 21
-4.264405000000005
 31
0.0
  0
LINE
  5
39
330
1D
100
AcDbEntity
  8
0
  6
Continuous
100
AcDbLine
 10
80.18464999999999
 20
-4.264405000000005
 30
0.0
 11
80.18464999999999
 21
-0.0070450000000053
 31
0.0
  0
LINE
  5
3A
330
1D
100
AcDbEntity
  8
0
  6
Continuous
100
AcDbLine
 10
-123.803635
 20
-12.507165
 30
0.0
 11
-121.30323
 21
-17.13232500000001
 31
0.0
  0
LINE
  5
3B
330
1D
100
AcDbEntity
  8
0
  6
Continuous
100
AcDbLine
 10
-121.30323
 20
-17.13232500000001
 30
0.0
 11
-117.44994
 21
-21.77024500000001
 31
0.0
  0
LINE
  5
3C
330
1D
100
AcDbEntity
  8
0
  6
Continuous
100
AcDbLine
 10
-117.44994
 20
-21.77024500000001
 30
0.0
 11
-112.79296
 21
-25.594115
 31
0.0
  0
LINE
  5
3D
330
1D
100
AcDbEntity
  8
0
  6
Continuous
100
AcDbLine
 10
-112.79296
 20
-25.594115
 30
0.0
 11
-107.40589
 21
-28.44831500000001
 31
0.0
  0
LINE
  5
3E
330
1D
100
AcDbEntity
  8
0
  6
Continuous
100
AcDbLine
 10
-107.40589
 20
-28.44831500000001
 30
0.0
 11
-101.63092
 21
-30.13287500000001
 31
0.0
  0
LINE
  5
3F
330
1D
100
AcDbEntity
  8
0
  6
Continuous
100
AcDbLine
 10
-101.63092
 20
-30.13287500000001
 30
0.0
 11
-95.65368000000002
 21
-30.70024500000001
 31
0.0
  0
LINE
  5
40
330
1D
100
AcDbEntity
  8
0
  6
Continuous
100
AcDbLine
 10
-95.65368000000002
 20
-30.70024500000001
 30
0.0
 11
-89.59870000000002
 21
-30.09486500000001
 31
0.0
  0
LINE
  5
41
330
1D
100
AcDbEntity
  8
0
  6
Continuous
100
AcDbLine
 10
-89.59870000000002
 20
-30.09486500000001
 30
0.0
 11
-83.88703000000001
 21
-28.278835
 31
0.0
  0
LINE
  5
42
330
1D
100
AcDbEntity
  8
0
  6
Continuous
100
AcDbLine
 10
-83.88703000000001
 20
-28.278835
 30
0.0
 11
-78.62987000000003
 21
-25.434555
 31
0.0
  0
LINE
  5
43
330
1D
100
AcDbEntity
  8
0
  6
Continuous
100
AcDbLine
 10
-78.62987000000003
 20
-25.434555
 30
0.0
 11
-73.95882000000003
 21
-21.61846500000001
 31
0.0
  0
LINE
  5
44
330
1D
100
AcDbEntity
  8
0
  6
Continuous
100
AcDbLine
 10
-73.95882000000003
 20
-21.61846500000001
 30
0.0
 11
-70.20494000000003
 21
-16.92494500000001
 31
0.0
  0
LINE
  5
45
330
1D
100
AcDbEntity
  8
0
  6
Continuous
100
AcDbLine
 10
-70.20494000000003
 20
-16.92494500000001
 30
0.0
 11
-68.54429300000003
 21
-13.784155
 31
0.0
  0
LINE
  5
46
330
1D
100
AcDbEntity
  8
0
  6
Continuous
100
AcDbLine
 10
-68.51971800000002
 20
13.77003499999999
 30
0.0
 11
-70.26595000000004
 21
17.01540499999999
 31
0.0
  0
LINE
  5
47
330
1D
100
AcDbEntity
  8
0
  6
Continuous
100
AcDbLine
 10
-70.26595000000004
 20
17.01540499999999
 30
0.0
 11
-74.03909000000003
 21
21.61375499999999
 31
0.0
  0
LINE
  5
48
330
1D
100
AcDbEntity
  8
0
  6
Continuous
100
AcDbLine
 10
-74.03909000000003
 20
21.61375499999999
 30
0.0
 11
-78.60666000000003
 21
25.438275
 31
0.0
  0
LINE
  5
49
330
1D
100
AcDbEntity
  8
0
  6
Continuous
100
AcDbLine
 10
-78.60666000000003
 20
25.438275
 30
0.0
 11
-83.95157000000002
 21
28.308135
 31
0.0
  0
LINE
  5
4A
330
1D
100
AcDbEntity
  8
0
  6
Continuous
100
AcDbLine
 10
-83.95157000000002
 20
28.308135
 30
0.0
 11
-89.65853000000002
 21
30.050645
 31
0.0
  0
LINE
  5
4B
330
1D
100
AcDbEntity
  8
0
  6
Continuous
100
AcDbLine
 10
-89.65853000000002
 20
30.050645
 30
0.0
 11
-95.60100000000003
 21
30.70025499999999
 31
0.0
  0
LINE
  5
4C
330
1D
100
AcDbEntity
  8
0
  6
Continuous
100
AcDbLine
 10
-95.60100000000003
 20
30.70025499999999
 30
0.0
 11
-101.65363
 21
30.139815
 31
0.0
  0
LINE
  5
4D
330
1D
100
AcDbEntity
  8
0
  6
Continuous
100
AcDbLine
 10
-101.65363
 20
30.139815
 30
0.0
 11
-107.39149
 21
28.409145
 31
0.0
  0
LINE
  5
4E
330
1D
100
AcDbEntity
  8
0
  6
Continuous
100
AcDbLine
 10
-107.39149
 20
28.409145
 30
0.0
 11
-112.71052
 21
25.629445
 31
0.0
  0
LINE
  5
4F
330
1D
100
AcDbEntity
  8
0
  6
Continuous
100
AcDbLine
 10
-112.71052
 20
25.629445
 30
0.0
 11
-117.45181
 21
21.80623499999999
 31
0.0
  0
LINE
  5
50
330
1D
100
AcDbEntity
  8
0
  6
Continuous
100
AcDbLine
 10
-117.45181
 20
21.80623499999999
 30
0.0
 11
-121.26446
 21
17.14943499999999
 31
0.0
  0
LINE
  5
51
330
1D
100
AcDbEntity
  8
0
  6
Continuous
100
AcDbLine
 10
-121.26446
 20
17.14943499999999
 30
0.0
 11
-123.785787
 21
12.49304499999999
 31
0.0
  0
LINE
  5
52
330
1D
100
AcDbEntity
  8
0
  6
Continuous
100
AcDbLine
 10
-123.138254
 20
-12.507165
 30
0.0
 11
-120.84026
 21
-16.799065
 31
0.0
  0
LINE
  5
53
330
1D
100
AcDbEntity
  8
0
  6
Continuous
100
AcDbLine
 10
-120.84026
 20
-16.799065
 30
0.0
 11
-117.0652
 21
-21.391255
 31
0.0
  0
LINE
  5
54
330
1D
100
AcDbEntity
  8
0
  6
Continuous
100
AcDbLine
 10
-117.0652
 20
-21.391255
 30
0.0
 11
-112.469
 21
-25.16121500000001
 31
0.0
  0
LINE
  5
55
330
1D
100
AcDbEntity
  8
0
  6
Continuous
100
AcDbLine
 10
-112.469
 20
-25.16121500000001
 30
0.0
 11
-107.23094
 21
-27.95704500000001
 31
0.0
  0
LINE
  5
56
330
1D
100
AcDbEntity
  8
0
  6
Continuous
100
AcDbLine
 10
-107.23094
 20
-27.95704500000001
 30
0.0
 11
-101.54089
 21
-29.67512500000001
 31
0.0
  0
LINE
  5
57
330
1D
100
AcDbEntity
  8
0
  6
Continuous
100
AcDbLine
 10
-101.54089
 20
-29.67512500000001
 30
0.0
 11
-95.62664000000003
 21
-30.25416500000001
 31
0.0
  0
LINE
  5
58
330
1D
100
AcDbEntity
  8
0
  6
Continuous
100
AcDbLine
 10
-95.62664000000003
 20
-30.25416500000001
 30
0.0
 11
-89.71880000000004
 21
-29.67136500000001
 31
0.0
  0
LINE
  5
59
330
1D
100
AcDbEntity
  8
0
  6
Continuous
100
AcDbLine
 10
-89.71880000000004
 20
-29.67136500000001
 30
0.0
 11
-84.02638000000004
 21
-27.962685
 31
0.0
  0
LINE
  5
5A
330
1D
100
AcDbEntity
  8
0
  6
Continuous
100
AcDbLine
 10
-84.02638000000004
 20
-27.962685
 30
0.0
 11
-78.79378000000002
 21
-25.145005
 31
0.0
  0
LINE
  5
5B
330
1D
100
AcDbEntity
  8
0
  6
Continuous
100
AcDbLine
 10
-78.79378000000002
 20
-25.145005
 30
0.0
 11
-74.19730000000003
 21
-21.38033500000001
 31
0.0
  0
LINE
  5
5C
330
1D
100
AcDbEntity
  8
0
  6
Continuous
100
AcDbLine
 10
-74.19730000000003
 20
-21.38033500000001
 30
0.0
 11
-70.46570000000002
 21
-16.76874500000001
 31
0.0
  0
LINE
  5
5D
330
1D
100
AcDbEntity
  8
0
  6
Continuous
100
AcDbLine
 10
-70.46570000000002
 20
-16.76874500000001
 30
0.0
 11
-68.87983600000001
 21
-13.784155
 31
0.0
  0
LINE
  5
5E
330
1D
100
AcDbEntity
  8
0
  6
Continuous
100
AcDbLine
 10
-68.84325500000002
 20
13.77003499999999
 30
0.0
 11
-70.48691000000001
 21
16.83285499999999
 31
0.0
  0
LINE
  5
5F
330
1D
100
AcDbEntity
  8
0
  6
Continuous
100
AcDbLine
 10
-70.48691000000001
 20
16.83285499999999
 30
0.0
 11
-74.24481000000003
 21
21.41520499999999
 31
0.0
  0
LINE
  5
60
330
1D
100
AcDbEntity
  8
0
  6
Continuous
100
AcDbLine
 10
-74.24481000000003
 20
21.41520499999999
 30
0.0
 11
-78.81121000000003
 21
25.200385
 31
0.0
  0
LINE
  5
61
330
1D
100
AcDbEntity
  8
0
  6
Continuous
100
AcDbLine
 10
-78.81121000000003
 20
25.200385
 30
0.0
 11
-84.04063000000002
 21
28.002485
 31
0.0
  0
LINE
  5
62
330
1D
100
AcDbEntity
  8
0
  6
Continuous
100
AcDbLine
 10
-84.04063000000002
 20
28.002485
 30
0.0
 11
-89.71951000000002
 21
29.73458499999999
 31
0.0
  0
LINE
  5
63
330
1D
100
AcDbEntity
  8
0
  6
Continuous
100
AcDbLine
 10
-89.71951000000002
 20
29.73458499999999
 30
0.0
 11
-95.63072000000003
 21
30.350385
 31
0.0
  0
LINE
  5
64
330
1D
100
AcDbEntity
  8
0
  6
Continuous
100
AcDbLine
 10
-95.63072000000003
 20
30.350385
 30
0.0
 11
-101.54388
 21
29.78833499999999
 31
0.0
  0
LINE
  5
65
330
1D
100
AcDbEntity
  8
0
  6
Continuous
100
AcDbLine
 10
-101.54388
 20
29.78833499999999
 30
0.0
 11
-107.24234
 21
28.070145
 31
0.0
  0
LINE
  5
66
330
1D
100
AcDbEntity
  8
0
  6
Continuous
100
AcDbLine
 10
-107.24234
 20
28.070145
 30
0.0
 11
-112.467
 21
25.228475
 31
0.0
  0
LINE
  5
67
330
1D
100
AcDbEntity
  8
0
  6
Continuous
100
AcDbLine
 10
-112.467
 20
25.228475
 30
0.0
 11
-117.06058
 21
21.46812499999999
 31
0.0
  0
LINE
  5
68
330
1D
100
AcDbEntity
  8
0
  6
Continuous
100
AcDbLine
 10
-117.06058
 20
21.46812499999999
 30
0.0
 11
-120.83199
 21
16.874795
 31
0.0
  0
LINE
  5
69
330
1D
100
AcDbEntity
  8
0
  6
Continuous
100
AcDbLine
 10
-120.83199
 20
16.874795
 30
0.0
 11
-123.178516
 21
12.49304499999999
 31
0.0
  0
LINE
  5
6A
330
1D
100
AcDbEntity
  8
0
  6
Continuous
100
AcDbLine
 10
121.6724899999999
 20
-17.13232500000001
 30
0.0
 11
124.172895
 21
-12.507165
 31
0.0
  0
LINE
  5
6B
330
1D
100
AcDbEntity
  8
0
  6
Continuous
100
AcDbLine
 10
117.8192
 20
-21.77024500000001
 30
0.0
 11
121.6724899999999
 21
-17.13232500000001
 31
0.0
  0
LINE
  5
6C
330
1D
100
AcDbEntity
  8
0
  6
Continuous
100
AcDbLine
 10
113.16222
 20
-25.594115
 30
0.0
 11
117.8192
 21
-21.77024500000001
 31
0.0
  0
LINE
  5
6D
330
1D
100
AcDbEntity
  8
0
  6
Continuous
100
AcDbLine
 10
107.7751499999999
 20
-28.44831500000001
 30
0.0
 11
113.16222
 21
-25.594115
 31
0.0
  0
LINE
  5
6E
330
1D
100
AcDbEntity
  8
0
  6
Continuous
100
AcDbLine
 10
102.0001799999999
 20
-30.13287500000001
 30
0.0
 11
107.7751499999999
 21
-28.44831500000001
 31
0.0
  0
LINE
  5
6F
330
1D
100
AcDbEntity
  8
0
  6
Continuous
100
AcDbLine
 10
96.02293999999998
 20
-30.70024500000001
 30
0.0
 11
102.0001799999999
 21
-30.13287500000001
 31
0.0
  0
LINE
  5
70
330
1D
100
AcDbEntity
  8
0
  6
Continuous
100
AcDbLine
 10
89.96795999999994
 20
-30.09486500000001
 30
0.0
 11
96.02293999999998
 21
-30.70024500000001
 31
0.0
  0
LINE
  5
71
330
1D
100
AcDbEntity
  8
0
  6
Continuous
100
AcDbLine
 10
84.25628999999998
 20
-28.278835
 30
0.0
 11
89.96795999999994
 21
-30.09486500000001
 31
0.0
  0
LINE
  5
72
330
1D
100
AcDbEntity
  8
0
  6
Continuous
100
AcDbLine
 10
78.99912999999997
 20
-25.434555
 30
0.0
 11
84.25628999999998
 21
-28.278835
 31
0.0
  0
LINE
  5
73
330
1D
100
AcDbEntity
  8
0
  6
Continuous
100
AcDbLine
 10
74.32807999999996
 20
-21.61846500000001
 30
0.0
 11
78.99912999999997
 21
-25.434555
 31
0.0
  0
LINE
  5
74
330
1D
100
AcDbEntity
  8
0
  6
Continuous
100
AcDbLine
 10
70.57419999999997
 20
-16.92494500000001
 30
0.0
 11
74.32807999999996
 21
-21.61846500000001
 31
0.0
  0
LINE
  5
75
330
1D
100
AcDbEntity
  8
0
  6
Continuous
100
AcDbLine
 10
68.91355299999998
 20
-13.784155
 30
0.0
 11
70.57419999999997
 21
-16.92494500000001
 31
0.0
  0
LINE
  5
76
330
1D
100
AcDbEntity
  8
0
  6
Continuous
100
AcDbLine
 10
70.63520999999996
 20
17.01540499999999
 30
0.0
 11
68.88897799999998
 21
13.77003499999999
 31
0.0
  0
LINE
  5
77
330
1D
100
AcDbEntity
  8
0
  6
Continuous
100
AcDbLine
 10
74.40834999999997
 20
21.61375499999999
 30
0.0
 11
70.63520999999996
 21
17.01540499999999
 31
0.0
  0
LINE
  5
78
330
1D
100
AcDbEntity
  8
0
  6
Continuous
100
AcDbLine
 10
78.97591999999997
 20
25.438275
 30
0.0
 11
74.40834999999997
 21
21.61375499999999
 31
0.0
  0
LINE
  5
79
330
1D
100
AcDbEntity
  8
0
  6
Continuous
100
AcDbLine
 10
84.32082999999996
 20
28.308135
 30
0.0
 11
78.97591999999997
 21
25.438275
 31
0.0
  0
LINE
  5
7A
330
1D
100
AcDbEntity
  8
0
  6
Continuous
100
AcDbLine
 10
90.02778999999996
 20
30.050645
 30
0.0
 11
84.32082999999996
 21
28.308135
 31
0.0
  0
LINE
  5
7B
330
1D
100
AcDbEntity
  8
0
  6
Continuous
100
AcDbLine
 10
95.97025999999997
 20
30.70025499999999
 30
0.0
 11
90.02778999999996
 21
30.050645
 31
0.0
  0
LINE
  5
7C
330
1D
100
AcDbEntity
  8
0
  6
Continuous
100
AcDbLine
 10
102.0228899999999
 20
30.139815
 30
0.0
 11
95.97025999999997
 21
30.70025499999999
 31
0.0
  0
LINE
  5
7D
330
1D
100
AcDbEntity
  8
0
  6
Continuous
100
AcDbLine
 10
107.76075
 20
28.409145
 30
0.0
 11
102.0228899999999
 21
30.139815
 31
0.0
  0
LINE
  5
7E
330
1D
100
AcDbEntity
  8
0
  6
Continuous
100
AcDbLine
 10
113.0797799999999
 20
25.629445
 30
0.0
 11
107.76075
 21
28.409145
 31
0.0
  0
LINE
  5
7F
330
1D
100
AcDbEntity
  8
0
  6
Continuous
100
AcDbLine
 10
117.8210699999999
 20
21.80623499999999
 30
0.0
 11
113.0797799999999
 21
25.629445
 31
0.0
  0
LINE
  5
80
330
1D
100
AcDbEntity
  8
0
  6
Continuous
100
AcDbLine
 10
121.63372
 20
17.14943499999999
 30
0.0
 11
117.8210699999999
 21
21.80623499999999
 31
0.0
  0
LINE
  5
81
330
1D
100
AcDbEntity
  8
0
  6
Continuous
100
AcDbLine
 10
124.1550469999999
 20
12.49304499999999
 30
0.0
 11
121.63372
 21
17.14943499999999
 31
0.0
  0
LINE
  5
82
330
1D
100
AcDbEntity
  8
0
  6
Continuous
100
AcDbLine
 10
121.20952
 20
-16.799065
 30
0.0
 11
123.5075139999999
 21
-12.507165
 31
0.0
  0
LINE
  5
83
330
1D
100
AcDbEntity
  8
0
  6
Continuous
100
AcDbLine
 10
117.4344599999999
 20
-21.391255
 30
0.0
 11
121.20952
 21
-16.799065
 31
0.0
  0
LINE
  5
84
330
1D
100
AcDbEntity
  8
0
  6
Continuous
100
AcDbLine
 10
112.8382599999999
 20
-25.16121500000001
 30
0.0
 11
117.4344599999999
 21
-21.391255
 31
0.0
  0
LINE
  5
85
330
1D
100
AcDbEntity
  8
0
  6
Continuous
100
AcDbLine
 10
107.6002
 20
-27.95704500000001
 30
0.0
 11
112.8382599999999
 21
-25.16121500000001
 31
0.0
  0
LINE
  5
86
330
1D
100
AcDbEntity
  8
0
  6
Continuous
100
AcDbLine
 10
101.9101499999999
 20
-29.67512500000001
 30
0.0
 11
107.6002
 21
-27.95704500000001
 31
0.0
  0
LINE
  5
87
330
1D
100
AcDbEntity
  8
0
  6
Continuous
100
AcDbLine
 10
95.99589999999997
 20
-30.25416500000001
 30
0.0
 11
101.9101499999999
 21
-29.67512500000001
 31
0.0
  0
LINE
  5
88
330
1D
100
AcDbEntity
  8
0
  6
Continuous
100
AcDbLine
 10
90.08805999999998
 20
-29.67136500000001
 30
0.0
 11
95.99589999999997
 21
-30.25416500000001
 31
0.0
  0
LINE
  5
89
330
1D
100
AcDbEntity
  8
0
  6
Continuous
100
AcDbLine
 10
84.39563999999997
 20
-27.962685
 30
0.0
 11
90.08805999999998
 21
-29.67136500000001
 31
0.0
  0
LINE
  5
8A
330
1D
100
AcDbEntity
  8
0
  6
Continuous
100
AcDbLine
 10
79.16303999999995
 20
-25.145005
 30
0.0
 11
84.39563999999997
 21
-27.962685
 31
0.0
  0
LINE
  5
8B
330
1D
100
AcDbEntity
  8
0
  6
Continuous
100
AcDbLine
 10
74.56655999999995
 20
-21.38033500000001
 30
0.0
 11
79.16303999999995
 21
-25.145005
 31
0.0
  0
LINE
  5
8C
330
1D
100
AcDbEntity
  8
0
  6
Continuous
100
AcDbLine
 10
70.83495999999995
 20
-16.76874500000001
 30
0.0
 11
74.56655999999995
 21
-21.38033500000001
 31
0.0
  0
LINE
  5
8D
330
1D
100
AcDbEntity
  8
0
  6
Continuous
100
AcDbLine
 10
69.24909599999998
 20
-13.784155
 30
0.0
 11
70.83495999999995
 21
-16.76874500000001
 31
0.0
  0
LINE
  5
8E
330
1D
100
AcDbEntity
  8
0
  6
Continuous
100
AcDbLine
 10
70.85616999999999
 20
16.83285499999999
 30
0.0
 11
69.21251499999996
 21
13.77003499999999
 31
0.0
  0
LINE
  5
8F
330
1D
100
AcDbEntity
  8
0
  6
Continuous
100
AcDbLine
 10
74.61406999999995
 20
21.41520499999999
 30
0.0
 11
70.85616999999999
 21
16.83285499999999
 31
0.0
  0
LINE
  5
90
330
1D
100
AcDbEntity
  8
0
  6
Continuous
100
AcDbLine
 10
79.18046999999996
 20
25.200385
 30
0.0
 11
74.61406999999995
 21
21.41520499999999
 31
0.0
  0
LINE
  5
91
330
1D
100
AcDbEntity
  8
0
  6
Continuous
100
AcDbLine
 10
84.40988999999998
 20
28.002485
 30
0.0
 11
79.18046999999996
 21
25.200385
 31
0.0
  0
LINE
  5
92
330
1D
100
AcDbEntity
  8
0
  6
Continuous
100
AcDbLine
 10
90.08876999999998
 20
29.73458499999999
 30
0.0
 11
84.40988999999998
 21
28.002485
 31
0.0
  0
LINE
  5
93
330
1D
100
AcDbEntity
  8
0
  6
Continuous
100
AcDbLine
 10
95.99997999999997
 20
30.350385
 30
0.0
 11
90.08876999999998
 21
29.73458499999999
 31
0.0
  0
LINE
  5
94
330
1D
100
AcDbEntity
  8
0
  6
Continuous
100
AcDbLine
 10
101.91314
 20
29.78833499999999
 30
0.0
 11
95.99997999999997
 21
30.350385
 31
0.0
  0
LINE
  5
95
330
1D
100
AcDbEntity
  8
0
  6
Continuous
100
AcDbLine
 10
107.6116
 20
28.070145
 30
0.0
 11
101.91314
 21
29.78833499999999
 31
0.0
  0
LINE
  5
96
330
1D
100
AcDbEntity
  8
0
  6
Continuous
100
AcDbLine
 10
112.8362599999999
 20
25.228475
 30
0.0
 11
107.6116
 21
28.070145
 31
0.0
  0
LINE
  5
97
330
1D
100
AcDbEntity
  8
0
  6
Continuous
100
AcDbLine
 10
117.4298399999999
 20
21.46812499999999
 30
0.0
 11
112.8362599999999
 21
25.228475
 31
0.0
  0
LINE
  5
98
330
1D
100
AcDbEntity
  8
0
  6
Continuous
100
AcDbLine
 10
121.20125
 20
16.874795
 30
0.0
 11
117.4298399999999
 21
21.46812499999999
 31
0.0
  0
LINE
  5
99
330
1D
100
AcDbEntity
  8
0
  6
Continuous
100
AcDbLine
 10
123.547776
 20
12.49304499999999
 30
0.0
 11
121.20125
 21
16.874795
 31
0.0
  0
LINE
  5
9A
330
1D
100
AcDbEntity
  8
0
  6
Continuous
100
AcDbLine
 10
-139.57585
 20
11.88125499999999
 30
0.0
 11
-139.57585
 21
10.10575499999999
 31
0.0
  0
LINE
  5
9B
330
1D
100
AcDbEntity
  8
0
  6
Continuous
100
AcDbLine
 10
-139.57585
 20
-7.354435000000004
 30
0.0
 11
-139.57585
 21
-10.119855
 31
0.0
  0
LINE
  5
9C
330
1D
100
AcDbEntity
  8
0
  6
Continuous
100
AcDbLine
 10
-139.57585
 20
-10.119855
 30
0.0
 11
-139.57585
 21
-11.895365
 31
0.0
  0
LINE
  5
9D
330
1D
100
AcDbEntity
  8
0
  6
Continuous
100
AcDbLine
 10
-139.57585
 20
10.10575499999999
 30
0.0
 11
-139.57585
 21
7.340334999999993
 31
0.0
  0
LINE
  5
9E
330
1D
100
AcDbEntity
  8
0
  6
Continuous
100
AcDbLine
 10
-139.57585
 20
-12.507165
 30
0.0
 11
-79.81537000000004
 21
-12.507165
 31
0.0
  0
LINE
  5
9F
330
1D
100
AcDbEntity
  8
0
  6
Continuous
100
AcDbLine
 10
-139.57585
 20
-11.895365
 30
0.0
 11
-139.57585
 21
-12.507165
 31
0.0
  0
LINE
  5
A0
330
1D
100
AcDbEntity
  8
0
  6
Continuous
100
AcDbLine
 10
-139.57585
 20
7.340334999999993
 30
0.0
 11
-139.57585
 21
3.855704999999995
 31
0.0
  0
LINE
  5
A1
330
1D
100
AcDbEntity
  8
0
  6
Continuous
100
AcDbLine
 10
-139.57585
 20
3.855704999999995
 30
0.0
 11
-139.57585
 21
-0.0070450000000053
 31
0.0
  0
LINE
  5
A2
330
1D
100
AcDbEntity
  8
0
  6
Continuous
100
AcDbLine
 10
-139.57585
 20
-0.0070450000000053
 30
0.0
 11
-139.57585
 21
-3.869795000000004
 31
0.0
  0
LINE
  5
A3
330
1D
100
AcDbEntity
  8
0
  6
Continuous
100
AcDbLine
 10
-79.81537000000004
 20
12.49304499999999
 30
0.0
 11
-139.57585
 21
12.49304499999999
 31
0.0
  0
LINE
  5
A4
330
1D
100
AcDbEntity
  8
0
  6
Continuous
100
AcDbLine
 10
-139.57585
 20
12.49304499999999
 30
0.0
 11
-139.57585
 21
11.88125499999999
 31
0.0
  0
LINE
  5
A5
330
1D
100
AcDbEntity
  8
0
  6
Continuous
100
AcDbLine
 10
-139.57585
 20
-3.869795000000004
 30
0.0
 11
-139.57585
 21
-7.354435000000004
 31
0.0
  0
LINE
  5
A6
330
1D
100
AcDbEntity
  8
0
  6
Continuous
100
AcDbLine
 10
-140.05489
 20
10.10575499999999
 30
0.0
 11
-140.05489
 21
11.88125499999999
 31
0.0
  0
LINE
  5
A7
330
1D
100
AcDbEntity
  8
0
  6
Continuous
100
AcDbLine
 10
-140.05489
 20
11.88125499999999
 30
0.0
 11
-140.05489
 21
12.49304499999999
 31
0.0
  0
LINE
  5
A8
330
1D
100
AcDbEntity
  8
0
  6
Continuous
100
AcDbLine
 10
-140.05489
 20
12.49304499999999
 30
0.0
 11
-141.06926
 21
12.49304499999999
 31
0.0
  0
LINE
  5
A9
330
1D
100
AcDbEntity
  8
0
  6
Continuous
100
AcDbLine
 10
-140.05489
 20
-10.119855
 30
0.0
 11
-140.05489
 21
-7.354435000000004
 31
0.0
  0
LINE
  5
AA
330
1D
100
AcDbEntity
  8
0
  6
Continuous
100
AcDbLine
 10
-140.05489
 20
-11.895365
 30
0.0
 11
-140.05489
 21
-10.119855
 31
0.0
  0
LINE
  5
AB
330
1D
100
AcDbEntity
  8
0
  6
Continuous
100
AcDbLine
 10
-140.05489
 20
7.340334999999993
 30
0.0
 11
-140.05489
 21
10.10575499999999
 31
0.0
  0
LINE
  5
AC
330
1D
100
AcDbEntity
  8
0
  6
Continuous
100
AcDbLine
 10
-140.05489
 20
-12.507165
 30
0.0
 11
-140.05489
 21
-11.895365
 31
0.0
  0
LINE
  5
AD
330
1D
100
AcDbEntity
  8
0
  6
Continuous
100
AcDbLine
 10
-141.06926
 20
-12.507165
 30
0.0
 11
-140.05489
 21
-12.507165
 31
0.0
  0
LINE
  5
AE
330
1D
100
AcDbEntity
  8
0
  6
Continuous
100
AcDbLine
 10
-140.05489
 20
3.855704999999995
 30
0.0
 11
-140.05489
 21
7.340334999999993
 31
0.0
  0
LINE
  5
AF
330
1D
100
AcDbEntity
  8
0
  6
Continuous
100
AcDbLine
 10
-140.05489
 20
-0.0070450000000053
 30
0.0
 11
-140.05489
 21
3.855704999999995
 31
0.0
  0
LINE
  5
B0
330
1D
100
AcDbEntity
  8
0
  6
Continuous
100
AcDbLine
 10
-140.05489
 20
-3.869795000000004
 30
0.0
 11
-140.05489
 21
-0.0070450000000053
 31
0.0
  0
LINE
  5
B1
330
1D
100
AcDbEntity
  8
0
  6
Continuous
100
AcDbLine
 10
-140.05489
 20
-7.354435000000004
 30
0.0
 11
-140.05489
 21
-3.869795000000004
 31
0.0
  0
LINE
  5
B2
330
1D
100
AcDbEntity
  8
0
  6
Continuous
100
AcDbLine
 10
-141.94836
 20
-12.507165
 30
0.0
 11
-141.06926
 21
-12.507165
 31
0.0
  0
LINE
  5
B3
330
1D
100
AcDbEntity
  8
0
  6
Continuous
100
AcDbLine
 10
-141.94836
 20
-11.895365
 30
0.0
 11
-141.94836
 21
-12.507165
 31
0.0
  0
LINE
  5
B4
330
1D
100
AcDbEntity
  8
0
  6
Continuous
100
AcDbLine
 10
-141.94836
 20
-10.119855
 30
0.0
 11
-141.94836
 21
-11.895365
 31
0.0
  0
LINE
  5
B5
330
1D
100
AcDbEntity
  8
0
  6
Continuous
100
AcDbLine
 10
-141.94836
 20
-7.354435000000004
 30
0.0
 11
-141.94836
 21
-10.119855
 31
0.0
  0
LINE
  5
B6
330
1D
100
AcDbEntity
  8
0
  6
Continuous
100
AcDbLine
 10
-141.94836
 20
-3.869795000000004
 30
0.0
 11
-141.94836
 21
-7.354435000000004
 31
0.0
  0
LINE
  5
B7
330
1D
100
AcDbEntity
  8
0
  6
Continuous
100
AcDbLine
 10
-141.94836
 20
-0.0070450000000053
 30
0.0
 11
-141.94836
 21
-3.869795000000004
 31
0.0
  0
LINE
  5
B8
330
1D
100
AcDbEntity
  8
0
  6
Continuous
100
AcDbLine
 10
-141.94836
 20
3.855704999999995
 30
0.0
 11
-141.94836
 21
-0.0070450000000053
 31
0.0
  0
LINE
  5
B9
330
1D
100
AcDbEntity
  8
0
  6
Continuous
100
AcDbLine
 10
-141.94836
 20
7.340334999999993
 30
0.0
 11
-141.94836
 21
3.855704999999995
 31
0.0
  0
LINE
  5
BA
330
1D
100
AcDbEntity
  8
0
  6
Continuous
100
AcDbLine
 10
-141.94836
 20
10.10575499999999
 30
0.0
 11
-141.94836
 21
7.340334999999993
 31
0.0
  0
LINE
  5
BB
330
1D
100
AcDbEntity
  8
0
  6
Continuous
100
AcDbLine
 10
-141.94836
 20
11.88125499999999
 30
0.0
 11
-141.94836
 21
10.10575499999999
 31
0.0
  0
LINE
  5
BC
330
1D
100
AcDbEntity
  8
0
  6
Continuous
100
AcDbLine
 10
-141.06926
 20
12.49304499999999
 30
0.0
 11
-141.94836
 21
12.49304499999999
 31
0.0
  0
LINE
  5
BD
330
1D
100
AcDbEntity
  8
0
  6
Continuous
100
AcDbLine
 10
-141.94836
 20
12.49304499999999
 30
0.0
 11
-141.94836
 21
11.88125499999999
 31
0.0
  0
LINE
  5
BE
330
1D
100
AcDbEntity
  8
0
  6
Continuous
100
AcDbLine
 10
-140.05489
 20
-12.507165
 30
0.0
 11
-139.81537
 21
-12.401275
 31
0.0
  0
LINE
  5
BF
330
1D
100
AcDbEntity
  8
0
  6
Continuous
100
AcDbLine
 10
-140.05489
 20
-11.895365
 30
0.0
 11
-140.05489
 21
-12.507165
 31
0.0
  0
LINE
  5
C0
330
1D
100
AcDbEntity
  8
0
  6
Continuous
100
AcDbLine
 10
-139.57585
 20
-12.507165
 30
0.0
 11
-139.57585
 21
-11.895365
 31
0.0
  0
LINE
  5
C1
330
1D
100
AcDbEntity
  8
0
  6
Continuous
100
AcDbLine
 10
-139.81537
 20
-12.401275
 30
0.0
 11
-139.57585
 21
-12.507165
 31
0.0
  0
LINE
  5
C2
330
1D
100
AcDbEntity
  8
0
  6
Continuous
100
AcDbLine
 10
-139.81537
 20
-11.794655
 30
0.0
 11
-139.81537
 21
-12.401275
 31
0.0
  0
LINE
  5
C3
330
1D
100
AcDbEntity
  8
0
  6
Continuous
100
AcDbLine
 10
-140.05489
 20
-10.119855
 30
0.0
 11
-140.05489
 21
-11.895365
 31
0.0
  0
LINE
  5
C4
330
1D
100
AcDbEntity
  8
0
  6
Continuous
100
AcDbLine
 10
-139.57585
 20
-11.895365
 30
0.0
 11
-139.57585
 21
-10.119855
 31
0.0
  0
LINE
  5
C5
330
1D
100
AcDbEntity
  8
0
  6
Continuous
100
AcDbLine
 10
-139.81537
 20
-10.034185
 30
0.0
 11
-139.81537
 21
-11.794655
 31
0.0
  0
LINE
  5
C6
330
1D
100
AcDbEntity
  8
0
  6
Continuous
100
AcDbLine
 10
-140.05489
 20
-7.354435000000004
 30
0.0
 11
-140.05489
 21
-10.119855
 31
0.0
  0
LINE
  5
C7
330
1D
100
AcDbEntity
  8
0
  6
Continuous
100
AcDbLine
 10
-139.57585
 20
-10.119855
 30
0.0
 11
-139.57585
 21
-7.354435000000004
 31
0.0
  0
LINE
  5
C8
330
1D
100
AcDbEntity
  8
0
  6
Continuous
100
AcDbLine
 10
-139.81537
 20
-7.292185000000004
 30
0.0
 11
-139.81537
 21
-10.034185
 31
0.0
  0
LINE
  5
C9
330
1D
100
AcDbEntity
  8
0
  6
Continuous
100
AcDbLine
 10
-140.05489
 20
-3.869795000000004
 30
0.0
 11
-140.05489
 21
-7.354435000000004
 31
0.0
  0
LINE
  5
CA
330
1D
100
AcDbEntity
  8
0
  6
Continuous
100
AcDbLine
 10
-139.57585
 20
-7.354435000000004
 30
0.0
 11
-139.57585
 21
-3.869795000000004
 31
0.0
  0
LINE
  5
CB
330
1D
100
AcDbEntity
  8
0
  6
Continuous
100
AcDbLine
 10
-139.81537
 20
-3.837075000000005
 30
0.0
 11
-139.81537
 21
-7.292185000000004
 31
0.0
  0
LINE
  5
CC
330
1D
100
AcDbEntity
  8
0
  6
Continuous
100
AcDbLine
 10
-140.05489
 20
-0.0070450000000053
 30
0.0
 11
-140.05489
 21
-3.869795000000004
 31
0.0
  0
LINE
  5
CD
330
1D
100
AcDbEntity
  8
0
  6
Continuous
100
AcDbLine
 10
-139.57585
 20
-3.869795000000004
 30
0.0
 11
-139.57585
 21
-0.0070450000000053
 31
0.0
  0
LINE
  5
CE
330
1D
100
AcDbEntity
  8
0
  6
Continuous
100
AcDbLine
 10
-139.81537
 20
-0.0070450000000053
 30
0.0
 11
-139.81537
 21
-3.837075000000005
 31
0.0
  0
LINE
  5
CF
330
1D
100
AcDbEntity
  8
0
  6
Continuous
100
AcDbLine
 10
-140.05489
 20
3.855704999999995
 30
0.0
 11
-140.05489
 21
-0.0070450000000053
 31
0.0
  0
LINE
  5
D0
330
1D
100
AcDbEntity
  8
0
  6
Continuous
100
AcDbLine
 10
-139.57585
 20
-0.0070450000000053
 30
0.0
 11
-139.57585
 21
3.855704999999995
 31
0.0
  0
LINE
  5
D1
330
1D
100
AcDbEntity
  8
0
  6
Continuous
100
AcDbLine
 10
-139.81537
 20
3.822974999999993
 30
0.0
 11
-139.81537
 21
-0.0070450000000053
 31
0.0
  0
LINE
  5
D2
330
1D
100
AcDbEntity
  8
0
  6
Continuous
100
AcDbLine
 10
-140.05489
 20
7.340334999999993
 30
0.0
 11
-140.05489
 21
3.855704999999995
 31
0.0
  0
LINE
  5
D3
330
1D
100
AcDbEntity
  8
0
  6
Continuous
100
AcDbLine
 10
-139.57585
 20
3.855704999999995
 30
0.0
 11
-139.57585
 21
7.340334999999993
 31
0.0
  0
LINE
  5
D4
330
1D
100
AcDbEntity
  8
0
  6
Continuous
100
AcDbLine
 10
-139.81537
 20
7.278094999999994
 30
0.0
 11
-139.81537
 21
3.822974999999993
 31
0.0
  0
LINE
  5
D5
330
1D
100
AcDbEntity
  8
0
  6
Continuous
100
AcDbLine
 10
-140.05489
 20
10.10575499999999
 30
0.0
 11
-140.05489
 21
7.340334999999993
 31
0.0
  0
LINE
  5
D6
330
1D
100
AcDbEntity
  8
0
  6
Continuous
100
AcDbLine
 10
-139.57585
 20
7.340334999999993
 30
0.0
 11
-139.57585
 21
10.10575499999999
 31
0.0
  0
LINE
  5
D7
330
1D
100
AcDbEntity
  8
0
  6
Continuous
100
AcDbLine
 10
-139.81537
 20
10.02008499999999
 30
0.0
 11
-139.81537
 21
7.278094999999994
 31
0.0
  0
LINE
  5
D8
330
1D
100
AcDbEntity
  8
0
  6
Continuous
100
AcDbLine
 10
-140.05489
 20
11.88125499999999
 30
0.0
 11
-140.05489
 21
10.10575499999999
 31
0.0
  0
LINE
  5
D9
330
1D
100
AcDbEntity
  8
0
  6
Continuous
100
AcDbLine
 10
-139.57585
 20
10.10575499999999
 30
0.0
 11
-139.57585
 21
11.88125499999999
 31
0.0
  0
LINE
  5
DA
330
1D
100
AcDbEntity
  8
0
  6
Continuous
100
AcDbLine
 10
-139.81537
 20
11.78054499999999
 30
0.0
 11
-139.81537
 21
10.02008499999999
 31
0.0
  0
LINE
  5
DB
330
1D
100
AcDbEntity
  8
0
  6
Continuous
100
AcDbLine
 10
-139.81537
 20
12.38715499999999
 30
0.0
 11
-140.05489
 21
12.49304499999999
 31
0.0
  0
LINE
  5
DC
330
1D
100
AcDbEntity
  8
0
  6
Continuous
100
AcDbLine
 10
-140.05489
 20
12.49304499999999
 30
0.0
 11
-140.05489
 21
11.88125499999999
 31
0.0
  0
LINE
  5
DD
330
1D
100
AcDbEntity
  8
0
  6
Continuous
100
AcDbLine
 10
-139.57585
 20
12.49304499999999
 30
0.0
 11
-139.81537
 21
12.38715499999999
 31
0.0
  0
LINE
  5
DE
330
1D
100
AcDbEntity
  8
0
  6
Continuous
100
AcDbLine
 10
-139.57585
 20
11.88125499999999
 30
0.0
 11
-139.57585
 21
12.49304499999999
 31
0.0
  0
LINE
  5
DF
330
1D
100
AcDbEntity
  8
0
  6
Continuous
100
AcDbLine
 10
-139.81537
 20
12.38715499999999
 30
0.0
 11
-139.81537
 21
11.78054499999999
 31
0.0
  0
LINE
  5
E0
330
1D
100
AcDbEntity
  8
0
  6
Continuous
100
AcDbLine
 10
139.9451299999999
 20
10.10575499999999
 30
0.0
 11
139.9451299999999
 21
11.88125499999999
 31
0.0
  0
LINE
  5
E1
330
1D
100
AcDbEntity
  8
0
  6
Continuous
100
AcDbLine
 10
139.9451299999999
 20
-10.119855
 30
0.0
 11
139.9451299999999
 21
-7.354435000000004
 31
0.0
  0
LINE
  5
E2
330
1D
100
AcDbEntity
  8
0
  6
Continuous
100
AcDbLine
 10
139.9451299999999
 20
-11.895365
 30
0.0
 11
139.9451299999999
 21
-10.119855
 31
0.0
  0
LINE
  5
E3
330
1D
100
AcDbEntity
  8
0
  6
Continuous
100
AcDbLine
 10
139.9451299999999
 20
7.340334999999993
 30
0.0
 11
139.9451299999999
 21
10.10575499999999
 31
0.0
  0
LINE
  5
E4
330
1D
100
AcDbEntity
  8
0
  6
Continuous
100
AcDbLine
 10
139.9451299999999
 20
-12.507165
 30
0.0
 11
139.9451299999999
 21
-11.895365
 31
0.0
  0
LINE
  5
E5
330
1D
100
AcDbEntity
  8
0
  6
Continuous
100
AcDbLine
 10
80.18464999999999
 20
-12.507165
 30
0.0
 11
139.9451299999999
 21
-12.507165
 31
0.0
  0
LINE
  5
E6
330
1D
100
AcDbEntity
  8
0
  6
Continuous
100
AcDbLine
 10
139.9451299999999
 20
3.855704999999995
 30
0.0
 11
139.9451299999999
 21
7.340334999999993
 31
0.0
  0
LINE
  5
E7
330
1D
100
AcDbEntity
  8
0
  6
Continuous
100
AcDbLine
 10
139.9451299999999
 20
-0.0070450000000053
 30
0.0
 11
139.9451299999999
 21
3.855704999999995
 31
0.0
  0
LINE
  5
E8
330
1D
100
AcDbEntity
  8
0
  6
Continuous
100
AcDbLine
 10
139.9451299999999
 20
-3.869795000000004
 30
0.0
 11
139.9451299999999
 21
-0.0070450000000053
 31
0.0
  0
LINE
  5
E9
330
1D
100
AcDbEntity
  8
0
  6
Continuous
100
AcDbLine
 10
139.9451299999999
 20
11.88125499999999
 30
0.0
 11
139.9451299999999
 21
12.49304499999999
 31
0.0
  0
LINE
  5
EA
330
1D
100
AcDbEntity
  8
0
  6
Continuous
100
AcDbLine
 10
139.9451299999999
 20
12.49304499999999
 30
0.0
 11
80.18464999999999
 21
12.49304499999999
 31
0.0
  0
LINE
  5
EB
330
1D
100
AcDbEntity
  8
0
  6
Continuous
100
AcDbLine
 10
139.9451299999999
 20
-7.354435000000004
 30
0.0
 11
139.9451299999999
 21
-3.869795000000004
 31
0.0
  0
LINE
  5
EC
330
1D
100
AcDbEntity
  8
0
  6
Continuous
100
AcDbLine
 10
140.4241599999999
 20
11.88125499999999
 30
0.0
 11
140.4241599999999
 21
10.10575499999999
 31
0.0
  0
LINE
  5
ED
330
1D
100
AcDbEntity
  8
0
  6
Continuous
100
AcDbLine
 10
141.4385399999999
 20
12.49304499999999
 30
0.0
 11
140.4241599999999
 21
12.49304499999999
 31
0.0
  0
LINE
  5
EE
330
1D
100
AcDbEntity
  8
0
  6
Continuous
100
AcDbLine
 10
140.4241599999999
 20
12.49304499999999
 30
0.0
 11
140.4241599999999
 21
11.88125499999999
 31
0.0
  0
LINE
  5
EF
330
1D
100
AcDbEntity
  8
0
  6
Continuous
100
AcDbLine
 10
140.4241599999999
 20
-7.354435000000004
 30
0.0
 11
140.4241599999999
 21
-10.119855
 31
0.0
  0
LINE
  5
F0
330
1D
100
AcDbEntity
  8
0
  6
Continuous
100
AcDbLine
 10
140.4241599999999
 20
-10.119855
 30
0.0
 11
140.4241599999999
 21
-11.895365
 31
0.0
  0
LINE
  5
F1
330
1D
100
AcDbEntity
  8
0
  6
Continuous
100
AcDbLine
 10
140.4241599999999
 20
10.10575499999999
 30
0.0
 11
140.4241599999999
 21
7.340334999999993
 31
0.0
  0
LINE
  5
F2
330
1D
100
AcDbEntity
  8
0
  6
Continuous
100
AcDbLine
 10
140.4241599999999
 20
-12.507165
 30
0.0
 11
141.4385399999999
 21
-12.507165
 31
0.0
  0
LINE
  5
F3
330
1D
100
AcDbEntity
  8
0
  6
Continuous
100
AcDbLine
 10
140.4241599999999
 20
-11.895365
 30
0.0
 11
140.4241599999999
 21
-12.507165
 31
0.0
  0
LINE
  5
F4
330
1D
100
AcDbEntity
  8
0
  6
Continuous
100
AcDbLine
 10
140.4241599999999
 20
7.340334999999993
 30
0.0
 11
140.4241599999999
 21
3.855704999999995
 31
0.0
  0
LINE
  5
F5
330
1D
100
AcDbEntity
  8
0
  6
Continuous
100
AcDbLine
 10
140.4241599999999
 20
3.855704999999995
 30
0.0
 11
140.4241599999999
 21
-0.0070450000000053
 31
0.0
  0
LINE
  5
F6
330
1D
100
AcDbEntity
  8
0
  6
Continuous
100
AcDbLine
 10
140.4241599999999
 20
-0.0070450000000053
 30
0.0
 11
140.4241599999999
 21
-3.869795000000004
 31
0.0
  0
LINE
  5
F7
330
1D
100
AcDbEntity
  8
0
  6
Continuous
100
AcDbLine
 10
140.4241599999999
 20
-3.869795000000004
 30
0.0
 11
140.4241599999999
 21
-7.354435000000004
 31
0.0
  0
LINE
  5
F8
330
1D
100
AcDbEntity
  8
0
  6
Continuous
100
AcDbLine
 10
142.3176399999999
 20
-12.507165
 30
0.0
 11
142.3176399999999
 21
-11.895365
 31
0.0
  0
LINE
  5
F9
330
1D
100
AcDbEntity
  8
0
  6
Continuous
100
AcDbLine
 10
141.4385399999999
 20
-12.507165
 30
0.0
 11
142.3176399999999
 21
-12.507165
 31
0.0
  0
LINE
  5
FA
330
1D
100
AcDbEntity
  8
0
  6
Continuous
100
AcDbLine
 10
142.3176399999999
 20
-11.895365
 30
0.0
 11
142.3176399999999
 21
-10.119855
 31
0.0
  0
LINE
  5
FB
330
1D
100
AcDbEntity
  8
0
  6
Continuous
100
AcDbLine
 10
142.3176399999999
 20
-10.119855
 30
0.0
 11
142.3176399999999
 21
-7.354435000000004
 31
0.0
  0
LINE
  5
FC
330
1D
100
AcDbEntity
  8
0
  6
Continuous
100
AcDbLine
 10
142.3176399999999
 20
-7.354435000000004
 30
0.0
 11
142.3176399999999
 21
-3.869795000000004
 31
0.0
  0
LINE
  5
FD
330
1D
100
AcDbEntity
  8
0
  6
Continuous
100
AcDbLine
 10
142.3176399999999
 20
-3.869795000000004
 30
0.0
 11
142.3176399999999
 21
-0.0070450000000053
 31
0.0
  0
LINE
  5
FE
330
1D
100
AcDbEntity
  8
0
  6
Continuous
100
AcDbLine
 10
142.3176399999999
 20
-0.0070450000000053
 30
0.0
 11
142.3176399999999
 21
3.855704999999995
 31
0.0
  0
LINE
  5
FF
330
1D
100
AcDbEntity
  8
0
  6
Continuous
100
AcDbLine
 10
142.3176399999999
 20
3.855704999999995
 30
0.0
 11
142.3176399999999
 21
7.340334999999993
 31
0.0
  0
LINE
  5
100
330
1D
100
AcDbEntity
  8
0
  6
Continuous
100
AcDbLine
 10
142.3176399999999
 20
7.340334999999993
 30
0.0
 11
142.3176399999999
 21
10.10575499999999
 31
0.0
  0
LINE
  5
101
330
1D
100
AcDbEntity
  8
0
  6
Continuous
100
AcDbLine
 10
142.3176399999999
 20
10.10575499999999
 30
0.0
 11
142.3176399999999
 21
11.88125499999999
 31
0.0
  0
LINE
  5
102
330
1D
100
AcDbEntity
  8
0
  6
Continuous
100
AcDbLine
 10
142.3176399999999
 20
11.88125499999999
 30
0.0
 11
142.3176399999999
 21
12.49304499999999
 31
0.0
  0
LINE
  5
103
330
1D
100
AcDbEntity
  8
0
  6
Continuous
100
AcDbLine
 10
142.3176399999999
 20
12.49304499999999
 30
0.0
 11
141.4385399999999
 21
12.49304499999999
 31
0.0
  0
LINE
  5
104
330
1D
100
AcDbEntity
  8
0
  6
Continuous
100
AcDbLine
 10
140.4241599999999
 20
-12.507165
 30
0.0
 11
140.4241599999999
 21
-11.895365
 31
0.0
  0
LINE
  5
105
330
1D
100
AcDbEntity
  8
0
  6
Continuous
100
AcDbLine
 10
140.1846499999999
 20
-12.401275
 30
0.0
 11
140.4241599999999
 21
-12.507165
 31
0.0
  0
LINE
  5
106
330
1D
100
AcDbEntity
  8
0
  6
Continuous
100
AcDbLine
 10
140.1846499999999
 20
-12.401275
 30
0.0
 11
140.1846499999999
 21
-11.794655
 31
0.0
  0
LINE
  5
107
330
1D
100
AcDbEntity
  8
0
  6
Continuous
100
AcDbLine
 10
139.9451299999999
 20
-12.507165
 30
0.0
 11
140.1846499999999
 21
-12.401275
 31
0.0
  0
LINE
  5
108
330
1D
100
AcDbEntity
  8
0
  6
Continuous
100
AcDbLine
 10
139.9451299999999
 20
-11.895365
 30
0.0
 11
139.9451299999999
 21
-12.507165
 31
0.0
  0
LINE
  5
109
330
1D
100
AcDbEntity
  8
0
  6
Continuous
100
AcDbLine
 10
140.4241599999999
 20
-11.895365
 30
0.0
 11
140.4241599999999
 21
-10.119855
 31
0.0
  0
LINE
  5
10A
330
1D
100
AcDbEntity
  8
0
  6
Continuous
100
AcDbLine
 10
140.1846499999999
 20
-11.794655
 30
0.0
 11
140.1846499999999
 21
-10.034185
 31
0.0
  0
LINE
  5
10B
330
1D
100
AcDbEntity
  8
0
  6
Continuous
100
AcDbLine
 10
139.9451299999999
 20
-10.119855
 30
0.0
 11
139.9451299999999
 21
-11.895365
 31
0.0
  0
LINE
  5
10C
330
1D
100
AcDbEntity
  8
0
  6
Continuous
100
AcDbLine
 10
140.4241599999999
 20
-10.119855
 30
0.0
 11
140.4241599999999
 21
-7.354435000000004
 31
0.0
  0
LINE
  5
10D
330
1D
100
AcDbEntity
  8
0
  6
Continuous
100
AcDbLine
 10
140.1846499999999
 20
-10.034185
 30
0.0
 11
140.1846499999999
 21
-7.292185000000004
 31
0.0
  0
LINE
  5
10E
330
1D
100
AcDbEntity
  8
0
  6
Continuous
100
AcDbLine
 10
139.9451299999999
 20
-7.354435000000004
 30
0.0
 11
139.9451299999999
 21
-10.119855
 31
0.0
  0
LINE
  5
10F
330
1D
100
AcDbEntity
  8
0
  6
Continuous
100
AcDbLine
 10
140.4241599999999
 20
-7.354435000000004
 30
0.0
 11
140.4241599999999
 21
-3.869795000000004
 31
0.0
  0
LINE
  5
110
330
1D
100
AcDbEntity
  8
0
  6
Continuous
100
AcDbLine
 10
140.1846499999999
 20
-7.292185000000004
 30
0.0
 11
140.1846499999999
 21
-3.837075000000005
 31
0.0
  0
LINE
  5
111
330
1D
100
AcDbEntity
  8
0
  6
Continuous
100
AcDbLine
 10
139.9451299999999
 20
-3.869795000000004
 30
0.0
 11
139.9451299999999
 21
-7.354435000000004
 31
0.0
  0
LINE
  5
112
330
1D
100
AcDbEntity
  8
0
  6
Continuous
100
AcDbLine
 10
140.4241599999999
 20
-3.869795000000004
 30
0.0
 11
140.4241599999999
 21
-0.0070450000000053
 31
0.0
  0
LINE
  5
113
330
1D
100
AcDbEntity
  8
0
  6
Continuous
100
AcDbLine
 10
140.1846499999999
 20
-3.837075000000005
 30
0.0
 11
140.1846499999999
 21
-0.0070450000000053
 31
0.0
  0
LINE
  5
114
330
1D
100
AcDbEntity
  8
0
  6
Continuous
100
AcDbLine
 10
139.9451299999999
 20
-0.0070450000000053
 30
0.0
 11
139.9451299999999
 21
-3.869795000000004
 31
0.0
  0
LINE
  5
115
330
1D
100
AcDbEntity
  8
0
  6
Continuous
100
AcDbLine
 10
140.4241599999999
 20
-0.0070450000000053
 30
0.0
 11
140.4241599999999
 21
3.855704999999995
 31
0.0
  0
LINE
  5
116
330
1D
100
AcDbEntity
  8
0
  6
Continuous
100
AcDbLine
 10
140.1846499999999
 20
-0.0070450000000053
 30
0.0
 11
140.1846499999999
 21
3.822974999999993
 31
0.0
  0
LINE
  5
117
330
1D
100
AcDbEntity
  8
0
  6
Continuous
100
AcDbLine
 10
139.9451299999999
 20
3.855704999999995
 30
0.0
 11
139.9451299999999
 21
-0.0070450000000053
 31
0.0
  0
LINE
  5
118
330
1D
100
AcDbEntity
  8
0
  6
Continuous
100
AcDbLine
 10
140.4241599999999
 20
3.855704999999995
 30
0.0
 11
140.4241599999999
 21
7.340334999999993
 31
0.0
  0
LINE
  5
119
330
1D
100
AcDbEntity
  8
0
  6
Continuous
100
AcDbLine
 10
140.1846499999999
 20
3.822974999999993
 30
0.0
 11
140.1846499999999
 21
7.278094999999994
 31
0.0
  0
LINE
  5
11A
330
1D
100
AcDbEntity
  8
0
  6
Continuous
100
AcDbLine
 10
139.9451299999999
 20
7.340334999999993
 30
0.0
 11
139.9451299999999
 21
3.855704999999995
 31
0.0
  0
LINE
  5
11B
330
1D
100
AcDbEntity
  8
0
  6
Continuous
100
AcDbLine
 10
140.4241599999999
 20
7.340334999999993
 30
0.0
 11
140.4241599999999
 21
10.10575499999999
 31
0.0
  0
LINE
  5
11C
330
1D
100
AcDbEntity
  8
0
  6
Continuous
100
AcDbLine
 10
140.1846499999999
 20
7.278094999999994
 30
0.0
 11
140.1846499999999
 21
10.02008499999999
 31
0.0
  0
LINE
  5
11D
330
1D
100
AcDbEntity
  8
0
  6
Continuous
100
AcDbLine
 10
139.9451299999999
 20
10.10575499999999
 30
0.0
 11
139.9451299999999
 21
7.340334999999993
 31
0.0
  0
LINE
  5
11E
330
1D
100
AcDbEntity
  8
0
  6
Continuous
100
AcDbLine
 10
140.4241599999999
 20
10.10575499999999
 30
0.0
 11
140.4241599999999
 21
11.88125499999999
 31
0.0
  0
LINE
  5
11F
330
1D
100
AcDbEntity
  8
0
  6
Continuous
100
AcDbLine
 10
140.1846499999999
 20
10.02008499999999
 30
0.0
 11
140.1846499999999
 21
11.78054499999999
 31
0.0
  0
LINE
  5
120
330
1D
100
AcDbEntity
  8
0
  6
Continuous
100
AcDbLine
 10
139.9451299999999
 20
11.88125499999999
 30
0.0
 11
139.9451299999999
 21
10.10575499999999
 31
0.0
  0
LINE
  5
121
330
1D
100
AcDbEntity
  8
0
  6
Continuous
100
AcDbLine
 10
140.4241599999999
 20
11.88125499999999
 30
0.0
 11
140.4241599999999
 21
12.49304499999999
 31
0.0
  0
LINE
  5
122
330
1D
100
AcDbEntity
  8
0
  6
Continuous
100
AcDbLine
 10
140.4241599999999
 20
12.49304499999999
 30
0.0
 11
140.1846499999999
 21
12.38715499999999
 31
0.0
  0
LINE
  5
123
330
1D
100
AcDbEntity
  8
0
  6
Continuous
100
AcDbLine
 10
140.1846499999999
 20
11.78054499999999
 30
0.0
 11
140.1846499999999
 21
12.38715499999999
 31
0.0
  0
LINE
  5
124
330
1D
100
AcDbEntity
  8
0
  6
Continuous
100
AcDbLine
 10
139.9451299999999
 20
12.49304499999999
 30
0.0
 11
139.9451299999999
 21
11.88125499999999
 31
0.0
  0
LINE
  5
125
330
1D
100
AcDbEntity
  8
0
  6
Continuous
100
AcDbLine
 10
140.1846499999999
 20
12.38715499999999
 30
0.0
 11
139.9451299999999
 21
12.49304499999999
 31
0.0
  0
LINE
  5
273
330
1D
100
AcDbEntity
  8
0
  6
Continuous
100
AcDbLine
 10
228.5901664557569
 20
0.0
 30
0.0
 11
229.2644664557569
 21
-4.257359999999991
 31
0.0
  0
LINE
  5
274
330
1D
100
AcDbEntity
  8
0
  6
Continuous
100
AcDbLine
 10
251.9729164557569
 20
9.63821
 30
0.0
 11
250.4652364557569
 21
11.14589000000001
 31
0.0
  0
LINE
  5
275
330
1D
100
AcDbEntity
  8
0
  6
Continuous
100
AcDbLine
 10
246.6246064557569
 20
-13.10280999999999
 30
0.0
 11
250.4652364557569
 21
-11.14591999999999
 31
0.0
  0
LINE
  5
276
330
1D
100
AcDbEntity
  8
0
  6
Continuous
100
AcDbLine
 10
229.2644664557569
 20
-4.257359999999991
 30
0.0
 11
231.2213464557569
 21
-8.09797999999999
 31
0.0
  0
LINE
  5
277
330
1D
100
AcDbEntity
  8
0
  6
Continuous
100
AcDbLine
 10
242.3672664557569
 20
13.77708
 30
0.0
 11
238.1099164557569
 21
13.10279
 31
0.0
  0
LINE
  5
278
330
1D
100
AcDbEntity
  8
0
  6
Continuous
100
AcDbLine
 10
238.1099164557569
 20
13.10279
 30
0.0
 11
234.2692964557569
 21
11.1459
 31
0.0
  0
LINE
  5
279
330
1D
100
AcDbEntity
  8
0
  6
Continuous
100
AcDbLine
 10
250.4652364557569
 20
11.14589000000001
 30
0.0
 11
246.6246164557569
 21
13.10278
 31
0.0
  0
LINE
  5
27A
330
1D
100
AcDbEntity
  8
0
  6
Continuous
100
AcDbLine
 10
250.4652364557569
 20
-11.14591999999999
 30
0.0
 11
252.0795364557569
 21
-9.531620000000003
 31
0.0
  0
LINE
  5
27B
330
1D
100
AcDbEntity
  8
0
  6
Continuous
100
AcDbLine
 10
231.2213464557569
 20
-8.09797999999999
 30
0.0
 11
234.2692764557569
 21
-11.14590999999998
 31
0.0
  0
LINE
  5
27C
330
1D
100
AcDbEntity
  8
0
  6
Continuous
100
AcDbLine
 10
234.2692964557569
 20
11.1459
 30
0.0
 11
231.2213664557569
 21
8.097970000000001
 31
0.0
  0
LINE
  5
27D
330
1D
100
AcDbEntity
  8
0
  6
Continuous
100
AcDbLine
 10
246.6246164557569
 20
13.10278
 30
0.0
 11
242.3672664557569
 21
13.77708
 31
0.0
  0
LINE
  5
27E
330
1D
100
AcDbEntity
  8
0
  6
Continuous
100
AcDbLine
 10
234.2692764557569
 20
-11.14590999999998
 30
0.0
 11
238.1098964557569
 21
-13.10280999999999
 31
0.0
  0
LINE
  5
27F
330
1D
100
AcDbEntity
  8
0
  6
Continuous
100
AcDbLine
 10
238.1098964557569
 20
-13.10280999999999
 30
0.0
 11
242.3672664557569
 21
-13.77710999999999
 31
0.0
  0
LINE
  5
280
330
1D
100
AcDbEntity
  8
0
  6
Continuous
100
AcDbLine
 10
231.2213664557569
 20
8.097970000000001
 30
0.0
 11
229.2644664557569
 21
4.257360000000004
 31
0.0
  0
LINE
  5
281
330
1D
100
AcDbEntity
  8
0
  6
Continuous
100
AcDbLine
 10
242.3672664557569
 20
-13.77710999999999
 30
0.0
 11
246.6246064557569
 21
-13.10280999999999
 31
0.0
  0
LINE
  5
282
330
1D
100
AcDbEntity
  8
0
  6
Continuous
100
AcDbLine
 10
229.2644664557569
 20
4.257360000000004
 30
0.0
 11
228.5901664557569
 21
0.0
 31
0.0
  0
LINE
  5
283
330
1D
100
AcDbEntity
  8
0
  6
Continuous
100
AcDbLine
 10
319.3706464557569
 20
-30.24712
 30
0.0
 11
320.3294864557569
 21
-30.69319999999999
 31
0.0
  0
LINE
  5
284
330
1D
100
AcDbEntity
  8
0
  6
Continuous
100
AcDbLine
 10
320.3294864557569
 20
-30.69319999999999
 30
0.0
 11
320.9714164557569
 21
-30.69319999999999
 31
0.0
  0
LINE
  5
285
330
1D
100
AcDbEntity
  8
0
  6
Continuous
100
AcDbLine
 10
320.9714064557569
 20
30.70730000000001
 30
0.0
 11
320.3294664557569
 21
30.70730000000001
 31
0.0
  0
LINE
  5
286
330
1D
100
AcDbEntity
  8
0
  6
Continuous
100
AcDbLine
 10
320.3294364557569
 20
-5.970609999999991
 30
0.0
 11
320.3294364557569
 21
0.0320200000000028
 31
0.0
  0
LINE
  5
287
330
1D
100
AcDbEntity
  8
0
  6
Continuous
100
AcDbLine
 10
319.3706464557569
 20
0.0475000000000065
 30
0.0
 11
319.3706464557569
 21
-5.868169999999991
 31
0.0
  0
LINE
  5
288
330
1D
100
AcDbEntity
  8
0
  6
Continuous
100
AcDbLine
 10
320.3294364557569
 20
-11.75743
 30
0.0
 11
320.3294364557569
 21
-5.970609999999991
 31
0.0
  0
LINE
  5
289
330
1D
100
AcDbEntity
  8
0
  6
Continuous
100
AcDbLine
 10
319.3706464557569
 20
-5.868169999999991
 30
0.0
 11
319.3706464557569
 21
-11.55785
 31
0.0
  0
LINE
  5
28A
330
1D
100
AcDbEntity
  8
0
  6
Continuous
100
AcDbLine
 10
320.3294364557569
 20
-17.12528
 30
0.0
 11
320.3294364557569
 21
-11.75743
 31
0.0
  0
LINE
  5
28B
330
1D
100
AcDbEntity
  8
0
  6
Continuous
100
AcDbLine
 10
319.3706464557569
 20
-11.55785
 30
0.0
 11
319.3706464557569
 21
-16.79201999999999
 31
0.0
  0
LINE
  5
28C
330
1D
100
AcDbEntity
  8
0
  6
Continuous
100
AcDbLine
 10
320.3294764557569
 20
-21.7632
 30
0.0
 11
320.3294364557569
 21
-17.12528
 31
0.0
  0
LINE
  5
28D
330
1D
100
AcDbEntity
  8
0
  6
Continuous
100
AcDbLine
 10
319.3706464557569
 20
-16.79201999999999
 30
0.0
 11
319.3706464557569
 21
-21.38421
 31
0.0
  0
LINE
  5
28E
330
1D
100
AcDbEntity
  8
0
  6
Continuous
100
AcDbLine
 10
320.3294864557569
 20
-25.58707
 30
0.0
 11
320.3294764557569
 21
-21.7632
 31
0.0
  0
LINE
  5
28F
330
1D
100
AcDbEntity
  8
0
  6
Continuous
100
AcDbLine
 10
319.3706464557569
 20
-21.38421
 30
0.0
 11
319.3706464557569
 21
-25.15416999999999
 31
0.0
  0
LINE
  5
290
330
1D
100
AcDbEntity
  8
0
  6
Continuous
100
AcDbLine
 10
320.3294864557569
 20
-28.44127
 30
0.0
 11
320.3294864557569
 21
-25.58707
 31
0.0
  0
LINE
  5
291
330
1D
100
AcDbEntity
  8
0
  6
Continuous
100
AcDbLine
 10
319.3706464557569
 20
-25.15416999999999
 30
0.0
 11
319.3706464557569
 21
-27.94999999999999
 31
0.0
  0
LINE
  5
292
330
1D
100
AcDbEntity
  8
0
  6
Continuous
100
AcDbLine
 10
320.3294864557569
 20
-30.12582999999999
 30
0.0
 11
320.3294864557569
 21
-28.44127
 31
0.0
  0
LINE
  5
293
330
1D
100
AcDbEntity
  8
0
  6
Continuous
100
AcDbLine
 10
319.3706464557569
 20
-27.94999999999999
 30
0.0
 11
319.3706464557569
 21
-29.66808
 31
0.0
  0
LINE
  5
294
330
1D
100
AcDbEntity
  8
0
  6
Continuous
100
AcDbLine
 10
320.3294864557569
 20
-30.69319999999999
 30
0.0
 11
320.3294864557569
 21
-30.12582999999999
 31
0.0
  0
LINE
  5
295
330
1D
100
AcDbEntity
  8
0
  6
Continuous
100
AcDbLine
 10
319.3706464557569
 20
-30.24712
 30
0.0
 11
320.3294864557569
 21
-30.69319999999999
 31
0.0
  0
LINE
  5
296
330
1D
100
AcDbEntity
  8
0
  6
Continuous
100
AcDbLine
 10
319.3706464557569
 20
-29.66808
 30
0.0
 11
319.3706464557569
 21
-30.24712
 31
0.0
  0
LINE
  5
297
330
1D
100
AcDbEntity
  8
0
  6
Continuous
100
AcDbLine
 10
320.3294664557569
 20
30.70730000000001
 30
0.0
 11
319.3706464557569
 21
30.35743000000001
 31
0.0
  0
LINE
  5
298
330
1D
100
AcDbEntity
  8
0
  6
Continuous
100
AcDbLine
 10
319.3706464557569
 20
30.35743000000001
 30
0.0
 11
319.3706464557569
 21
29.79538000000001
 31
0.0
  0
LINE
  5
299
330
1D
100
AcDbEntity
  8
0
  6
Continuous
100
AcDbLine
 10
319.3706464557569
 20
29.79538000000001
 30
0.0
 11
319.3706464557569
 21
28.07719
 31
0.0
  0
LINE
  5
29A
330
1D
100
AcDbEntity
  8
0
  6
Continuous
100
AcDbLine
 10
319.3706464557569
 20
28.07719
 30
0.0
 11
319.3706464557569
 21
25.23552000000001
 31
0.0
  0
LINE
  5
29B
330
1D
100
AcDbEntity
  8
0
  6
Continuous
100
AcDbLine
 10
320.3294664557569
 20
21.81328000000001
 30
0.0
 11
320.3294664557569
 21
25.63649000000001
 31
0.0
  0
LINE
  5
29C
330
1D
100
AcDbEntity
  8
0
  6
Continuous
100
AcDbLine
 10
319.3706464557569
 20
25.23552000000001
 30
0.0
 11
319.3706464557569
 21
21.47517000000001
 31
0.0
  0
LINE
  5
29D
330
1D
100
AcDbEntity
  8
0
  6
Continuous
100
AcDbLine
 10
320.3294264557569
 20
17.15648
 30
0.0
 11
320.3294664557569
 21
21.81328000000001
 31
0.0
  0
LINE
  5
29E
330
1D
100
AcDbEntity
  8
0
  6
Continuous
100
AcDbLine
 10
319.3706464557569
 20
21.47517000000001
 30
0.0
 11
319.3706464557569
 21
16.88184
 31
0.0
  0
LINE
  5
29F
330
1D
100
AcDbEntity
  8
0
  6
Continuous
100
AcDbLine
 10
320.3294364557569
 20
11.86159
 30
0.0
 11
320.3294264557569
 21
17.15648
 31
0.0
  0
LINE
  5
2A0
330
1D
100
AcDbEntity
  8
0
  6
Continuous
100
AcDbLine
 10
319.3706464557569
 20
16.88184
 30
0.0
 11
319.3706464557569
 21
11.64249000000001
 31
0.0
  0
LINE
  5
2A1
330
1D
100
AcDbEntity
  8
0
  6
Continuous
100
AcDbLine
 10
320.3294364557569
 20
6.049550000000002
 30
0.0
 11
320.3294364557569
 21
11.86159
 31
0.0
  0
LINE
  5
2A2
330
1D
100
AcDbEntity
  8
0
  6
Continuous
100
AcDbLine
 10
319.3706464557569
 20
11.64249000000001
 30
0.0
 11
319.3706464557569
 21
5.963860000000002
 31
0.0
  0
LINE
  5
2A3
330
1D
100
AcDbEntity
  8
0
  6
Continuous
100
AcDbLine
 10
320.3294364557569
 20
0.0320200000000028
 30
0.0
 11
320.3294364557569
 21
6.049550000000002
 31
0.0
  0
LINE
  5
2A4
330
1D
100
AcDbEntity
  8
0
  6
Continuous
100
AcDbLine
 10
319.3706464557569
 20
5.963860000000002
 30
0.0
 11
319.3706464557569
 21
0.0475000000000065
 31
0.0
  0
LINE
  5
2A5
330
1D
100
AcDbEntity
  8
0
  6
Continuous
100
AcDbLine
 10
320.9714164557569
 20
-30.69319999999999
 30
0.0
 11
334.3752364557569
 21
-30.69320999999999
 31
0.0
  0
LINE
  5
2A6
330
1D
100
AcDbEntity
  8
0
  6
Continuous
100
AcDbLine
 10
334.3752164557569
 20
30.70729
 30
0.0
 11
320.9714064557569
 21
30.70730000000001
 31
0.0
  0
LINE
  5
2A7
330
1D
100
AcDbEntity
  8
0
  6
Continuous
100
AcDbLine
 10
335.4421564557569
 20
-5.970619999999996
 30
0.0
 11
335.4421164557568
 21
0.032030000000006
 31
0.0
  0
LINE
  5
2A8
330
1D
100
AcDbEntity
  8
0
  6
Continuous
100
AcDbLine
 10
335.4421164557568
 20
-11.75740999999999
 30
0.0
 11
335.4421564557569
 21
-5.970619999999996
 31
0.0
  0
LINE
  5
2A9
330
1D
100
AcDbEntity
  8
0
  6
Continuous
100
AcDbLine
 10
335.4421164557568
 20
-17.12525999999999
 30
0.0
 11
335.4421164557568
 21
-11.75740999999999
 31
0.0
  0
LINE
  5
2AA
330
1D
100
AcDbEntity
  8
0
  6
Continuous
100
AcDbLine
 10
335.4421564557569
 20
-25.58707
 30
0.0
 11
335.4421564557569
 21
-21.76317999999999
 31
0.0
  0
LINE
  5
2AB
330
1D
100
AcDbEntity
  8
0
  6
Continuous
100
AcDbLine
 10
335.4421564557569
 20
-28.44126
 30
0.0
 11
335.4421564557569
 21
-25.58707
 31
0.0
  0
LINE
  5
2AC
330
1D
100
AcDbEntity
  8
0
  6
Continuous
100
AcDbLine
 10
335.4421564557569
 20
-30.12582999999999
 30
0.0
 11
335.4421564557569
 21
-28.44126
 31
0.0
  0
LINE
  5
2AD
330
1D
100
AcDbEntity
  8
0
  6
Continuous
100
AcDbLine
 10
335.4421564557569
 20
-30.69320999999999
 30
0.0
 11
335.4421564557569
 21
-30.12582999999999
 31
0.0
  0
LINE
  5
2AE
330
1D
100
AcDbEntity
  8
0
  6
Continuous
100
AcDbLine
 10
334.3752364557569
 20
-30.69320999999999
 30
0.0
 11
335.4421564557569
 21
-30.69320999999999
 31
0.0
  0
LINE
  5
2AF
330
1D
100
AcDbEntity
  8
0
  6
Continuous
100
AcDbLine
 10
335.4421464557569
 20
30.14685
 30
0.0
 11
335.4421464557569
 21
30.70729
 31
0.0
  0
LINE
  5
2B0
330
1D
100
AcDbEntity
  8
0
  6
Continuous
100
AcDbLine
 10
335.4421464557569
 20
30.70729
 30
0.0
 11
334.3752164557569
 21
30.70729
 31
0.0
  0
LINE
  5
2B1
330
1D
100
AcDbEntity
  8
0
  6
Continuous
100
AcDbLine
 10
335.4421464557569
 20
28.41617000000001
 30
0.0
 11
335.4421464557569
 21
30.14685
 31
0.0
  0
LINE
  5
2B2
330
1D
100
AcDbEntity
  8
0
  6
Continuous
100
AcDbLine
 10
335.4421464557569
 20
25.63647
 30
0.0
 11
335.4421464557569
 21
28.41617000000001
 31
0.0
  0
LINE
  5
2B3
330
1D
100
AcDbEntity
  8
0
  6
Continuous
100
AcDbLine
 10
335.4421464557569
 20
21.81325000000001
 30
0.0
 11
335.4421464557569
 21
25.63647
 31
0.0
  0
LINE
  5
2B4
330
1D
100
AcDbEntity
  8
0
  6
Continuous
100
AcDbLine
 10
335.4421464557569
 20
11.86153
 30
0.0
 11
335.4421064557568
 21
17.15646000000001
 31
0.0
  0
LINE
  5
2B5
330
1D
100
AcDbEntity
  8
0
  6
Continuous
100
AcDbLine
 10
335.4421164557568
 20
0.032030000000006
 30
0.0
 11
335.4421164557568
 21
6.049540000000008
 31
0.0
  0
LINE
  5
2B6
330
1D
100
AcDbEntity
  8
0
  6
Continuous
100
AcDbLine
 10
335.4421164557568
 20
-17.12525999999999
 30
0.0
 11
335.4421564557569
 21
-21.76317999999999
 31
0.0
  0
LINE
  5
2B7
330
1D
100
AcDbEntity
  8
0
  6
Continuous
100
AcDbLine
 10
335.4421464557569
 20
21.81325000000001
 30
0.0
 11
335.4421064557568
 21
17.15646000000001
 31
0.0
  0
LINE
  5
2B8
330
1D
100
AcDbEntity
  8
0
  6
Continuous
100
AcDbLine
 10
335.4421464557569
 20
11.86153
 30
0.0
 11
335.4421164557568
 21
6.049540000000008
 31
0.0
  0
LINE
  5
2B9
330
1D
100
AcDbEntity
  8
0
  6
Continuous
100
AcDbLine
 10
319.3706464557569
 20
9.63821
 30
0.0
 11
250.1892264557569
 21
9.63821
 31
0.0
  0
LINE
  5
2BA
330
1D
100
AcDbEntity
  8
0
  6
Continuous
100
AcDbLine
 10
250.2958364557569
 20
-9.531620000000003
 30
0.0
 11
319.3706464557569
 21
-9.531620000000003
 31
0.0
  0
LINE
  5
2BB
330
1D
100
AcDbEntity
  8
0
  6
Continuous
100
AcDbLine
 10
251.0235464557569
 20
-8.803910000000001
 30
0.0
 11
319.3706464557569
 21
-8.803910000000001
 31
0.0
  0
LINE
  5
2BC
330
1D
100
AcDbEntity
  8
0
  6
Continuous
100
AcDbLine
 10
319.3706464557569
 20
8.947890000000002
 30
0.0
 11
250.8795464557568
 21
8.947890000000002
 31
0.0
  0
LINE
  5
2BD
330
1D
100
AcDbEntity
  8
0
  6
Continuous
100
AcDbLine
 10
319.3706464557569
 20
-3.627600000000001
 30
0.0
 11
254.2928124557569
 21
-3.627600000000001
 31
0.0
  0
LINE
  5
2BE
330
1D
100
AcDbEntity
  8
0
  6
Continuous
100
AcDbLine
 10
246.2300064557569
 20
11.8883
 30
0.0
 11
242.3672664557569
 21
12.50009000000001
 31
0.0
  0
LINE
  5
2BF
330
1D
100
AcDbEntity
  8
0
  6
Continuous
100
AcDbLine
 10
249.7146464557569
 20
10.11279
 30
0.0
 11
246.2300064557569
 21
11.8883
 31
0.0
  0
LINE
  5
2C0
330
1D
100
AcDbEntity
  8
0
  6
Continuous
100
AcDbLine
 10
252.4800664557569
 20
7.347370000000005
 30
0.0
 11
249.7146464557569
 21
10.11279
 31
0.0
  0
LINE
  5
2C1
330
1D
100
AcDbEntity
  8
0
  6
Continuous
100
AcDbLine
 10
254.2555764557569
 20
3.862730000000006
 30
0.0
 11
252.4800664557569
 21
7.347370000000005
 31
0.0
  0
LINE
  5
2C2
330
1D
100
AcDbEntity
  8
0
  6
Continuous
100
AcDbLine
 10
254.8673664557568
 20
-0.0000099999999961
 30
0.0
 11
254.2555764557569
 21
3.862730000000006
 31
0.0
  0
LINE
  5
2C3
330
1D
100
AcDbEntity
  8
0
  6
Continuous
100
AcDbLine
 10
254.2555664557569
 20
-3.862759999999993
 30
0.0
 11
254.8673664557568
 21
-0.0000099999999961
 31
0.0
  0
LINE
  5
2C4
330
1D
100
AcDbEntity
  8
0
  6
Continuous
100
AcDbLine
 10
252.4800664557569
 20
-7.34738999999999
 30
0.0
 11
254.2555664557569
 21
-3.862759999999993
 31
0.0
  0
LINE
  5
2C5
330
1D
100
AcDbEntity
  8
0
  6
Continuous
100
AcDbLine
 10
249.7146464557569
 20
-10.11280999999999
 30
0.0
 11
252.4800664557569
 21
-7.34738999999999
 31
0.0
  0
LINE
  5
2C6
330
1D
100
AcDbEntity
  8
0
  6
Continuous
100
AcDbLine
 10
246.2300064557569
 20
-11.88831999999999
 30
0.0
 11
249.7146464557569
 21
-10.11280999999999
 31
0.0
  0
LINE
  5
2C7
330
1D
100
AcDbEntity
  8
0
  6
Continuous
100
AcDbLine
 10
242.3672664557569
 20
-12.50011999999999
 30
0.0
 11
246.2300064557569
 21
-11.88831999999999
 31
0.0
  0
LINE
  5
2C8
330
1D
100
AcDbEntity
  8
0
  6
Continuous
100
AcDbLine
 10
238.5045064557569
 20
-11.88831999999999
 30
0.0
 11
242.3672664557569
 21
-12.50011999999999
 31
0.0
  0
LINE
  5
2C9
330
1D
100
AcDbEntity
  8
0
  6
Continuous
100
AcDbLine
 10
235.0198764557569
 20
-10.11280999999999
 30
0.0
 11
238.5045064557569
 21
-11.88831999999999
 31
0.0
  0
LINE
  5
2CA
330
1D
100
AcDbEntity
  8
0
  6
Continuous
100
AcDbLine
 10
232.2544564557569
 20
-7.34738999999999
 30
0.0
 11
235.0198764557569
 21
-10.11280999999999
 31
0.0
  0
LINE
  5
2CB
330
1D
100
AcDbEntity
  8
0
  6
Continuous
100
AcDbLine
 10
230.4789464557569
 20
-3.862749999999991
 30
0.0
 11
232.2544564557569
 21
-7.34738999999999
 31
0.0
  0
LINE
  5
2CC
330
1D
100
AcDbEntity
  8
0
  6
Continuous
100
AcDbLine
 10
229.8671564557569
 20
0.0
 30
0.0
 11
230.4789464557569
 21
-3.862749999999991
 31
0.0
  0
LINE
  5
2CD
330
1D
100
AcDbEntity
  8
0
  6
Continuous
100
AcDbLine
 10
230.4789564557569
 20
3.862750000000004
 30
0.0
 11
229.8671564557569
 21
0.0
 31
0.0
  0
LINE
  5
2CE
330
1D
100
AcDbEntity
  8
0
  6
Continuous
100
AcDbLine
 10
232.2544664557569
 20
7.347380000000001
 30
0.0
 11
230.4789564557569
 21
3.862750000000004
 31
0.0
  0
LINE
  5
2CF
330
1D
100
AcDbEntity
  8
0
  6
Continuous
100
AcDbLine
 10
235.0198964557569
 20
10.11280000000001
 30
0.0
 11
232.2544664557569
 21
7.347380000000001
 31
0.0
  0
LINE
  5
2D0
330
1D
100
AcDbEntity
  8
0
  6
Continuous
100
AcDbLine
 10
238.5045364557569
 20
11.8883
 30
0.0
 11
235.0198964557569
 21
10.11280000000001
 31
0.0
  0
LINE
  5
2D1
330
1D
100
AcDbEntity
  8
0
  6
Continuous
100
AcDbLine
 10
242.3672664557569
 20
12.50009000000001
 30
0.0
 11
238.5045364557569
 21
11.8883
 31
0.0
  0
LINE
  5
40F
330
1D
100
AcDbEntity
  8
0
  6
Continuous
100
AcDbLine
 10
-79.81537
 20
99.72279556476989
 30
0.0
 11
0.1846400000000017
 21
99.72279556476989
 31
0.0
  0
LINE
  5
410
330
1D
100
AcDbEntity
  8
0
  6
Continuous
100
AcDbLine
 10
-79.81537
 20
100.3970955647699
 30
0.0
 11
-79.81537
 21
99.72279556476989
 31
0.0
  0
LINE
  5
411
330
1D
100
AcDbEntity
  8
0
  6
Continuous
100
AcDbLine
 10
-79.81537
 20
102.3539955647699
 30
0.0
 11
-79.81537
 21
100.3970955647699
 31
0.0
  0
LINE
  5
412
330
1D
100
AcDbEntity
  8
0
  6
Continuous
100
AcDbLine
 10
-79.81537
 20
105.4019255647699
 30
0.0
 11
-79.81537
 21
102.3539955647699
 31
0.0
  0
LINE
  5
413
330
1D
100
AcDbEntity
  8
0
  6
Continuous
100
AcDbLine
 10
-79.81537
 20
109.2425455647699
 30
0.0
 11
-79.81537
 21
105.4019255647699
 31
0.0
  0
LINE
  5
414
330
1D
100
AcDbEntity
  8
0
  6
Continuous
100
AcDbLine
 10
-79.81537
 20
113.4998955647699
 30
0.0
 11
-79.81537
 21
109.2425455647699
 31
0.0
  0
LINE
  5
415
330
1D
100
AcDbEntity
  8
0
  6
Continuous
100
AcDbLine
 10
-79.81537
 20
117.7572455647698
 30
0.0
 11
-79.81537
 21
113.4998955647699
 31
0.0
  0
LINE
  5
416
330
1D
100
AcDbEntity
  8
0
  6
Continuous
100
AcDbLine
 10
-79.81537
 20
121.5978655647699
 30
0.0
 11
-79.81537
 21
117.7572455647698
 31
0.0
  0
LINE
  5
417
330
1D
100
AcDbEntity
  8
0
  6
Continuous
100
AcDbLine
 10
-79.81537
 20
124.6457955647699
 30
0.0
 11
-79.81537
 21
121.5978655647699
 31
0.0
  0
LINE
  5
418
330
1D
100
AcDbEntity
  8
0
  6
Continuous
100
AcDbLine
 10
-79.81537
 20
126.6026855647699
 30
0.0
 11
-79.81537
 21
124.6457955647699
 31
0.0
  0
LINE
  5
419
330
1D
100
AcDbEntity
  8
0
  6
Continuous
100
AcDbLine
 10
0.1846400000000017
 20
127.2769855647699
 30
0.0
 11
-79.81537
 21
127.2769855647699
 31
0.0
  0
LINE
  5
41A
330
1D
100
AcDbEntity
  8
0
  6
Continuous
100
AcDbLine
 10
-79.81537
 20
127.2769855647699
 30
0.0
 11
-79.81537
 21
126.6026855647699
 31
0.0
  0
LINE
  5
41B
330
1D
100
AcDbEntity
  8
0
  6
Continuous
100
AcDbLine
 10
80.18464999999997
 20
99.72279556476989
 30
0.0
 11
80.18464999999997
 21
100.3970955647699
 31
0.0
  0
LINE
  5
41C
330
1D
100
AcDbEntity
  8
0
  6
Continuous
100
AcDbLine
 10
0.1846400000000017
 20
99.72279556476989
 30
0.0
 11
80.18464999999997
 21
99.72279556476989
 31
0.0
  0
LINE
  5
41D
330
1D
100
AcDbEntity
  8
0
  6
Continuous
100
AcDbLine
 10
80.18464999999997
 20
100.3970955647699
 30
0.0
 11
80.18464999999997
 21
102.3539955647699
 31
0.0
  0
LINE
  5
41E
330
1D
100
AcDbEntity
  8
0
  6
Continuous
100
AcDbLine
 10
80.18464999999997
 20
102.3539955647699
 30
0.0
 11
80.18464999999997
 21
105.4019255647699
 31
0.0
  0
LINE
  5
41F
330
1D
100
AcDbEntity
  8
0
  6
Continuous
100
AcDbLine
 10
80.18464999999997
 20
105.4019255647699
 30
0.0
 11
80.18464999999997
 21
109.2425455647699
 31
0.0
  0
LINE
  5
420
330
1D
100
AcDbEntity
  8
0
  6
Continuous
100
AcDbLine
 10
80.18464999999997
 20
109.2425455647699
 30
0.0
 11
80.18464999999997
 21
113.4998955647699
 31
0.0
  0
LINE
  5
421
330
1D
100
AcDbEntity
  8
0
  6
Continuous
100
AcDbLine
 10
80.18464999999997
 20
113.4998955647699
 30
0.0
 11
80.18464999999997
 21
117.7572455647698
 31
0.0
  0
LINE
  5
422
330
1D
100
AcDbEntity
  8
0
  6
Continuous
100
AcDbLine
 10
80.18464999999997
 20
117.7572455647698
 30
0.0
 11
80.18464999999997
 21
121.5978655647699
 31
0.0
  0
LINE
  5
423
330
1D
100
AcDbEntity
  8
0
  6
Continuous
100
AcDbLine
 10
80.18464999999997
 20
121.5978655647699
 30
0.0
 11
80.18464999999997
 21
124.6457955647699
 31
0.0
  0
LINE
  5
424
330
1D
100
AcDbEntity
  8
0
  6
Continuous
100
AcDbLine
 10
80.18464999999997
 20
124.6457955647699
 30
0.0
 11
80.18464999999997
 21
126.6026855647699
 31
0.0
  0
LINE
  5
425
330
1D
100
AcDbEntity
  8
0
  6
Continuous
100
AcDbLine
 10
80.18464999999997
 20
126.6026855647699
 30
0.0
 11
80.18464999999997
 21
127.2769855647699
 31
0.0
  0
LINE
  5
426
330
1D
100
AcDbEntity
  8
0
  6
Continuous
100
AcDbLine
 10
80.18464999999997
 20
127.2769855647699
 30
0.0
 11
0.1846400000000017
 21
127.2769855647699
 31
0.0
  0
LINE
  5
427
330
1D
100
AcDbEntity
  8
0
  6
Continuous
100
AcDbLine
 10
-65.11563000000001
 20
191.4621455647699
 30
0.0
 11
-65.11563000000001
 21
192.1040755647699
 31
0.0
  0
LINE
  5
428
330
1D
100
AcDbEntity
  8
0
  6
Continuous
100
AcDbLine
 10
-126.51609
 20
192.1040055647699
 30
0.0
 11
-126.51609
 21
191.4620655647699
 31
0.0
  0
LINE
  5
429
330
1D
100
AcDbEntity
  8
0
  6
Continuous
100
AcDbLine
 10
-65.98349000000002
 20
190.5032755647699
 30
0.0
 11
-65.39564999999999
 21
190.5032755647699
 31
0.0
  0
LINE
  5
42A
330
1D
100
AcDbEntity
  8
0
  6
Continuous
100
AcDbLine
 10
-65.39564999999999
 20
190.5032755647699
 30
0.0
 11
-65.11563000000001
 21
191.4621455647699
 31
0.0
  0
LINE
  5
42B
330
1D
100
AcDbEntity
  8
0
  6
Continuous
100
AcDbLine
 10
-67.68385999999998
 20
190.5032755647699
 30
0.0
 11
-65.98349000000002
 21
190.5032755647699
 31
0.0
  0
LINE
  5
42C
330
1D
100
AcDbEntity
  8
0
  6
Continuous
100
AcDbLine
 10
-70.48690999999998
 20
190.5032755647699
 30
0.0
 11
-67.68385999999998
 21
190.5032755647699
 31
0.0
  0
LINE
  5
42D
330
1D
100
AcDbEntity
  8
0
  6
Continuous
100
AcDbLine
 10
-74.24481
 20
190.5032755647699
 30
0.0
 11
-70.48690999999998
 21
190.5032755647699
 31
0.0
  0
LINE
  5
42E
330
1D
100
AcDbEntity
  8
0
  6
Continuous
100
AcDbLine
 10
-78.81121000000002
 20
190.5032755647699
 30
0.0
 11
-74.24481
 21
190.5032755647699
 31
0.0
  0
LINE
  5
42F
330
1D
100
AcDbEntity
  8
0
  6
Continuous
100
AcDbLine
 10
-84.04062999999998
 20
190.5032755647699
 30
0.0
 11
-78.81121000000002
 21
190.5032755647699
 31
0.0
  0
LINE
  5
430
330
1D
100
AcDbEntity
  8
0
  6
Continuous
100
AcDbLine
 10
-89.71951000000002
 20
190.5032755647699
 30
0.0
 11
-84.04062999999998
 21
190.5032755647699
 31
0.0
  0
LINE
  5
431
330
1D
100
AcDbEntity
  8
0
  6
Continuous
100
AcDbLine
 10
-95.63072
 20
190.5032755647699
 30
0.0
 11
-89.71951000000002
 21
190.5032755647699
 31
0.0
  0
LINE
  5
432
330
1D
100
AcDbEntity
  8
0
  6
Continuous
100
AcDbLine
 10
-101.54388
 20
190.5032755647699
 30
0.0
 11
-95.63072
 21
190.5032755647699
 31
0.0
  0
LINE
  5
433
330
1D
100
AcDbEntity
  8
0
  6
Continuous
100
AcDbLine
 10
-107.24234
 20
190.5032755647699
 30
0.0
 11
-101.54388
 21
190.5032755647699
 31
0.0
  0
LINE
  5
434
330
1D
100
AcDbEntity
  8
0
  6
Continuous
100
AcDbLine
 10
-112.467
 20
190.5032755647699
 30
0.0
 11
-107.24234
 21
190.5032755647699
 31
0.0
  0
LINE
  5
435
330
1D
100
AcDbEntity
  8
0
  6
Continuous
100
AcDbLine
 10
-117.06058
 20
190.5032755647699
 30
0.0
 11
-112.467
 21
190.5032755647699
 31
0.0
  0
LINE
  5
436
330
1D
100
AcDbEntity
  8
0
  6
Continuous
100
AcDbLine
 10
-112.71052
 20
191.4620955647699
 30
0.0
 11
-117.45181
 21
191.4620955647699
 31
0.0
  0
LINE
  5
437
330
1D
100
AcDbEntity
  8
0
  6
Continuous
100
AcDbLine
 10
-120.83199
 20
190.5032755647699
 30
0.0
 11
-117.06058
 21
190.5032755647699
 31
0.0
  0
LINE
  5
438
330
1D
100
AcDbEntity
  8
0
  6
Continuous
100
AcDbLine
 10
-117.45181
 20
191.4620955647699
 30
0.0
 11
-121.26446
 21
191.4620555647699
 31
0.0
  0
LINE
  5
439
330
1D
100
AcDbEntity
  8
0
  6
Continuous
100
AcDbLine
 10
-123.63778
 20
190.5032755647699
 30
0.0
 11
-120.83199
 21
190.5032755647699
 31
0.0
  0
LINE
  5
43A
330
1D
100
AcDbEntity
  8
0
  6
Continuous
100
AcDbLine
 10
-121.26446
 20
191.4620555647699
 30
0.0
 11
-124.13152
 21
191.4620655647699
 31
0.0
  0
LINE
  5
43B
330
1D
100
AcDbEntity
  8
0
  6
Continuous
100
AcDbLine
 10
-125.36871
 20
190.5032755647699
 30
0.0
 11
-123.63778
 21
190.5032755647699
 31
0.0
  0
LINE
  5
43C
330
1D
100
AcDbEntity
  8
0
  6
Continuous
100
AcDbLine
 10
-124.13152
 20
191.4620655647699
 30
0.0
 11
-125.9591
 21
191.4620655647699
 31
0.0
  0
LINE
  5
43D
330
1D
100
AcDbEntity
  8
0
  6
Continuous
100
AcDbLine
 10
-125.9488099999999
 20
190.5032755647699
 30
0.0
 11
-125.36871
 21
190.5032755647699
 31
0.0
  0
LINE
  5
43E
330
1D
100
AcDbEntity
  8
0
  6
Continuous
100
AcDbLine
 10
-126.51609
 20
191.4620655647699
 30
0.0
 11
-125.9488099999999
 21
190.5032755647699
 31
0.0
  0
LINE
  5
43F
330
1D
100
AcDbEntity
  8
0
  6
Continuous
100
AcDbLine
 10
-125.9591
 20
191.4620655647699
 30
0.0
 11
-126.51609
 21
191.4620655647699
 31
0.0
  0
LINE
  5
440
330
1D
100
AcDbEntity
  8
0
  6
Continuous
100
AcDbLine
 10
-65.11563000000001
 20
192.1040755647699
 30
0.0
 11
-65.11556999999999
 21
205.5078955647699
 31
0.0
  0
LINE
  5
441
330
1D
100
AcDbEntity
  8
0
  6
Continuous
100
AcDbLine
 10
-126.51609
 20
205.5078155647699
 30
0.0
 11
-126.51609
 21
192.1040055647699
 31
0.0
  0
LINE
  5
442
330
1D
100
AcDbEntity
  8
0
  6
Continuous
100
AcDbLine
 10
-65.11556999999999
 20
205.5078955647699
 30
0.0
 11
-65.11556000000002
 21
206.5748155647699
 31
0.0
  0
LINE
  5
443
330
1D
100
AcDbEntity
  8
0
  6
Continuous
100
AcDbLine
 10
-65.11556000000002
 20
206.5748155647699
 30
0.0
 11
-65.71196000000004
 21
206.5748155647699
 31
0.0
  0
LINE
  5
444
330
1D
100
AcDbEntity
  8
0
  6
Continuous
100
AcDbLine
 10
-65.71196000000004
 20
206.5748155647699
 30
0.0
 11
-67.39515999999998
 21
206.5748155647699
 31
0.0
  0
LINE
  5
445
330
1D
100
AcDbEntity
  8
0
  6
Continuous
100
AcDbLine
 10
-67.39515999999998
 20
206.5748155647699
 30
0.0
 11
-70.26595000000003
 21
206.5748155647699
 31
0.0
  0
LINE
  5
446
330
1D
100
AcDbEntity
  8
0
  6
Continuous
100
AcDbLine
 10
-70.26595000000003
 20
206.5748155647699
 30
0.0
 11
-74.03915999999998
 21
206.5748155647699
 31
0.0
  0
LINE
  5
447
330
1D
100
AcDbEntity
  8
0
  6
Continuous
100
AcDbLine
 10
-78.60673
 20
206.5747755647699
 30
0.0
 11
-83.95170999999997
 21
206.5747755647699
 31
0.0
  0
LINE
  5
448
330
1D
100
AcDbEntity
  8
0
  6
Continuous
100
AcDbLine
 10
-83.95170999999997
 20
206.5747755647699
 30
0.0
 11
-89.65859999999997
 21
206.5747755647699
 31
0.0
  0
LINE
  5
449
330
1D
100
AcDbEntity
  8
0
  6
Continuous
100
AcDbLine
 10
-89.65859999999997
 20
206.5747755647699
 30
0.0
 11
-95.60107
 21
206.5747755647699
 31
0.0
  0
LINE
  5
44A
330
1D
100
AcDbEntity
  8
0
  6
Continuous
100
AcDbLine
 10
-95.60107
 20
206.5747755647699
 30
0.0
 11
-101.65377
 21
206.5747755647699
 31
0.0
  0
LINE
  5
44B
330
1D
100
AcDbEntity
  8
0
  6
Continuous
100
AcDbLine
 10
-101.65377
 20
206.5747755647699
 30
0.0
 11
-107.39156
 21
206.5747755647699
 31
0.0
  0
LINE
  5
44C
330
1D
100
AcDbEntity
  8
0
  6
Continuous
100
AcDbLine
 10
-107.39156
 20
206.5747755647699
 30
0.0
 11
-112.71052
 21
206.5747755647699
 31
0.0
  0
LINE
  5
44D
330
1D
100
AcDbEntity
  8
0
  6
Continuous
100
AcDbLine
 10
-112.71052
 20
206.5747755647699
 30
0.0
 11
-117.45181
 21
206.5747755647699
 31
0.0
  0
LINE
  5
44E
330
1D
100
AcDbEntity
  8
0
  6
Continuous
100
AcDbLine
 10
-117.45181
 20
206.5747755647699
 30
0.0
 11
-121.26453
 21
206.5747355647699
 31
0.0
  0
LINE
  5
44F
330
1D
100
AcDbEntity
  8
0
  6
Continuous
100
AcDbLine
 10
-126.51609
 20
206.5747455647699
 30
0.0
 11
-126.51609
 21
205.5078155647699
 31
0.0
  0
LINE
  5
450
330
1D
100
AcDbEntity
  8
0
  6
Continuous
100
AcDbLine
 10
-125.9591
 20
206.5747455647699
 30
0.0
 11
-126.51609
 21
206.5747455647699
 31
0.0
  0
LINE
  5
451
330
1D
100
AcDbEntity
  8
0
  6
Continuous
100
AcDbLine
 10
-124.13152
 20
206.5747755647699
 30
0.0
 11
-125.9591
 21
206.5747455647699
 31
0.0
  0
LINE
  5
452
330
1D
100
AcDbEntity
  8
0
  6
Continuous
100
AcDbLine
 10
-126.51609
 20
206.5747455647699
 30
0.0
 11
-125.5904
 21
206.5747455647699
 31
0.0
  0
LINE
  5
453
330
1D
100
AcDbEntity
  8
0
  6
Continuous
100
AcDbLine
 10
-125.9242699999999
 20
206.5747855647699
 30
0.0
 11
-126.51609
 21
206.5747455647699
 31
0.0
  0
LINE
  5
454
330
1D
100
AcDbEntity
  8
0
  6
Continuous
100
AcDbLine
 10
-125.01587
 20
206.5747855647699
 30
0.0
 11
-125.9242699999999
 21
206.5747855647699
 31
0.0
  0
LINE
  5
455
330
1D
100
AcDbEntity
  8
0
  6
Continuous
100
AcDbLine
 10
-116.79717
 20
206.5747855647699
 30
0.0
 11
-117.44994
 21
206.5747855647699
 31
0.0
  0
LINE
  5
456
330
1D
100
AcDbEntity
  8
0
  6
Continuous
100
AcDbLine
 10
-89.5987
 20
206.5748255647699
 30
0.0
 11
-89.78622999999997
 21
206.5748255647699
 31
0.0
  0
LINE
  5
457
330
1D
100
AcDbEntity
  8
0
  6
Continuous
100
AcDbLine
 10
-83.88709
 20
206.5747855647699
 30
0.0
 11
-89.5987
 21
206.5748255647699
 31
0.0
  0
LINE
  5
458
330
1D
100
AcDbEntity
  8
0
  6
Continuous
100
AcDbLine
 10
-84.24923999999998
 20
206.5747855647699
 30
0.0
 11
-83.88709
 21
206.5747855647699
 31
0.0
  0
LINE
  5
459
330
1D
100
AcDbEntity
  8
0
  6
Continuous
100
AcDbLine
 10
-78.62986999999998
 20
206.5748255647699
 30
0.0
 11
-79.14532
 21
206.5748255647699
 31
0.0
  0
LINE
  5
45A
330
1D
100
AcDbEntity
  8
0
  6
Continuous
100
AcDbLine
 10
-73.95881999999999
 20
206.5748155647699
 30
0.0
 11
-78.62986999999998
 21
206.5748255647699
 31
0.0
  0
LINE
  5
45B
330
1D
100
AcDbEntity
  8
0
  6
Continuous
100
AcDbLine
 10
-74.61755
 20
206.5748155647699
 30
0.0
 11
-73.95881999999999
 21
206.5748155647699
 31
0.0
  0
LINE
  5
45C
330
1D
100
AcDbEntity
  8
0
  6
Continuous
100
AcDbLine
 10
-74.03915999999998
 20
206.5748155647699
 30
0.0
 11
-74.69693999999998
 21
206.5748155647699
 31
0.0
  0
LINE
  5
45D
330
1D
100
AcDbEntity
  8
0
  6
Continuous
100
AcDbLine
 10
-78.60673
 20
206.5747755647699
 30
0.0
 11
-74.03915999999998
 21
206.5748155647699
 31
0.0
  0
LINE
  5
45E
330
1D
100
AcDbEntity
  8
0
  6
Continuous
100
AcDbLine
 10
-79.12600000000002
 20
206.5747755647699
 30
0.0
 11
-78.60673
 21
206.5747755647699
 31
0.0
  0
LINE
  5
45F
330
1D
100
AcDbEntity
  8
0
  6
Continuous
100
AcDbLine
 10
-124.13152
 20
206.5747755647699
 30
0.0
 11
-121.26453
 21
206.5747355647699
 31
0.0
  0
LINE
  5
460
330
1D
100
AcDbEntity
  8
0
  6
Continuous
100
AcDbLine
 10
-123.27898
 20
206.5747755647699
 30
0.0
 11
-124.13152
 21
206.5747755647699
 31
0.0
  0
LINE
  5
461
330
1D
100
AcDbEntity
  8
0
  6
Continuous
100
AcDbLine
 10
-95.81535999999999
 20
206.5747755647699
 30
0.0
 11
-79.12600000000002
 21
206.5747755647699
 31
0.0
  0
LINE
  5
462
330
1D
100
AcDbEntity
  8
0
  6
Continuous
100
AcDbLine
 10
-74.69693999999998
 20
206.5748155647699
 30
0.0
 11
-95.81535999999999
 21
206.5747755647699
 31
0.0
  0
LINE
  5
463
330
1D
100
AcDbEntity
  8
0
  6
Continuous
100
AcDbLine
 10
-95.81535999999999
 20
206.5747755647699
 30
0.0
 11
-123.27898
 21
206.5747755647699
 31
0.0
  0
LINE
  5
464
330
1D
100
AcDbEntity
  8
0
  6
Continuous
100
AcDbLine
 10
-95.81535999999999
 20
206.5747755647699
 30
0.0
 11
-74.61755
 21
206.5748155647699
 31
0.0
  0
LINE
  5
465
330
1D
100
AcDbEntity
  8
0
  6
Continuous
100
AcDbLine
 10
-79.14532
 20
206.5748255647699
 30
0.0
 11
-95.81535999999999
 21
206.5747755647699
 31
0.0
  0
LINE
  5
466
330
1D
100
AcDbEntity
  8
0
  6
Continuous
100
AcDbLine
 10
-95.81535999999999
 20
206.5747755647699
 30
0.0
 11
-84.24923999999998
 21
206.5747855647699
 31
0.0
  0
LINE
  5
467
330
1D
100
AcDbEntity
  8
0
  6
Continuous
100
AcDbLine
 10
-89.78622999999997
 20
206.5748255647699
 30
0.0
 11
-95.81535999999999
 21
206.5747755647699
 31
0.0
  0
LINE
  5
468
330
1D
100
AcDbEntity
  8
0
  6
Continuous
100
AcDbLine
 10
-95.81535999999999
 20
206.5747755647699
 30
0.0
 11
-116.79717
 21
206.5747855647699
 31
0.0
  0
LINE
  5
469
330
1D
100
AcDbEntity
  8
0
  6
Continuous
100
AcDbLine
 10
-95.81535999999999
 20
206.5747755647699
 30
0.0
 11
-125.01587
 21
206.5747855647699
 31
0.0
  0
LINE
  5
46A
330
1D
100
AcDbEntity
  8
0
  6
Continuous
100
AcDbLine
 10
-95.71512000000002
 20
190.5032755647699
 30
0.0
 11
-95.71512000000002
 21
125.9999955647699
 31
0.0
  0
LINE
  5
46B
330
1D
100
AcDbEntity
  8
0
  6
Continuous
100
AcDbLine
 10
-99.25729000000004
 20
125.9999955647699
 30
0.0
 11
-99.25729000000004
 21
190.5032755647699
 31
0.0
  0
LINE
  5
46C
330
1D
100
AcDbEntity
  8
0
  6
Continuous
100
AcDbLine
 10
-86.11016000000002
 20
125.9999955647699
 30
0.0
 11
-86.11016000000002
 21
190.5032755647699
 31
0.0
  0
LINE
  5
46D
330
1D
100
AcDbEntity
  8
0
  6
Continuous
100
AcDbLine
 10
-86.83699999999998
 20
190.5032755647699
 30
0.0
 11
-86.83699999999998
 21
125.9999955647699
 31
0.0
  0
LINE
  5
46E
330
1D
100
AcDbEntity
  8
0
  6
Continuous
100
AcDbLine
 10
-105.22573
 20
190.5032755647699
 30
0.0
 11
-105.22573
 21
125.9999955647699
 31
0.0
  0
LINE
  5
46F
330
1D
100
AcDbEntity
  8
0
  6
Continuous
100
AcDbLine
 10
65.48489
 20
192.1040755647699
 30
0.0
 11
65.48489
 21
191.4621455647699
 31
0.0
  0
LINE
  5
470
330
1D
100
AcDbEntity
  8
0
  6
Continuous
100
AcDbLine
 10
126.88535
 20
191.4620655647699
 30
0.0
 11
126.88535
 21
192.1040055647699
 31
0.0
  0
LINE
  5
471
330
1D
100
AcDbEntity
  8
0
  6
Continuous
100
AcDbLine
 10
65.48489
 20
191.4621455647699
 30
0.0
 11
65.76490999999998
 21
190.5032755647699
 31
0.0
  0
LINE
  5
472
330
1D
100
AcDbEntity
  8
0
  6
Continuous
100
AcDbLine
 10
65.76490999999998
 20
190.5032755647699
 30
0.0
 11
66.35275000000001
 21
190.5032755647699
 31
0.0
  0
LINE
  5
473
330
1D
100
AcDbEntity
  8
0
  6
Continuous
100
AcDbLine
 10
66.35275000000001
 20
190.5032755647699
 30
0.0
 11
68.05311999999998
 21
190.5032755647699
 31
0.0
  0
LINE
  5
474
330
1D
100
AcDbEntity
  8
0
  6
Continuous
100
AcDbLine
 10
68.05311999999998
 20
190.5032755647699
 30
0.0
 11
70.85617000000002
 21
190.5032755647699
 31
0.0
  0
LINE
  5
475
330
1D
100
AcDbEntity
  8
0
  6
Continuous
100
AcDbLine
 10
70.85617000000002
 20
190.5032755647699
 30
0.0
 11
74.61407000000003
 21
190.5032755647699
 31
0.0
  0
LINE
  5
476
330
1D
100
AcDbEntity
  8
0
  6
Continuous
100
AcDbLine
 10
74.61407000000003
 20
190.5032755647699
 30
0.0
 11
79.18047000000001
 21
190.5032755647699
 31
0.0
  0
LINE
  5
477
330
1D
100
AcDbEntity
  8
0
  6
Continuous
100
AcDbLine
 10
79.18047000000001
 20
190.5032755647699
 30
0.0
 11
84.40989000000001
 21
190.5032755647699
 31
0.0
  0
LINE
  5
478
330
1D
100
AcDbEntity
  8
0
  6
Continuous
100
AcDbLine
 10
84.40989000000001
 20
190.5032755647699
 30
0.0
 11
90.08877
 21
190.5032755647699
 31
0.0
  0
LINE
  5
479
330
1D
100
AcDbEntity
  8
0
  6
Continuous
100
AcDbLine
 10
90.08877
 20
190.5032755647699
 30
0.0
 11
95.99997999999999
 21
190.5032755647699
 31
0.0
  0
LINE
  5
47A
330
1D
100
AcDbEntity
  8
0
  6
Continuous
100
AcDbLine
 10
95.99997999999999
 20
190.5032755647699
 30
0.0
 11
101.91314
 21
190.5032755647699
 31
0.0
  0
LINE
  5
47B
330
1D
100
AcDbEntity
  8
0
  6
Continuous
100
AcDbLine
 10
101.91314
 20
190.5032755647699
 30
0.0
 11
107.6116
 21
190.5032755647699
 31
0.0
  0
LINE
  5
47C
330
1D
100
AcDbEntity
  8
0
  6
Continuous
100
AcDbLine
 10
107.6116
 20
190.5032755647699
 30
0.0
 11
112.8362599999999
 21
190.5032755647699
 31
0.0
  0
LINE
  5
47D
330
1D
100
AcDbEntity
  8
0
  6
Continuous
100
AcDbLine
 10
117.82107
 20
191.4620955647699
 30
0.0
 11
113.0797799999999
 21
191.4620955647699
 31
0.0
  0
LINE
  5
47E
330
1D
100
AcDbEntity
  8
0
  6
Continuous
100
AcDbLine
 10
112.8362599999999
 20
190.5032755647699
 30
0.0
 11
117.42984
 21
190.5032755647699
 31
0.0
  0
LINE
  5
47F
330
1D
100
AcDbEntity
  8
0
  6
Continuous
100
AcDbLine
 10
121.63372
 20
191.4620555647699
 30
0.0
 11
117.82107
 21
191.4620955647699
 31
0.0
  0
LINE
  5
480
330
1D
100
AcDbEntity
  8
0
  6
Continuous
100
AcDbLine
 10
117.42984
 20
190.5032755647699
 30
0.0
 11
121.20125
 21
190.5032755647699
 31
0.0
  0
LINE
  5
481
330
1D
100
AcDbEntity
  8
0
  6
Continuous
100
AcDbLine
 10
124.50078
 20
191.4620655647699
 30
0.0
 11
121.63372
 21
191.4620555647699
 31
0.0
  0
LINE
  5
482
330
1D
100
AcDbEntity
  8
0
  6
Continuous
100
AcDbLine
 10
121.20125
 20
190.5032755647699
 30
0.0
 11
124.00704
 21
190.5032755647699
 31
0.0
  0
LINE
  5
483
330
1D
100
AcDbEntity
  8
0
  6
Continuous
100
AcDbLine
 10
126.32836
 20
191.4620655647699
 30
0.0
 11
124.50078
 21
191.4620655647699
 31
0.0
  0
LINE
  5
484
330
1D
100
AcDbEntity
  8
0
  6
Continuous
100
AcDbLine
 10
124.00704
 20
190.5032755647699
 30
0.0
 11
125.73797
 21
190.5032755647699
 31
0.0
  0
LINE
  5
485
330
1D
100
AcDbEntity
  8
0
  6
Continuous
100
AcDbLine
 10
126.88535
 20
191.4620655647699
 30
0.0
 11
126.32836
 21
191.4620655647699
 31
0.0
  0
LINE
  5
486
330
1D
100
AcDbEntity
  8
0
  6
Continuous
100
AcDbLine
 10
126.3180699999999
 20
190.5032755647699
 30
0.0
 11
126.88535
 21
191.4620655647699
 31
0.0
  0
LINE
  5
487
330
1D
100
AcDbEntity
  8
0
  6
Continuous
100
AcDbLine
 10
125.73797
 20
190.5032755647699
 30
0.0
 11
126.3180699999999
 21
190.5032755647699
 31
0.0
  0
LINE
  5
488
330
1D
100
AcDbEntity
  8
0
  6
Continuous
100
AcDbLine
 10
65.48482999999999
 20
205.5078955647699
 30
0.0
 11
65.48489
 21
192.1040755647699
 31
0.0
  0
LINE
  5
489
330
1D
100
AcDbEntity
  8
0
  6
Continuous
100
AcDbLine
 10
126.88535
 20
192.1040055647699
 30
0.0
 11
126.88535
 21
205.5078155647699
 31
0.0
  0
LINE
  5
48A
330
1D
100
AcDbEntity
  8
0
  6
Continuous
100
AcDbLine
 10
66.08121999999998
 20
206.5748155647699
 30
0.0
 11
65.48482000000001
 21
206.5748155647699
 31
0.0
  0
LINE
  5
48B
330
1D
100
AcDbEntity
  8
0
  6
Continuous
100
AcDbLine
 10
65.48482000000001
 20
206.5748155647699
 30
0.0
 11
65.48482999999999
 21
205.5078955647699
 31
0.0
  0
LINE
  5
48C
330
1D
100
AcDbEntity
  8
0
  6
Continuous
100
AcDbLine
 10
67.76442000000002
 20
206.5748155647699
 30
0.0
 11
66.08121999999998
 21
206.5748155647699
 31
0.0
  0
LINE
  5
48D
330
1D
100
AcDbEntity
  8
0
  6
Continuous
100
AcDbLine
 10
70.63520999999997
 20
206.5748155647699
 30
0.0
 11
67.76442000000002
 21
206.5748155647699
 31
0.0
  0
LINE
  5
48E
330
1D
100
AcDbEntity
  8
0
  6
Continuous
100
AcDbLine
 10
74.40842000000003
 20
206.5748155647699
 30
0.0
 11
70.63520999999997
 21
206.5748155647699
 31
0.0
  0
LINE
  5
48F
330
1D
100
AcDbEntity
  8
0
  6
Continuous
100
AcDbLine
 10
84.32096999999997
 20
206.5747755647699
 30
0.0
 11
78.97598999999996
 21
206.5747755647699
 31
0.0
  0
LINE
  5
490
330
1D
100
AcDbEntity
  8
0
  6
Continuous
100
AcDbLine
 10
90.02785999999998
 20
206.5747755647699
 30
0.0
 11
84.32096999999997
 21
206.5747755647699
 31
0.0
  0
LINE
  5
491
330
1D
100
AcDbEntity
  8
0
  6
Continuous
100
AcDbLine
 10
95.97033000000001
 20
206.5747755647699
 30
0.0
 11
90.02785999999998
 21
206.5747755647699
 31
0.0
  0
LINE
  5
492
330
1D
100
AcDbEntity
  8
0
  6
Continuous
100
AcDbLine
 10
102.02303
 20
206.5747755647699
 30
0.0
 11
95.97033000000001
 21
206.5747755647699
 31
0.0
  0
LINE
  5
493
330
1D
100
AcDbEntity
  8
0
  6
Continuous
100
AcDbLine
 10
107.76082
 20
206.5747755647699
 30
0.0
 11
102.02303
 21
206.5747755647699
 31
0.0
  0
LINE
  5
494
330
1D
100
AcDbEntity
  8
0
  6
Continuous
100
AcDbLine
 10
113.0797799999999
 20
206.5747755647699
 30
0.0
 11
107.76082
 21
206.5747755647699
 31
0.0
  0
LINE
  5
495
330
1D
100
AcDbEntity
  8
0
  6
Continuous
100
AcDbLine
 10
117.82107
 20
206.5747755647699
 30
0.0
 11
113.0797799999999
 21
206.5747755647699
 31
0.0
  0
LINE
  5
496
330
1D
100
AcDbEntity
  8
0
  6
Continuous
100
AcDbLine
 10
121.63379
 20
206.5747355647699
 30
0.0
 11
117.82107
 21
206.5747755647699
 31
0.0
  0
LINE
  5
497
330
1D
100
AcDbEntity
  8
0
  6
Continuous
100
AcDbLine
 10
126.88535
 20
206.5747455647699
 30
0.0
 11
126.32836
 21
206.5747455647699
 31
0.0
  0
LINE
  5
498
330
1D
100
AcDbEntity
  8
0
  6
Continuous
100
AcDbLine
 10
126.88535
 20
205.5078155647699
 30
0.0
 11
126.88535
 21
206.5747455647699
 31
0.0
  0
LINE
  5
499
330
1D
100
AcDbEntity
  8
0
  6
Continuous
100
AcDbLine
 10
126.32836
 20
206.5747455647699
 30
0.0
 11
124.50078
 21
206.5747755647699
 31
0.0
  0
LINE
  5
49A
330
1D
100
AcDbEntity
  8
0
  6
Continuous
100
AcDbLine
 10
126.29353
 20
206.5747855647699
 30
0.0
 11
125.38513
 21
206.5747855647699
 31
0.0
  0
LINE
  5
49B
330
1D
100
AcDbEntity
  8
0
  6
Continuous
100
AcDbLine
 10
126.88535
 20
206.5747455647699
 30
0.0
 11
126.29353
 21
206.5747855647699
 31
0.0
  0
LINE
  5
49C
330
1D
100
AcDbEntity
  8
0
  6
Continuous
100
AcDbLine
 10
125.95966
 20
206.5747455647699
 30
0.0
 11
126.88535
 21
206.5747455647699
 31
0.0
  0
LINE
  5
49D
330
1D
100
AcDbEntity
  8
0
  6
Continuous
100
AcDbLine
 10
117.8191999999999
 20
206.5747855647699
 30
0.0
 11
117.16643
 21
206.5747855647699
 31
0.0
  0
LINE
  5
49E
330
1D
100
AcDbEntity
  8
0
  6
Continuous
100
AcDbLine
 10
84.25634999999997
 20
206.5747855647699
 30
0.0
 11
84.61849999999998
 21
206.5747855647699
 31
0.0
  0
LINE
  5
49F
330
1D
100
AcDbEntity
  8
0
  6
Continuous
100
AcDbLine
 10
89.96796000000001
 20
206.5748255647699
 30
0.0
 11
84.25634999999997
 21
206.5747855647699
 31
0.0
  0
LINE
  5
4A0
330
1D
100
AcDbEntity
  8
0
  6
Continuous
100
AcDbLine
 10
90.15548999999998
 20
206.5748255647699
 30
0.0
 11
89.96796000000001
 21
206.5748255647699
 31
0.0
  0
LINE
  5
4A1
330
1D
100
AcDbEntity
  8
0
  6
Continuous
100
AcDbLine
 10
74.32808
 20
206.5748155647699
 30
0.0
 11
74.98680999999997
 21
206.5748155647699
 31
0.0
  0
LINE
  5
4A2
330
1D
100
AcDbEntity
  8
0
  6
Continuous
100
AcDbLine
 10
78.99912999999997
 20
206.5748255647699
 30
0.0
 11
74.32808
 21
206.5748155647699
 31
0.0
  0
LINE
  5
4A3
330
1D
100
AcDbEntity
  8
0
  6
Continuous
100
AcDbLine
 10
79.51457999999997
 20
206.5748255647699
 30
0.0
 11
78.99912999999997
 21
206.5748255647699
 31
0.0
  0
LINE
  5
4A4
330
1D
100
AcDbEntity
  8
0
  6
Continuous
100
AcDbLine
 10
78.97598999999996
 20
206.5747755647699
 30
0.0
 11
79.49525999999997
 21
206.5747755647699
 31
0.0
  0
LINE
  5
4A5
330
1D
100
AcDbEntity
  8
0
  6
Continuous
100
AcDbLine
 10
74.40842000000003
 20
206.5748155647699
 30
0.0
 11
78.97598999999996
 21
206.5747755647699
 31
0.0
  0
LINE
  5
4A6
330
1D
100
AcDbEntity
  8
0
  6
Continuous
100
AcDbLine
 10
75.06619999999998
 20
206.5748155647699
 30
0.0
 11
74.40842000000003
 21
206.5748155647699
 31
0.0
  0
LINE
  5
4A7
330
1D
100
AcDbEntity
  8
0
  6
Continuous
100
AcDbLine
 10
124.50078
 20
206.5747755647699
 30
0.0
 11
123.64824
 21
206.5747755647699
 31
0.0
  0
LINE
  5
4A8
330
1D
100
AcDbEntity
  8
0
  6
Continuous
100
AcDbLine
 10
121.63379
 20
206.5747355647699
 30
0.0
 11
124.50078
 21
206.5747755647699
 31
0.0
  0
LINE
  5
4A9
330
1D
100
AcDbEntity
  8
0
  6
Continuous
100
AcDbLine
 10
96.18462
 20
206.5747755647699
 30
0.0
 11
75.06619999999998
 21
206.5748155647699
 31
0.0
  0
LINE
  5
4AA
330
1D
100
AcDbEntity
  8
0
  6
Continuous
100
AcDbLine
 10
79.49525999999997
 20
206.5747755647699
 30
0.0
 11
96.18462
 21
206.5747755647699
 31
0.0
  0
LINE
  5
4AB
330
1D
100
AcDbEntity
  8
0
  6
Continuous
100
AcDbLine
 10
123.64824
 20
206.5747755647699
 30
0.0
 11
96.18462
 21
206.5747755647699
 31
0.0
  0
LINE
  5
4AC
330
1D
100
AcDbEntity
  8
0
  6
Continuous
100
AcDbLine
 10
96.18462
 20
206.5747755647699
 30
0.0
 11
79.51457999999997
 21
206.5748255647699
 31
0.0
  0
LINE
  5
4AD
330
1D
100
AcDbEntity
  8
0
  6
Continuous
100
AcDbLine
 10
74.98680999999997
 20
206.5748155647699
 30
0.0
 11
96.18462
 21
206.5747755647699
 31
0.0
  0
LINE
  5
4AE
330
1D
100
AcDbEntity
  8
0
  6
Continuous
100
AcDbLine
 10
96.18462
 20
206.5747755647699
 30
0.0
 11
90.15548999999998
 21
206.5748255647699
 31
0.0
  0
LINE
  5
4AF
330
1D
100
AcDbEntity
  8
0
  6
Continuous
100
AcDbLine
 10
84.61849999999998
 20
206.5747855647699
 30
0.0
 11
96.18462
 21
206.5747755647699
 31
0.0
  0
LINE
  5
4B0
330
1D
100
AcDbEntity
  8
0
  6
Continuous
100
AcDbLine
 10
117.16643
 20
206.5747855647699
 30
0.0
 11
96.18462
 21
206.5747755647699
 31
0.0
  0
LINE
  5
4B1
330
1D
100
AcDbEntity
  8
0
  6
Continuous
100
AcDbLine
 10
125.38513
 20
206.5747855647699
 30
0.0
 11
96.18462
 21
206.5747755647699
 31
0.0
  0
LINE
  5
4B2
330
1D
100
AcDbEntity
  8
0
  6
Continuous
100
AcDbLine
 10
96.08437999999999
 20
125.9999955647699
 30
0.0
 11
96.08437999999999
 21
190.5032755647699
 31
0.0
  0
LINE
  5
4B3
330
1D
100
AcDbEntity
  8
0
  6
Continuous
100
AcDbLine
 10
99.62654999999999
 20
190.5032755647699
 30
0.0
 11
99.62654999999999
 21
125.9999955647699
 31
0.0
  0
LINE
  5
4B4
330
1D
100
AcDbEntity
  8
0
  6
Continuous
100
AcDbLine
 10
87.20625999999999
 20
125.9999955647699
 30
0.0
 11
87.20625999999999
 21
190.5032755647699
 31
0.0
  0
LINE
  5
4B5
330
1D
100
AcDbEntity
  8
0
  6
Continuous
100
AcDbLine
 10
86.47941999999998
 20
190.5032755647699
 30
0.0
 11
86.47941999999998
 21
125.9999955647699
 31
0.0
  0
LINE
  5
4B6
330
1D
100
AcDbEntity
  8
0
  6
Continuous
100
AcDbLine
 10
105.59499
 20
125.9999955647699
 30
0.0
 11
105.59499
 21
190.5032755647699
 31
0.0
  0
LINE
  5
4B7
330
1D
100
AcDbEntity
  8
0
  6
Continuous
100
AcDbLine
 10
-139.57585
 20
109.6371655647699
 30
0.0
 11
-139.57585
 21
106.1525255647699
 31
0.0
  0
LINE
  5
4B8
330
1D
100
AcDbEntity
  8
0
  6
Continuous
100
AcDbLine
 10
-139.57585
 20
120.8472755647699
 30
0.0
 11
-139.57585
 21
117.3626355647698
 31
0.0
  0
LINE
  5
4B9
330
1D
100
AcDbEntity
  8
0
  6
Continuous
100
AcDbLine
 10
-139.57585
 20
106.1525255647699
 30
0.0
 11
-139.57585
 21
103.3870955647699
 31
0.0
  0
LINE
  5
4BA
330
1D
100
AcDbEntity
  8
0
  6
Continuous
100
AcDbLine
 10
-139.57585
 20
103.3870955647699
 30
0.0
 11
-139.57585
 21
101.6115855647699
 31
0.0
  0
LINE
  5
4BB
330
1D
100
AcDbEntity
  8
0
  6
Continuous
100
AcDbLine
 10
-139.57585
 20
100.9997855647699
 30
0.0
 11
-79.81537
 21
100.9997855647699
 31
0.0
  0
LINE
  5
4BC
330
1D
100
AcDbEntity
  8
0
  6
Continuous
100
AcDbLine
 10
-139.57585
 20
101.6115855647699
 30
0.0
 11
-139.57585
 21
100.9997855647699
 31
0.0
  0
LINE
  5
4BD
330
1D
100
AcDbEntity
  8
0
  6
Continuous
100
AcDbLine
 10
-79.81537
 20
125.9999955647699
 30
0.0
 11
-86.11016000000002
 21
125.9999955647699
 31
0.0
  0
LINE
  5
4BE
330
1D
100
AcDbEntity
  8
0
  6
Continuous
100
AcDbLine
 10
-105.22573
 20
125.9999955647699
 30
0.0
 11
-139.57585
 21
125.9999955647699
 31
0.0
  0
LINE
  5
4BF
330
1D
100
AcDbEntity
  8
0
  6
Continuous
100
AcDbLine
 10
-139.57585
 20
125.9999955647699
 30
0.0
 11
-139.57585
 21
125.3882055647699
 31
0.0
  0
LINE
  5
4C0
330
1D
100
AcDbEntity
  8
0
  6
Continuous
100
AcDbLine
 10
-139.57585
 20
125.3882055647699
 30
0.0
 11
-139.57585
 21
123.6126955647699
 31
0.0
  0
LINE
  5
4C1
330
1D
100
AcDbEntity
  8
0
  6
Continuous
100
AcDbLine
 10
-139.57585
 20
113.4998955647699
 30
0.0
 11
-139.57585
 21
109.6371655647699
 31
0.0
  0
LINE
  5
4C2
330
1D
100
AcDbEntity
  8
0
  6
Continuous
100
AcDbLine
 10
-139.57585
 20
123.6126955647699
 30
0.0
 11
-139.57585
 21
120.8472755647699
 31
0.0
  0
LINE
  5
4C3
330
1D
100
AcDbEntity
  8
0
  6
Continuous
100
AcDbLine
 10
-140.05489
 20
106.1525255647699
 30
0.0
 11
-140.05489
 21
109.6371655647699
 31
0.0
  0
LINE
  5
4C4
330
1D
100
AcDbEntity
  8
0
  6
Continuous
100
AcDbLine
 10
-140.05489
 20
109.6371655647699
 30
0.0
 11
-140.05489
 21
113.4998955647699
 31
0.0
  0
LINE
  5
4C5
330
1D
100
AcDbEntity
  8
0
  6
Continuous
100
AcDbLine
 10
-140.05489
 20
103.3870955647699
 30
0.0
 11
-140.05489
 21
106.1525255647699
 31
0.0
  0
LINE
  5
4C6
330
1D
100
AcDbEntity
  8
0
  6
Continuous
100
AcDbLine
 10
-140.05489
 20
101.6115855647699
 30
0.0
 11
-140.05489
 21
103.3870955647699
 31
0.0
  0
LINE
  5
4C7
330
1D
100
AcDbEntity
  8
0
  6
Continuous
100
AcDbLine
 10
-140.05489
 20
100.9997855647699
 30
0.0
 11
-140.05489
 21
101.6115855647699
 31
0.0
  0
LINE
  5
4C8
330
1D
100
AcDbEntity
  8
0
  6
Continuous
100
AcDbLine
 10
-141.06926
 20
100.9997855647699
 30
0.0
 11
-140.05489
 21
100.9997855647699
 31
0.0
  0
LINE
  5
4C9
330
1D
100
AcDbEntity
  8
0
  6
Continuous
100
AcDbLine
 10
-140.05489
 20
125.3882055647699
 30
0.0
 11
-140.05489
 21
125.9999955647699
 31
0.0
  0
LINE
  5
4CA
330
1D
100
AcDbEntity
  8
0
  6
Continuous
100
AcDbLine
 10
-140.05489
 20
125.9999955647699
 30
0.0
 11
-141.06926
 21
125.9999955647699
 31
0.0
  0
LINE
  5
4CB
330
1D
100
AcDbEntity
  8
0
  6
Continuous
100
AcDbLine
 10
-140.05489
 20
123.6126955647699
 30
0.0
 11
-140.05489
 21
125.3882055647699
 31
0.0
  0
LINE
  5
4CC
330
1D
100
AcDbEntity
  8
0
  6
Continuous
100
AcDbLine
 10
-139.57585
 20
117.3626355647698
 30
0.0
 11
-139.57585
 21
113.4998955647699
 31
0.0
  0
LINE
  5
4CD
330
1D
100
AcDbEntity
  8
0
  6
Continuous
100
AcDbLine
 10
-140.05489
 20
120.8472755647699
 30
0.0
 11
-140.05489
 21
123.6126955647699
 31
0.0
  0
LINE
  5
4CE
330
1D
100
AcDbEntity
  8
0
  6
Continuous
100
AcDbLine
 10
-140.05489
 20
117.3626355647698
 30
0.0
 11
-140.05489
 21
120.8472755647699
 31
0.0
  0
LINE
  5
4CF
330
1D
100
AcDbEntity
  8
0
  6
Continuous
100
AcDbLine
 10
-141.94836
 20
117.3626355647698
 30
0.0
 11
-141.94836
 21
113.4998955647699
 31
0.0
  0
LINE
  5
4D0
330
1D
100
AcDbEntity
  8
0
  6
Continuous
100
AcDbLine
 10
-141.94836
 20
120.8472755647699
 30
0.0
 11
-141.94836
 21
117.3626355647698
 31
0.0
  0
LINE
  5
4D1
330
1D
100
AcDbEntity
  8
0
  6
Continuous
100
AcDbLine
 10
-141.94836
 20
123.6126955647699
 30
0.0
 11
-141.94836
 21
120.8472755647699
 31
0.0
  0
LINE
  5
4D2
330
1D
100
AcDbEntity
  8
0
  6
Continuous
100
AcDbLine
 10
-141.94836
 20
125.3882055647699
 30
0.0
 11
-141.94836
 21
123.6126955647699
 31
0.0
  0
LINE
  5
4D3
330
1D
100
AcDbEntity
  8
0
  6
Continuous
100
AcDbLine
 10
-141.06926
 20
125.9999955647699
 30
0.0
 11
-141.94836
 21
125.9999955647699
 31
0.0
  0
LINE
  5
4D4
330
1D
100
AcDbEntity
  8
0
  6
Continuous
100
AcDbLine
 10
-141.94836
 20
125.9999955647699
 30
0.0
 11
-141.94836
 21
125.3882055647699
 31
0.0
  0
LINE
  5
4D5
330
1D
100
AcDbEntity
  8
0
  6
Continuous
100
AcDbLine
 10
-141.94836
 20
100.9997855647699
 30
0.0
 11
-141.06926
 21
100.9997855647699
 31
0.0
  0
LINE
  5
4D6
330
1D
100
AcDbEntity
  8
0
  6
Continuous
100
AcDbLine
 10
-141.94836
 20
101.6115855647699
 30
0.0
 11
-141.94836
 21
100.9997855647699
 31
0.0
  0
LINE
  5
4D7
330
1D
100
AcDbEntity
  8
0
  6
Continuous
100
AcDbLine
 10
-141.94836
 20
103.3870955647699
 30
0.0
 11
-141.94836
 21
101.6115855647699
 31
0.0
  0
LINE
  5
4D8
330
1D
100
AcDbEntity
  8
0
  6
Continuous
100
AcDbLine
 10
-141.94836
 20
106.1525255647699
 30
0.0
 11
-141.94836
 21
103.3870955647699
 31
0.0
  0
LINE
  5
4D9
330
1D
100
AcDbEntity
  8
0
  6
Continuous
100
AcDbLine
 10
-141.94836
 20
109.6371655647699
 30
0.0
 11
-141.94836
 21
106.1525255647699
 31
0.0
  0
LINE
  5
4DA
330
1D
100
AcDbEntity
  8
0
  6
Continuous
100
AcDbLine
 10
-141.94836
 20
113.4998955647699
 30
0.0
 11
-141.94836
 21
109.6371655647699
 31
0.0
  0
LINE
  5
4DB
330
1D
100
AcDbEntity
  8
0
  6
Continuous
100
AcDbLine
 10
-140.05489
 20
117.3626355647698
 30
0.0
 11
-140.05489
 21
113.4998955647699
 31
0.0
  0
LINE
  5
4DC
330
1D
100
AcDbEntity
  8
0
  6
Continuous
100
AcDbLine
 10
-139.57585
 20
113.4998955647699
 30
0.0
 11
-139.57585
 21
117.3626355647698
 31
0.0
  0
LINE
  5
4DD
330
1D
100
AcDbEntity
  8
0
  6
Continuous
100
AcDbLine
 10
-139.81537
 20
117.3299155647699
 30
0.0
 11
-139.81537
 21
113.4998955647699
 31
0.0
  0
LINE
  5
4DE
330
1D
100
AcDbEntity
  8
0
  6
Continuous
100
AcDbLine
 10
-140.05489
 20
120.8472755647699
 30
0.0
 11
-140.05489
 21
117.3626355647698
 31
0.0
  0
LINE
  5
4DF
330
1D
100
AcDbEntity
  8
0
  6
Continuous
100
AcDbLine
 10
-139.57585
 20
117.3626355647698
 30
0.0
 11
-139.57585
 21
120.8472755647699
 31
0.0
  0
LINE
  5
4E0
330
1D
100
AcDbEntity
  8
0
  6
Continuous
100
AcDbLine
 10
-139.81537
 20
120.7850155647699
 30
0.0
 11
-139.81537
 21
117.3299155647699
 31
0.0
  0
LINE
  5
4E1
330
1D
100
AcDbEntity
  8
0
  6
Continuous
100
AcDbLine
 10
-140.05489
 20
123.6126955647699
 30
0.0
 11
-140.05489
 21
120.8472755647699
 31
0.0
  0
LINE
  5
4E2
330
1D
100
AcDbEntity
  8
0
  6
Continuous
100
AcDbLine
 10
-139.57585
 20
120.8472755647699
 30
0.0
 11
-139.57585
 21
123.6126955647699
 31
0.0
  0
LINE
  5
4E3
330
1D
100
AcDbEntity
  8
0
  6
Continuous
100
AcDbLine
 10
-139.81537
 20
123.5270255647699
 30
0.0
 11
-139.81537
 21
120.7850155647699
 31
0.0
  0
LINE
  5
4E4
330
1D
100
AcDbEntity
  8
0
  6
Continuous
100
AcDbLine
 10
-140.05489
 20
125.3882055647699
 30
0.0
 11
-140.05489
 21
123.6126955647699
 31
0.0
  0
LINE
  5
4E5
330
1D
100
AcDbEntity
  8
0
  6
Continuous
100
AcDbLine
 10
-139.57585
 20
123.6126955647699
 30
0.0
 11
-139.57585
 21
125.3882055647699
 31
0.0
  0
LINE
  5
4E6
330
1D
100
AcDbEntity
  8
0
  6
Continuous
100
AcDbLine
 10
-139.81537
 20
125.2874955647699
 30
0.0
 11
-139.81537
 21
123.5270255647699
 31
0.0
  0
LINE
  5
4E7
330
1D
100
AcDbEntity
  8
0
  6
Continuous
100
AcDbLine
 10
-139.81537
 20
125.8940955647699
 30
0.0
 11
-140.05489
 21
125.9999955647699
 31
0.0
  0
LINE
  5
4E8
330
1D
100
AcDbEntity
  8
0
  6
Continuous
100
AcDbLine
 10
-140.05489
 20
125.9999955647699
 30
0.0
 11
-140.05489
 21
125.3882055647699
 31
0.0
  0
LINE
  5
4E9
330
1D
100
AcDbEntity
  8
0
  6
Continuous
100
AcDbLine
 10
-139.57585
 20
125.9999955647699
 30
0.0
 11
-139.81537
 21
125.8940955647699
 31
0.0
  0
LINE
  5
4EA
330
1D
100
AcDbEntity
  8
0
  6
Continuous
100
AcDbLine
 10
-139.57585
 20
125.3882055647699
 30
0.0
 11
-139.57585
 21
125.9999955647699
 31
0.0
  0
LINE
  5
4EB
330
1D
100
AcDbEntity
  8
0
  6
Continuous
100
AcDbLine
 10
-139.81537
 20
125.8940955647699
 30
0.0
 11
-139.81537
 21
125.2874955647699
 31
0.0
  0
LINE
  5
4EC
330
1D
100
AcDbEntity
  8
0
  6
Continuous
100
AcDbLine
 10
-140.05489
 20
100.9997855647699
 30
0.0
 11
-139.81537
 21
101.1056755647699
 31
0.0
  0
LINE
  5
4ED
330
1D
100
AcDbEntity
  8
0
  6
Continuous
100
AcDbLine
 10
-140.05489
 20
101.6115855647699
 30
0.0
 11
-140.05489
 21
100.9997855647699
 31
0.0
  0
LINE
  5
4EE
330
1D
100
AcDbEntity
  8
0
  6
Continuous
100
AcDbLine
 10
-139.57585
 20
100.9997855647699
 30
0.0
 11
-139.57585
 21
101.6115855647699
 31
0.0
  0
LINE
  5
4EF
330
1D
100
AcDbEntity
  8
0
  6
Continuous
100
AcDbLine
 10
-139.81537
 20
101.1056755647699
 30
0.0
 11
-139.57585
 21
100.9997855647699
 31
0.0
  0
LINE
  5
4F0
330
1D
100
AcDbEntity
  8
0
  6
Continuous
100
AcDbLine
 10
-139.81537
 20
101.7122955647699
 30
0.0
 11
-139.81537
 21
101.1056755647699
 31
0.0
  0
LINE
  5
4F1
330
1D
100
AcDbEntity
  8
0
  6
Continuous
100
AcDbLine
 10
-140.05489
 20
103.3870955647699
 30
0.0
 11
-140.05489
 21
101.6115855647699
 31
0.0
  0
LINE
  5
4F2
330
1D
100
AcDbEntity
  8
0
  6
Continuous
100
AcDbLine
 10
-139.57585
 20
101.6115855647699
 30
0.0
 11
-139.57585
 21
103.3870955647699
 31
0.0
  0
LINE
  5
4F3
330
1D
100
AcDbEntity
  8
0
  6
Continuous
100
AcDbLine
 10
-139.81537
 20
103.4727655647699
 30
0.0
 11
-139.81537
 21
101.7122955647699
 31
0.0
  0
LINE
  5
4F4
330
1D
100
AcDbEntity
  8
0
  6
Continuous
100
AcDbLine
 10
-140.05489
 20
106.1525255647699
 30
0.0
 11
-140.05489
 21
103.3870955647699
 31
0.0
  0
LINE
  5
4F5
330
1D
100
AcDbEntity
  8
0
  6
Continuous
100
AcDbLine
 10
-139.57585
 20
103.3870955647699
 30
0.0
 11
-139.57585
 21
106.1525255647699
 31
0.0
  0
LINE
  5
4F6
330
1D
100
AcDbEntity
  8
0
  6
Continuous
100
AcDbLine
 10
-139.81537
 20
106.2147655647699
 30
0.0
 11
-139.81537
 21
103.4727655647699
 31
0.0
  0
LINE
  5
4F7
330
1D
100
AcDbEntity
  8
0
  6
Continuous
100
AcDbLine
 10
-140.05489
 20
109.6371655647699
 30
0.0
 11
-140.05489
 21
106.1525255647699
 31
0.0
  0
LINE
  5
4F8
330
1D
100
AcDbEntity
  8
0
  6
Continuous
100
AcDbLine
 10
-139.57585
 20
106.1525255647699
 30
0.0
 11
-139.57585
 21
109.6371655647699
 31
0.0
  0
LINE
  5
4F9
330
1D
100
AcDbEntity
  8
0
  6
Continuous
100
AcDbLine
 10
-139.81537
 20
109.6698755647699
 30
0.0
 11
-139.81537
 21
106.2147655647699
 31
0.0
  0
LINE
  5
4FA
330
1D
100
AcDbEntity
  8
0
  6
Continuous
100
AcDbLine
 10
-140.05489
 20
113.4998955647699
 30
0.0
 11
-140.05489
 21
109.6371655647699
 31
0.0
  0
LINE
  5
4FB
330
1D
100
AcDbEntity
  8
0
  6
Continuous
100
AcDbLine
 10
-139.57585
 20
109.6371655647699
 30
0.0
 11
-139.57585
 21
113.4998955647699
 31
0.0
  0
LINE
  5
4FC
330
1D
100
AcDbEntity
  8
0
  6
Continuous
100
AcDbLine
 10
-139.81537
 20
113.4998955647699
 30
0.0
 11
-139.81537
 21
109.6698755647699
 31
0.0
  0
LINE
  5
4FD
330
1D
100
AcDbEntity
  8
0
  6
Continuous
100
AcDbLine
 10
-140.05489
 20
113.4998955647699
 30
0.0
 11
-140.05489
 21
117.3626355647698
 31
0.0
  0
LINE
  5
4FE
330
1D
100
AcDbEntity
  8
0
  6
Continuous
100
AcDbLine
 10
139.94513
 20
106.1525255647699
 30
0.0
 11
139.94513
 21
109.6371655647699
 31
0.0
  0
LINE
  5
4FF
330
1D
100
AcDbEntity
  8
0
  6
Continuous
100
AcDbLine
 10
139.94513
 20
117.3626355647698
 30
0.0
 11
139.94513
 21
120.8472755647699
 31
0.0
  0
LINE
  5
500
330
1D
100
AcDbEntity
  8
0
  6
Continuous
100
AcDbLine
 10
139.94513
 20
103.3870955647699
 30
0.0
 11
139.94513
 21
106.1525255647699
 31
0.0
  0
LINE
  5
501
330
1D
100
AcDbEntity
  8
0
  6
Continuous
100
AcDbLine
 10
139.94513
 20
101.6115855647699
 30
0.0
 11
139.94513
 21
103.3870955647699
 31
0.0
  0
LINE
  5
502
330
1D
100
AcDbEntity
  8
0
  6
Continuous
100
AcDbLine
 10
139.94513
 20
100.9997855647699
 30
0.0
 11
139.94513
 21
101.6115855647699
 31
0.0
  0
LINE
  5
503
330
1D
100
AcDbEntity
  8
0
  6
Continuous
100
AcDbLine
 10
80.18464999999997
 20
100.9997855647699
 30
0.0
 11
139.94513
 21
100.9997855647699
 31
0.0
  0
LINE
  5
504
330
1D
100
AcDbEntity
  8
0
  6
Continuous
100
AcDbLine
 10
139.94513
 20
125.3882055647699
 30
0.0
 11
139.94513
 21
125.9999955647699
 31
0.0
  0
LINE
  5
505
330
1D
100
AcDbEntity
  8
0
  6
Continuous
100
AcDbLine
 10
139.94513
 20
125.9999955647699
 30
0.0
 11
105.59499
 21
125.9999955647699
 31
0.0
  0
LINE
  5
506
330
1D
100
AcDbEntity
  8
0
  6
Continuous
100
AcDbLine
 10
86.47941999999998
 20
125.9999955647699
 30
0.0
 11
80.18464999999997
 21
125.9999955647699
 31
0.0
  0
LINE
  5
507
330
1D
100
AcDbEntity
  8
0
  6
Continuous
100
AcDbLine
 10
139.94513
 20
123.6126955647699
 30
0.0
 11
139.94513
 21
125.3882055647699
 31
0.0
  0
LINE
  5
508
330
1D
100
AcDbEntity
  8
0
  6
Continuous
100
AcDbLine
 10
139.94513
 20
109.6371655647699
 30
0.0
 11
139.94513
 21
113.4998955647699
 31
0.0
  0
LINE
  5
509
330
1D
100
AcDbEntity
  8
0
  6
Continuous
100
AcDbLine
 10
139.94513
 20
120.8472755647699
 30
0.0
 11
139.94513
 21
123.6126955647699
 31
0.0
  0
LINE
  5
50A
330
1D
100
AcDbEntity
  8
0
  6
Continuous
100
AcDbLine
 10
140.4241599999999
 20
109.6371655647699
 30
0.0
 11
140.4241599999999
 21
106.1525255647699
 31
0.0
  0
LINE
  5
50B
330
1D
100
AcDbEntity
  8
0
  6
Continuous
100
AcDbLine
 10
140.4241599999999
 20
113.4998955647699
 30
0.0
 11
140.4241599999999
 21
109.6371655647699
 31
0.0
  0
LINE
  5
50C
330
1D
100
AcDbEntity
  8
0
  6
Continuous
100
AcDbLine
 10
140.4241599999999
 20
106.1525255647699
 30
0.0
 11
140.4241599999999
 21
103.3870955647699
 31
0.0
  0
LINE
  5
50D
330
1D
100
AcDbEntity
  8
0
  6
Continuous
100
AcDbLine
 10
140.4241599999999
 20
103.3870955647699
 30
0.0
 11
140.4241599999999
 21
101.6115855647699
 31
0.0
  0
LINE
  5
50E
330
1D
100
AcDbEntity
  8
0
  6
Continuous
100
AcDbLine
 10
140.4241599999999
 20
100.9997855647699
 30
0.0
 11
141.43854
 21
100.9997855647699
 31
0.0
  0
LINE
  5
50F
330
1D
100
AcDbEntity
  8
0
  6
Continuous
100
AcDbLine
 10
140.4241599999999
 20
101.6115855647699
 30
0.0
 11
140.4241599999999
 21
100.9997855647699
 31
0.0
  0
LINE
  5
510
330
1D
100
AcDbEntity
  8
0
  6
Continuous
100
AcDbLine
 10
141.43854
 20
125.9999955647699
 30
0.0
 11
140.4241599999999
 21
125.9999955647699
 31
0.0
  0
LINE
  5
511
330
1D
100
AcDbEntity
  8
0
  6
Continuous
100
AcDbLine
 10
140.4241599999999
 20
125.9999955647699
 30
0.0
 11
140.4241599999999
 21
125.3882055647699
 31
0.0
  0
LINE
  5
512
330
1D
100
AcDbEntity
  8
0
  6
Continuous
100
AcDbLine
 10
140.4241599999999
 20
125.3882055647699
 30
0.0
 11
140.4241599999999
 21
123.6126955647699
 31
0.0
  0
LINE
  5
513
330
1D
100
AcDbEntity
  8
0
  6
Continuous
100
AcDbLine
 10
139.94513
 20
113.4998955647699
 30
0.0
 11
139.94513
 21
117.3626355647698
 31
0.0
  0
LINE
  5
514
330
1D
100
AcDbEntity
  8
0
  6
Continuous
100
AcDbLine
 10
140.4241599999999
 20
123.6126955647699
 30
0.0
 11
140.4241599999999
 21
120.8472755647699
 31
0.0
  0
LINE
  5
515
330
1D
100
AcDbEntity
  8
0
  6
Continuous
100
AcDbLine
 10
140.4241599999999
 20
120.8472755647699
 30
0.0
 11
140.4241599999999
 21
117.3626355647698
 31
0.0
  0
LINE
  5
516
330
1D
100
AcDbEntity
  8
0
  6
Continuous
100
AcDbLine
 10
142.31764
 20
113.4998955647699
 30
0.0
 11
142.31764
 21
117.3626355647698
 31
0.0
  0
LINE
  5
517
330
1D
100
AcDbEntity
  8
0
  6
Continuous
100
AcDbLine
 10
142.31764
 20
117.3626355647698
 30
0.0
 11
142.31764
 21
120.8472755647699
 31
0.0
  0
LINE
  5
518
330
1D
100
AcDbEntity
  8
0
  6
Continuous
100
AcDbLine
 10
142.31764
 20
120.8472755647699
 30
0.0
 11
142.31764
 21
123.6126955647699
 31
0.0
  0
LINE
  5
519
330
1D
100
AcDbEntity
  8
0
  6
Continuous
100
AcDbLine
 10
142.31764
 20
123.6126955647699
 30
0.0
 11
142.31764
 21
125.3882055647699
 31
0.0
  0
LINE
  5
51A
330
1D
100
AcDbEntity
  8
0
  6
Continuous
100
AcDbLine
 10
142.31764
 20
125.3882055647699
 30
0.0
 11
142.31764
 21
125.9999955647699
 31
0.0
  0
LINE
  5
51B
330
1D
100
AcDbEntity
  8
0
  6
Continuous
100
AcDbLine
 10
142.31764
 20
125.9999955647699
 30
0.0
 11
141.43854
 21
125.9999955647699
 31
0.0
  0
LINE
  5
51C
330
1D
100
AcDbEntity
  8
0
  6
Continuous
100
AcDbLine
 10
142.31764
 20
100.9997855647699
 30
0.0
 11
142.31764
 21
101.6115855647699
 31
0.0
  0
LINE
  5
51D
330
1D
100
AcDbEntity
  8
0
  6
Continuous
100
AcDbLine
 10
141.43854
 20
100.9997855647699
 30
0.0
 11
142.31764
 21
100.9997855647699
 31
0.0
  0
LINE
  5
51E
330
1D
100
AcDbEntity
  8
0
  6
Continuous
100
AcDbLine
 10
142.31764
 20
101.6115855647699
 30
0.0
 11
142.31764
 21
103.3870955647699
 31
0.0
  0
LINE
  5
51F
330
1D
100
AcDbEntity
  8
0
  6
Continuous
100
AcDbLine
 10
142.31764
 20
103.3870955647699
 30
0.0
 11
142.31764
 21
106.1525255647699
 31
0.0
  0
LINE
  5
520
330
1D
100
AcDbEntity
  8
0
  6
Continuous
100
AcDbLine
 10
142.31764
 20
106.1525255647699
 30
0.0
 11
142.31764
 21
109.6371655647699
 31
0.0
  0
LINE
  5
521
330
1D
100
AcDbEntity
  8
0
  6
Continuous
100
AcDbLine
 10
142.31764
 20
109.6371655647699
 30
0.0
 11
142.31764
 21
113.4998955647699
 31
0.0
  0
LINE
  5
522
330
1D
100
AcDbEntity
  8
0
  6
Continuous
100
AcDbLine
 10
140.4241599999999
 20
113.4998955647699
 30
0.0
 11
140.4241599999999
 21
117.3626355647698
 31
0.0
  0
LINE
  5
523
330
1D
100
AcDbEntity
  8
0
  6
Continuous
100
AcDbLine
 10
140.1846499999999
 20
113.4998955647699
 30
0.0
 11
140.1846499999999
 21
117.3299155647699
 31
0.0
  0
LINE
  5
524
330
1D
100
AcDbEntity
  8
0
  6
Continuous
100
AcDbLine
 10
139.94513
 20
117.3626355647698
 30
0.0
 11
139.94513
 21
113.4998955647699
 31
0.0
  0
LINE
  5
525
330
1D
100
AcDbEntity
  8
0
  6
Continuous
100
AcDbLine
 10
140.4241599999999
 20
117.3626355647698
 30
0.0
 11
140.4241599999999
 21
120.8472755647699
 31
0.0
  0
LINE
  5
526
330
1D
100
AcDbEntity
  8
0
  6
Continuous
100
AcDbLine
 10
140.1846499999999
 20
117.3299155647699
 30
0.0
 11
140.1846499999999
 21
120.7850155647699
 31
0.0
  0
LINE
  5
527
330
1D
100
AcDbEntity
  8
0
  6
Continuous
100
AcDbLine
 10
139.94513
 20
120.8472755647699
 30
0.0
 11
139.94513
 21
117.3626355647698
 31
0.0
  0
LINE
  5
528
330
1D
100
AcDbEntity
  8
0
  6
Continuous
100
AcDbLine
 10
140.4241599999999
 20
120.8472755647699
 30
0.0
 11
140.4241599999999
 21
123.6126955647699
 31
0.0
  0
LINE
  5
529
330
1D
100
AcDbEntity
  8
0
  6
Continuous
100
AcDbLine
 10
140.1846499999999
 20
120.7850155647699
 30
0.0
 11
140.1846499999999
 21
123.5270255647699
 31
0.0
  0
LINE
  5
52A
330
1D
100
AcDbEntity
  8
0
  6
Continuous
100
AcDbLine
 10
139.94513
 20
123.6126955647699
 30
0.0
 11
139.94513
 21
120.8472755647699
 31
0.0
  0
LINE
  5
52B
330
1D
100
AcDbEntity
  8
0
  6
Continuous
100
AcDbLine
 10
140.4241599999999
 20
123.6126955647699
 30
0.0
 11
140.4241599999999
 21
125.3882055647699
 31
0.0
  0
LINE
  5
52C
330
1D
100
AcDbEntity
  8
0
  6
Continuous
100
AcDbLine
 10
140.1846499999999
 20
123.5270255647699
 30
0.0
 11
140.1846499999999
 21
125.2874955647699
 31
0.0
  0
LINE
  5
52D
330
1D
100
AcDbEntity
  8
0
  6
Continuous
100
AcDbLine
 10
139.94513
 20
125.3882055647699
 30
0.0
 11
139.94513
 21
123.6126955647699
 31
0.0
  0
LINE
  5
52E
330
1D
100
AcDbEntity
  8
0
  6
Continuous
100
AcDbLine
 10
140.4241599999999
 20
125.3882055647699
 30
0.0
 11
140.4241599999999
 21
125.9999955647699
 31
0.0
  0
LINE
  5
52F
330
1D
100
AcDbEntity
  8
0
  6
Continuous
100
AcDbLine
 10
140.4241599999999
 20
125.9999955647699
 30
0.0
 11
140.1846499999999
 21
125.8940955647699
 31
0.0
  0
LINE
  5
530
330
1D
100
AcDbEntity
  8
0
  6
Continuous
100
AcDbLine
 10
140.1846499999999
 20
125.2874955647699
 30
0.0
 11
140.1846499999999
 21
125.8940955647699
 31
0.0
  0
LINE
  5
531
330
1D
100
AcDbEntity
  8
0
  6
Continuous
100
AcDbLine
 10
139.94513
 20
125.9999955647699
 30
0.0
 11
139.94513
 21
125.3882055647699
 31
0.0
  0
LINE
  5
532
330
1D
100
AcDbEntity
  8
0
  6
Continuous
100
AcDbLine
 10
140.1846499999999
 20
125.8940955647699
 30
0.0
 11
139.94513
 21
125.9999955647699
 31
0.0
  0
LINE
  5
533
330
1D
100
AcDbEntity
  8
0
  6
Continuous
100
AcDbLine
 10
140.4241599999999
 20
100.9997855647699
 30
0.0
 11
140.4241599999999
 21
101.6115855647699
 31
0.0
  0
LINE
  5
534
330
1D
100
AcDbEntity
  8
0
  6
Continuous
100
AcDbLine
 10
140.1846499999999
 20
101.1056755647699
 30
0.0
 11
140.4241599999999
 21
100.9997855647699
 31
0.0
  0
LINE
  5
535
330
1D
100
AcDbEntity
  8
0
  6
Continuous
100
AcDbLine
 10
140.1846499999999
 20
101.1056755647699
 30
0.0
 11
140.1846499999999
 21
101.7122955647699
 31
0.0
  0
LINE
  5
536
330
1D
100
AcDbEntity
  8
0
  6
Continuous
100
AcDbLine
 10
139.94513
 20
100.9997855647699
 30
0.0
 11
140.1846499999999
 21
101.1056755647699
 31
0.0
  0
LINE
  5
537
330
1D
100
AcDbEntity
  8
0
  6
Continuous
100
AcDbLine
 10
139.94513
 20
101.6115855647699
 30
0.0
 11
139.94513
 21
100.9997855647699
 31
0.0
  0
LINE
  5
538
330
1D
100
AcDbEntity
  8
0
  6
Continuous
100
AcDbLine
 10
140.4241599999999
 20
101.6115855647699
 30
0.0
 11
140.4241599999999
 21
103.3870955647699
 31
0.0
  0
LINE
  5
539
330
1D
100
AcDbEntity
  8
0
  6
Continuous
100
AcDbLine
 10
140.1846499999999
 20
101.7122955647699
 30
0.0
 11
140.1846499999999
 21
103.4727655647699
 31
0.0
  0
LINE
  5
53A
330
1D
100
AcDbEntity
  8
0
  6
Continuous
100
AcDbLine
 10
139.94513
 20
103.3870955647699
 30
0.0
 11
139.94513
 21
101.6115855647699
 31
0.0
  0
LINE
  5
53B
330
1D
100
AcDbEntity
  8
0
  6
Continuous
100
AcDbLine
 10
140.4241599999999
 20
103.3870955647699
 30
0.0
 11
140.4241599999999
 21
106.1525255647699
 31
0.0
  0
LINE
  5
53C
330
1D
100
AcDbEntity
  8
0
  6
Continuous
100
AcDbLine
 10
140.1846499999999
 20
103.4727655647699
 30
0.0
 11
140.1846499999999
 21
106.2147655647699
 31
0.0
  0
LINE
  5
53D
330
1D
100
AcDbEntity
  8
0
  6
Continuous
100
AcDbLine
 10
139.94513
 20
106.1525255647699
 30
0.0
 11
139.94513
 21
103.3870955647699
 31
0.0
  0
LINE
  5
53E
330
1D
100
AcDbEntity
  8
0
  6
Continuous
100
AcDbLine
 10
140.4241599999999
 20
106.1525255647699
 30
0.0
 11
140.4241599999999
 21
109.6371655647699
 31
0.0
  0
LINE
  5
53F
330
1D
100
AcDbEntity
  8
0
  6
Continuous
100
AcDbLine
 10
140.1846499999999
 20
106.2147655647699
 30
0.0
 11
140.1846499999999
 21
109.6698755647699
 31
0.0
  0
LINE
  5
540
330
1D
100
AcDbEntity
  8
0
  6
Continuous
100
AcDbLine
 10
139.94513
 20
109.6371655647699
 30
0.0
 11
139.94513
 21
106.1525255647699
 31
0.0
  0
LINE
  5
541
330
1D
100
AcDbEntity
  8
0
  6
Continuous
100
AcDbLine
 10
140.4241599999999
 20
109.6371655647699
 30
0.0
 11
140.4241599999999
 21
113.4998955647699
 31
0.0
  0
LINE
  5
542
330
1D
100
AcDbEntity
  8
0
  6
Continuous
100
AcDbLine
 10
140.1846499999999
 20
109.6698755647699
 30
0.0
 11
140.1846499999999
 21
113.4998955647699
 31
0.0
  0
LINE
  5
543
330
1D
100
AcDbEntity
  8
0
  6
Continuous
100
AcDbLine
 10
139.94513
 20
113.4998955647699
 30
0.0
 11
139.94513
 21
109.6371655647699
 31
0.0
  0
LINE
  5
544
330
1D
100
AcDbEntity
  8
0
  6
Continuous
100
AcDbLine
 10
140.4241599999999
 20
117.3626355647698
 30
0.0
 11
140.4241599999999
 21
113.4998955647699
 31
0.0
  0
ENDSEC
  0
SECTION
  2
OBJECTS
  0
DICTIONARY
  5
C
330
0
100
AcDbDictionary
281
     1
  3
ACAD_2007HEADERVARS_RT
350
603
  3
ACAD_CIP_PREVIOUS_PRODUCT_INFO
350
17C
  3
ACAD_COLOR
350
15E
  3
ACAD_DETAILVIEWSTYLE
350
177
  3
ACAD_FIELDLIST
350
1EC
  3
ACAD_GROUP
350
D
  3
ACAD_LAYOUT
350
1A
  3
ACAD_MATERIAL
350
12C
  3
ACAD_MLEADERSTYLE
350
173
  3
ACAD_MLINESTYLE
350
17
  3
ACAD_PLOTSETTINGS
350
19
  3
ACAD_PLOTSTYLENAME
350
E
  3
ACAD_SCALELIST
350
161
  3
ACAD_SECTIONVIEWSTYLE
350
175
  3
ACAD_TABLESTYLE
350
15F
  3
ACAD_VISUALSTYLE
350
145
  3
ACDB_RECOMPOSE_DATA
350
601
  3
AcDbVariableDictionary
350
54B
  3
AcmDictionary
350
1A9
  3
AMG
350
18F
  3
AMGSNAPSETTINGS
350
1FE
  3
DWGPROPS
350
602
  0
DICTIONARY
  5
547
330
10
100
AcDbDictionary
280
     1
281
     1
  3
ADSK_XREC_LAYER_RECONCILED
360
548
  0
DICTIONARY
  5
549
330
205
100
AcDbDictionary
280
     1
281
     1
  3
ADSK_XREC_LAYER_RECONCILED
360
54A
  0
DICTIONARY
  5
208
330
1D
100
AcDbDictionary
280
     1
281
     1
  3
ACAD_SORTENTS
360
209
  0
DICTIONARY
  5
603
102
{ACAD_REACTORS
330
C
102
}
330
C
100
AcDbDictionary
281
     1
  3
DIMARCSYM
350
604
  3
DIMLTEX1
350
606
  3
DIMLTEX2
350
607
  3
DIMLTYPE
350
605
  3
INTERFERECOLOR
350
608
  0
XRECORD
  5
17C
102
{ACAD_REACTORS
330
C
102
}
330
C
100
AcDbXrecord
280
     1
300
AMECH_PP
300
2018
300
AMECH_PP_F_S
  0
DICTIONARY
  5
15E
102
{ACAD_REACTORS
330
C
102
}
330
C
100
AcDbDictionary
281
     1
  0
DICTIONARY
  5
177
102
{ACAD_REACTORS
330
C
102
}
330
C
100
AcDbDictionary
281
     1
  3
Imperial24
350
178
  0
FIELDLIST
  5
1EC
102
{ACAD_REACTORS
330
C
102
}
330
C
100
AcDbIdSet
 90
        8
330
5EB
330
5EC
330
5ED
330
5EE
330
5F2
330
5F3
330
5F4
330
5F5
100
AcDbFieldList
  0
DICTIONARY
  5
D
102
{ACAD_REACTORS
330
C
102
}
330
C
100
AcDbDictionary
281
     1
  0
DICTIONARY
  5
1A
102
{ACAD_REACTORS
330
C
102
}
330
C
100
AcDbDictionary
281
     1
  3
Layout1
350
1C
  3
Model
350
1E
  0
DICTIONARY
  5
12C
102
{ACAD_REACTORS
330
C
102
}
330
C
100
AcDbDictionary
281
     1
  3
ByBlock
350
135
  3
ByLayer
350
12D
  3
Global
350
13D
  0
DICTIONARY
  5
173
102
{ACAD_REACTORS
330
C
102
}
330
C
100
AcDbDictionary
281
     1
  3
Standard
350
174
  0
DICTIONARY
  5
17
102
{ACAD_REACTORS
330
C
102
}
330
C
100
AcDbDictionary
281
     1
  3
Standard
350
18
  0
DICTIONARY
  5
19
102
{ACAD_REACTORS
330
C
102
}
330
C
100
AcDbDictionary
281
     1
  0
ACDBDICTIONARYWDFLT
  5
E
102
{ACAD_REACTORS
330
C
102
}
330
C
100
AcDbDictionary
281
     1
  3
Normal
350
F
100
AcDbDictionaryWithDefault
340
F
  0
DICTIONARY
  5
161
102
{ACAD_REACTORS
330
C
102
}
330
C
100
AcDbDictionary
281
     1
  3
A0
350
162
  3
A1
350
163
  3
A2
350
164
  3
A3
350
165
  3
A4
350
166
  3
A5
350
167
  3
A6
350
168
  3
A7
350
169
  3
A8
350
16A
  3
A9
350
16B
  3
B0
350
16C
  3
B1
350
16D
  3
B2
350
16E
  3
B3
350
16F
  3
B4
350
170
  3
B5
350
171
  3
B6
350
172
  0
DICTIONARY
  5
175
102
{ACAD_REACTORS
330
C
102
}
330
C
100
AcDbDictionary
281
     1
  3
Imperial24
350
176
  0
DICTIONARY
  5
15F
102
{ACAD_REACTORS
330
C
102
}
330
C
100
AcDbDictionary
281
     1
  3
Standard
350
160
  0
DICTIONARY
  5
145
102
{ACAD_REACTORS
330
C
102
}
330
C
100
AcDbDictionary
281
     1
  3
2dWireframe
350
14B
  3
Basic
350
14A
  3
Brighten
350
151
  3
ColorChange
350
155
  3
Conceptual
350
14E
  3
Dim
350
150
  3
EdgeColorOff
350
15D
  3
Facepattern
350
154
  3
Flat
350
146
  3
FlatWithEdges
350
147
  3
Gouraud
350
148
  3
GouraudWithEdges
350
149
  3
Hidden
350
14D
  3
JitterOff
350
15B
  3
Linepattern
350
153
  3
OverhangOff
350
15C
  3
Realistic
350
14F
  3
Shaded
350
15A
  3
Shaded with edges
350
159
  3
Shades of Gray
350
156
  3
Sketchy
350
157
  3
Thicken
350
152
  3
Wireframe
350
14C
  3
X-Ray
350
158
  0
XRECORD
  5
601
102
{ACAD_REACTORS
330
C
102
}
330
C
100
AcDbXrecord
280
     1
 90
        1
330
160
  0
DICTIONARY
  5
54B
102
{ACAD_REACTORS
330
C
102
}
330
C
100
AcDbDictionary
281
     1
  3
CANNOSCALE
350
550
  3
CMLEADERSTYLE
350
54D
  3
CTABLESTYLE
350
54C
  3
CVIEWDETAILSTYLE
350
54E
  3
CVIEWSECTIONSTYLE
350
54F
  3
DGNFRAME
350
557
  3
DIMASSOC
350
555
  3
HIDETEXT
350
553
  3
INDEXCTL
350
552
  3
SOLIDHIST
350
556
  3
SORTENTS
350
551
  3
XCLIPFRAME
350
5FF
  0
DICTIONARY
  5
1A9
102
{ACAD_REACTORS
330
C
102
}
330
C
100
AcDbDictionary
281
     1
  3
AcmStdDictionary
350
1B0
  0
DICTIONARY
  5
18F
102
{ACAD_REACTORS
330
C
102
}
330
C
100
AcDbDictionary
281
     1
  0
DICTIONARY
  5
1FE
102
{ACAD_REACTORS
330
C
102
}
330
C
100
AcDbDictionary
281
     1
  0
XRECORD
  5
602
102
{ACAD_REACTORS
330
C
102
}
330
C
100
AcDbXrecord
280
     1
  1
DWGPROPS COOKIE
  2

  3

  4

  6

  7

  8
yamazaks
  9

300
=
301
=
302
=
303
=
304
=
305
=
306
=
307
=
308
=
309
=
 40
0.0031713078703704
 41
2457268.974976852
 42
2458103.712650463
  1

 90
        0
  0
XRECORD
  5
548
102
{ACAD_REACTORS
330
547
102
}
330
547
100
AcDbXrecord
280
     1
290
     1
  0
XRECORD
  5
54A
102
{ACAD_REACTORS
330
549
102
}
330
549
100
AcDbXrecord
280
     1
290
     1
  0
SORTENTSTABLE
  5
209
102
{ACAD_REACTORS
330
208
102
}
330
208
100
AcDbSortentsTable
330
1D
331
278
  5
27E
331
E9
  5
F2
331
27C
  5
282
331
ED
  5
F6
331
280
  5
286
331
F1
  5
FA
331
284
  5
28A
331
3A
  5
43
331
F5
  5
FE
331
3E
  5
47
331
42
  5
4B
331
23
  5
2C
331
4D0
  5
4D4
331
46
  5
4F
331
27
  5
30
331
513
  5
517
331
4D4
  5
4D8
331
517
  5
51B
331
4D8
  5
4DC
331
51B
  5
51F
331
4DC
  5
4E0
331
51F
  5
523
331
B1
  5
BA
331
72
  5
7B
331
B5
  5
BE
331
76
  5
7F
331
B9
  5
C2
331
7A
  5
83
331
BD
  5
C6
331
7E
  5
87
331
431
  5
435
331
2C2
  5
2C8
331
435
  5
439
331
2C6
  5
2CC
331
2CA
  5
2D0
331
2CE
  5
40F
331
4A8
  5
4AC
331
469
  5
46D
331
4AC
  5
4B0
331
46D
  5
471
331
471
  5
475
331
475
  5
479
331
288
  5
28E
331
F9
  5
102
331
28C
  5
292
331
FD
  5
106
331
101
  5
10A
331
105
  5
10E
331
4A
  5
53
331
4E
  5
57
331
4E0
  5
4E4
331
523
  5
527
331
4E4
  5
4E8
331
527
  5
52B
331
4E8
  5
4EC
331
4EC
  5
4F0
331
C1
  5
CA
331
82
  5
8B
331
C5
  5
CE
331
86
  5
8F
331
8A
  5
93
331
8E
  5
97
331
293
  5
299
331
297
  5
29D
331
29B
  5
2A1
331
29F
  5
2A5
331
479
  5
47D
331
43A
  5
43E
331
47D
  5
481
331
43E
  5
442
331
481
  5
485
331
442
  5
446
331
485
  5
489
331
446
  5
44A
331
109
  5
112
331
CA
  5
D3
331
10D
  5
116
331
CE
  5
D7
331
120
  5
273
331
111
  5
11A
331
D2
  5
DB
331
124
  5
277
331
115
  5
11E
331
D6
  5
DF
331
4F0
  5
4F4
331
4B1
  5
4B5
331
529
  5
52D
331
4F4
  5
4F8
331
4B5
  5
4B9
331
52D
  5
531
331
4F8
  5
4FC
331
4B9
  5
4BD
331
531
  5
535
331
4FC
  5
500
331
4BD
  5
4C1
331
535
  5
539
331
92
  5
9B
331
53
  5
5C
331
96
  5
9F
331
57
  5
60
331
9A
  5
A3
331
5B
  5
64
331
9E
  5
A7
331
5F
  5
68
331
412
  5
416
331
2A3
  5
2A9
331
416
  5
41A
331
2A7
  5
2AD
331
41A
  5
41E
331
2AB
  5
2B1
331
41E
  5
422
331
2AF
  5
2B5
331
489
  5
48D
331
44A
  5
44E
331
48D
  5
491
331
44E
  5
452
331
491
  5
495
331
452
  5
456
331
495
  5
499
331
456
  5
45A
331
119
  5
122
331
DA
  5
E3
331
11D
  5
207
331
DE
  5
E7
331
E2
  5
EB
331
2B
  5
34
331
275
  5
27B
331
E6
  5
EF
331
2F
  5
38
331
33
  5
3C
331
500
  5
504
331
4C1
  5
4C5
331
37
  5
40
331
539
  5
53D
331
504
  5
508
331
4C5
  5
4C9
331
53D
  5
541
331
508
  5
50C
331
4C9
  5
4CD
331
50C
  5
510
331
4CD
  5
4D1
331
A2
  5
AB
331
63
  5
6C
331
A6
  5
AF
331
67
  5
70
331
AA
  5
B3
331
6B
  5
74
331
AE
  5
B7
331
6F
  5
78
331
422
  5
426
331
2B3
  5
2B9
331
426
  5
42A
331
2B7
  5
2BD
331
42A
  5
42E
331
2BB
  5
2C1
331
42E
  5
432
331
2BF
  5
2C5
331
499
  5
49D
331
543
  5
5FD
331
45A
  5
45E
331
49D
  5
4A1
331
45E
  5
462
331
4A1
  5
4A5
331
462
  5
466
331
4A5
  5
4A9
331
466
  5
46A
331
279
  5
27F
331
EA
  5
F3
331
27D
  5
283
331
EE
  5
F7
331
281
  5
287
331
F2
  5
FB
331
285
  5
28B
331
3B
  5
44
331
F6
  5
FF
331
3F
  5
48
331
43
  5
4C
331
24
  5
2D
331
510
  5
514
331
4D1
  5
4D5
331
47
  5
50
331
514
  5
518
331
4D5
  5
4D9
331
518
  5
51C
331
4D9
  5
4DD
331
51C
  5
520
331
4DD
  5
4E1
331
B2
  5
BB
331
73
  5
7C
331
B6
  5
BF
331
77
  5
80
331
BA
  5
C3
331
7B
  5
84
331
BE
  5
C7
331
7F
  5
88
331
432
  5
436
331
2C3
  5
2C9
331
436
  5
43A
331
2C7
  5
2CD
331
2CB
  5
2D1
331
2CF
  5
410
331
4A9
  5
4AD
331
46A
  5
46E
331
4AD
  5
4B1
331
46E
  5
472
331
472
  5
476
331
476
  5
47A
331
289
  5
28F
331
FA
  5
103
331
28D
  5
293
331
FE
  5
107
331
102
  5
10B
331
106
  5
10F
331
4B
  5
54
331
4F
  5
58
331
520
  5
524
331
4E1
  5
4E5
331
524
  5
528
331
4E5
  5
4E9
331
4E9
  5
4ED
331
4ED
  5
4F1
331
C2
  5
CB
331
83
  5
8C
331
C6
  5
CF
331
87
  5
90
331
8B
  5
94
331
8F
  5
98
331
290
  5
296
331
294
  5
29A
331
298
  5
29E
331
29C
  5
2A2
331
40F
  5
413
331
47A
  5
47E
331
43B
  5
43F
331
47E
  5
482
331
43F
  5
443
331
482
  5
486
331
443
  5
447
331
486
  5
48A
331
447
  5
44B
331
10A
  5
113
331
CB
  5
D4
331
10E
  5
117
331
CF
  5
D8
331
121
  5
274
331
112
  5
11B
331
D3
  5
DC
331
125
  5
278
331
116
  5
11F
331
D7
  5
E0
331
4F1
  5
4F5
331
4B2
  5
4B6
331
52A
  5
52E
331
4F5
  5
4F9
331
4B6
  5
4BA
331
52E
  5
532
331
4F9
  5
4FD
331
4BA
  5
4BE
331
532
  5
536
331
4FD
  5
501
331
4BE
  5
4C2
331
536
  5
53A
331
50
  5
59
331
93
  5
9C
331
54
  5
5D
331
97
  5
A0
331
58
  5
61
331
9B
  5
A4
331
5C
  5
65
331
9F
  5
A8
331
2A0
  5
2A6
331
413
  5
417
331
2A4
  5
2AA
331
417
  5
41B
331
2A8
  5
2AE
331
41B
  5
41F
331
2AC
  5
2B2
331
41F
  5
423
331
48A
  5
48E
331
44B
  5
44F
331
48E
  5
492
331
44F
  5
453
331
492
  5
496
331
453
  5
457
331
496
  5
49A
331
457
  5
45B
331
11A
  5
123
331
DB
  5
E4
331
11E
  5
20A
331
DF
  5
E8
331
E3
  5
EC
331
28
  5
31
331
276
  5
27C
331
2C
  5
35
331
E7
  5
F0
331
30
  5
39
331
34
  5
3D
331
501
  5
505
331
4C2
  5
4C6
331
53A
  5
53E
331
505
  5
509
331
4C6
  5
4CA
331
53E
  5
542
331
509
  5
50D
331
4CA
  5
4CE
331
50D
  5
511
331
4CE
  5
4D2
331
60
  5
69
331
A3
  5
AC
331
64
  5
6D
331
A7
  5
B0
331
68
  5
71
331
AB
  5
B4
331
6C
  5
75
331
AF
  5
B8
331
2B0
  5
2B6
331
423
  5
427
331
2B4
  5
2BA
331
427
  5
42B
331
2B8
  5
2BE
331
42B
  5
42F
331
2BC
  5
2C2
331
42F
  5
433
331
540
  5
544
331
49A
  5
49E
331
544
  5
5FE
331
45B
  5
45F
331
49E
  5
4A2
331
45F
  5
463
331
4A2
  5
4A6
331
463
  5
467
331
4A6
  5
4AA
331
467
  5
46B
331
27A
  5
280
331
EB
  5
F4
331
27E
  5
284
331
EF
  5
F8
331
282
  5
288
331
38
  5
41
331
F3
  5
FC
331
286
  5
28C
331
3C
  5
45
331
F7
  5
100
331
40
  5
49
331
44
  5
4D
331
25
  5
2E
331
511
  5
515
331
4D2
  5
4D6
331
515
  5
519
331
4D6
  5
4DA
331
519
  5
51D
331
4DA
  5
4DE
331
51D
  5
521
331
4DE
  5
4E2
331
70
  5
79
331
B3
  5
BC
331
74
  5
7D
331
B7
  5
C0
331
78
  5
81
331
BB
  5
C4
331
7C
  5
85
331
BF
  5
C8
331
2C0
  5
2C6
331
433
  5
437
331
2C4
  5
2CA
331
437
  5
43B
331
2C8
  5
2CE
331
2CC
  5
2D2
331
4AA
  5
4AE
331
46B
  5
46F
331
4AE
  5
4B2
331
46F
  5
473
331
473
  5
477
331
477
  5
47B
331
28A
  5
290
331
FB
  5
104
331
28E
  5
294
331
FF
  5
108
331
103
  5
10C
331
48
  5
51
331
107
  5
110
331
4C
  5
55
331
521
  5
525
331
4E2
  5
4E6
331
525
  5
529
331
4E6
  5
4EA
331
4EA
  5
4EE
331
4EE
  5
4F2
331
80
  5
89
331
C3
  5
CC
331
84
  5
8D
331
C7
  5
D0
331
88
  5
91
331
8C
  5
95
331
2D0
  5
411
331
291
  5
297
331
295
  5
29B
331
299
  5
29F
331
29D
  5
2A3
331
438
  5
43C
331
47B
  5
47F
331
43C
  5
440
331
47F
  5
483
331
440
  5
444
331
483
  5
487
331
444
  5
448
331
487
  5
48B
331
C8
  5
D1
331
10B
  5
114
331
CC
  5
D5
331
10F
  5
118
331
D0
  5
D9
331
122
  5
275
331
113
  5
11C
331
D4
  5
DD
331
117
  5
120
331
4F2
  5
4F6
331
4B3
  5
4B7
331
52B
  5
52F
331
4F6
  5
4FA
331
4B7
  5
4BB
331
52F
  5
533
331
4FA
  5
4FE
331
4BB
  5
4BF
331
533
  5
537
331
4FE
  5
502
331
4BF
  5
4C3
331
537
  5
53B
331
90
  5
99
331
51
  5
5A
331
94
  5
9D
331
55
  5
5E
331
98
  5
A1
331
59
  5
62
331
9C
  5
A5
331
5D
  5
66
331
410
  5
414
331
2A1
  5
2A7
331
414
  5
418
331
2A5
  5
2AB
331
418
  5
41C
331
2A9
  5
2AF
331
41C
  5
420
331
2AD
  5
2B3
331
448
  5
44C
331
48B
  5
48F
331
44C
  5
450
331
48F
  5
493
331
450
  5
454
331
493
  5
497
331
454
  5
458
331
497
  5
49B
331
D8
  5
E1
331
11B
  5
124
331
DC
  5
E5
331
11F
  5
20B
331
E0
  5
E9
331
273
  5
279
331
29
  5
32
331
E4
  5
ED
331
277
  5
27D
331
2D
  5
36
331
31
  5
3A
331
35
  5
3E
331
502
  5
506
331
4C3
  5
4C7
331
53B
  5
53F
331
506
  5
50A
331
4C7
  5
4CB
331
53F
  5
543
331
50A
  5
50E
331
4CB
  5
4CF
331
50E
  5
512
331
4CF
  5
4D3
331
A0
  5
A9
331
61
  5
6A
331
A4
  5
AD
331
65
  5
6E
331
A8
  5
B1
331
69
  5
72
331
AC
  5
B5
331
6D
  5
76
331
420
  5
424
331
2B1
  5
2B7
331
424
  5
428
331
2B5
  5
2BB
331
428
  5
42C
331
2B9
  5
2BF
331
42C
  5
430
331
2BD
  5
2C3
331
541
  5
545
331
458
  5
45C
331
49B
  5
49F
331
45C
  5
460
331
49F
  5
4A3
331
460
  5
464
331
4A3
  5
4A7
331
464
  5
468
331
4A7
  5
4AB
331
E8
  5
F1
331
27B
  5
281
331
EC
  5
F5
331
27F
  5
285
331
F0
  5
F9
331
283
  5
289
331
39
  5
42
331
F4
  5
FD
331
287
  5
28D
331
3D
  5
46
331
41
  5
4A
331
22
  5
2B
331
45
  5
4E
331
26
  5
2F
331
512
  5
516
331
4D3
  5
4D7
331
516
  5
51A
331
4D7
  5
4DB
331
51A
  5
51E
331
4DB
  5
4DF
331
51E
  5
522
331
4DF
  5
4E3
331
B0
  5
B9
331
71
  5
7A
331
B4
  5
BD
331
75
  5
7E
331
B8
  5
C1
331
79
  5
82
331
BC
  5
C5
331
7D
  5
86
331
430
  5
434
331
2C1
  5
2C7
331
434
  5
438
331
2C5
  5
2CB
331
2C9
  5
2CF
331
2CD
  5
2D3
331
468
  5
46C
331
4AB
  5
4AF
331
46C
  5
470
331
4AF
  5
4B3
331
470
  5
474
331
474
  5
478
331
F8
  5
101
331
28B
  5
291
331
FC
  5
105
331
28F
  5
295
331
100
  5
109
331
104
  5
10D
331
49
  5
52
331
4D
  5
56
331
522
  5
526
331
4E3
  5
4E7
331
526
  5
52A
331
4E7
  5
4EB
331
4EB
  5
4EF
331
4EF
  5
4F3
331
C0
  5
C9
331
81
  5
8A
331
C4
  5
CD
331
85
  5
8E
331
89
  5
92
331
8D
  5
96
331
2D1
  5
412
331
292
  5
298
331
296
  5
29C
331
29A
  5
2A0
331
29E
  5
2A4
331
478
  5
47C
331
439
  5
43D
331
47C
  5
480
331
43D
  5
441
331
480
  5
484
331
441
  5
445
331
484
  5
488
331
445
  5
449
331
108
  5
111
331
C9
  5
D2
331
10C
  5
115
331
CD
  5
D6
331
110
  5
119
331
D1
  5
DA
331
123
  5
276
331
114
  5
11D
331
D5
  5
DE
331
4B0
  5
4B4
331
528
  5
52C
331
4F3
  5
4F7
331
4B4
  5
4B8
331
52C
  5
530
331
4F7
  5
4FB
331
4B8
  5
4BC
331
530
  5
534
331
4FB
  5
4FF
331
4BC
  5
4C0
331
534
  5
538
331
4FF
  5
503
331
91
  5
9A
331
52
  5
5B
331
95
  5
9E
331
56
  5
5F
331
99
  5
A2
331
5A
  5
63
331
9D
  5
A6
331
5E
  5
67
331
411
  5
415
331
2A2
  5
2A8
331
415
  5
419
331
2A6
  5
2AC
331
419
  5
41D
331
2AA
  5
2B0
331
41D
  5
421
331
2AE
  5
2B4
331
488
  5
48C
331
449
  5
44D
331
48C
  5
490
331
44D
  5
451
331
490
  5
494
331
451
  5
455
331
494
  5
498
331
455
  5
459
331
118
  5
121
331
D9
  5
E2
331
11C
  5
125
331
DD
  5
E6
331
E1
  5
EA
331
2A
  5
33
331
274
  5
27A
331
E5
  5
EE
331
2E
  5
37
331
32
  5
3B
331
4C0
  5
4C4
331
36
  5
3F
331
538
  5
53C
331
503
  5
507
331
4C4
  5
4C8
331
53C
  5
540
331
507
  5
50B
331
4C8
  5
4CC
331
50B
  5
50F
331
4CC
  5
4D0
331
50F
  5
513
331
A1
  5
AA
331
62
  5
6B
331
A5
  5
AE
331
66
  5
6F
331
A9
  5
B2
331
6A
  5
73
331
AD
  5
B6
331
6E
  5
77
331
421
  5
425
331
2B2
  5
2B8
331
425
  5
429
331
2B6
  5
2BC
331
429
  5
42D
331
2BA
  5
2C0
331
42D
  5
431
331
2BE
  5
2C4
331
498
  5
49C
331
542
  5
546
331
459
  5
45D
331
49C
  5
4A0
331
45D
  5
461
331
4A0
  5
4A4
331
461
  5
465
331
4A4
  5
4A8
331
465
  5
469
  0
XRECORD
  5
604
102
{ACAD_REACTORS
330
603
102
}
330
603
100
AcDbXrecord
280
     1
 70
     1
  0
XRECORD
  5
606
102
{ACAD_REACTORS
330
603
102
}
330
603
100
AcDbXrecord
280
     1
340
14
  0
XRECORD
  5
607
102
{ACAD_REACTORS
330
603
102
}
330
603
100
AcDbXrecord
280
     1
340
14
  0
XRECORD
  5
605
102
{ACAD_REACTORS
330
603
102
}
330
603
100
AcDbXrecord
280
     1
340
14
  0
XRECORD
  5
608
102
{ACAD_REACTORS
330
603
102
}
330
603
100
AcDbXrecord
280
     1
1004
1800000001000000000000C0000000000000000000000000
  0
ACDBDETAILVIEWSTYLE
  5
178
102
{ACAD_XDICTIONARY
360
642
102
}
102
{ACAD_REACTORS
330
177
330
5E7
102
}
330
177
100
AcDbModelDocViewStyle
 70
     0
  3
Imperial24
290
     0
100
AcDbDetailViewStyle
 70
     0
 71
     0
 90
        3
 71
     1
340
11
 40
0.24
340
0
 40
0.24
300

 40
0.36
280
     3
 71
     2
340
16
 90
       25
 71
     3
340
11
 40
0.24
 90
        1
 40
0.75
 90
        1
300
%<\AcVar ViewType \f "%tc1">% %<\AcVar ViewDetailId>%\PSCALE %<\AcVar ViewScale \f "%sn">%
 71
     4
340
16
 90
       25
340
16
 90
       25
280
     0
  0
LAYOUT
  5
1C
102
{ACAD_XDICTIONARY
360
609
102
}
102
{ACAD_REACTORS
330
1A
102
}
330
1A
100
AcDbPlotSettings
  1

  2
none_device
  4

  6

 40
0.0
 41
0.0
 42
0.0
 43
0.0
 44
0.0
 45
0.0
 46
0.0
 47
0.0
 48
0.0
 49
0.0
140
0.0
141
0.0
142
1.0
143
1.0
 70
   688
 72
     0
 73
     0
 74
     5
  7

 75
    16
147
1.0
148
0.0
149
0.0
100
AcDbLayout
  1
Layout1
 70
     1
 71
     1
 10
0.0
 20
0.0
 11
12.0
 21
9.0
 12
0.0
 22
0.0
 32
0.0
 14
1.000000000000000E+20
 24
1.000000000000000E+20
 34
1.000000000000000E+20
 15
-1.000000000000000E+20
 25
-1.000000000000000E+20
 35
-1.000000000000000E+20
146
0.0
 13
0.0
 23
0.0
 33
0.0
 16
1.0
 26
0.0
 36
0.0
 17
0.0
 27
1.0
 37
0.0
 76
     0
330
1B
  0
LAYOUT
  5
1E
102
{ACAD_XDICTIONARY
360
60B
102
}
102
{ACAD_REACTORS
330
1A
102
}
330
1A
100
AcDbPlotSettings
  1

  2
none_device
  4

  6

 40
0.0
 41
0.0
 42
0.0
 43
0.0
 44
0.0
 45
0.0
 46
0.0
 47
0.0
 48
0.0
 49
0.0
140
0.0
141
0.0
142
1.0
143
1.0
 70
  1712
 72
     0
 73
     0
 74
     0
  7

 75
     0
147
1.0
148
0.0
149
0.0
100
AcDbLayout
  1
Model
 70
     1
 71
     0
 10
0.0
 20
0.0
 11
12.0
 21
9.0
 12
0.0
 22
0.0
 32
0.0
 14
1.000000000000000E+20
 24
1.000000000000000E+20
 34
1.000000000000000E+20
 15
-1.000000000000000E+20
 25
-1.000000000000000E+20
 35
-1.000000000000000E+20
146
0.0
 13
0.0
 23
0.0
 33
0.0
 16
1.0
 26
0.0
 36
0.0
 17
0.0
 27
1.0
 37
0.0
 76
     0
330
1D
331
126
  0
MATERIAL
  5
135
102
{ACAD_XDICTIONARY
360
136
102
}
102
{ACAD_REACTORS
330
12C
102
}
330
12C
100
AcDbMaterial
  1
ByBlock
 72
     0
 43
0.0208333333333333
 43
0.0
 43
0.0
 43
0.0
 43
0.0
 43
0.0208333333333333
 43
0.0
 43
0.0
 43
0.0
 43
0.0
 43
1.0
 43
0.0
 43
0.0
 43
0.0
 43
0.0
 43
1.0
 77
     0
 47
0.0208333333333333
 47
0.0
 47
0.0
 47
0.0
 47
0.0
 47
0.0208333333333333
 47
0.0
 47
0.0
 47
0.0
 47
0.0
 47
1.0
 47
0.0
 47
0.0
 47
0.0
 47
0.0
 47
1.0
171
     0
 49
0.0208333333333333
 49
0.0
 49
0.0
 49
0.0
 49
0.0
 49
0.0208333333333333
 49
0.0
 49
0.0
 49
0.0
 49
0.0
 49
1.0
 49
0.0
 49
0.0
 49
0.0
 49
0.0
 49
1.0
175
     0
142
0.0208333333333333
142
0.0
142
0.0
142
0.0
142
0.0
142
0.0208333333333333
142
0.0
142
0.0
142
0.0
142
0.0
142
1.0
142
0.0
142
0.0
142
0.0
142
0.0
142
1.0
179
     0
144
0.0208333333333333
144
0.0
144
0.0
144
0.0
144
0.0
144
0.0208333333333333
144
0.0
144
0.0
144
0.0
144
0.0
144
1.0
144
0.0
144
0.0
144
0.0
144
0.0
144
1.0
147
0.0208333333333333
147
0.0
147
0.0
147
0.0
147
0.0
147
0.0208333333333333
147
0.0
147
0.0
147
0.0
147
0.0
147
1.0
147
0.0
147
0.0
147
0.0
147
0.0
147
1.0
  0
MATERIAL
  5
12D
102
{ACAD_XDICTIONARY
360
12E
102
}
102
{ACAD_REACTORS
330
12C
102
}
330
12C
100
AcDbMaterial
  1
ByLayer
 72
     0
 43
0.0208333333333333
 43
0.0
 43
0.0
 43
0.0
 43
0.0
 43
0.0208333333333333
 43
0.0
 43
0.0
 43
0.0
 43
0.0
 43
1.0
 43
0.0
 43
0.0
 43
0.0
 43
0.0
 43
1.0
 77
     0
 47
0.0208333333333333
 47
0.0
 47
0.0
 47
0.0
 47
0.0
 47
0.0208333333333333
 47
0.0
 47
0.0
 47
0.0
 47
0.0
 47
1.0
 47
0.0
 47
0.0
 47
0.0
 47
0.0
 47
1.0
171
     0
 49
0.0208333333333333
 49
0.0
 49
0.0
 49
0.0
 49
0.0
 49
0.0208333333333333
 49
0.0
 49
0.0
 49
0.0
 49
0.0
 49
1.0
 49
0.0
 49
0.0
 49
0.0
 49
0.0
 49
1.0
175
     0
142
0.0208333333333333
142
0.0
142
0.0
142
0.0
142
0.0
142
0.0208333333333333
142
0.0
142
0.0
142
0.0
142
0.0
142
1.0
142
0.0
142
0.0
142
0.0
142
0.0
142
1.0
179
     0
144
0.0208333333333333
144
0.0
144
0.0
144
0.0
144
0.0
144
0.0208333333333333
144
0.0
144
0.0
144
0.0
144
0.0
144
1.0
144
0.0
144
0.0
144
0.0
144
0.0
144
1.0
147
0.0208333333333333
147
0.0
147
0.0
147
0.0
147
0.0
147
0.0208333333333333
147
0.0
147
0.0
147
0.0
147
0.0
147
1.0
147
0.0
147
0.0
147
0.0
147
0.0
147
1.0
  0
MATERIAL
  5
13D
102
{ACAD_XDICTIONARY
360
13E
102
}
102
{ACAD_REACTORS
330
12C
102
}
330
12C
100
AcDbMaterial
  1
Global
 72
     0
 43
0.0208333333333333
 43
0.0
 43
0.0
 43
0.0
 43
0.0
 43
0.0208333333333333
 43
0.0
 43
0.0
 43
0.0
 43
0.0
 43
1.0
 43
0.0
 43
0.0
 43
0.0
 43
0.0
 43
1.0
 77
     0
 47
0.0208333333333333
 47
0.0
 47
0.0
 47
0.0
 47
0.0
 47
0.0208333333333333
 47
0.0
 47
0.0
 47
0.0
 47
0.0
 47
1.0
 47
0.0
 47
0.0
 47
0.0
 47
0.0
 47
1.0
171
     0
 49
0.0208333333333333
 49
0.0
 49
0.0
 49
0.0
 49
0.0
 49
0.0208333333333333
 49
0.0
 49
0.0
 49
0.0
 49
0.0
 49
1.0
 49
0.0
 49
0.0
 49
0.0
 49
0.0
 49
1.0
175
     0
142
0.0208333333333333
142
0.0
142
0.0
142
0.0
142
0.0
142
0.0208333333333333
142
0.0
142
0.0
142
0.0
142
0.0
142
1.0
142
0.0
142
0.0
142
0.0
142
0.0
142
1.0
179
     0
144
0.0208333333333333
144
0.0
144
0.0
144
0.0
144
0.0
144
0.0208333333333333
144
0.0
144
0.0
144
0.0
144
0.0
144
1.0
144
0.0
144
0.0
144
0.0
144
0.0
144
1.0
147
0.0208333333333333
147
0.0
147
0.0
147
0.0
147
0.0
147
0.0208333333333333
147
0.0
147
0.0
147
0.0
147
0.0
147
1.0
147
0.0
147
0.0
147
0.0
147
0.0
147
1.0
  0
MLEADERSTYLE
  5
174
102
{ACAD_XDICTIONARY
360
63E
102
}
102
{ACAD_REACTORS
330
173
102
}
330
173
100
AcDbMLeaderStyle
170
     2
171
     1
172
     0
 90
        2
 40
0.0
 41
0.0
173
     1
 91
-1056964608
340
14
 92
       -2
290
     1
 42
0.09
291
     1
 43
0.36
  3
Standard
 44
0.18
300

342
11
174
     1
178
     6
175
     1
176
     0
 93
-1056964608
 45
0.18
292
     0
297
     0
 46
0.18
 94
-1056964608
 47
1.0
 49
1.0
140
1.0
293
     1
141
0.0
294
     1
177
     0
142
1.0
295
     0
296
     0
143
0.125
1001
ACAD_MLEADERVER
1070
     2
  0
MLINESTYLE
  5
18
102
{ACAD_REACTORS
330
17
102
}
330
17
100
AcDbMlineStyle
  2
STANDARD
 70
     0
  3

 62
   256
 51
90.0
 52
90.0
 71
     2
 49
0.5
 62
   256
  6
BYLAYER
 49
-0.5
 62
   256
  6
BYLAYER
  0
ACDBPLACEHOLDER
  5
F
102
{ACAD_REACTORS
330
E
102
}
330
E
  0
SCALE
  5
162
102
{ACAD_REACTORS
330
161
102
}
330
161
100
AcDbScale
 70
     0
300
1:1
140
1.0
141
1.0
290
     1
  0
SCALE
  5
163
102
{ACAD_REACTORS
330
161
102
}
330
161
100
AcDbScale
 70
     0
300
1/128" = 1'-0"
140
0.0078125
141
12.0
290
     0
  0
SCALE
  5
164
102
{ACAD_REACTORS
330
161
102
}
330
161
100
AcDbScale
 70
     0
300
1/64" = 1'-0"
140
0.015625
141
12.0
290
     0
  0
SCALE
  5
165
102
{ACAD_REACTORS
330
161
102
}
330
161
100
AcDbScale
 70
     0
300
1/32" = 1'-0"
140
0.03125
141
12.0
290
     0
  0
SCALE
  5
166
102
{ACAD_REACTORS
330
161
102
}
330
161
100
AcDbScale
 70
     0
300
1/16" = 1'-0"
140
0.0625
141
12.0
290
     0
  0
SCALE
  5
167
102
{ACAD_REACTORS
330
161
102
}
330
161
100
AcDbScale
 70
     0
300
3/32" = 1'-0"
140
0.09375
141
12.0
290
     0
  0
SCALE
  5
168
102
{ACAD_REACTORS
330
161
102
}
330
161
100
AcDbScale
 70
     0
300
1/8" = 1'-0"
140
0.125
141
12.0
290
     0
  0
SCALE
  5
169
102
{ACAD_REACTORS
330
161
102
}
330
161
100
AcDbScale
 70
     0
300
3/16" = 1'-0"
140
0.1875
141
12.0
290
     0
  0
SCALE
  5
16A
102
{ACAD_REACTORS
330
161
102
}
330
161
100
AcDbScale
 70
     0
300
1/4" = 1'-0"
140
0.25
141
12.0
290
     0
  0
SCALE
  5
16B
102
{ACAD_REACTORS
330
161
102
}
330
161
100
AcDbScale
 70
     0
300
3/8" = 1'-0"
140
0.375
141
12.0
290
     0
  0
SCALE
  5
16C
102
{ACAD_REACTORS
330
161
102
}
330
161
100
AcDbScale
 70
     0
300
1/2" = 1'-0"
140
0.5
141
12.0
290
     0
  0
SCALE
  5
16D
102
{ACAD_REACTORS
330
161
102
}
330
161
100
AcDbScale
 70
     0
300
3/4" = 1'-0"
140
0.75
141
12.0
290
     0
  0
SCALE
  5
16E
102
{ACAD_REACTORS
330
161
102
}
330
161
100
AcDbScale
 70
     0
300
1" = 1'-0"
140
1.0
141
12.0
290
     0
  0
SCALE
  5
16F
102
{ACAD_REACTORS
330
161
102
}
330
161
100
AcDbScale
 70
     0
300
1-1/2" = 1'-0"
140
1.5
141
12.0
290
     0
  0
SCALE
  5
170
102
{ACAD_REACTORS
330
161
102
}
330
161
100
AcDbScale
 70
     0
300
3" = 1'-0"
140
3.0
141
12.0
290
     0
  0
SCALE
  5
171
102
{ACAD_REACTORS
330
161
102
}
330
161
100
AcDbScale
 70
     0
300
6" = 1'-0"
140
6.0
141
12.0
290
     0
  0
SCALE
  5
172
102
{ACAD_REACTORS
330
161
102
}
330
161
100
AcDbScale
 70
     0
300
1'-0" = 1'-0"
140
12.0
141
12.0
290
     0
  0
ACDBSECTIONVIEWSTYLE
  5
176
102
{ACAD_XDICTIONARY
360
640
102
}
102
{ACAD_REACTORS
330
175
330
5E6
102
}
330
175
100
AcDbModelDocViewStyle
 70
     0
  3
Imperial24
290
     0
100
AcDbSectionViewStyle
 70
     0
 71
     0
 90
       78
 71
     1
340
11
 40
0.24
340
0
340
0
 40
0.24
300
I, O, Q, S, X, Z
 40
0.48
 90
        3
 40
0.18
 90
        1
 71
     2
340
16
 90
       25
340
16
 90
       50
 40
0.24
 40
0.0
 40
0.24
 71
     3
340
11
 40
0.24
 90
        1
 40
0.75
 90
        1
300
%<\AcVar ViewType \f "%tc1">% %<\AcVar ViewSectionStartId>%-%<\AcVar ViewSectionEndId>%\PSCALE %<\AcVar ViewScale \f "%sn">%
 71
     4
300
ANSI31
 40
1.0
 90
        0
290
     0
290
     0
 90
        6
 40
0.0
 40
1.570796326794896
 40
0.2617993877991494
 40
1.308996938995747
 40
-0.2617993877991494
 40
1.832595714594045
  0
TABLESTYLE
  5
160
102
{ACAD_XDICTIONARY
360
558
102
}
102
{ACAD_REACTORS
330
15F
102
}
330
15F
100
AcDbTableStyle
  3
Standard
 70
     0
 71
     0
 40
0.06
 41
0.06
280
     0
281
     0
  7
Standard
140
0.18
170
     2
 62
     0
 63
     7
283
     0
274
    -2
284
     1
 64
     0
275
    -2
285
     1
 65
     0
276
    -2
286
     1
 66
     0
277
    -2
287
     1
 67
     0
278
    -2
288
     1
 68
     0
279
    -2
289
     1
 69
     0
  7
Standard
140
0.25
170
     5
 62
     0
 63
     7
283
     0
274
    -2
284
     1
 64
     0
275
    -2
285
     1
 65
     0
276
    -2
286
     1
 66
     0
277
    -2
287
     1
 67
     0
278
    -2
288
     1
 68
     0
279
    -2
289
     1
 69
     0
  7
Standard
140
0.18
170
     5
 62
     0
 63
     7
283
     0
274
    -2
284
     1
 64
     0
275
    -2
285
     1
 65
     0
276
    -2
286
     1
 66
     0
277
    -2
287
     1
 67
     0
278
    -2
288
     1
 68
     0
279
    -2
289
     1
 69
     0
  0
VISUALSTYLE
  5
14B
102
{ACAD_XDICTIONARY
360
617
102
}
102
{ACAD_REACTORS
330
145
102
}
330
145
100
AcDbVisualStyle
  2

 70
     4
 71
     0
 72
     2
 73
     0
 90
        0
 40
-0.6
 41
-30.0
 62
     5
 63
     7
 74
     1
 91
        4
 64
     7
 65
   257
 75
     1
175
     1
 42
1.0
 92
        0
 66
   257
 43
1.0
 76
     1
 77
     6
 78
     2
 67
     7
 79
     5
170
     0
171
     0
290
     0
174
     0
 93
        1
 44
0.0
173
     0
291
     0
 45
0.0
1001
ACAD
1000
AcDbSavedByObjectVersion
1070
     0
  0
VISUALSTYLE
  5
14A
102
{ACAD_XDICTIONARY
360
615
102
}
102
{ACAD_REACTORS
330
145
102
}
330
145
100
AcDbVisualStyle
  2

 70
     7
 71
     1
 72
     0
 73
     1
 90
        0
 40
-0.6
 41
-30.0
 62
     5
 63
     7
 74
     0
 91
        4
 64
     7
 65
   257
 75
     1
175
     1
 42
1.0
 92
        8
 66
     7
 43
1.0
 76
     1
 77
     6
 78
     2
 67
     7
 79
     5
170
     0
171
     0
290
     0
174
     0
 93
        1
 44
0.0
173
     0
291
     1
 45
0.0
1001
ACAD
1000
AcDbSavedByObjectVersion
1070
     0
  0
VISUALSTYLE
  5
151
102
{ACAD_XDICTIONARY
360
623
102
}
102
{ACAD_REACTORS
330
145
102
}
330
145
100
AcDbVisualStyle
  2

 70
    12
 71
     2
 72
     2
 73
     0
 90
        0
 40
-0.6
 41
-30.0
 62
     5
 63
     7
 74
     1
 91
        4
 64
     7
 65
   257
 75
     1
175
     1
 42
1.0
 92
        8
 66
     7
 43
1.0
 76
     1
 77
     6
 78
     2
 67
     7
 79
     5
170
     0
171
     0
290
     0
174
     0
 93
        1
 44
50.0
173
     0
291
     1
 45
0.0
1001
ACAD
1000
AcDbSavedByObjectVersion
1070
     0
  0
VISUALSTYLE
  5
155
102
{ACAD_XDICTIONARY
360
62B
102
}
102
{ACAD_REACTORS
330
145
102
}
330
145
100
AcDbVisualStyle
  2

 70
    16
 71
     2
 72
     2
 73
     3
 90
        0
 40
-0.6
 41
-30.0
 62
     5
 63
     8
 74
     1
 91
        4
 64
     7
 65
   257
 75
     1
175
     1
 42
1.0
 92
        8
 66
     8
 43
1.0
 76
     1
 77
     6
 78
     2
 67
     7
 79
     5
170
     0
171
     0
290
     0
174
     0
 93
        1
 44
0.0
173
     0
291
     1
 45
0.0
1001
ACAD
1000
AcDbSavedByObjectVersion
1070
     0
  0
VISUALSTYLE
  5
14E
102
{ACAD_XDICTIONARY
360
61D
102
}
102
{ACAD_REACTORS
330
145
102
}
330
145
100
AcDbVisualStyle
  2

 70
     9
 71
     3
 72
     2
 73
     0
 90
        0
 40
-0.6
 41
-30.0
 62
     5
 63
     7
 74
     2
 91
        2
 64
     7
 65
   257
 75
     1
175
     1
 42
179.0
 92
        8
 66
     7
 43
1.0
 76
     1
 77
     6
 78
     2
 67
     7
 79
     3
170
     0
171
     0
290
     0
174
     0
 93
        1
 44
0.0
173
     0
291
     0
 45
0.0
1001
ACAD
1000
AcDbSavedByObjectVersion
1070
     0
  0
VISUALSTYLE
  5
150
102
{ACAD_XDICTIONARY
360
621
102
}
102
{ACAD_REACTORS
330
145
102
}
330
145
100
AcDbVisualStyle
  2

 70
    11
 71
     2
 72
     2
 73
     0
 90
        0
 40
-0.6
 41
-30.0
 62
     5
 63
     7
 74
     1
 91
        4
 64
     7
 65
   257
 75
     1
175
     1
 42
1.0
 92
        8
 66
     7
 43
1.0
 76
     1
 77
     6
 78
     2
 67
     7
 79
     5
170
     0
171
     0
290
     0
174
     0
 93
        1
 44
-50.0
173
     0
291
     1
 45
0.0
1001
ACAD
1000
AcDbSavedByObjectVersion
1070
     0
  0
VISUALSTYLE
  5
15D
102
{ACAD_XDICTIONARY
360
63B
102
}
102
{ACAD_REACTORS
330
145
102
}
330
145
100
AcDbVisualStyle
  2

 70
    22
 71
     2
 72
     2
 73
     0
 90
        0
 40
-0.6
 41
-30.0
 62
     5
 63
     7
 74
     1
 91
        4
 64
     7
 65
   257
 75
     1
175
     1
 42
1.0
 92
        8
 66
     7
 43
1.0
 76
     1
 77
     6
 78
     2
 67
     7
 79
     5
170
     0
171
     0
290
     0
174
     0
 93
        1
 44
0.0
173
     0
291
     1
 45
0.0
1001
ACAD
1000
AcDbSavedByObjectVersion
1070
     0
  0
VISUALSTYLE
  5
154
102
{ACAD_XDICTIONARY
360
629
102
}
102
{ACAD_REACTORS
330
145
102
}
330
145
100
AcDbVisualStyle
  2

 70
    15
 71
     2
 72
     2
 73
     0
 90
        0
 40
-0.6
 41
-30.0
 62
     5
 63
     7
 74
     1
 91
        4
 64
     7
 65
   257
 75
     1
175
     1
 42
1.0
 92
        8
 66
     7
 43
1.0
 76
     1
 77
     6
 78
     2
 67
     7
 79
     5
170
     0
171
     0
290
     0
174
     0
 93
        1
 44
0.0
173
     0
291
     1
 45
0.0
1001
ACAD
1000
AcDbSavedByObjectVersion
1070
     0
  0
VISUALSTYLE
  5
146
102
{ACAD_XDICTIONARY
360
60D
102
}
102
{ACAD_REACTORS
330
145
102
}
330
145
100
AcDbVisualStyle
  2

 70
     0
 71
     2
 72
     1
 73
     1
 90
        2
 40
-0.6
 41
30.0
 62
     5
 63
     7
 74
     0
 91
        0
 64
     7
 65
   257
 75
     1
175
     1
 42
1.0
 92
        8
 66
     7
 43
1.0
 76
     1
 77
     6
 78
     2
 67
     7
 79
     5
170
     0
171
     0
290
     0
174
     0
 93
       13
 44
0.0
173
     0
291
     1
 45
0.0
1001
ACAD
1000
AcDbSavedByObjectVersion
1070
     0
  0
VISUALSTYLE
  5
147
102
{ACAD_XDICTIONARY
360
60F
102
}
102
{ACAD_REACTORS
330
145
102
}
330
145
100
AcDbVisualStyle
  2

 70
     1
 71
     2
 72
     1
 73
     1
 90
        2
 40
-0.6
 41
30.0
 62
     5
 63
     7
 74
     1
 91
        0
 64
     7
 65
   257
 75
     1
175
     1
 42
1.0
 92
        0
 66
   257
 43
1.0
 76
     1
 77
     6
 78
     2
 67
     7
 79
     5
170
     0
171
     0
290
     0
174
     0
 93
       13
 44
0.0
173
     0
291
     1
 45
0.0
1001
ACAD
1000
AcDbSavedByObjectVersion
1070
     0
  0
VISUALSTYLE
  5
148
102
{ACAD_XDICTIONARY
360
611
102
}
102
{ACAD_REACTORS
330
145
102
}
330
145
100
AcDbVisualStyle
  2

 70
     2
 71
     2
 72
     2
 73
     1
 90
        2
 40
-0.6
 41
30.0
 62
     5
 63
     7
 74
     0
 91
        0
 64
     7
 65
   257
 75
     1
175
     1
 42
1.0
 92
        0
 66
     7
 43
1.0
 76
     1
 77
     6
 78
     2
 67
     7
 79
     5
170
     0
171
     0
290
     0
174
     0
 93
       13
 44
0.0
173
     0
291
     1
 45
0.0
1001
ACAD
1000
AcDbSavedByObjectVersion
1070
     0
  0
VISUALSTYLE
  5
149
102
{ACAD_XDICTIONARY
360
613
102
}
102
{ACAD_REACTORS
330
145
102
}
330
145
100
AcDbVisualStyle
  2

 70
     3
 71
     2
 72
     2
 73
     1
 90
        2
 40
-0.6
 41
30.0
 62
     5
 63
     7
 74
     1
 91
        0
 64
     7
 65
   257
 75
     1
175
     1
 42
1.0
 92
        0
 66
   257
 43
1.0
 76
     1
 77
     6
 78
     2
 67
     7
 79
     5
170
     0
171
     0
290
     0
174
     0
 93
       13
 44
0.0
173
     0
291
     1
 45
0.0
1001
ACAD
1000
AcDbSavedByObjectVersion
1070
     0
  0
VISUALSTYLE
  5
14D
102
{ACAD_XDICTIONARY
360
61B
102
}
102
{ACAD_REACTORS
330
145
102
}
330
145
100
AcDbVisualStyle
  2

 70
     6
 71
     1
 72
     2
 73
     2
 90
        0
 40
-0.6
 41
-30.0
 62
     5
 63
     7
 74
     2
 91
        2
 64
     7
 65
   257
 75
     2
175
     1
 42
40.0
 92
        0
 66
   257
 43
1.0
 76
     1
 77
     6
 78
     2
 67
     7
 79
     3
170
     0
171
     0
290
     0
174
     0
 93
        1
 44
0.0
173
     0
291
     0
 45
0.0
1001
ACAD
1000
AcDbSavedByObjectVersion
1070
     0
  0
VISUALSTYLE
  5
15B
102
{ACAD_XDICTIONARY
360
637
102
}
102
{ACAD_REACTORS
330
145
102
}
330
145
100
AcDbVisualStyle
  2

 70
    20
 71
     2
 72
     2
 73
     0
 90
        0
 40
-0.6
 41
-30.0
 62
     5
 63
     7
 74
     1
 91
        4
 64
     7
 65
   257
 75
     1
175
     1
 42
1.0
 92
       10
 66
     7
 43
1.0
 76
     1
 77
     6
 78
     2
 67
     7
 79
     5
170
     0
171
     0
290
     0
174
     0
 93
        1
 44
0.0
173
     0
291
     1
 45
0.0
1001
ACAD
1000
AcDbSavedByObjectVersion
1070
     0
  0
VISUALSTYLE
  5
153
102
{ACAD_XDICTIONARY
360
627
102
}
102
{ACAD_REACTORS
330
145
102
}
330
145
100
AcDbVisualStyle
  2

 70
    14
 71
     2
 72
     2
 73
     0
 90
        0
 40
-0.6
 41
-30.0
 62
     5
 63
     7
 74
     1
 91
        4
 64
     7
 65
   257
 75
     7
175
     7
 42
1.0
 92
        8
 66
     7
 43
1.0
 76
     1
 77
     6
 78
     2
 67
     7
 79
     5
170
     0
171
     0
290
     0
174
     0
 93
        1
 44
0.0
173
     0
291
     1
 45
0.0
1001
ACAD
1000
AcDbSavedByObjectVersion
1070
     0
  0
VISUALSTYLE
  5
15C
102
{ACAD_XDICTIONARY
360
639
102
}
102
{ACAD_REACTORS
330
145
102
}
330
145
100
AcDbVisualStyle
  2

 70
    21
 71
     2
 72
     2
 73
     0
 90
        0
 40
-0.6
 41
-30.0
 62
     5
 63
     7
 74
     1
 91
        4
 64
     7
 65
   257
 75
     1
175
     1
 42
1.0
 92
        9
 66
     7
 43
1.0
 76
     1
 77
     6
 78
     2
 67
     7
 79
     5
170
     0
171
     0
290
     0
174
     0
 93
        1
 44
0.0
173
     0
291
     1
 45
0.0
1001
ACAD
1000
AcDbSavedByObjectVersion
1070
     0
  0
VISUALSTYLE
  5
14F
102
{ACAD_XDICTIONARY
360
61F
102
}
102
{ACAD_REACTORS
330
145
102
}
330
145
100
AcDbVisualStyle
  2

 70
     8
 71
     2
 72
     3
 73
     0
 90
        2
 40
-0.6
 41
30.0
 62
     5
 63
     7
 74
     0
 91
        0
 64
     7
 65
   257
 75
     1
175
     1
 42
1.0
 92
        8
 66
   257
 43
1.0
 76
     1
 77
     6
 78
     2
 67
     7
 79
     3
170
     0
171
     0
290
     0
174
     0
 93
       13
 44
0.0
173
     0
291
     0
 45
0.0
1001
ACAD
1000
AcDbSavedByObjectVersion
1070
     0
  0
VISUALSTYLE
  5
15A
102
{ACAD_XDICTIONARY
360
635
102
}
102
{ACAD_REACTORS
330
145
102
}
330
145
100
AcDbVisualStyle
  2

 70
    27
 71
     2
 72
     2
 73
     1
 90
        2
 40
-0.6
 41
30.0
 62
     5
 63
     7
 74
     0
 91
        4
 64
     7
 65
   257
 75
     1
175
     1
 42
1.0
 92
        8
 66
   257
 43
1.0
 76
     1
 77
     6
 78
     2
 67
     8
 79
     3
170
     0
171
     0
290
     0
174
     0
 93
        5
 44
0.0
173
     0
291
     0
 45
0.0
1001
ACAD
1000
AcDbSavedByObjectVersion
1070
     0
  0
VISUALSTYLE
  5
159
102
{ACAD_XDICTIONARY
360
633
102
}
102
{ACAD_REACTORS
330
145
102
}
330
145
100
AcDbVisualStyle
  2

 70
    26
 71
     2
 72
     2
 73
     1
 90
        2
 40
-0.6
 41
30.0
 62
     5
 63
     7
 74
     1
 91
        2
 64
     7
 65
   257
 75
     2
175
     1
 42
1.0
 92
        8
 66
   257
 43
1.0
 76
     1
 77
     6
 78
     2
 67
     7
 79
     3
170
     0
171
     0
290
     0
174
     0
 93
        5
 44
0.0
173
     0
291
     0
 45
0.0
1001
ACAD
1000
AcDbSavedByObjectVersion
1070
     0
  0
VISUALSTYLE
  5
156
102
{ACAD_XDICTIONARY
360
62D
102
}
102
{ACAD_REACTORS
330
145
102
}
330
145
100
AcDbVisualStyle
  2

 70
    23
 71
     2
 72
     2
 73
     3
 90
        0
 40
-0.6
 41
-30.0
 62
     5
 63
     7
 74
     2
 91
        2
 64
     7
 65
     7
 75
     1
175
     1
 42
40.0
 92
        8
 66
     7
 43
1.0
 76
     1
 77
     6
 78
     2
 67
     7
 79
     3
170
     0
171
     0
290
     0
174
     0
 93
        1
 44
0.0
173
     0
291
     0
 45
0.0
1001
ACAD
1000
AcDbSavedByObjectVersion
1070
     0
  0
VISUALSTYLE
  5
157
102
{ACAD_XDICTIONARY
360
62F
102
}
102
{ACAD_REACTORS
330
145
102
}
330
145
100
AcDbVisualStyle
  2

 70
    24
 71
     1
 72
     2
 73
     2
 90
        0
 40
-0.6
 41
-30.0
 62
     5
 63
     7
 74
     2
 91
        2
 64
     7
 65
     7
 75
     1
175
     1
 42
40.0
 92
       11
 66
     7
 43
1.0
 76
     1
 77
     6
 78
     2
 67
     7
 79
     6
170
     0
171
     0
290
     0
174
     0
 93
        1
 44
0.0
173
     0
291
     0
 45
0.0
1001
ACAD
1000
AcDbSavedByObjectVersion
1070
     0
  0
VISUALSTYLE
  5
152
102
{ACAD_XDICTIONARY
360
625
102
}
102
{ACAD_REACTORS
330
145
102
}
330
145
100
AcDbVisualStyle
  2

 70
    13
 71
     2
 72
     2
 73
     0
 90
        0
 40
-0.6
 41
-30.0
 62
     5
 63
     7
 74
     1
 91
        4
 64
     7
 65
   257
 75
     1
175
     1
 42
1.0
 92
       12
 66
     7
 43
1.0
 76
     1
 77
     6
 78
     2
 67
     7
 79
     5
170
     0
171
     0
290
     0
174
     0
 93
        1
 44
0.0
173
     0
291
     1
 45
0.0
1001
ACAD
1000
AcDbSavedByObjectVersion
1070
     0
  0
VISUALSTYLE
  5
14C
102
{ACAD_XDICTIONARY
360
619
102
}
102
{ACAD_REACTORS
330
145
102
}
330
145
100
AcDbVisualStyle
  2

 70
     5
 71
     0
 72
     2
 73
     0
 90
        0
 40
-0.6
 41
-30.0
 62
     5
 63
     7
 74
     1
 91
        4
 64
     7
 65
   257
 75
     1
175
     1
 42
1.0
 92
        0
 66
   257
 43
1.0
 76
     1
 77
     6
 78
     2
 67
     7
 79
     3
170
     0
171
     0
290
     0
174
     0
 93
        1
 44
0.0
173
     0
291
     0
 45
0.0
1001
ACAD
1000
AcDbSavedByObjectVersion
1070
     0
  0
VISUALSTYLE
  5
158
102
{ACAD_XDICTIONARY
360
631
102
}
102
{ACAD_REACTORS
330
145
102
}
330
145
100
AcDbVisualStyle
  2

 70
    25
 71
     2
 72
     2
 73
     1
 90
        1
 40
0.5
 41
-30.0
 62
     5
 63
     7
 74
     1
 91
        0
 64
     7
 65
   257
 75
     1
175
     1
 42
1.0
 92
        8
 66
     7
 43
1.0
 76
     1
 77
     6
 78
     2
 67
     7
 79
     3
170
     0
171
     0
290
     0
174
     0
 93
       13
 44
0.0
173
     0
291
     0
 45
0.0
1001
ACAD
1000
AcDbSavedByObjectVersion
1070
     0
  0
DICTIONARYVAR
  5
550
102
{ACAD_REACTORS
330
54B
102
}
330
54B
100
DictionaryVariables
280
     0
  1
1:1
  0
DICTIONARYVAR
  5
54D
102
{ACAD_REACTORS
330
54B
102
}
330
54B
100
DictionaryVariables
280
     0
  1
STANDARD
  0
DICTIONARYVAR
  5
54C
102
{ACAD_REACTORS
330
54B
102
}
330
54B
100
DictionaryVariables
280
     0
  1
STANDARD
  0
DICTIONARYVAR
  5
54E
102
{ACAD_REACTORS
330
54B
102
}
330
54B
100
DictionaryVariables
280
     0
  1
Imperial24
  0
DICTIONARYVAR
  5
54F
102
{ACAD_REACTORS
330
54B
102
}
330
54B
100
DictionaryVariables
280
     0
  1
Imperial24
  0
DICTIONARYVAR
  5
557
102
{ACAD_REACTORS
330
54B
102
}
330
54B
100
DictionaryVariables
280
     0
  1
2
  0
DICTIONARYVAR
  5
555
102
{ACAD_REACTORS
330
54B
102
}
330
54B
100
DictionaryVariables
280
     0
  1
2
  0
DICTIONARYVAR
  5
553
102
{ACAD_REACTORS
330
54B
102
}
330
54B
100
DictionaryVariables
280
     0
  1
1
  0
DICTIONARYVAR
  5
552
102
{ACAD_REACTORS
330
54B
102
}
330
54B
100
DictionaryVariables
280
     0
  1
0
  0
DICTIONARYVAR
  5
556
102
{ACAD_REACTORS
330
54B
102
}
330
54B
100
DictionaryVariables
280
     0
  1
1
  0
DICTIONARYVAR
  5
551
102
{ACAD_REACTORS
330
54B
102
}
330
54B
100
DictionaryVariables
280
     0
  1
127
  0
DICTIONARYVAR
  5
5FF
102
{ACAD_REACTORS
330
54B
102
}
330
54B
100
DictionaryVariables
280
     0
  1
2
  0
DICTIONARY
  5
1B0
102
{ACAD_REACTORS
330
1A9
102
}
330
1A9
100
AcDbDictionary
281
     1
  0
DICTIONARY
  5
642
330
178
100
AcDbDictionary
280
     1
281
     1
  3
ACAD_XREC_ROUNDTRIP
360
643
  0
DICTIONARY
  5
609
330
1C
100
AcDbDictionary
280
     1
281
     1
  3
ACAD_XREC_ROUNDTRIP
360
60A
  0
DICTIONARY
  5
60B
330
1E
100
AcDbDictionary
280
     1
281
     1
  3
ACAD_XREC_ROUNDTRIP
360
60C
  0
DICTIONARY
  5
136
330
135
100
AcDbDictionary
280
     1
281
     1
  3
ACAD_XREC_ROUNDTRIP
360
563
  3
BUMPTILE
360
138
  3
DIFFUSETILE
360
137
  3
OPACITYTILE
360
13B
  3
REFLECTIONTILE
360
13A
  3
REFRACTIONTILE
360
13C
  3
SPECULARTILE
360
139
  0
DICTIONARY
  5
12E
330
12D
100
AcDbDictionary
280
     1
281
     1
  3
ACAD_XREC_ROUNDTRIP
360
562
  3
BUMPTILE
360
130
  3
DIFFUSETILE
360
12F
  3
OPACITYTILE
360
133
  3
REFLECTIONTILE
360
132
  3
REFRACTIONTILE
360
134
  3
SPECULARTILE
360
131
  0
DICTIONARY
  5
13E
330
13D
100
AcDbDictionary
280
     1
281
     1
  3
ACAD_XREC_ROUNDTRIP
360
564
  3
BUMPTILE
360
140
  3
DIFFUSETILE
360
13F
  3
OPACITYTILE
360
143
  3
REFLECTIONTILE
360
142
  3
REFRACTIONTILE
360
144
  3
SPECULARTILE
360
141
  0
DICTIONARY
  5
63E
330
174
100
AcDbDictionary
280
     1
281
     1
  3
ACAD_XREC_ROUNDTRIP
360
63F
  0
DICTIONARY
  5
640
330
176
100
AcDbDictionary
280
     1
281
     1
  3
ACAD_XREC_ROUNDTRIP
360
641
  0
DICTIONARY
  5
558
330
160
100
AcDbDictionary
280
     1
281
     1
  3
ACAD_ROUNDTRIP_2008_TABLESTYLE_CELLSTYLEMAP
360
600
  3
ACAD_XREC_ROUNDTRIP
360
63D
  0
DICTIONARY
  5
617
330
14B
100
AcDbDictionary
280
     1
281
     1
  3
ACAD_XREC_ROUNDTRIP
360
618
  0
DICTIONARY
  5
615
330
14A
100
AcDbDictionary
280
     1
281
     1
  3
ACAD_XREC_ROUNDTRIP
360
616
  0
DICTIONARY
  5
623
330
151
100
AcDbDictionary
280
     1
281
     1
  3
ACAD_XREC_ROUNDTRIP
360
624
  0
DICTIONARY
  5
62B
330
155
100
AcDbDictionary
280
     1
281
     1
  3
ACAD_XREC_ROUNDTRIP
360
62C
  0
DICTIONARY
  5
61D
330
14E
100
AcDbDictionary
280
     1
281
     1
  3
ACAD_XREC_ROUNDTRIP
360
61E
  0
DICTIONARY
  5
621
330
150
100
AcDbDictionary
280
     1
281
     1
  3
ACAD_XREC_ROUNDTRIP
360
622
  0
DICTIONARY
  5
63B
330
15D
100
AcDbDictionary
280
     1
281
     1
  3
ACAD_XREC_ROUNDTRIP
360
63C
  0
DICTIONARY
  5
629
330
154
100
AcDbDictionary
280
     1
281
     1
  3
ACAD_XREC_ROUNDTRIP
360
62A
  0
DICTIONARY
  5
60D
330
146
100
AcDbDictionary
280
     1
281
     1
  3
ACAD_XREC_ROUNDTRIP
360
60E
  0
DICTIONARY
  5
60F
330
147
100
AcDbDictionary
280
     1
281
     1
  3
ACAD_XREC_ROUNDTRIP
360
610
  0
DICTIONARY
  5
611
330
148
100
AcDbDictionary
280
     1
281
     1
  3
ACAD_XREC_ROUNDTRIP
360
612
  0
DICTIONARY
  5
613
330
149
100
AcDbDictionary
280
     1
281
     1
  3
ACAD_XREC_ROUNDTRIP
360
614
  0
DICTIONARY
  5
61B
330
14D
100
AcDbDictionary
280
     1
281
     1
  3
ACAD_XREC_ROUNDTRIP
360
61C
  0
DICTIONARY
  5
637
330
15B
100
AcDbDictionary
280
     1
281
     1
  3
ACAD_XREC_ROUNDTRIP
360
638
  0
DICTIONARY
  5
627
330
153
100
AcDbDictionary
280
     1
281
     1
  3
ACAD_XREC_ROUNDTRIP
360
628
  0
DICTIONARY
  5
639
330
15C
100
AcDbDictionary
280
     1
281
     1
  3
ACAD_XREC_ROUNDTRIP
360
63A
  0
DICTIONARY
  5
61F
330
14F
100
AcDbDictionary
280
     1
281
     1
  3
ACAD_XREC_ROUNDTRIP
360
620
  0
DICTIONARY
  5
635
330
15A
100
AcDbDictionary
280
     1
281
     1
  3
ACAD_XREC_ROUNDTRIP
360
636
  0
DICTIONARY
  5
633
330
159
100
AcDbDictionary
280
     1
281
     1
  3
ACAD_XREC_ROUNDTRIP
360
634
  0
DICTIONARY
  5
62D
330
156
100
AcDbDictionary
280
     1
281
     1
  3
ACAD_XREC_ROUNDTRIP
360
62E
  0
DICTIONARY
  5
62F
330
157
100
AcDbDictionary
280
     1
281
     1
  3
ACAD_XREC_ROUNDTRIP
360
630
  0
DICTIONARY
  5
625
330
152
100
AcDbDictionary
280
     1
281
     1
  3
ACAD_XREC_ROUNDTRIP
360
626
  0
DICTIONARY
  5
619
330
14C
100
AcDbDictionary
280
     1
281
     1
  3
ACAD_XREC_ROUNDTRIP
360
61A
  0
DICTIONARY
  5
631
330
158
100
AcDbDictionary
280
     1
281
     1
  3
ACAD_XREC_ROUNDTRIP
360
632
  0
XRECORD
  5
643
102
{ACAD_REACTORS
330
642
102
}
330
642
100
AcDbXrecord
280
     1
102
DISPLAYNAME
  1
Imperial24
102
FLAGS
 90
        0
  0
XRECORD
  5
60A
102
{ACAD_REACTORS
330
609
102
}
330
609
100
AcDbXrecord
280
     1
102
SHADEPLOT
 70
     0
102
SHADEPLOTRESLEVEL
 70
     2
102
SHADEPLOTCUSTOMDPI
 70
   300
  0
XRECORD
  5
60C
102
{ACAD_REACTORS
330
60B
102
}
330
60B
100
AcDbXrecord
280
     1
102
SHADEPLOT
 70
     0
102
SHADEPLOTRESLEVEL
 70
     2
102
SHADEPLOTCUSTOMDPI
 70
   300
  0
XRECORD
  5
563
102
{ACAD_REACTORS
330
136
102
}
330
136
100
AcDbXrecord
280
     1
102
MATERIAL
148
0.0
149
0.0
149
0.0
 93
        0
 94
      127
282
     0
 72
     0
 77
     0
171
     0
175
     0
179
     0
273
     0
  0
XRECORD
  5
138
102
{ACAD_REACTORS
330
136
102
}
330
136
100
AcDbXrecord
280
     1
270
     1
271
     1
  0
XRECORD
  5
137
102
{ACAD_REACTORS
330
136
102
}
330
136
100
AcDbXrecord
280
     1
270
     1
271
     1
  0
XRECORD
  5
13B
102
{ACAD_REACTORS
330
136
102
}
330
136
100
AcDbXrecord
280
     1
270
     1
271
     1
  0
XRECORD
  5
13A
102
{ACAD_REACTORS
330
136
102
}
330
136
100
AcDbXrecord
280
     1
270
     1
271
     1
  0
XRECORD
  5
13C
102
{ACAD_REACTORS
330
136
102
}
330
136
100
AcDbXrecord
280
     1
270
     1
271
     1
  0
XRECORD
  5
139
102
{ACAD_REACTORS
330
136
102
}
330
136
100
AcDbXrecord
280
     1
270
     1
271
     1
  0
XRECORD
  5
562
102
{ACAD_REACTORS
330
12E
102
}
330
12E
100
AcDbXrecord
280
     1
102
MATERIAL
148
0.0
149
0.0
149
0.0
 93
        0
 94
      127
282
     0
 72
     0
 77
     0
171
     0
175
     0
179
     0
273
     0
  0
XRECORD
  5
130
102
{ACAD_REACTORS
330
12E
102
}
330
12E
100
AcDbXrecord
280
     1
270
     1
271
     1
  0
XRECORD
  5
12F
102
{ACAD_REACTORS
330
12E
102
}
330
12E
100
AcDbXrecord
280
     1
270
     1
271
     1
  0
XRECORD
  5
133
102
{ACAD_REACTORS
330
12E
102
}
330
12E
100
AcDbXrecord
280
     1
270
     1
271
     1
  0
XRECORD
  5
132
102
{ACAD_REACTORS
330
12E
102
}
330
12E
100
AcDbXrecord
280
     1
270
     1
271
     1
  0
XRECORD
  5
134
102
{ACAD_REACTORS
330
12E
102
}
330
12E
100
AcDbXrecord
280
     1
270
     1
271
     1
  0
XRECORD
  5
131
102
{ACAD_REACTORS
330
12E
102
}
330
12E
100
AcDbXrecord
280
     1
270
     1
271
     1
  0
XRECORD
  5
564
102
{ACAD_REACTORS
330
13E
102
}
330
13E
100
AcDbXrecord
280
     1
102
MATERIAL
148
0.0
149
0.0
149
0.0
 93
        0
 94
      127
282
     0
 72
     0
 77
     0
171
     0
175
     0
179
     0
273
     0
  0
XRECORD
  5
140
102
{ACAD_REACTORS
330
13E
102
}
330
13E
100
AcDbXrecord
280
     1
270
     1
271
     1
  0
XRECORD
  5
13F
102
{ACAD_REACTORS
330
13E
102
}
330
13E
100
AcDbXrecord
280
     1
270
     1
271
     1
  0
XRECORD
  5
143
102
{ACAD_REACTORS
330
13E
102
}
330
13E
100
AcDbXrecord
280
     1
270
     1
271
     1
  0
XRECORD
  5
142
102
{ACAD_REACTORS
330
13E
102
}
330
13E
100
AcDbXrecord
280
     1
270
     1
271
     1
  0
XRECORD
  5
144
102
{ACAD_REACTORS
330
13E
102
}
330
13E
100
AcDbXrecord
280
     1
270
     1
271
     1
  0
XRECORD
  5
141
102
{ACAD_REACTORS
330
13E
102
}
330
13E
100
AcDbXrecord
280
     1
270
     1
271
     1
  0
XRECORD
  5
63F
102
{ACAD_REACTORS
330
63E
102
}
330
63E
100
AcDbXrecord
280
     1
102
ACAD_ROUNDTRIP_2012_MLEADER_STYLE
298
     1
  0
XRECORD
  5
641
102
{ACAD_REACTORS
330
640
102
}
330
640
100
AcDbXrecord
280
     1
102
DISPLAYNAME
  1
Imperial24
102
FLAGS
 90
        0
  0
CELLSTYLEMAP
  5
600
102
{ACAD_REACTORS
330
558
102
}
330
558
100
AcDbCellStyleMap
 90
        3
300
CELLSTYLE
  1
TABLEFORMAT_BEGIN
 90
        5
170
     1
 91
        0
 92
    32768
 62
   257
 93
        1
300
CONTENTFORMAT
  1
CONTENTFORMAT_BEGIN
 90
        0
 91
        0
 92
      512
 93
        0
300

 40
0.0
140
1.0
 94
        5
 62
     0
340
11
144
0.25
309
CONTENTFORMAT_END
171
     1
301
MARGIN
  1
CELLMARGIN_BEGIN
 40
0.06
 40
0.06
 40
0.06
 40
0.06
 40
0.18
 40
0.18
309
CELLMARGIN_END
 94
        6
 95
        1
302
GRIDFORMAT
  1
GRIDFORMAT_BEGIN
 90
        0
 91
        1
 62
     0
 92
       -2
340
0
 93
        0
 40
0.045
309
GRIDFORMAT_END
 95
        2
302
GRIDFORMAT
  1
GRIDFORMAT_BEGIN
 90
        0
 91
        1
 62
     0
 92
       -2
340
0
 93
        0
 40
0.045
309
GRIDFORMAT_END
 95
        4
302
GRIDFORMAT
  1
GRIDFORMAT_BEGIN
 90
        0
 91
        1
 62
     0
 92
       -2
340
0
 93
        0
 40
0.045
309
GRIDFORMAT_END
 95
        8
302
GRIDFORMAT
  1
GRIDFORMAT_BEGIN
 90
        0
 91
        1
 62
     0
 92
       -2
340
0
 93
        0
 40
0.045
309
GRIDFORMAT_END
 95
       16
302
GRIDFORMAT
  1
GRIDFORMAT_BEGIN
 90
        0
 91
        1
 62
     0
 92
       -2
340
0
 93
        0
 40
0.045
309
GRIDFORMAT_END
 95
       32
302
GRIDFORMAT
  1
GRIDFORMAT_BEGIN
 90
        0
 91
        1
 62
     0
 92
       -2
340
0
 93
        0
 40
0.045
309
GRIDFORMAT_END
309
TABLEFORMAT_END
  1
CELLSTYLE_BEGIN
 90
        1
 91
        1
300
_TITLE
309
CELLSTYLE_END
300
CELLSTYLE
  1
TABLEFORMAT_BEGIN
 90
        5
170
     1
 91
        0
 92
        0
 62
   257
 93
        1
300
CONTENTFORMAT
  1
CONTENTFORMAT_BEGIN
 90
        0
 91
        0
 92
      512
 93
        0
300

 40
0.0
140
1.0
 94
        5
 62
     0
340
11
144
0.18
309
CONTENTFORMAT_END
171
     1
301
MARGIN
  1
CELLMARGIN_BEGIN
 40
0.06
 40
0.06
 40
0.06
 40
0.06
 40
0.18
 40
0.18
309
CELLMARGIN_END
 94
        6
 95
        1
302
GRIDFORMAT
  1
GRIDFORMAT_BEGIN
 90
        0
 91
        1
 62
     0
 92
       -2
340
0
 93
        0
 40
0.045
309
GRIDFORMAT_END
 95
        2
302
GRIDFORMAT
  1
GRIDFORMAT_BEGIN
 90
        0
 91
        1
 62
     0
 92
       -2
340
0
 93
        0
 40
0.045
309
GRIDFORMAT_END
 95
        4
302
GRIDFORMAT
  1
GRIDFORMAT_BEGIN
 90
        0
 91
        1
 62
     0
 92
       -2
340
0
 93
        0
 40
0.045
309
GRIDFORMAT_END
 95
        8
302
GRIDFORMAT
  1
GRIDFORMAT_BEGIN
 90
        0
 91
        1
 62
     0
 92
       -2
340
0
 93
        0
 40
0.045
309
GRIDFORMAT_END
 95
       16
302
GRIDFORMAT
  1
GRIDFORMAT_BEGIN
 90
        0
 91
        1
 62
     0
 92
       -2
340
0
 93
        0
 40
0.045
309
GRIDFORMAT_END
 95
       32
302
GRIDFORMAT
  1
GRIDFORMAT_BEGIN
 90
        0
 91
        1
 62
     0
 92
       -2
340
0
 93
        0
 40
0.045
309
GRIDFORMAT_END
309
TABLEFORMAT_END
  1
CELLSTYLE_BEGIN
 90
        2
 91
        1
300
_HEADER
309
CELLSTYLE_END
300
CELLSTYLE
  1
TABLEFORMAT_BEGIN
 90
        5
170
     1
 91
        0
 92
        0
 62
   257
 93
        1
300
CONTENTFORMAT
  1
CONTENTFORMAT_BEGIN
 90
        0
 91
        0
 92
      512
 93
        0
300

 40
0.0
140
1.0
 94
        2
 62
     0
340
11
144
0.18
309
CONTENTFORMAT_END
171
     1
301
MARGIN
  1
CELLMARGIN_BEGIN
 40
0.06
 40
0.06
 40
0.06
 40
0.06
 40
0.18
 40
0.18
309
CELLMARGIN_END
 94
        6
 95
        1
302
GRIDFORMAT
  1
GRIDFORMAT_BEGIN
 90
        0
 91
        1
 62
     0
 92
       -2
340
0
 93
        0
 40
0.045
309
GRIDFORMAT_END
 95
        2
302
GRIDFORMAT
  1
GRIDFORMAT_BEGIN
 90
        0
 91
        1
 62
     0
 92
       -2
340
0
 93
        0
 40
0.045
309
GRIDFORMAT_END
 95
        4
302
GRIDFORMAT
  1
GRIDFORMAT_BEGIN
 90
        0
 91
        1
 62
     0
 92
       -2
340
0
 93
        0
 40
0.045
309
GRIDFORMAT_END
 95
        8
302
GRIDFORMAT
  1
GRIDFORMAT_BEGIN
 90
        0
 91
        1
 62
     0
 92
       -2
340
0
 93
        0
 40
0.045
309
GRIDFORMAT_END
 95
       16
302
GRIDFORMAT
  1
GRIDFORMAT_BEGIN
 90
        0
 91
        1
 62
     0
 92
       -2
340
0
 93
        0
 40
0.045
309
GRIDFORMAT_END
 95
       32
302
GRIDFORMAT
  1
GRIDFORMAT_BEGIN
 90
        0
 91
        1
 62
     0
 92
       -2
340
0
 93
        0
 40
0.045
309
GRIDFORMAT_END
309
TABLEFORMAT_END
  1
CELLSTYLE_BEGIN
 90
        3
 91
        2
300
_DATA
309
CELLSTYLE_END
  0
XRECORD
  5
63D
102
{ACAD_REACTORS
330
558
102
}
330
558
100
AcDbXrecord
280
     1
102
ACAD_ROUNDTRIP_PRE2007_TABLESTYLE
 90
      512
 91
        0
  1

 92
      512
 93
        0
  2

 94
      512
 95
        0
  3

  0
XRECORD
  5
618
102
{ACAD_REACTORS
330
617
102
}
330
617
100
AcDbXrecord
280
     1
102
RTVSPost2010Prop28
280
     1
102
RTVSPost2010PropOp28
 70
     1
102
RTVSPost2010Prop29
280
     1
102
RTVSPost2010PropOp29
 70
     1
102
RTVSPost2010Prop30
280
     0
102
RTVSPost2010PropOp30
 70
     1
102
RTVSPost2010Prop31
280
     0
102
RTVSPost2010PropOp31
 70
     1
102
RTVSPost2010Prop32
280
     0
102
RTVSPost2010PropOp32
 70
     1
102
RTVSPost2010Prop33
280
     0
102
RTVSPost2010PropOp33
 70
     1
102
RTVSPost2010Prop34
280
     0
102
RTVSPost2010PropOp34
 70
     1
102
RTVSPost2010Prop35
280
     0
102
RTVSPost2010PropOp35
 70
     1
102
RTVSPost2010Prop36
280
     0
102
RTVSPost2010PropOp36
 70
     1
102
RTVSPost2010Prop37
 90
       50
102
RTVSPost2010PropOp37
 70
     1
102
RTVSPost2010Prop38
140
0.0
102
RTVSPost2010PropOp38
 70
     1
102
RTVSPost2010Prop39
140
1.0
102
RTVSPost2010PropOp39
 70
     1
102
RTVSPost2010Prop40
 90
        0
102
RTVSPost2010PropOp40
 70
     1
102
RTVSPost2010Prop41ColorIndex
 90
       18
102
RTVSPost2010Prop41ColorRGB
 90
        0
102
RTVSPost2010PropOp41
 70
     1
102
RTVSPost2010Prop42
 90
       50
102
RTVSPost2010PropOp42
 70
     1
102
RTVSPost2010Prop43
 90
        3
102
RTVSPost2010PropOp43
 70
     1
102
RTVSPost2010Prop44ColorIndex
 90
        5
102
RTVSPost2010Prop44ColorRGB
 90
      255
102
RTVSPost2010PropOp44
 70
     1
102
RTVSPost2010Prop45
280
     0
102
RTVSPost2010PropOp45
 70
     1
102
RTVSPost2010Prop46
 90
       50
102
RTVSPost2010PropOp46
 70
     1
102
RTVSPost2010Prop47
 90
       50
102
RTVSPost2010PropOp47
 70
     1
102
RTVSPost2010Prop48
 90
       50
102
RTVSPost2010PropOp48
 70
     1
102
RTVSPost2010Prop49
280
     0
102
RTVSPost2010PropOp49
 70
     1
102
RTVSPost2010Prop50
 90
       50
102
RTVSPost2010PropOp50
 70
     1
102
RTVSPost2010Prop51ColorIndex
 90
      256
102
RTVSPost2010Prop51ColorRGB
 90
-16777216
102
RTVSPost2010PropOp51
 70
     0
102
RTVSPost2010Prop52
140
1.0
102
RTVSPost2010PropOp52
 70
     0
102
RTVSPost2010Prop53
 90
        2
102
RTVSPost2010PropOp53
 70
     1
102
RTVSPost2010Prop54
  1
strokes_ogs.tif
102
RTVSPost2010PropOp54
 70
     1
102
RTVSPost2010Prop55
280
     0
102
RTVSPost2010PropOp55
 70
     1
102
RTVSPost2010Prop56
140
1.0
102
RTVSPost2010PropOp56
 70
     1
102
RTVSPost2010Prop57
140
1.0
102
RTVSPost2010PropOp57
 70
     1
102
RTVSPropertyOp0
 70
     1
102
RTVSPropertyOp1
 70
     1
102
RTVSPropertyOp2
 70
     1
102
RTVSPropertyOp3
 70
     1
102
RTVSPropertyOp4
 70
     1
102
RTVSPropertyOp5
 70
     1
102
RTVSPropertyOp6
 70
     1
102
RTVSPropertyOp7
 70
     1
102
RTVSPropertyOp8
 70
     1
102
RTVSPropertyOp9
 70
     1
102
RTVSPropertyOp10
 70
     1
102
RTVSPropertyOp11
 70
     1
102
RTVSPropertyOp12
 70
     1
102
RTVSPropertyOp13
 70
     1
102
RTVSPropertyOp14
 70
     1
102
RTVSPropertyOp15
 70
     1
102
RTVSPropertyOp16
 70
     1
102
RTVSPropertyOp17
 70
     1
102
RTVSPropertyOp18
 70
     1
102
RTVSPropertyOp19
 70
     1
102
RTVSPropertyOp20
 70
     1
102
RTVSPropertyOp21
 70
     1
102
RTVSPropertyOp22
 70
     1
102
RTVSPropertyOp23
 70
     1
102
RTVSPropertyOp24
 70
     1
102
RTVSPropertyOp25
 70
     1
102
RTVSPropertyOp26
 70
     1
102
RTVSPropertyOp27
 70
     1
102
RTVSPropertyOp28
 70
     1
102
RTVSPropertyOp29
 70
     1
102
RTVSPropertyOp30
 70
     1
102
RTVSPropertyOp31
 70
     1
102
RTVSPropertyOp32
 70
     1
102
RTVSPropertyOp33
 70
     1
102
RTVSPropertyOp34
 70
     1
102
RTVSPropertyOp35
 70
     1
102
RTVSPropertyOp36
 70
     1
102
RTVSPropertyOp37
 70
     1
102
RTVSPropertyOp38
 70
     1
102
RTVSPropertyOp39
 70
     1
102
RTVSPropertyOp40
 70
     1
102
RTVSPropertyOp41
 70
     1
102
RTVSPropertyOp42
 70
     1
102
RTVSPropertyOp43
 70
     1
102
RTVSPropertyOp44
 70
     1
102
RTVSPropertyOp45
 70
     1
102
RTVSPropertyOp46
 70
     1
102
RTVSPropertyOp47
 70
     1
102
RTVSPropertyOp48
 70
     1
102
RTVSPropertyOp49
 70
     1
102
RTVSPropertyOp50
 70
     1
102
RTVSPropertyOp51
 70
     0
102
RTVSPropertyOp52
 70
     0
102
RTVSPropertyOp53
 70
     1
102
RTVSPropertyOp54
 70
     1
102
RTVSPropertyOp55
 70
     1
102
RTVSPropertyOp56
 70
     1
102
RTVSPropertyOp57
 70
     1
102
RTVSPropertyOp58
 70
     1
102
RTVSPropertyOp59
 70
     1
102
RTVSPropertyOp60
 70
     1
102
RTVSPropertyOp61
 70
     1
102
RTVSPropertyOp62
 70
     1
  0
XRECORD
  5
616
102
{ACAD_REACTORS
330
615
102
}
330
615
100
AcDbXrecord
280
     1
102
RTVSPost2010Prop28
280
     0
102
RTVSPost2010PropOp28
 70
     1
102
RTVSPost2010Prop29
280
     1
102
RTVSPost2010PropOp29
 70
     1
102
RTVSPost2010Prop30
280
     1
102
RTVSPost2010PropOp30
 70
     1
102
RTVSPost2010Prop31
280
     0
102
RTVSPost2010PropOp31
 70
     1
102
RTVSPost2010Prop32
280
     0
102
RTVSPost2010PropOp32
 70
     1
102
RTVSPost2010Prop33
280
     0
102
RTVSPost2010PropOp33
 70
     1
102
RTVSPost2010Prop34
280
     0
102
RTVSPost2010PropOp34
 70
     1
102
RTVSPost2010Prop35
280
     0
102
RTVSPost2010PropOp35
 70
     1
102
RTVSPost2010Prop36
280
     0
102
RTVSPost2010PropOp36
 70
     1
102
RTVSPost2010Prop37
 90
       50
102
RTVSPost2010PropOp37
 70
     1
102
RTVSPost2010Prop38
140
0.0
102
RTVSPost2010PropOp38
 70
     1
102
RTVSPost2010Prop39
140
1.0
102
RTVSPost2010PropOp39
 70
     1
102
RTVSPost2010Prop40
 90
        0
102
RTVSPost2010PropOp40
 70
     1
102
RTVSPost2010Prop41ColorIndex
 90
       18
102
RTVSPost2010Prop41ColorRGB
 90
        0
102
RTVSPost2010PropOp41
 70
     1
102
RTVSPost2010Prop42
 90
       50
102
RTVSPost2010PropOp42
 70
     1
102
RTVSPost2010Prop43
 90
        3
102
RTVSPost2010PropOp43
 70
     1
102
RTVSPost2010Prop44ColorIndex
 90
        5
102
RTVSPost2010Prop44ColorRGB
 90
      255
102
RTVSPost2010PropOp44
 70
     1
102
RTVSPost2010Prop45
280
     0
102
RTVSPost2010PropOp45
 70
     1
102
RTVSPost2010Prop46
 90
       50
102
RTVSPost2010PropOp46
 70
     1
102
RTVSPost2010Prop47
 90
       50
102
RTVSPost2010PropOp47
 70
     1
102
RTVSPost2010Prop48
 90
       50
102
RTVSPost2010PropOp48
 70
     1
102
RTVSPost2010Prop49
280
     0
102
RTVSPost2010PropOp49
 70
     1
102
RTVSPost2010Prop50
 90
       50
102
RTVSPost2010PropOp50
 70
     1
102
RTVSPost2010Prop51ColorIndex
 90
      256
102
RTVSPost2010Prop51ColorRGB
 90
-16777216
102
RTVSPost2010PropOp51
 70
     0
102
RTVSPost2010Prop52
140
1.0
102
RTVSPost2010PropOp52
 70
     0
102
RTVSPost2010Prop53
 90
        2
102
RTVSPost2010PropOp53
 70
     1
102
RTVSPost2010Prop54
  1
strokes_ogs.tif
102
RTVSPost2010PropOp54
 70
     1
102
RTVSPost2010Prop55
280
     0
102
RTVSPost2010PropOp55
 70
     1
102
RTVSPost2010Prop56
140
1.0
102
RTVSPost2010PropOp56
 70
     1
102
RTVSPost2010Prop57
140
1.0
102
RTVSPost2010PropOp57
 70
     1
102
RTVSPropertyOp0
 70
     1
102
RTVSPropertyOp1
 70
     1
102
RTVSPropertyOp2
 70
     1
102
RTVSPropertyOp3
 70
     1
102
RTVSPropertyOp4
 70
     1
102
RTVSPropertyOp5
 70
     1
102
RTVSPropertyOp6
 70
     1
102
RTVSPropertyOp7
 70
     1
102
RTVSPropertyOp8
 70
     1
102
RTVSPropertyOp9
 70
     1
102
RTVSPropertyOp10
 70
     1
102
RTVSPropertyOp11
 70
     1
102
RTVSPropertyOp12
 70
     1
102
RTVSPropertyOp13
 70
     1
102
RTVSPropertyOp14
 70
     1
102
RTVSPropertyOp15
 70
     1
102
RTVSPropertyOp16
 70
     1
102
RTVSPropertyOp17
 70
     1
102
RTVSPropertyOp18
 70
     1
102
RTVSPropertyOp19
 70
     1
102
RTVSPropertyOp20
 70
     1
102
RTVSPropertyOp21
 70
     1
102
RTVSPropertyOp22
 70
     1
102
RTVSPropertyOp23
 70
     1
102
RTVSPropertyOp24
 70
     1
102
RTVSPropertyOp25
 70
     1
102
RTVSPropertyOp26
 70
     1
102
RTVSPropertyOp27
 70
     1
102
RTVSPropertyOp28
 70
     1
102
RTVSPropertyOp29
 70
     1
102
RTVSPropertyOp30
 70
     1
102
RTVSPropertyOp31
 70
     1
102
RTVSPropertyOp32
 70
     1
102
RTVSPropertyOp33
 70
     1
102
RTVSPropertyOp34
 70
     1
102
RTVSPropertyOp35
 70
     1
102
RTVSPropertyOp36
 70
     1
102
RTVSPropertyOp37
 70
     1
102
RTVSPropertyOp38
 70
     1
102
RTVSPropertyOp39
 70
     1
102
RTVSPropertyOp40
 70
     1
102
RTVSPropertyOp41
 70
     1
102
RTVSPropertyOp42
 70
     1
102
RTVSPropertyOp43
 70
     1
102
RTVSPropertyOp44
 70
     1
102
RTVSPropertyOp45
 70
     1
102
RTVSPropertyOp46
 70
     1
102
RTVSPropertyOp47
 70
     1
102
RTVSPropertyOp48
 70
     1
102
RTVSPropertyOp49
 70
     1
102
RTVSPropertyOp50
 70
     1
102
RTVSPropertyOp51
 70
     0
102
RTVSPropertyOp52
 70
     0
102
RTVSPropertyOp53
 70
     1
102
RTVSPropertyOp54
 70
     1
102
RTVSPropertyOp55
 70
     1
102
RTVSPropertyOp56
 70
     1
102
RTVSPropertyOp57
 70
     1
102
RTVSPropertyOp58
 70
     1
102
RTVSPropertyOp59
 70
     1
102
RTVSPropertyOp60
 70
     1
102
RTVSPropertyOp61
 70
     1
102
RTVSPropertyOp62
 70
     1
  0
XRECORD
  5
624
102
{ACAD_REACTORS
330
623
102
}
330
623
100
AcDbXrecord
280
     1
102
RTVSPost2010Prop28
280
     0
102
RTVSPost2010PropOp28
 70
     1
102
RTVSPost2010Prop29
280
     1
102
RTVSPost2010PropOp29
 70
     1
102
RTVSPost2010Prop30
280
     1
102
RTVSPost2010PropOp30
 70
     1
102
RTVSPost2010Prop31
280
     0
102
RTVSPost2010PropOp31
 70
     1
102
RTVSPost2010Prop32
280
     0
102
RTVSPost2010PropOp32
 70
     1
102
RTVSPost2010Prop33
280
     0
102
RTVSPost2010PropOp33
 70
     1
102
RTVSPost2010Prop34
280
     0
102
RTVSPost2010PropOp34
 70
     1
102
RTVSPost2010Prop35
280
     0
102
RTVSPost2010PropOp35
 70
     1
102
RTVSPost2010Prop36
280
     0
102
RTVSPost2010PropOp36
 70
     1
102
RTVSPost2010Prop37
 90
       50
102
RTVSPost2010PropOp37
 70
     1
102
RTVSPost2010Prop38
140
0.0
102
RTVSPost2010PropOp38
 70
     1
102
RTVSPost2010Prop39
140
1.0
102
RTVSPost2010PropOp39
 70
     1
102
RTVSPost2010Prop40
 90
        0
102
RTVSPost2010PropOp40
 70
     1
102
RTVSPost2010Prop41ColorIndex
 90
       18
102
RTVSPost2010Prop41ColorRGB
 90
        0
102
RTVSPost2010PropOp41
 70
     1
102
RTVSPost2010Prop42
 90
       50
102
RTVSPost2010PropOp42
 70
     1
102
RTVSPost2010Prop43
 90
        3
102
RTVSPost2010PropOp43
 70
     1
102
RTVSPost2010Prop44ColorIndex
 90
        5
102
RTVSPost2010Prop44ColorRGB
 90
      255
102
RTVSPost2010PropOp44
 70
     1
102
RTVSPost2010Prop45
280
     0
102
RTVSPost2010PropOp45
 70
     1
102
RTVSPost2010Prop46
 90
       50
102
RTVSPost2010PropOp46
 70
     1
102
RTVSPost2010Prop47
 90
       50
102
RTVSPost2010PropOp47
 70
     1
102
RTVSPost2010Prop48
 90
       50
102
RTVSPost2010PropOp48
 70
     1
102
RTVSPost2010Prop49
280
     0
102
RTVSPost2010PropOp49
 70
     1
102
RTVSPost2010Prop50
 90
       50
102
RTVSPost2010PropOp50
 70
     1
102
RTVSPost2010Prop51ColorIndex
 90
      256
102
RTVSPost2010Prop51ColorRGB
 90
-16777216
102
RTVSPost2010PropOp51
 70
     0
102
RTVSPost2010Prop52
140
1.0
102
RTVSPost2010PropOp52
 70
     0
102
RTVSPost2010Prop53
 90
        2
102
RTVSPost2010PropOp53
 70
     1
102
RTVSPost2010Prop54
  1
strokes_ogs.tif
102
RTVSPost2010PropOp54
 70
     1
102
RTVSPost2010Prop55
280
     0
102
RTVSPost2010PropOp55
 70
     1
102
RTVSPost2010Prop56
140
1.0
102
RTVSPost2010PropOp56
 70
     1
102
RTVSPost2010Prop57
140
1.0
102
RTVSPost2010PropOp57
 70
     1
102
RTVSPropertyOp0
 70
     1
102
RTVSPropertyOp1
 70
     1
102
RTVSPropertyOp2
 70
     1
102
RTVSPropertyOp3
 70
     1
102
RTVSPropertyOp4
 70
     1
102
RTVSPropertyOp5
 70
     1
102
RTVSPropertyOp6
 70
     1
102
RTVSPropertyOp7
 70
     1
102
RTVSPropertyOp8
 70
     1
102
RTVSPropertyOp9
 70
     1
102
RTVSPropertyOp10
 70
     1
102
RTVSPropertyOp11
 70
     1
102
RTVSPropertyOp12
 70
     1
102
RTVSPropertyOp13
 70
     1
102
RTVSPropertyOp14
 70
     1
102
RTVSPropertyOp15
 70
     1
102
RTVSPropertyOp16
 70
     1
102
RTVSPropertyOp17
 70
     1
102
RTVSPropertyOp18
 70
     1
102
RTVSPropertyOp19
 70
     1
102
RTVSPropertyOp20
 70
     1
102
RTVSPropertyOp21
 70
     1
102
RTVSPropertyOp22
 70
     1
102
RTVSPropertyOp23
 70
     1
102
RTVSPropertyOp24
 70
     1
102
RTVSPropertyOp25
 70
     1
102
RTVSPropertyOp26
 70
     1
102
RTVSPropertyOp27
 70
     1
102
RTVSPropertyOp28
 70
     1
102
RTVSPropertyOp29
 70
     1
102
RTVSPropertyOp30
 70
     1
102
RTVSPropertyOp31
 70
     1
102
RTVSPropertyOp32
 70
     1
102
RTVSPropertyOp33
 70
     1
102
RTVSPropertyOp34
 70
     1
102
RTVSPropertyOp35
 70
     1
102
RTVSPropertyOp36
 70
     1
102
RTVSPropertyOp37
 70
     1
102
RTVSPropertyOp38
 70
     1
102
RTVSPropertyOp39
 70
     1
102
RTVSPropertyOp40
 70
     1
102
RTVSPropertyOp41
 70
     1
102
RTVSPropertyOp42
 70
     1
102
RTVSPropertyOp43
 70
     1
102
RTVSPropertyOp44
 70
     1
102
RTVSPropertyOp45
 70
     1
102
RTVSPropertyOp46
 70
     1
102
RTVSPropertyOp47
 70
     1
102
RTVSPropertyOp48
 70
     1
102
RTVSPropertyOp49
 70
     1
102
RTVSPropertyOp50
 70
     1
102
RTVSPropertyOp51
 70
     0
102
RTVSPropertyOp52
 70
     0
102
RTVSPropertyOp53
 70
     1
102
RTVSPropertyOp54
 70
     1
102
RTVSPropertyOp55
 70
     1
102
RTVSPropertyOp56
 70
     1
102
RTVSPropertyOp57
 70
     1
102
RTVSPropertyOp58
 70
     1
102
RTVSPropertyOp59
 70
     1
102
RTVSPropertyOp60
 70
     1
102
RTVSPropertyOp61
 70
     1
102
RTVSPropertyOp62
 70
     1
  0
XRECORD
  5
62C
102
{ACAD_REACTORS
330
62B
102
}
330
62B
100
AcDbXrecord
280
     1
102
RTVSPost2010Prop28
280
     0
102
RTVSPost2010PropOp28
 70
     1
102
RTVSPost2010Prop29
280
     1
102
RTVSPost2010PropOp29
 70
     1
102
RTVSPost2010Prop30
280
     1
102
RTVSPost2010PropOp30
 70
     1
102
RTVSPost2010Prop31
280
     0
102
RTVSPost2010PropOp31
 70
     1
102
RTVSPost2010Prop32
280
     0
102
RTVSPost2010PropOp32
 70
     1
102
RTVSPost2010Prop33
280
     0
102
RTVSPost2010PropOp33
 70
     1
102
RTVSPost2010Prop34
280
     0
102
RTVSPost2010PropOp34
 70
     1
102
RTVSPost2010Prop35
280
     0
102
RTVSPost2010PropOp35
 70
     1
102
RTVSPost2010Prop36
280
     0
102
RTVSPost2010PropOp36
 70
     1
102
RTVSPost2010Prop37
 90
       50
102
RTVSPost2010PropOp37
 70
     1
102
RTVSPost2010Prop38
140
0.0
102
RTVSPost2010PropOp38
 70
     1
102
RTVSPost2010Prop39
140
1.0
102
RTVSPost2010PropOp39
 70
     1
102
RTVSPost2010Prop40
 90
        0
102
RTVSPost2010PropOp40
 70
     1
102
RTVSPost2010Prop41ColorIndex
 90
       18
102
RTVSPost2010Prop41ColorRGB
 90
        0
102
RTVSPost2010PropOp41
 70
     1
102
RTVSPost2010Prop42
 90
       50
102
RTVSPost2010PropOp42
 70
     1
102
RTVSPost2010Prop43
 90
        3
102
RTVSPost2010PropOp43
 70
     1
102
RTVSPost2010Prop44ColorIndex
 90
        5
102
RTVSPost2010Prop44ColorRGB
 90
      255
102
RTVSPost2010PropOp44
 70
     1
102
RTVSPost2010Prop45
280
     0
102
RTVSPost2010PropOp45
 70
     1
102
RTVSPost2010Prop46
 90
       50
102
RTVSPost2010PropOp46
 70
     1
102
RTVSPost2010Prop47
 90
       50
102
RTVSPost2010PropOp47
 70
     1
102
RTVSPost2010Prop48
 90
       50
102
RTVSPost2010PropOp48
 70
     1
102
RTVSPost2010Prop49
280
     0
102
RTVSPost2010PropOp49
 70
     1
102
RTVSPost2010Prop50
 90
       50
102
RTVSPost2010PropOp50
 70
     1
102
RTVSPost2010Prop51ColorIndex
 90
      256
102
RTVSPost2010Prop51ColorRGB
 90
-16777216
102
RTVSPost2010PropOp51
 70
     0
102
RTVSPost2010Prop52
140
1.0
102
RTVSPost2010PropOp52
 70
     0
102
RTVSPost2010Prop53
 90
        2
102
RTVSPost2010PropOp53
 70
     1
102
RTVSPost2010Prop54
  1
strokes_ogs.tif
102
RTVSPost2010PropOp54
 70
     1
102
RTVSPost2010Prop55
280
     0
102
RTVSPost2010PropOp55
 70
     1
102
RTVSPost2010Prop56
140
1.0
102
RTVSPost2010PropOp56
 70
     1
102
RTVSPost2010Prop57
140
1.0
102
RTVSPost2010PropOp57
 70
     1
102
RTVSPropertyOp0
 70
     1
102
RTVSPropertyOp1
 70
     1
102
RTVSPropertyOp2
 70
     1
102
RTVSPropertyOp3
 70
     1
102
RTVSPropertyOp4
 70
     1
102
RTVSPropertyOp5
 70
     1
102
RTVSPropertyOp6
 70
     1
102
RTVSPropertyOp7
 70
     1
102
RTVSPropertyOp8
 70
     1
102
RTVSPropertyOp9
 70
     1
102
RTVSPropertyOp10
 70
     1
102
RTVSPropertyOp11
 70
     1
102
RTVSPropertyOp12
 70
     1
102
RTVSPropertyOp13
 70
     1
102
RTVSPropertyOp14
 70
     1
102
RTVSPropertyOp15
 70
     1
102
RTVSPropertyOp16
 70
     1
102
RTVSPropertyOp17
 70
     1
102
RTVSPropertyOp18
 70
     1
102
RTVSPropertyOp19
 70
     1
102
RTVSPropertyOp20
 70
     1
102
RTVSPropertyOp21
 70
     1
102
RTVSPropertyOp22
 70
     1
102
RTVSPropertyOp23
 70
     1
102
RTVSPropertyOp24
 70
     1
102
RTVSPropertyOp25
 70
     1
102
RTVSPropertyOp26
 70
     1
102
RTVSPropertyOp27
 70
     1
102
RTVSPropertyOp28
 70
     1
102
RTVSPropertyOp29
 70
     1
102
RTVSPropertyOp30
 70
     1
102
RTVSPropertyOp31
 70
     1
102
RTVSPropertyOp32
 70
     1
102
RTVSPropertyOp33
 70
     1
102
RTVSPropertyOp34
 70
     1
102
RTVSPropertyOp35
 70
     1
102
RTVSPropertyOp36
 70
     1
102
RTVSPropertyOp37
 70
     1
102
RTVSPropertyOp38
 70
     1
102
RTVSPropertyOp39
 70
     1
102
RTVSPropertyOp40
 70
     1
102
RTVSPropertyOp41
 70
     1
102
RTVSPropertyOp42
 70
     1
102
RTVSPropertyOp43
 70
     1
102
RTVSPropertyOp44
 70
     1
102
RTVSPropertyOp45
 70
     1
102
RTVSPropertyOp46
 70
     1
102
RTVSPropertyOp47
 70
     1
102
RTVSPropertyOp48
 70
     1
102
RTVSPropertyOp49
 70
     1
102
RTVSPropertyOp50
 70
     1
102
RTVSPropertyOp51
 70
     0
102
RTVSPropertyOp52
 70
     0
102
RTVSPropertyOp53
 70
     1
102
RTVSPropertyOp54
 70
     1
102
RTVSPropertyOp55
 70
     1
102
RTVSPropertyOp56
 70
     1
102
RTVSPropertyOp57
 70
     1
102
RTVSPropertyOp58
 70
     1
102
RTVSPropertyOp59
 70
     1
102
RTVSPropertyOp60
 70
     1
102
RTVSPropertyOp61
 70
     1
102
RTVSPropertyOp62
 70
     1
  0
XRECORD
  5
61E
102
{ACAD_REACTORS
330
61D
102
}
330
61D
100
AcDbXrecord
280
     1
102
RTVSPost2010Prop28
280
     0
102
RTVSPost2010PropOp28
 70
     1
102
RTVSPost2010Prop29
280
     1
102
RTVSPost2010PropOp29
 70
     1
102
RTVSPost2010Prop30
280
     1
102
RTVSPost2010PropOp30
 70
     1
102
RTVSPost2010Prop31
280
     0
102
RTVSPost2010PropOp31
 70
     1
102
RTVSPost2010Prop32
280
     0
102
RTVSPost2010PropOp32
 70
     1
102
RTVSPost2010Prop33
280
     0
102
RTVSPost2010PropOp33
 70
     1
102
RTVSPost2010Prop34
280
     0
102
RTVSPost2010PropOp34
 70
     1
102
RTVSPost2010Prop35
280
     0
102
RTVSPost2010PropOp35
 70
     1
102
RTVSPost2010Prop36
280
     0
102
RTVSPost2010PropOp36
 70
     1
102
RTVSPost2010Prop37
 90
       50
102
RTVSPost2010PropOp37
 70
     1
102
RTVSPost2010Prop38
140
0.0
102
RTVSPost2010PropOp38
 70
     1
102
RTVSPost2010Prop39
140
1.0
102
RTVSPost2010PropOp39
 70
     1
102
RTVSPost2010Prop40
 90
        0
102
RTVSPost2010PropOp40
 70
     1
102
RTVSPost2010Prop41ColorIndex
 90
       18
102
RTVSPost2010Prop41ColorRGB
 90
        0
102
RTVSPost2010PropOp41
 70
     1
102
RTVSPost2010Prop42
 90
       50
102
RTVSPost2010PropOp42
 70
     1
102
RTVSPost2010Prop43
 90
        3
102
RTVSPost2010PropOp43
 70
     1
102
RTVSPost2010Prop44ColorIndex
 90
        5
102
RTVSPost2010Prop44ColorRGB
 90
      255
102
RTVSPost2010PropOp44
 70
     1
102
RTVSPost2010Prop45
280
     0
102
RTVSPost2010PropOp45
 70
     1
102
RTVSPost2010Prop46
 90
       50
102
RTVSPost2010PropOp46
 70
     1
102
RTVSPost2010Prop47
 90
       50
102
RTVSPost2010PropOp47
 70
     1
102
RTVSPost2010Prop48
 90
       50
102
RTVSPost2010PropOp48
 70
     1
102
RTVSPost2010Prop49
280
     0
102
RTVSPost2010PropOp49
 70
     1
102
RTVSPost2010Prop50
 90
       50
102
RTVSPost2010PropOp50
 70
     1
102
RTVSPost2010Prop51ColorIndex
 90
      256
102
RTVSPost2010Prop51ColorRGB
 90
-16777216
102
RTVSPost2010PropOp51
 70
     0
102
RTVSPost2010Prop52
140
1.0
102
RTVSPost2010PropOp52
 70
     0
102
RTVSPost2010Prop53
 90
        2
102
RTVSPost2010PropOp53
 70
     1
102
RTVSPost2010Prop54
  1
strokes_ogs.tif
102
RTVSPost2010PropOp54
 70
     1
102
RTVSPost2010Prop55
280
     0
102
RTVSPost2010PropOp55
 70
     1
102
RTVSPost2010Prop56
140
1.0
102
RTVSPost2010PropOp56
 70
     1
102
RTVSPost2010Prop57
140
1.0
102
RTVSPost2010PropOp57
 70
     1
102
RTVSPropertyOp0
 70
     1
102
RTVSPropertyOp1
 70
     1
102
RTVSPropertyOp2
 70
     1
102
RTVSPropertyOp3
 70
     1
102
RTVSPropertyOp4
 70
     1
102
RTVSPropertyOp5
 70
     1
102
RTVSPropertyOp6
 70
     1
102
RTVSPropertyOp7
 70
     1
102
RTVSPropertyOp8
 70
     1
102
RTVSPropertyOp9
 70
     1
102
RTVSPropertyOp10
 70
     1
102
RTVSPropertyOp11
 70
     1
102
RTVSPropertyOp12
 70
     1
102
RTVSPropertyOp13
 70
     1
102
RTVSPropertyOp14
 70
     1
102
RTVSPropertyOp15
 70
     1
102
RTVSPropertyOp16
 70
     1
102
RTVSPropertyOp17
 70
     1
102
RTVSPropertyOp18
 70
     1
102
RTVSPropertyOp19
 70
     1
102
RTVSPropertyOp20
 70
     1
102
RTVSPropertyOp21
 70
     1
102
RTVSPropertyOp22
 70
     1
102
RTVSPropertyOp23
 70
     1
102
RTVSPropertyOp24
 70
     1
102
RTVSPropertyOp25
 70
     1
102
RTVSPropertyOp26
 70
     1
102
RTVSPropertyOp27
 70
     1
102
RTVSPropertyOp28
 70
     1
102
RTVSPropertyOp29
 70
     1
102
RTVSPropertyOp30
 70
     1
102
RTVSPropertyOp31
 70
     1
102
RTVSPropertyOp32
 70
     1
102
RTVSPropertyOp33
 70
     1
102
RTVSPropertyOp34
 70
     1
102
RTVSPropertyOp35
 70
     1
102
RTVSPropertyOp36
 70
     1
102
RTVSPropertyOp37
 70
     1
102
RTVSPropertyOp38
 70
     1
102
RTVSPropertyOp39
 70
     1
102
RTVSPropertyOp40
 70
     1
102
RTVSPropertyOp41
 70
     1
102
RTVSPropertyOp42
 70
     1
102
RTVSPropertyOp43
 70
     1
102
RTVSPropertyOp44
 70
     1
102
RTVSPropertyOp45
 70
     1
102
RTVSPropertyOp46
 70
     1
102
RTVSPropertyOp47
 70
     1
102
RTVSPropertyOp48
 70
     1
102
RTVSPropertyOp49
 70
     1
102
RTVSPropertyOp50
 70
     1
102
RTVSPropertyOp51
 70
     0
102
RTVSPropertyOp52
 70
     0
102
RTVSPropertyOp53
 70
     1
102
RTVSPropertyOp54
 70
     1
102
RTVSPropertyOp55
 70
     1
102
RTVSPropertyOp56
 70
     1
102
RTVSPropertyOp57
 70
     1
102
RTVSPropertyOp58
 70
     1
102
RTVSPropertyOp59
 70
     1
102
RTVSPropertyOp60
 70
     1
102
RTVSPropertyOp61
 70
     1
102
RTVSPropertyOp62
 70
     1
  0
XRECORD
  5
622
102
{ACAD_REACTORS
330
621
102
}
330
621
100
AcDbXrecord
280
     1
102
RTVSPost2010Prop28
280
     0
102
RTVSPost2010PropOp28
 70
     1
102
RTVSPost2010Prop29
280
     1
102
RTVSPost2010PropOp29
 70
     1
102
RTVSPost2010Prop30
280
     1
102
RTVSPost2010PropOp30
 70
     1
102
RTVSPost2010Prop31
280
     0
102
RTVSPost2010PropOp31
 70
     1
102
RTVSPost2010Prop32
280
     0
102
RTVSPost2010PropOp32
 70
     1
102
RTVSPost2010Prop33
280
     0
102
RTVSPost2010PropOp33
 70
     1
102
RTVSPost2010Prop34
280
     0
102
RTVSPost2010PropOp34
 70
     1
102
RTVSPost2010Prop35
280
     0
102
RTVSPost2010PropOp35
 70
     1
102
RTVSPost2010Prop36
280
     0
102
RTVSPost2010PropOp36
 70
     1
102
RTVSPost2010Prop37
 90
       50
102
RTVSPost2010PropOp37
 70
     1
102
RTVSPost2010Prop38
140
0.0
102
RTVSPost2010PropOp38
 70
     1
102
RTVSPost2010Prop39
140
1.0
102
RTVSPost2010PropOp39
 70
     1
102
RTVSPost2010Prop40
 90
        0
102
RTVSPost2010PropOp40
 70
     1
102
RTVSPost2010Prop41ColorIndex
 90
       18
102
RTVSPost2010Prop41ColorRGB
 90
        0
102
RTVSPost2010PropOp41
 70
     1
102
RTVSPost2010Prop42
 90
       50
102
RTVSPost2010PropOp42
 70
     1
102
RTVSPost2010Prop43
 90
        3
102
RTVSPost2010PropOp43
 70
     1
102
RTVSPost2010Prop44ColorIndex
 90
        5
102
RTVSPost2010Prop44ColorRGB
 90
      255
102
RTVSPost2010PropOp44
 70
     1
102
RTVSPost2010Prop45
280
     0
102
RTVSPost2010PropOp45
 70
     1
102
RTVSPost2010Prop46
 90
       50
102
RTVSPost2010PropOp46
 70
     1
102
RTVSPost2010Prop47
 90
       50
102
RTVSPost2010PropOp47
 70
     1
102
RTVSPost2010Prop48
 90
       50
102
RTVSPost2010PropOp48
 70
     1
102
RTVSPost2010Prop49
280
     0
102
RTVSPost2010PropOp49
 70
     1
102
RTVSPost2010Prop50
 90
       50
102
RTVSPost2010PropOp50
 70
     1
102
RTVSPost2010Prop51ColorIndex
 90
      256
102
RTVSPost2010Prop51ColorRGB
 90
-16777216
102
RTVSPost2010PropOp51
 70
     0
102
RTVSPost2010Prop52
140
1.0
102
RTVSPost2010PropOp52
 70
     0
102
RTVSPost2010Prop53
 90
        2
102
RTVSPost2010PropOp53
 70
     1
102
RTVSPost2010Prop54
  1
strokes_ogs.tif
102
RTVSPost2010PropOp54
 70
     1
102
RTVSPost2010Prop55
280
     0
102
RTVSPost2010PropOp55
 70
     1
102
RTVSPost2010Prop56
140
1.0
102
RTVSPost2010PropOp56
 70
     1
102
RTVSPost2010Prop57
140
1.0
102
RTVSPost2010PropOp57
 70
     1
102
RTVSPropertyOp0
 70
     1
102
RTVSPropertyOp1
 70
     1
102
RTVSPropertyOp2
 70
     1
102
RTVSPropertyOp3
 70
     1
102
RTVSPropertyOp4
 70
     1
102
RTVSPropertyOp5
 70
     1
102
RTVSPropertyOp6
 70
     1
102
RTVSPropertyOp7
 70
     1
102
RTVSPropertyOp8
 70
     1
102
RTVSPropertyOp9
 70
     1
102
RTVSPropertyOp10
 70
     1
102
RTVSPropertyOp11
 70
     1
102
RTVSPropertyOp12
 70
     1
102
RTVSPropertyOp13
 70
     1
102
RTVSPropertyOp14
 70
     1
102
RTVSPropertyOp15
 70
     1
102
RTVSPropertyOp16
 70
     1
102
RTVSPropertyOp17
 70
     1
102
RTVSPropertyOp18
 70
     1
102
RTVSPropertyOp19
 70
     1
102
RTVSPropertyOp20
 70
     1
102
RTVSPropertyOp21
 70
     1
102
RTVSPropertyOp22
 70
     1
102
RTVSPropertyOp23
 70
     1
102
RTVSPropertyOp24
 70
     1
102
RTVSPropertyOp25
 70
     1
102
RTVSPropertyOp26
 70
     1
102
RTVSPropertyOp27
 70
     1
102
RTVSPropertyOp28
 70
     1
102
RTVSPropertyOp29
 70
     1
102
RTVSPropertyOp30
 70
     1
102
RTVSPropertyOp31
 70
     1
102
RTVSPropertyOp32
 70
     1
102
RTVSPropertyOp33
 70
     1
102
RTVSPropertyOp34
 70
     1
102
RTVSPropertyOp35
 70
     1
102
RTVSPropertyOp36
 70
     1
102
RTVSPropertyOp37
 70
     1
102
RTVSPropertyOp38
 70
     1
102
RTVSPropertyOp39
 70
     1
102
RTVSPropertyOp40
 70
     1
102
RTVSPropertyOp41
 70
     1
102
RTVSPropertyOp42
 70
     1
102
RTVSPropertyOp43
 70
     1
102
RTVSPropertyOp44
 70
     1
102
RTVSPropertyOp45
 70
     1
102
RTVSPropertyOp46
 70
     1
102
RTVSPropertyOp47
 70
     1
102
RTVSPropertyOp48
 70
     1
102
RTVSPropertyOp49
 70
     1
102
RTVSPropertyOp50
 70
     1
102
RTVSPropertyOp51
 70
     0
102
RTVSPropertyOp52
 70
     0
102
RTVSPropertyOp53
 70
     1
102
RTVSPropertyOp54
 70
     1
102
RTVSPropertyOp55
 70
     1
102
RTVSPropertyOp56
 70
     1
102
RTVSPropertyOp57
 70
     1
102
RTVSPropertyOp58
 70
     1
102
RTVSPropertyOp59
 70
     1
102
RTVSPropertyOp60
 70
     1
102
RTVSPropertyOp61
 70
     1
102
RTVSPropertyOp62
 70
     1
  0
XRECORD
  5
63C
102
{ACAD_REACTORS
330
63B
102
}
330
63B
100
AcDbXrecord
280
     1
102
RTVSPost2010Prop28
280
     0
102
RTVSPost2010PropOp28
 70
     0
102
RTVSPost2010Prop29
280
     1
102
RTVSPost2010PropOp29
 70
     0
102
RTVSPost2010Prop30
280
     1
102
RTVSPost2010PropOp30
 70
     0
102
RTVSPost2010Prop31
280
     0
102
RTVSPost2010PropOp31
 70
     0
102
RTVSPost2010Prop32
280
     0
102
RTVSPost2010PropOp32
 70
     0
102
RTVSPost2010Prop33
280
     0
102
RTVSPost2010PropOp33
 70
     0
102
RTVSPost2010Prop34
280
     0
102
RTVSPost2010PropOp34
 70
     0
102
RTVSPost2010Prop35
280
     0
102
RTVSPost2010PropOp35
 70
     0
102
RTVSPost2010Prop36
280
     0
102
RTVSPost2010PropOp36
 70
     0
102
RTVSPost2010Prop37
 90
       50
102
RTVSPost2010PropOp37
 70
     0
102
RTVSPost2010Prop38
140
0.0
102
RTVSPost2010PropOp38
 70
     0
102
RTVSPost2010Prop39
140
1.0
102
RTVSPost2010PropOp39
 70
     0
102
RTVSPost2010Prop40
 90
        0
102
RTVSPost2010PropOp40
 70
     0
102
RTVSPost2010Prop41ColorIndex
 90
       18
102
RTVSPost2010Prop41ColorRGB
 90
        0
102
RTVSPost2010PropOp41
 70
     0
102
RTVSPost2010Prop42
 90
       50
102
RTVSPost2010PropOp42
 70
     0
102
RTVSPost2010Prop43
 90
        3
102
RTVSPost2010PropOp43
 70
     0
102
RTVSPost2010Prop44ColorIndex
 90
        5
102
RTVSPost2010Prop44ColorRGB
 90
      255
102
RTVSPost2010PropOp44
 70
     0
102
RTVSPost2010Prop45
280
     0
102
RTVSPost2010PropOp45
 70
     0
102
RTVSPost2010Prop46
 90
       50
102
RTVSPost2010PropOp46
 70
     0
102
RTVSPost2010Prop47
 90
       50
102
RTVSPost2010PropOp47
 70
     0
102
RTVSPost2010Prop48
 90
       50
102
RTVSPost2010PropOp48
 70
     0
102
RTVSPost2010Prop49
280
     0
102
RTVSPost2010PropOp49
 70
     0
102
RTVSPost2010Prop50
 90
       50
102
RTVSPost2010PropOp50
 70
     0
102
RTVSPost2010Prop51ColorIndex
 90
      256
102
RTVSPost2010Prop51ColorRGB
 90
-16777216
102
RTVSPost2010PropOp51
 70
     0
102
RTVSPost2010Prop52
140
1.0
102
RTVSPost2010PropOp52
 70
     0
102
RTVSPost2010Prop53
 90
        2
102
RTVSPost2010PropOp53
 70
     0
102
RTVSPost2010Prop54
  1
strokes_ogs.tif
102
RTVSPost2010PropOp54
 70
     0
102
RTVSPost2010Prop55
280
     0
102
RTVSPost2010PropOp55
 70
     0
102
RTVSPost2010Prop56
140
1.0
102
RTVSPost2010PropOp56
 70
     0
102
RTVSPost2010Prop57
140
1.0
102
RTVSPost2010PropOp57
 70
     0
102
RTVSPropertyOp0
 70
     0
102
RTVSPropertyOp1
 70
     0
102
RTVSPropertyOp2
 70
     0
102
RTVSPropertyOp3
 70
     0
102
RTVSPropertyOp4
 70
     0
102
RTVSPropertyOp5
 70
     0
102
RTVSPropertyOp6
 70
     0
102
RTVSPropertyOp7
 70
     0
102
RTVSPropertyOp8
 70
     0
102
RTVSPropertyOp9
 70
     0
102
RTVSPropertyOp10
 70
     0
102
RTVSPropertyOp11
 70
     0
102
RTVSPropertyOp12
 70
     0
102
RTVSPropertyOp13
 70
     0
102
RTVSPropertyOp14
 70
     2
102
RTVSPropertyOp15
 70
     0
102
RTVSPropertyOp16
 70
     0
102
RTVSPropertyOp17
 70
     0
102
RTVSPropertyOp18
 70
     0
102
RTVSPropertyOp19
 70
     0
102
RTVSPropertyOp20
 70
     0
102
RTVSPropertyOp21
 70
     0
102
RTVSPropertyOp22
 70
     0
102
RTVSPropertyOp23
 70
     0
102
RTVSPropertyOp24
 70
     0
102
RTVSPropertyOp25
 70
     0
102
RTVSPropertyOp26
 70
     0
102
RTVSPropertyOp27
 70
     0
102
RTVSPropertyOp28
 70
     0
102
RTVSPropertyOp29
 70
     0
102
RTVSPropertyOp30
 70
     0
102
RTVSPropertyOp31
 70
     0
102
RTVSPropertyOp32
 70
     0
102
RTVSPropertyOp33
 70
     0
102
RTVSPropertyOp34
 70
     0
102
RTVSPropertyOp35
 70
     0
102
RTVSPropertyOp36
 70
     0
102
RTVSPropertyOp37
 70
     0
102
RTVSPropertyOp38
 70
     0
102
RTVSPropertyOp39
 70
     0
102
RTVSPropertyOp40
 70
     0
102
RTVSPropertyOp41
 70
     0
102
RTVSPropertyOp42
 70
     0
102
RTVSPropertyOp43
 70
     0
102
RTVSPropertyOp44
 70
     0
102
RTVSPropertyOp45
 70
     0
102
RTVSPropertyOp46
 70
     0
102
RTVSPropertyOp47
 70
     0
102
RTVSPropertyOp48
 70
     0
102
RTVSPropertyOp49
 70
     0
102
RTVSPropertyOp50
 70
     0
102
RTVSPropertyOp51
 70
     0
102
RTVSPropertyOp52
 70
     0
102
RTVSPropertyOp53
 70
     0
102
RTVSPropertyOp54
 70
     0
102
RTVSPropertyOp55
 70
     0
102
RTVSPropertyOp56
 70
     0
102
RTVSPropertyOp57
 70
     0
102
RTVSPropertyOp58
 70
     0
102
RTVSPropertyOp59
 70
     0
102
RTVSPropertyOp60
 70
     0
102
RTVSPropertyOp61
 70
     0
102
RTVSPropertyOp62
 70
     0
  0
XRECORD
  5
62A
102
{ACAD_REACTORS
330
629
102
}
330
629
100
AcDbXrecord
280
     1
102
RTVSPost2010Prop28
280
     0
102
RTVSPost2010PropOp28
 70
     1
102
RTVSPost2010Prop29
280
     1
102
RTVSPost2010PropOp29
 70
     1
102
RTVSPost2010Prop30
280
     1
102
RTVSPost2010PropOp30
 70
     1
102
RTVSPost2010Prop31
280
     0
102
RTVSPost2010PropOp31
 70
     1
102
RTVSPost2010Prop32
280
     0
102
RTVSPost2010PropOp32
 70
     1
102
RTVSPost2010Prop33
280
     0
102
RTVSPost2010PropOp33
 70
     1
102
RTVSPost2010Prop34
280
     0
102
RTVSPost2010PropOp34
 70
     1
102
RTVSPost2010Prop35
280
     0
102
RTVSPost2010PropOp35
 70
     1
102
RTVSPost2010Prop36
280
     0
102
RTVSPost2010PropOp36
 70
     1
102
RTVSPost2010Prop37
 90
       50
102
RTVSPost2010PropOp37
 70
     1
102
RTVSPost2010Prop38
140
0.0
102
RTVSPost2010PropOp38
 70
     1
102
RTVSPost2010Prop39
140
1.0
102
RTVSPost2010PropOp39
 70
     1
102
RTVSPost2010Prop40
 90
        0
102
RTVSPost2010PropOp40
 70
     1
102
RTVSPost2010Prop41ColorIndex
 90
       18
102
RTVSPost2010Prop41ColorRGB
 90
        0
102
RTVSPost2010PropOp41
 70
     1
102
RTVSPost2010Prop42
 90
       50
102
RTVSPost2010PropOp42
 70
     1
102
RTVSPost2010Prop43
 90
        3
102
RTVSPost2010PropOp43
 70
     1
102
RTVSPost2010Prop44ColorIndex
 90
        5
102
RTVSPost2010Prop44ColorRGB
 90
      255
102
RTVSPost2010PropOp44
 70
     1
102
RTVSPost2010Prop45
280
     0
102
RTVSPost2010PropOp45
 70
     1
102
RTVSPost2010Prop46
 90
       50
102
RTVSPost2010PropOp46
 70
     1
102
RTVSPost2010Prop47
 90
       50
102
RTVSPost2010PropOp47
 70
     1
102
RTVSPost2010Prop48
 90
       50
102
RTVSPost2010PropOp48
 70
     1
102
RTVSPost2010Prop49
280
     0
102
RTVSPost2010PropOp49
 70
     1
102
RTVSPost2010Prop50
 90
       50
102
RTVSPost2010PropOp50
 70
     1
102
RTVSPost2010Prop51ColorIndex
 90
      256
102
RTVSPost2010Prop51ColorRGB
 90
-16777216
102
RTVSPost2010PropOp51
 70
     0
102
RTVSPost2010Prop52
140
1.0
102
RTVSPost2010PropOp52
 70
     0
102
RTVSPost2010Prop53
 90
        2
102
RTVSPost2010PropOp53
 70
     1
102
RTVSPost2010Prop54
  1
strokes_ogs.tif
102
RTVSPost2010PropOp54
 70
     1
102
RTVSPost2010Prop55
280
     0
102
RTVSPost2010PropOp55
 70
     1
102
RTVSPost2010Prop56
140
1.0
102
RTVSPost2010PropOp56
 70
     1
102
RTVSPost2010Prop57
140
1.0
102
RTVSPost2010PropOp57
 70
     1
102
RTVSPropertyOp0
 70
     1
102
RTVSPropertyOp1
 70
     1
102
RTVSPropertyOp2
 70
     1
102
RTVSPropertyOp3
 70
     1
102
RTVSPropertyOp4
 70
     1
102
RTVSPropertyOp5
 70
     1
102
RTVSPropertyOp6
 70
     1
102
RTVSPropertyOp7
 70
     1
102
RTVSPropertyOp8
 70
     1
102
RTVSPropertyOp9
 70
     1
102
RTVSPropertyOp10
 70
     1
102
RTVSPropertyOp11
 70
     1
102
RTVSPropertyOp12
 70
     1
102
RTVSPropertyOp13
 70
     1
102
RTVSPropertyOp14
 70
     1
102
RTVSPropertyOp15
 70
     1
102
RTVSPropertyOp16
 70
     1
102
RTVSPropertyOp17
 70
     1
102
RTVSPropertyOp18
 70
     1
102
RTVSPropertyOp19
 70
     1
102
RTVSPropertyOp20
 70
     1
102
RTVSPropertyOp21
 70
     1
102
RTVSPropertyOp22
 70
     1
102
RTVSPropertyOp23
 70
     1
102
RTVSPropertyOp24
 70
     1
102
RTVSPropertyOp25
 70
     1
102
RTVSPropertyOp26
 70
     1
102
RTVSPropertyOp27
 70
     1
102
RTVSPropertyOp28
 70
     1
102
RTVSPropertyOp29
 70
     1
102
RTVSPropertyOp30
 70
     1
102
RTVSPropertyOp31
 70
     1
102
RTVSPropertyOp32
 70
     1
102
RTVSPropertyOp33
 70
     1
102
RTVSPropertyOp34
 70
     1
102
RTVSPropertyOp35
 70
     1
102
RTVSPropertyOp36
 70
     1
102
RTVSPropertyOp37
 70
     1
102
RTVSPropertyOp38
 70
     1
102
RTVSPropertyOp39
 70
     1
102
RTVSPropertyOp40
 70
     1
102
RTVSPropertyOp41
 70
     1
102
RTVSPropertyOp42
 70
     1
102
RTVSPropertyOp43
 70
     1
102
RTVSPropertyOp44
 70
     1
102
RTVSPropertyOp45
 70
     1
102
RTVSPropertyOp46
 70
     1
102
RTVSPropertyOp47
 70
     1
102
RTVSPropertyOp48
 70
     1
102
RTVSPropertyOp49
 70
     1
102
RTVSPropertyOp50
 70
     1
102
RTVSPropertyOp51
 70
     0
102
RTVSPropertyOp52
 70
     0
102
RTVSPropertyOp53
 70
     1
102
RTVSPropertyOp54
 70
     1
102
RTVSPropertyOp55
 70
     1
102
RTVSPropertyOp56
 70
     1
102
RTVSPropertyOp57
 70
     1
102
RTVSPropertyOp58
 70
     1
102
RTVSPropertyOp59
 70
     1
102
RTVSPropertyOp60
 70
     1
102
RTVSPropertyOp61
 70
     1
102
RTVSPropertyOp62
 70
     1
  0
XRECORD
  5
60E
102
{ACAD_REACTORS
330
60D
102
}
330
60D
100
AcDbXrecord
280
     1
102
RTVSPost2010Prop28
280
     0
102
RTVSPost2010PropOp28
 70
     1
102
RTVSPost2010Prop29
280
     1
102
RTVSPost2010PropOp29
 70
     1
102
RTVSPost2010Prop30
280
     1
102
RTVSPost2010PropOp30
 70
     1
102
RTVSPost2010Prop31
280
     0
102
RTVSPost2010PropOp31
 70
     1
102
RTVSPost2010Prop32
280
     0
102
RTVSPost2010PropOp32
 70
     1
102
RTVSPost2010Prop33
280
     0
102
RTVSPost2010PropOp33
 70
     1
102
RTVSPost2010Prop34
280
     0
102
RTVSPost2010PropOp34
 70
     1
102
RTVSPost2010Prop35
280
     0
102
RTVSPost2010PropOp35
 70
     1
102
RTVSPost2010Prop36
280
     0
102
RTVSPost2010PropOp36
 70
     1
102
RTVSPost2010Prop37
 90
       50
102
RTVSPost2010PropOp37
 70
     1
102
RTVSPost2010Prop38
140
0.0
102
RTVSPost2010PropOp38
 70
     1
102
RTVSPost2010Prop39
140
1.0
102
RTVSPost2010PropOp39
 70
     1
102
RTVSPost2010Prop40
 90
        0
102
RTVSPost2010PropOp40
 70
     1
102
RTVSPost2010Prop41ColorIndex
 90
       18
102
RTVSPost2010Prop41ColorRGB
 90
        0
102
RTVSPost2010PropOp41
 70
     1
102
RTVSPost2010Prop42
 90
       50
102
RTVSPost2010PropOp42
 70
     1
102
RTVSPost2010Prop43
 90
        3
102
RTVSPost2010PropOp43
 70
     1
102
RTVSPost2010Prop44ColorIndex
 90
        5
102
RTVSPost2010Prop44ColorRGB
 90
      255
102
RTVSPost2010PropOp44
 70
     1
102
RTVSPost2010Prop45
280
     0
102
RTVSPost2010PropOp45
 70
     1
102
RTVSPost2010Prop46
 90
       50
102
RTVSPost2010PropOp46
 70
     1
102
RTVSPost2010Prop47
 90
       50
102
RTVSPost2010PropOp47
 70
     1
102
RTVSPost2010Prop48
 90
       50
102
RTVSPost2010PropOp48
 70
     1
102
RTVSPost2010Prop49
280
     0
102
RTVSPost2010PropOp49
 70
     1
102
RTVSPost2010Prop50
 90
       50
102
RTVSPost2010PropOp50
 70
     1
102
RTVSPost2010Prop51ColorIndex
 90
      256
102
RTVSPost2010Prop51ColorRGB
 90
-16777216
102
RTVSPost2010PropOp51
 70
     0
102
RTVSPost2010Prop52
140
1.0
102
RTVSPost2010PropOp52
 70
     0
102
RTVSPost2010Prop53
 90
        2
102
RTVSPost2010PropOp53
 70
     1
102
RTVSPost2010Prop54
  1
strokes_ogs.tif
102
RTVSPost2010PropOp54
 70
     1
102
RTVSPost2010Prop55
280
     0
102
RTVSPost2010PropOp55
 70
     1
102
RTVSPost2010Prop56
140
1.0
102
RTVSPost2010PropOp56
 70
     1
102
RTVSPost2010Prop57
140
1.0
102
RTVSPost2010PropOp57
 70
     1
102
RTVSPropertyOp0
 70
     1
102
RTVSPropertyOp1
 70
     1
102
RTVSPropertyOp2
 70
     1
102
RTVSPropertyOp3
 70
     1
102
RTVSPropertyOp4
 70
     1
102
RTVSPropertyOp5
 70
     1
102
RTVSPropertyOp6
 70
     1
102
RTVSPropertyOp7
 70
     1
102
RTVSPropertyOp8
 70
     1
102
RTVSPropertyOp9
 70
     1
102
RTVSPropertyOp10
 70
     1
102
RTVSPropertyOp11
 70
     1
102
RTVSPropertyOp12
 70
     1
102
RTVSPropertyOp13
 70
     1
102
RTVSPropertyOp14
 70
     1
102
RTVSPropertyOp15
 70
     1
102
RTVSPropertyOp16
 70
     1
102
RTVSPropertyOp17
 70
     1
102
RTVSPropertyOp18
 70
     1
102
RTVSPropertyOp19
 70
     1
102
RTVSPropertyOp20
 70
     1
102
RTVSPropertyOp21
 70
     1
102
RTVSPropertyOp22
 70
     1
102
RTVSPropertyOp23
 70
     1
102
RTVSPropertyOp24
 70
     1
102
RTVSPropertyOp25
 70
     1
102
RTVSPropertyOp26
 70
     1
102
RTVSPropertyOp27
 70
     1
102
RTVSPropertyOp28
 70
     1
102
RTVSPropertyOp29
 70
     1
102
RTVSPropertyOp30
 70
     1
102
RTVSPropertyOp31
 70
     1
102
RTVSPropertyOp32
 70
     1
102
RTVSPropertyOp33
 70
     1
102
RTVSPropertyOp34
 70
     1
102
RTVSPropertyOp35
 70
     1
102
RTVSPropertyOp36
 70
     1
102
RTVSPropertyOp37
 70
     1
102
RTVSPropertyOp38
 70
     1
102
RTVSPropertyOp39
 70
     1
102
RTVSPropertyOp40
 70
     1
102
RTVSPropertyOp41
 70
     1
102
RTVSPropertyOp42
 70
     1
102
RTVSPropertyOp43
 70
     1
102
RTVSPropertyOp44
 70
     1
102
RTVSPropertyOp45
 70
     1
102
RTVSPropertyOp46
 70
     1
102
RTVSPropertyOp47
 70
     1
102
RTVSPropertyOp48
 70
     1
102
RTVSPropertyOp49
 70
     1
102
RTVSPropertyOp50
 70
     1
102
RTVSPropertyOp51
 70
     0
102
RTVSPropertyOp52
 70
     0
102
RTVSPropertyOp53
 70
     1
102
RTVSPropertyOp54
 70
     1
102
RTVSPropertyOp55
 70
     1
102
RTVSPropertyOp56
 70
     1
102
RTVSPropertyOp57
 70
     1
102
RTVSPropertyOp58
 70
     1
102
RTVSPropertyOp59
 70
     1
102
RTVSPropertyOp60
 70
     1
102
RTVSPropertyOp61
 70
     1
102
RTVSPropertyOp62
 70
     1
  0
XRECORD
  5
610
102
{ACAD_REACTORS
330
60F
102
}
330
60F
100
AcDbXrecord
280
     1
102
RTVSPost2010Prop28
280
     0
102
RTVSPost2010PropOp28
 70
     1
102
RTVSPost2010Prop29
280
     1
102
RTVSPost2010PropOp29
 70
     1
102
RTVSPost2010Prop30
280
     1
102
RTVSPost2010PropOp30
 70
     1
102
RTVSPost2010Prop31
280
     0
102
RTVSPost2010PropOp31
 70
     1
102
RTVSPost2010Prop32
280
     0
102
RTVSPost2010PropOp32
 70
     1
102
RTVSPost2010Prop33
280
     0
102
RTVSPost2010PropOp33
 70
     1
102
RTVSPost2010Prop34
280
     0
102
RTVSPost2010PropOp34
 70
     1
102
RTVSPost2010Prop35
280
     0
102
RTVSPost2010PropOp35
 70
     1
102
RTVSPost2010Prop36
280
     0
102
RTVSPost2010PropOp36
 70
     1
102
RTVSPost2010Prop37
 90
       50
102
RTVSPost2010PropOp37
 70
     1
102
RTVSPost2010Prop38
140
0.0
102
RTVSPost2010PropOp38
 70
     1
102
RTVSPost2010Prop39
140
1.0
102
RTVSPost2010PropOp39
 70
     1
102
RTVSPost2010Prop40
 90
        0
102
RTVSPost2010PropOp40
 70
     1
102
RTVSPost2010Prop41ColorIndex
 90
       18
102
RTVSPost2010Prop41ColorRGB
 90
        0
102
RTVSPost2010PropOp41
 70
     1
102
RTVSPost2010Prop42
 90
       50
102
RTVSPost2010PropOp42
 70
     1
102
RTVSPost2010Prop43
 90
        3
102
RTVSPost2010PropOp43
 70
     1
102
RTVSPost2010Prop44ColorIndex
 90
        5
102
RTVSPost2010Prop44ColorRGB
 90
      255
102
RTVSPost2010PropOp44
 70
     1
102
RTVSPost2010Prop45
280
     0
102
RTVSPost2010PropOp45
 70
     1
102
RTVSPost2010Prop46
 90
       50
102
RTVSPost2010PropOp46
 70
     1
102
RTVSPost2010Prop47
 90
       50
102
RTVSPost2010PropOp47
 70
     1
102
RTVSPost2010Prop48
 90
       50
102
RTVSPost2010PropOp48
 70
     1
102
RTVSPost2010Prop49
280
     0
102
RTVSPost2010PropOp49
 70
     1
102
RTVSPost2010Prop50
 90
       50
102
RTVSPost2010PropOp50
 70
     1
102
RTVSPost2010Prop51ColorIndex
 90
      256
102
RTVSPost2010Prop51ColorRGB
 90
-16777216
102
RTVSPost2010PropOp51
 70
     0
102
RTVSPost2010Prop52
140
1.0
102
RTVSPost2010PropOp52
 70
     0
102
RTVSPost2010Prop53
 90
        2
102
RTVSPost2010PropOp53
 70
     1
102
RTVSPost2010Prop54
  1
strokes_ogs.tif
102
RTVSPost2010PropOp54
 70
     1
102
RTVSPost2010Prop55
280
     0
102
RTVSPost2010PropOp55
 70
     1
102
RTVSPost2010Prop56
140
1.0
102
RTVSPost2010PropOp56
 70
     1
102
RTVSPost2010Prop57
140
1.0
102
RTVSPost2010PropOp57
 70
     1
102
RTVSPropertyOp0
 70
     1
102
RTVSPropertyOp1
 70
     1
102
RTVSPropertyOp2
 70
     1
102
RTVSPropertyOp3
 70
     1
102
RTVSPropertyOp4
 70
     1
102
RTVSPropertyOp5
 70
     1
102
RTVSPropertyOp6
 70
     1
102
RTVSPropertyOp7
 70
     1
102
RTVSPropertyOp8
 70
     1
102
RTVSPropertyOp9
 70
     1
102
RTVSPropertyOp10
 70
     1
102
RTVSPropertyOp11
 70
     1
102
RTVSPropertyOp12
 70
     1
102
RTVSPropertyOp13
 70
     1
102
RTVSPropertyOp14
 70
     1
102
RTVSPropertyOp15
 70
     1
102
RTVSPropertyOp16
 70
     1
102
RTVSPropertyOp17
 70
     1
102
RTVSPropertyOp18
 70
     1
102
RTVSPropertyOp19
 70
     1
102
RTVSPropertyOp20
 70
     1
102
RTVSPropertyOp21
 70
     1
102
RTVSPropertyOp22
 70
     1
102
RTVSPropertyOp23
 70
     1
102
RTVSPropertyOp24
 70
     1
102
RTVSPropertyOp25
 70
     1
102
RTVSPropertyOp26
 70
     1
102
RTVSPropertyOp27
 70
     1
102
RTVSPropertyOp28
 70
     1
102
RTVSPropertyOp29
 70
     1
102
RTVSPropertyOp30
 70
     1
102
RTVSPropertyOp31
 70
     1
102
RTVSPropertyOp32
 70
     1
102
RTVSPropertyOp33
 70
     1
102
RTVSPropertyOp34
 70
     1
102
RTVSPropertyOp35
 70
     1
102
RTVSPropertyOp36
 70
     1
102
RTVSPropertyOp37
 70
     1
102
RTVSPropertyOp38
 70
     1
102
RTVSPropertyOp39
 70
     1
102
RTVSPropertyOp40
 70
     1
102
RTVSPropertyOp41
 70
     1
102
RTVSPropertyOp42
 70
     1
102
RTVSPropertyOp43
 70
     1
102
RTVSPropertyOp44
 70
     1
102
RTVSPropertyOp45
 70
     1
102
RTVSPropertyOp46
 70
     1
102
RTVSPropertyOp47
 70
     1
102
RTVSPropertyOp48
 70
     1
102
RTVSPropertyOp49
 70
     1
102
RTVSPropertyOp50
 70
     1
102
RTVSPropertyOp51
 70
     0
102
RTVSPropertyOp52
 70
     0
102
RTVSPropertyOp53
 70
     1
102
RTVSPropertyOp54
 70
     1
102
RTVSPropertyOp55
 70
     1
102
RTVSPropertyOp56
 70
     1
102
RTVSPropertyOp57
 70
     1
102
RTVSPropertyOp58
 70
     1
102
RTVSPropertyOp59
 70
     1
102
RTVSPropertyOp60
 70
     1
102
RTVSPropertyOp61
 70
     1
102
RTVSPropertyOp62
 70
     1
  0
XRECORD
  5
612
102
{ACAD_REACTORS
330
611
102
}
330
611
100
AcDbXrecord
280
     1
102
RTVSPost2010Prop28
280
     0
102
RTVSPost2010PropOp28
 70
     1
102
RTVSPost2010Prop29
280
     1
102
RTVSPost2010PropOp29
 70
     1
102
RTVSPost2010Prop30
280
     1
102
RTVSPost2010PropOp30
 70
     1
102
RTVSPost2010Prop31
280
     0
102
RTVSPost2010PropOp31
 70
     1
102
RTVSPost2010Prop32
280
     0
102
RTVSPost2010PropOp32
 70
     1
102
RTVSPost2010Prop33
280
     0
102
RTVSPost2010PropOp33
 70
     1
102
RTVSPost2010Prop34
280
     0
102
RTVSPost2010PropOp34
 70
     1
102
RTVSPost2010Prop35
280
     0
102
RTVSPost2010PropOp35
 70
     1
102
RTVSPost2010Prop36
280
     0
102
RTVSPost2010PropOp36
 70
     1
102
RTVSPost2010Prop37
 90
       50
102
RTVSPost2010PropOp37
 70
     1
102
RTVSPost2010Prop38
140
0.0
102
RTVSPost2010PropOp38
 70
     1
102
RTVSPost2010Prop39
140
1.0
102
RTVSPost2010PropOp39
 70
     1
102
RTVSPost2010Prop40
 90
        0
102
RTVSPost2010PropOp40
 70
     1
102
RTVSPost2010Prop41ColorIndex
 90
       18
102
RTVSPost2010Prop41ColorRGB
 90
        0
102
RTVSPost2010PropOp41
 70
     1
102
RTVSPost2010Prop42
 90
       50
102
RTVSPost2010PropOp42
 70
     1
102
RTVSPost2010Prop43
 90
        3
102
RTVSPost2010PropOp43
 70
     1
102
RTVSPost2010Prop44ColorIndex
 90
        5
102
RTVSPost2010Prop44ColorRGB
 90
      255
102
RTVSPost2010PropOp44
 70
     1
102
RTVSPost2010Prop45
280
     0
102
RTVSPost2010PropOp45
 70
     1
102
RTVSPost2010Prop46
 90
       50
102
RTVSPost2010PropOp46
 70
     1
102
RTVSPost2010Prop47
 90
       50
102
RTVSPost2010PropOp47
 70
     1
102
RTVSPost2010Prop48
 90
       50
102
RTVSPost2010PropOp48
 70
     1
102
RTVSPost2010Prop49
280
     0
102
RTVSPost2010PropOp49
 70
     1
102
RTVSPost2010Prop50
 90
       50
102
RTVSPost2010PropOp50
 70
     1
102
RTVSPost2010Prop51ColorIndex
 90
      256
102
RTVSPost2010Prop51ColorRGB
 90
-16777216
102
RTVSPost2010PropOp51
 70
     0
102
RTVSPost2010Prop52
140
1.0
102
RTVSPost2010PropOp52
 70
     0
102
RTVSPost2010Prop53
 90
        2
102
RTVSPost2010PropOp53
 70
     1
102
RTVSPost2010Prop54
  1
strokes_ogs.tif
102
RTVSPost2010PropOp54
 70
     1
102
RTVSPost2010Prop55
280
     0
102
RTVSPost2010PropOp55
 70
     1
102
RTVSPost2010Prop56
140
1.0
102
RTVSPost2010PropOp56
 70
     1
102
RTVSPost2010Prop57
140
1.0
102
RTVSPost2010PropOp57
 70
     1
102
RTVSPropertyOp0
 70
     1
102
RTVSPropertyOp1
 70
     1
102
RTVSPropertyOp2
 70
     1
102
RTVSPropertyOp3
 70
     1
102
RTVSPropertyOp4
 70
     1
102
RTVSPropertyOp5
 70
     1
102
RTVSPropertyOp6
 70
     1
102
RTVSPropertyOp7
 70
     1
102
RTVSPropertyOp8
 70
     1
102
RTVSPropertyOp9
 70
     1
102
RTVSPropertyOp10
 70
     1
102
RTVSPropertyOp11
 70
     1
102
RTVSPropertyOp12
 70
     1
102
RTVSPropertyOp13
 70
     1
102
RTVSPropertyOp14
 70
     1
102
RTVSPropertyOp15
 70
     1
102
RTVSPropertyOp16
 70
     1
102
RTVSPropertyOp17
 70
     1
102
RTVSPropertyOp18
 70
     1
102
RTVSPropertyOp19
 70
     1
102
RTVSPropertyOp20
 70
     1
102
RTVSPropertyOp21
 70
     1
102
RTVSPropertyOp22
 70
     1
102
RTVSPropertyOp23
 70
     1
102
RTVSPropertyOp24
 70
     1
102
RTVSPropertyOp25
 70
     1
102
RTVSPropertyOp26
 70
     1
102
RTVSPropertyOp27
 70
     1
102
RTVSPropertyOp28
 70
     1
102
RTVSPropertyOp29
 70
     1
102
RTVSPropertyOp30
 70
     1
102
RTVSPropertyOp31
 70
     1
102
RTVSPropertyOp32
 70
     1
102
RTVSPropertyOp33
 70
     1
102
RTVSPropertyOp34
 70
     1
102
RTVSPropertyOp35
 70
     1
102
RTVSPropertyOp36
 70
     1
102
RTVSPropertyOp37
 70
     1
102
RTVSPropertyOp38
 70
     1
102
RTVSPropertyOp39
 70
     1
102
RTVSPropertyOp40
 70
     1
102
RTVSPropertyOp41
 70
     1
102
RTVSPropertyOp42
 70
     1
102
RTVSPropertyOp43
 70
     1
102
RTVSPropertyOp44
 70
     1
102
RTVSPropertyOp45
 70
     1
102
RTVSPropertyOp46
 70
     1
102
RTVSPropertyOp47
 70
     1
102
RTVSPropertyOp48
 70
     1
102
RTVSPropertyOp49
 70
     1
102
RTVSPropertyOp50
 70
     1
102
RTVSPropertyOp51
 70
     0
102
RTVSPropertyOp52
 70
     0
102
RTVSPropertyOp53
 70
     1
102
RTVSPropertyOp54
 70
     1
102
RTVSPropertyOp55
 70
     1
102
RTVSPropertyOp56
 70
     1
102
RTVSPropertyOp57
 70
     1
102
RTVSPropertyOp58
 70
     1
102
RTVSPropertyOp59
 70
     1
102
RTVSPropertyOp60
 70
     1
102
RTVSPropertyOp61
 70
     1
102
RTVSPropertyOp62
 70
     1
  0
XRECORD
  5
614
102
{ACAD_REACTORS
330
613
102
}
330
613
100
AcDbXrecord
280
     1
102
RTVSPost2010Prop28
280
     0
102
RTVSPost2010PropOp28
 70
     1
102
RTVSPost2010Prop29
280
     1
102
RTVSPost2010PropOp29
 70
     1
102
RTVSPost2010Prop30
280
     1
102
RTVSPost2010PropOp30
 70
     1
102
RTVSPost2010Prop31
280
     0
102
RTVSPost2010PropOp31
 70
     1
102
RTVSPost2010Prop32
280
     0
102
RTVSPost2010PropOp32
 70
     1
102
RTVSPost2010Prop33
280
     0
102
RTVSPost2010PropOp33
 70
     1
102
RTVSPost2010Prop34
280
     0
102
RTVSPost2010PropOp34
 70
     1
102
RTVSPost2010Prop35
280
     0
102
RTVSPost2010PropOp35
 70
     1
102
RTVSPost2010Prop36
280
     0
102
RTVSPost2010PropOp36
 70
     1
102
RTVSPost2010Prop37
 90
       50
102
RTVSPost2010PropOp37
 70
     1
102
RTVSPost2010Prop38
140
0.0
102
RTVSPost2010PropOp38
 70
     1
102
RTVSPost2010Prop39
140
1.0
102
RTVSPost2010PropOp39
 70
     1
102
RTVSPost2010Prop40
 90
        0
102
RTVSPost2010PropOp40
 70
     1
102
RTVSPost2010Prop41ColorIndex
 90
       18
102
RTVSPost2010Prop41ColorRGB
 90
        0
102
RTVSPost2010PropOp41
 70
     1
102
RTVSPost2010Prop42
 90
       50
102
RTVSPost2010PropOp42
 70
     1
102
RTVSPost2010Prop43
 90
        3
102
RTVSPost2010PropOp43
 70
     1
102
RTVSPost2010Prop44ColorIndex
 90
        5
102
RTVSPost2010Prop44ColorRGB
 90
      255
102
RTVSPost2010PropOp44
 70
     1
102
RTVSPost2010Prop45
280
     0
102
RTVSPost2010PropOp45
 70
     1
102
RTVSPost2010Prop46
 90
       50
102
RTVSPost2010PropOp46
 70
     1
102
RTVSPost2010Prop47
 90
       50
102
RTVSPost2010PropOp47
 70
     1
102
RTVSPost2010Prop48
 90
       50
102
RTVSPost2010PropOp48
 70
     1
102
RTVSPost2010Prop49
280
     0
102
RTVSPost2010PropOp49
 70
     1
102
RTVSPost2010Prop50
 90
       50
102
RTVSPost2010PropOp50
 70
     1
102
RTVSPost2010Prop51ColorIndex
 90
      256
102
RTVSPost2010Prop51ColorRGB
 90
-16777216
102
RTVSPost2010PropOp51
 70
     0
102
RTVSPost2010Prop52
140
1.0
102
RTVSPost2010PropOp52
 70
     0
102
RTVSPost2010Prop53
 90
        2
102
RTVSPost2010PropOp53
 70
     1
102
RTVSPost2010Prop54
  1
strokes_ogs.tif
102
RTVSPost2010PropOp54
 70
     1
102
RTVSPost2010Prop55
280
     0
102
RTVSPost2010PropOp55
 70
     1
102
RTVSPost2010Prop56
140
1.0
102
RTVSPost2010PropOp56
 70
     1
102
RTVSPost2010Prop57
140
1.0
102
RTVSPost2010PropOp57
 70
     1
102
RTVSPropertyOp0
 70
     1
102
RTVSPropertyOp1
 70
     1
102
RTVSPropertyOp2
 70
     1
102
RTVSPropertyOp3
 70
     1
102
RTVSPropertyOp4
 70
     1
102
RTVSPropertyOp5
 70
     1
102
RTVSPropertyOp6
 70
     1
102
RTVSPropertyOp7
 70
     1
102
RTVSPropertyOp8
 70
     1
102
RTVSPropertyOp9
 70
     1
102
RTVSPropertyOp10
 70
     1
102
RTVSPropertyOp11
 70
     1
102
RTVSPropertyOp12
 70
     1
102
RTVSPropertyOp13
 70
     1
102
RTVSPropertyOp14
 70
     1
102
RTVSPropertyOp15
 70
     1
102
RTVSPropertyOp16
 70
     1
102
RTVSPropertyOp17
 70
     1
102
RTVSPropertyOp18
 70
     1
102
RTVSPropertyOp19
 70
     1
102
RTVSPropertyOp20
 70
     1
102
RTVSPropertyOp21
 70
     1
102
RTVSPropertyOp22
 70
     1
102
RTVSPropertyOp23
 70
     1
102
RTVSPropertyOp24
 70
     1
102
RTVSPropertyOp25
 70
     1
102
RTVSPropertyOp26
 70
     1
102
RTVSPropertyOp27
 70
     1
102
RTVSPropertyOp28
 70
     1
102
RTVSPropertyOp29
 70
     1
102
RTVSPropertyOp30
 70
     1
102
RTVSPropertyOp31
 70
     1
102
RTVSPropertyOp32
 70
     1
102
RTVSPropertyOp33
 70
     1
102
RTVSPropertyOp34
 70
     1
102
RTVSPropertyOp35
 70
     1
102
RTVSPropertyOp36
 70
     1
102
RTVSPropertyOp37
 70
     1
102
RTVSPropertyOp38
 70
     1
102
RTVSPropertyOp39
 70
     1
102
RTVSPropertyOp40
 70
     1
102
RTVSPropertyOp41
 70
     1
102
RTVSPropertyOp42
 70
     1
102
RTVSPropertyOp43
 70
     1
102
RTVSPropertyOp44
 70
     1
102
RTVSPropertyOp45
 70
     1
102
RTVSPropertyOp46
 70
     1
102
RTVSPropertyOp47
 70
     1
102
RTVSPropertyOp48
 70
     1
102
RTVSPropertyOp49
 70
     1
102
RTVSPropertyOp50
 70
     1
102
RTVSPropertyOp51
 70
     0
102
RTVSPropertyOp52
 70
     0
102
RTVSPropertyOp53
 70
     1
102
RTVSPropertyOp54
 70
     1
102
RTVSPropertyOp55
 70
     1
102
RTVSPropertyOp56
 70
     1
102
RTVSPropertyOp57
 70
     1
102
RTVSPropertyOp58
 70
     1
102
RTVSPropertyOp59
 70
     1
102
RTVSPropertyOp60
 70
     1
102
RTVSPropertyOp61
 70
     1
102
RTVSPropertyOp62
 70
     1
  0
XRECORD
  5
61C
102
{ACAD_REACTORS
330
61B
102
}
330
61B
100
AcDbXrecord
280
     1
102
RTVSPost2010Prop28
280
     0
102
RTVSPost2010PropOp28
 70
     1
102
RTVSPost2010Prop29
280
     1
102
RTVSPost2010PropOp29
 70
     1
102
RTVSPost2010Prop30
280
     1
102
RTVSPost2010PropOp30
 70
     1
102
RTVSPost2010Prop31
280
     0
102
RTVSPost2010PropOp31
 70
     1
102
RTVSPost2010Prop32
280
     0
102
RTVSPost2010PropOp32
 70
     1
102
RTVSPost2010Prop33
280
     0
102
RTVSPost2010PropOp33
 70
     1
102
RTVSPost2010Prop34
280
     0
102
RTVSPost2010PropOp34
 70
     1
102
RTVSPost2010Prop35
280
     0
102
RTVSPost2010PropOp35
 70
     1
102
RTVSPost2010Prop36
280
     0
102
RTVSPost2010PropOp36
 70
     1
102
RTVSPost2010Prop37
 90
       50
102
RTVSPost2010PropOp37
 70
     1
102
RTVSPost2010Prop38
140
0.0
102
RTVSPost2010PropOp38
 70
     1
102
RTVSPost2010Prop39
140
1.0
102
RTVSPost2010PropOp39
 70
     1
102
RTVSPost2010Prop40
 90
        0
102
RTVSPost2010PropOp40
 70
     1
102
RTVSPost2010Prop41ColorIndex
 90
       18
102
RTVSPost2010Prop41ColorRGB
 90
        0
102
RTVSPost2010PropOp41
 70
     1
102
RTVSPost2010Prop42
 90
       50
102
RTVSPost2010PropOp42
 70
     1
102
RTVSPost2010Prop43
 90
        3
102
RTVSPost2010PropOp43
 70
     1
102
RTVSPost2010Prop44ColorIndex
 90
        5
102
RTVSPost2010Prop44ColorRGB
 90
      255
102
RTVSPost2010PropOp44
 70
     1
102
RTVSPost2010Prop45
280
     0
102
RTVSPost2010PropOp45
 70
     1
102
RTVSPost2010Prop46
 90
       50
102
RTVSPost2010PropOp46
 70
     1
102
RTVSPost2010Prop47
 90
       50
102
RTVSPost2010PropOp47
 70
     1
102
RTVSPost2010Prop48
 90
       50
102
RTVSPost2010PropOp48
 70
     1
102
RTVSPost2010Prop49
280
     0
102
RTVSPost2010PropOp49
 70
     1
102
RTVSPost2010Prop50
 90
       50
102
RTVSPost2010PropOp50
 70
     1
102
RTVSPost2010Prop51ColorIndex
 90
      256
102
RTVSPost2010Prop51ColorRGB
 90
-16777216
102
RTVSPost2010PropOp51
 70
     0
102
RTVSPost2010Prop52
140
1.0
102
RTVSPost2010PropOp52
 70
     0
102
RTVSPost2010Prop53
 90
        2
102
RTVSPost2010PropOp53
 70
     1
102
RTVSPost2010Prop54
  1
strokes_ogs.tif
102
RTVSPost2010PropOp54
 70
     1
102
RTVSPost2010Prop55
280
     0
102
RTVSPost2010PropOp55
 70
     1
102
RTVSPost2010Prop56
140
1.0
102
RTVSPost2010PropOp56
 70
     1
102
RTVSPost2010Prop57
140
1.0
102
RTVSPost2010PropOp57
 70
     1
102
RTVSPropertyOp0
 70
     1
102
RTVSPropertyOp1
 70
     1
102
RTVSPropertyOp2
 70
     1
102
RTVSPropertyOp3
 70
     1
102
RTVSPropertyOp4
 70
     1
102
RTVSPropertyOp5
 70
     1
102
RTVSPropertyOp6
 70
     1
102
RTVSPropertyOp7
 70
     1
102
RTVSPropertyOp8
 70
     1
102
RTVSPropertyOp9
 70
     1
102
RTVSPropertyOp10
 70
     1
102
RTVSPropertyOp11
 70
     1
102
RTVSPropertyOp12
 70
     1
102
RTVSPropertyOp13
 70
     1
102
RTVSPropertyOp14
 70
     1
102
RTVSPropertyOp15
 70
     1
102
RTVSPropertyOp16
 70
     1
102
RTVSPropertyOp17
 70
     1
102
RTVSPropertyOp18
 70
     1
102
RTVSPropertyOp19
 70
     1
102
RTVSPropertyOp20
 70
     1
102
RTVSPropertyOp21
 70
     1
102
RTVSPropertyOp22
 70
     1
102
RTVSPropertyOp23
 70
     1
102
RTVSPropertyOp24
 70
     1
102
RTVSPropertyOp25
 70
     1
102
RTVSPropertyOp26
 70
     1
102
RTVSPropertyOp27
 70
     1
102
RTVSPropertyOp28
 70
     1
102
RTVSPropertyOp29
 70
     1
102
RTVSPropertyOp30
 70
     1
102
RTVSPropertyOp31
 70
     1
102
RTVSPropertyOp32
 70
     1
102
RTVSPropertyOp33
 70
     1
102
RTVSPropertyOp34
 70
     1
102
RTVSPropertyOp35
 70
     1
102
RTVSPropertyOp36
 70
     1
102
RTVSPropertyOp37
 70
     1
102
RTVSPropertyOp38
 70
     1
102
RTVSPropertyOp39
 70
     1
102
RTVSPropertyOp40
 70
     1
102
RTVSPropertyOp41
 70
     1
102
RTVSPropertyOp42
 70
     1
102
RTVSPropertyOp43
 70
     1
102
RTVSPropertyOp44
 70
     1
102
RTVSPropertyOp45
 70
     1
102
RTVSPropertyOp46
 70
     1
102
RTVSPropertyOp47
 70
     1
102
RTVSPropertyOp48
 70
     1
102
RTVSPropertyOp49
 70
     1
102
RTVSPropertyOp50
 70
     1
102
RTVSPropertyOp51
 70
     0
102
RTVSPropertyOp52
 70
     0
102
RTVSPropertyOp53
 70
     1
102
RTVSPropertyOp54
 70
     1
102
RTVSPropertyOp55
 70
     1
102
RTVSPropertyOp56
 70
     1
102
RTVSPropertyOp57
 70
     1
102
RTVSPropertyOp58
 70
     1
102
RTVSPropertyOp59
 70
     1
102
RTVSPropertyOp60
 70
     1
102
RTVSPropertyOp61
 70
     1
102
RTVSPropertyOp62
 70
     1
  0
XRECORD
  5
638
102
{ACAD_REACTORS
330
637
102
}
330
637
100
AcDbXrecord
280
     1
102
RTVSPost2010Prop28
280
     0
102
RTVSPost2010PropOp28
 70
     0
102
RTVSPost2010Prop29
280
     1
102
RTVSPost2010PropOp29
 70
     0
102
RTVSPost2010Prop30
280
     1
102
RTVSPost2010PropOp30
 70
     0
102
RTVSPost2010Prop31
280
     0
102
RTVSPost2010PropOp31
 70
     0
102
RTVSPost2010Prop32
280
     0
102
RTVSPost2010PropOp32
 70
     0
102
RTVSPost2010Prop33
280
     0
102
RTVSPost2010PropOp33
 70
     0
102
RTVSPost2010Prop34
280
     0
102
RTVSPost2010PropOp34
 70
     0
102
RTVSPost2010Prop35
280
     0
102
RTVSPost2010PropOp35
 70
     0
102
RTVSPost2010Prop36
280
     0
102
RTVSPost2010PropOp36
 70
     0
102
RTVSPost2010Prop37
 90
       50
102
RTVSPost2010PropOp37
 70
     0
102
RTVSPost2010Prop38
140
0.0
102
RTVSPost2010PropOp38
 70
     0
102
RTVSPost2010Prop39
140
1.0
102
RTVSPost2010PropOp39
 70
     0
102
RTVSPost2010Prop40
 90
        0
102
RTVSPost2010PropOp40
 70
     0
102
RTVSPost2010Prop41ColorIndex
 90
       18
102
RTVSPost2010Prop41ColorRGB
 90
        0
102
RTVSPost2010PropOp41
 70
     0
102
RTVSPost2010Prop42
 90
       50
102
RTVSPost2010PropOp42
 70
     0
102
RTVSPost2010Prop43
 90
        3
102
RTVSPost2010PropOp43
 70
     0
102
RTVSPost2010Prop44ColorIndex
 90
        5
102
RTVSPost2010Prop44ColorRGB
 90
      255
102
RTVSPost2010PropOp44
 70
     0
102
RTVSPost2010Prop45
280
     0
102
RTVSPost2010PropOp45
 70
     0
102
RTVSPost2010Prop46
 90
       50
102
RTVSPost2010PropOp46
 70
     0
102
RTVSPost2010Prop47
 90
       50
102
RTVSPost2010PropOp47
 70
     0
102
RTVSPost2010Prop48
 90
       50
102
RTVSPost2010PropOp48
 70
     0
102
RTVSPost2010Prop49
280
     0
102
RTVSPost2010PropOp49
 70
     0
102
RTVSPost2010Prop50
 90
       50
102
RTVSPost2010PropOp50
 70
     0
102
RTVSPost2010Prop51ColorIndex
 90
      256
102
RTVSPost2010Prop51ColorRGB
 90
-16777216
102
RTVSPost2010PropOp51
 70
     0
102
RTVSPost2010Prop52
140
1.0
102
RTVSPost2010PropOp52
 70
     0
102
RTVSPost2010Prop53
 90
        2
102
RTVSPost2010PropOp53
 70
     0
102
RTVSPost2010Prop54
  1
strokes_ogs.tif
102
RTVSPost2010PropOp54
 70
     0
102
RTVSPost2010Prop55
280
     0
102
RTVSPost2010PropOp55
 70
     0
102
RTVSPost2010Prop56
140
1.0
102
RTVSPost2010PropOp56
 70
     0
102
RTVSPost2010Prop57
140
1.0
102
RTVSPost2010PropOp57
 70
     0
102
RTVSPropertyOp0
 70
     0
102
RTVSPropertyOp1
 70
     0
102
RTVSPropertyOp2
 70
     0
102
RTVSPropertyOp3
 70
     0
102
RTVSPropertyOp4
 70
     0
102
RTVSPropertyOp5
 70
     0
102
RTVSPropertyOp6
 70
     0
102
RTVSPropertyOp7
 70
     0
102
RTVSPropertyOp8
 70
     0
102
RTVSPropertyOp9
 70
     0
102
RTVSPropertyOp10
 70
     0
102
RTVSPropertyOp11
 70
     0
102
RTVSPropertyOp12
 70
     0
102
RTVSPropertyOp13
 70
     0
102
RTVSPropertyOp14
 70
     2
102
RTVSPropertyOp15
 70
     0
102
RTVSPropertyOp16
 70
     0
102
RTVSPropertyOp17
 70
     0
102
RTVSPropertyOp18
 70
     0
102
RTVSPropertyOp19
 70
     0
102
RTVSPropertyOp20
 70
     0
102
RTVSPropertyOp21
 70
     0
102
RTVSPropertyOp22
 70
     0
102
RTVSPropertyOp23
 70
     0
102
RTVSPropertyOp24
 70
     0
102
RTVSPropertyOp25
 70
     0
102
RTVSPropertyOp26
 70
     0
102
RTVSPropertyOp27
 70
     0
102
RTVSPropertyOp28
 70
     0
102
RTVSPropertyOp29
 70
     0
102
RTVSPropertyOp30
 70
     0
102
RTVSPropertyOp31
 70
     0
102
RTVSPropertyOp32
 70
     0
102
RTVSPropertyOp33
 70
     0
102
RTVSPropertyOp34
 70
     0
102
RTVSPropertyOp35
 70
     0
102
RTVSPropertyOp36
 70
     0
102
RTVSPropertyOp37
 70
     0
102
RTVSPropertyOp38
 70
     0
102
RTVSPropertyOp39
 70
     0
102
RTVSPropertyOp40
 70
     0
102
RTVSPropertyOp41
 70
     0
102
RTVSPropertyOp42
 70
     0
102
RTVSPropertyOp43
 70
     0
102
RTVSPropertyOp44
 70
     0
102
RTVSPropertyOp45
 70
     0
102
RTVSPropertyOp46
 70
     0
102
RTVSPropertyOp47
 70
     0
102
RTVSPropertyOp48
 70
     0
102
RTVSPropertyOp49
 70
     0
102
RTVSPropertyOp50
 70
     0
102
RTVSPropertyOp51
 70
     0
102
RTVSPropertyOp52
 70
     0
102
RTVSPropertyOp53
 70
     0
102
RTVSPropertyOp54
 70
     0
102
RTVSPropertyOp55
 70
     0
102
RTVSPropertyOp56
 70
     0
102
RTVSPropertyOp57
 70
     0
102
RTVSPropertyOp58
 70
     0
102
RTVSPropertyOp59
 70
     0
102
RTVSPropertyOp60
 70
     0
102
RTVSPropertyOp61
 70
     0
102
RTVSPropertyOp62
 70
     0
  0
XRECORD
  5
628
102
{ACAD_REACTORS
330
627
102
}
330
627
100
AcDbXrecord
280
     1
102
RTVSPost2010Prop28
280
     0
102
RTVSPost2010PropOp28
 70
     1
102
RTVSPost2010Prop29
280
     1
102
RTVSPost2010PropOp29
 70
     1
102
RTVSPost2010Prop30
280
     1
102
RTVSPost2010PropOp30
 70
     1
102
RTVSPost2010Prop31
280
     0
102
RTVSPost2010PropOp31
 70
     1
102
RTVSPost2010Prop32
280
     0
102
RTVSPost2010PropOp32
 70
     1
102
RTVSPost2010Prop33
280
     0
102
RTVSPost2010PropOp33
 70
     1
102
RTVSPost2010Prop34
280
     0
102
RTVSPost2010PropOp34
 70
     1
102
RTVSPost2010Prop35
280
     0
102
RTVSPost2010PropOp35
 70
     1
102
RTVSPost2010Prop36
280
     0
102
RTVSPost2010PropOp36
 70
     1
102
RTVSPost2010Prop37
 90
       50
102
RTVSPost2010PropOp37
 70
     1
102
RTVSPost2010Prop38
140
0.0
102
RTVSPost2010PropOp38
 70
     1
102
RTVSPost2010Prop39
140
1.0
102
RTVSPost2010PropOp39
 70
     1
102
RTVSPost2010Prop40
 90
        0
102
RTVSPost2010PropOp40
 70
     1
102
RTVSPost2010Prop41ColorIndex
 90
       18
102
RTVSPost2010Prop41ColorRGB
 90
        0
102
RTVSPost2010PropOp41
 70
     1
102
RTVSPost2010Prop42
 90
       50
102
RTVSPost2010PropOp42
 70
     1
102
RTVSPost2010Prop43
 90
        3
102
RTVSPost2010PropOp43
 70
     1
102
RTVSPost2010Prop44ColorIndex
 90
        5
102
RTVSPost2010Prop44ColorRGB
 90
      255
102
RTVSPost2010PropOp44
 70
     1
102
RTVSPost2010Prop45
280
     0
102
RTVSPost2010PropOp45
 70
     1
102
RTVSPost2010Prop46
 90
       50
102
RTVSPost2010PropOp46
 70
     1
102
RTVSPost2010Prop47
 90
       50
102
RTVSPost2010PropOp47
 70
     1
102
RTVSPost2010Prop48
 90
       50
102
RTVSPost2010PropOp48
 70
     1
102
RTVSPost2010Prop49
280
     0
102
RTVSPost2010PropOp49
 70
     1
102
RTVSPost2010Prop50
 90
       50
102
RTVSPost2010PropOp50
 70
     1
102
RTVSPost2010Prop51ColorIndex
 90
      256
102
RTVSPost2010Prop51ColorRGB
 90
-16777216
102
RTVSPost2010PropOp51
 70
     0
102
RTVSPost2010Prop52
140
1.0
102
RTVSPost2010PropOp52
 70
     0
102
RTVSPost2010Prop53
 90
        2
102
RTVSPost2010PropOp53
 70
     1
102
RTVSPost2010Prop54
  1
strokes_ogs.tif
102
RTVSPost2010PropOp54
 70
     1
102
RTVSPost2010Prop55
280
     0
102
RTVSPost2010PropOp55
 70
     1
102
RTVSPost2010Prop56
140
1.0
102
RTVSPost2010PropOp56
 70
     1
102
RTVSPost2010Prop57
140
1.0
102
RTVSPost2010PropOp57
 70
     1
102
RTVSPropertyOp0
 70
     1
102
RTVSPropertyOp1
 70
     1
102
RTVSPropertyOp2
 70
     1
102
RTVSPropertyOp3
 70
     1
102
RTVSPropertyOp4
 70
     1
102
RTVSPropertyOp5
 70
     1
102
RTVSPropertyOp6
 70
     1
102
RTVSPropertyOp7
 70
     1
102
RTVSPropertyOp8
 70
     1
102
RTVSPropertyOp9
 70
     1
102
RTVSPropertyOp10
 70
     1
102
RTVSPropertyOp11
 70
     1
102
RTVSPropertyOp12
 70
     1
102
RTVSPropertyOp13
 70
     1
102
RTVSPropertyOp14
 70
     1
102
RTVSPropertyOp15
 70
     1
102
RTVSPropertyOp16
 70
     1
102
RTVSPropertyOp17
 70
     1
102
RTVSPropertyOp18
 70
     1
102
RTVSPropertyOp19
 70
     1
102
RTVSPropertyOp20
 70
     1
102
RTVSPropertyOp21
 70
     1
102
RTVSPropertyOp22
 70
     1
102
RTVSPropertyOp23
 70
     1
102
RTVSPropertyOp24
 70
     1
102
RTVSPropertyOp25
 70
     1
102
RTVSPropertyOp26
 70
     1
102
RTVSPropertyOp27
 70
     1
102
RTVSPropertyOp28
 70
     1
102
RTVSPropertyOp29
 70
     1
102
RTVSPropertyOp30
 70
     1
102
RTVSPropertyOp31
 70
     1
102
RTVSPropertyOp32
 70
     1
102
RTVSPropertyOp33
 70
     1
102
RTVSPropertyOp34
 70
     1
102
RTVSPropertyOp35
 70
     1
102
RTVSPropertyOp36
 70
     1
102
RTVSPropertyOp37
 70
     1
102
RTVSPropertyOp38
 70
     1
102
RTVSPropertyOp39
 70
     1
102
RTVSPropertyOp40
 70
     1
102
RTVSPropertyOp41
 70
     1
102
RTVSPropertyOp42
 70
     1
102
RTVSPropertyOp43
 70
     1
102
RTVSPropertyOp44
 70
     1
102
RTVSPropertyOp45
 70
     1
102
RTVSPropertyOp46
 70
     1
102
RTVSPropertyOp47
 70
     1
102
RTVSPropertyOp48
 70
     1
102
RTVSPropertyOp49
 70
     1
102
RTVSPropertyOp50
 70
     1
102
RTVSPropertyOp51
 70
     0
102
RTVSPropertyOp52
 70
     0
102
RTVSPropertyOp53
 70
     1
102
RTVSPropertyOp54
 70
     1
102
RTVSPropertyOp55
 70
     1
102
RTVSPropertyOp56
 70
     1
102
RTVSPropertyOp57
 70
     1
102
RTVSPropertyOp58
 70
     1
102
RTVSPropertyOp59
 70
     1
102
RTVSPropertyOp60
 70
     1
102
RTVSPropertyOp61
 70
     1
102
RTVSPropertyOp62
 70
     1
  0
XRECORD
  5
63A
102
{ACAD_REACTORS
330
639
102
}
330
639
100
AcDbXrecord
280
     1
102
RTVSPost2010Prop28
280
     0
102
RTVSPost2010PropOp28
 70
     0
102
RTVSPost2010Prop29
280
     1
102
RTVSPost2010PropOp29
 70
     0
102
RTVSPost2010Prop30
280
     1
102
RTVSPost2010PropOp30
 70
     0
102
RTVSPost2010Prop31
280
     0
102
RTVSPost2010PropOp31
 70
     0
102
RTVSPost2010Prop32
280
     0
102
RTVSPost2010PropOp32
 70
     0
102
RTVSPost2010Prop33
280
     0
102
RTVSPost2010PropOp33
 70
     0
102
RTVSPost2010Prop34
280
     0
102
RTVSPost2010PropOp34
 70
     0
102
RTVSPost2010Prop35
280
     0
102
RTVSPost2010PropOp35
 70
     0
102
RTVSPost2010Prop36
280
     0
102
RTVSPost2010PropOp36
 70
     0
102
RTVSPost2010Prop37
 90
       50
102
RTVSPost2010PropOp37
 70
     0
102
RTVSPost2010Prop38
140
0.0
102
RTVSPost2010PropOp38
 70
     0
102
RTVSPost2010Prop39
140
1.0
102
RTVSPost2010PropOp39
 70
     0
102
RTVSPost2010Prop40
 90
        0
102
RTVSPost2010PropOp40
 70
     0
102
RTVSPost2010Prop41ColorIndex
 90
       18
102
RTVSPost2010Prop41ColorRGB
 90
        0
102
RTVSPost2010PropOp41
 70
     0
102
RTVSPost2010Prop42
 90
       50
102
RTVSPost2010PropOp42
 70
     0
102
RTVSPost2010Prop43
 90
        3
102
RTVSPost2010PropOp43
 70
     0
102
RTVSPost2010Prop44ColorIndex
 90
        5
102
RTVSPost2010Prop44ColorRGB
 90
      255
102
RTVSPost2010PropOp44
 70
     0
102
RTVSPost2010Prop45
280
     0
102
RTVSPost2010PropOp45
 70
     0
102
RTVSPost2010Prop46
 90
       50
102
RTVSPost2010PropOp46
 70
     0
102
RTVSPost2010Prop47
 90
       50
102
RTVSPost2010PropOp47
 70
     0
102
RTVSPost2010Prop48
 90
       50
102
RTVSPost2010PropOp48
 70
     0
102
RTVSPost2010Prop49
280
     0
102
RTVSPost2010PropOp49
 70
     0
102
RTVSPost2010Prop50
 90
       50
102
RTVSPost2010PropOp50
 70
     0
102
RTVSPost2010Prop51ColorIndex
 90
      256
102
RTVSPost2010Prop51ColorRGB
 90
-16777216
102
RTVSPost2010PropOp51
 70
     0
102
RTVSPost2010Prop52
140
1.0
102
RTVSPost2010PropOp52
 70
     0
102
RTVSPost2010Prop53
 90
        2
102
RTVSPost2010PropOp53
 70
     0
102
RTVSPost2010Prop54
  1
strokes_ogs.tif
102
RTVSPost2010PropOp54
 70
     0
102
RTVSPost2010Prop55
280
     0
102
RTVSPost2010PropOp55
 70
     0
102
RTVSPost2010Prop56
140
1.0
102
RTVSPost2010PropOp56
 70
     0
102
RTVSPost2010Prop57
140
1.0
102
RTVSPost2010PropOp57
 70
     0
102
RTVSPropertyOp0
 70
     0
102
RTVSPropertyOp1
 70
     0
102
RTVSPropertyOp2
 70
     0
102
RTVSPropertyOp3
 70
     0
102
RTVSPropertyOp4
 70
     0
102
RTVSPropertyOp5
 70
     0
102
RTVSPropertyOp6
 70
     0
102
RTVSPropertyOp7
 70
     0
102
RTVSPropertyOp8
 70
     0
102
RTVSPropertyOp9
 70
     0
102
RTVSPropertyOp10
 70
     0
102
RTVSPropertyOp11
 70
     0
102
RTVSPropertyOp12
 70
     0
102
RTVSPropertyOp13
 70
     0
102
RTVSPropertyOp14
 70
     2
102
RTVSPropertyOp15
 70
     0
102
RTVSPropertyOp16
 70
     0
102
RTVSPropertyOp17
 70
     0
102
RTVSPropertyOp18
 70
     0
102
RTVSPropertyOp19
 70
     0
102
RTVSPropertyOp20
 70
     0
102
RTVSPropertyOp21
 70
     0
102
RTVSPropertyOp22
 70
     0
102
RTVSPropertyOp23
 70
     0
102
RTVSPropertyOp24
 70
     0
102
RTVSPropertyOp25
 70
     0
102
RTVSPropertyOp26
 70
     0
102
RTVSPropertyOp27
 70
     0
102
RTVSPropertyOp28
 70
     0
102
RTVSPropertyOp29
 70
     0
102
RTVSPropertyOp30
 70
     0
102
RTVSPropertyOp31
 70
     0
102
RTVSPropertyOp32
 70
     0
102
RTVSPropertyOp33
 70
     0
102
RTVSPropertyOp34
 70
     0
102
RTVSPropertyOp35
 70
     0
102
RTVSPropertyOp36
 70
     0
102
RTVSPropertyOp37
 70
     0
102
RTVSPropertyOp38
 70
     0
102
RTVSPropertyOp39
 70
     0
102
RTVSPropertyOp40
 70
     0
102
RTVSPropertyOp41
 70
     0
102
RTVSPropertyOp42
 70
     0
102
RTVSPropertyOp43
 70
     0
102
RTVSPropertyOp44
 70
     0
102
RTVSPropertyOp45
 70
     0
102
RTVSPropertyOp46
 70
     0
102
RTVSPropertyOp47
 70
     0
102
RTVSPropertyOp48
 70
     0
102
RTVSPropertyOp49
 70
     0
102
RTVSPropertyOp50
 70
     0
102
RTVSPropertyOp51
 70
     0
102
RTVSPropertyOp52
 70
     0
102
RTVSPropertyOp53
 70
     0
102
RTVSPropertyOp54
 70
     0
102
RTVSPropertyOp55
 70
     0
102
RTVSPropertyOp56
 70
     0
102
RTVSPropertyOp57
 70
     0
102
RTVSPropertyOp58
 70
     0
102
RTVSPropertyOp59
 70
     0
102
RTVSPropertyOp60
 70
     0
102
RTVSPropertyOp61
 70
     0
102
RTVSPropertyOp62
 70
     0
  0
XRECORD
  5
620
102
{ACAD_REACTORS
330
61F
102
}
330
61F
100
AcDbXrecord
280
     1
102
RTVSPost2010Prop28
280
     0
102
RTVSPost2010PropOp28
 70
     1
102
RTVSPost2010Prop29
280
     1
102
RTVSPost2010PropOp29
 70
     1
102
RTVSPost2010Prop30
280
     1
102
RTVSPost2010PropOp30
 70
     1
102
RTVSPost2010Prop31
280
     0
102
RTVSPost2010PropOp31
 70
     1
102
RTVSPost2010Prop32
280
     0
102
RTVSPost2010PropOp32
 70
     1
102
RTVSPost2010Prop33
280
     0
102
RTVSPost2010PropOp33
 70
     1
102
RTVSPost2010Prop34
280
     0
102
RTVSPost2010PropOp34
 70
     1
102
RTVSPost2010Prop35
280
     0
102
RTVSPost2010PropOp35
 70
     1
102
RTVSPost2010Prop36
280
     0
102
RTVSPost2010PropOp36
 70
     1
102
RTVSPost2010Prop37
 90
       50
102
RTVSPost2010PropOp37
 70
     1
102
RTVSPost2010Prop38
140
0.0
102
RTVSPost2010PropOp38
 70
     1
102
RTVSPost2010Prop39
140
1.0
102
RTVSPost2010PropOp39
 70
     1
102
RTVSPost2010Prop40
 90
        0
102
RTVSPost2010PropOp40
 70
     1
102
RTVSPost2010Prop41ColorIndex
 90
       18
102
RTVSPost2010Prop41ColorRGB
 90
        0
102
RTVSPost2010PropOp41
 70
     1
102
RTVSPost2010Prop42
 90
       50
102
RTVSPost2010PropOp42
 70
     1
102
RTVSPost2010Prop43
 90
        3
102
RTVSPost2010PropOp43
 70
     1
102
RTVSPost2010Prop44ColorIndex
 90
        5
102
RTVSPost2010Prop44ColorRGB
 90
      255
102
RTVSPost2010PropOp44
 70
     1
102
RTVSPost2010Prop45
280
     0
102
RTVSPost2010PropOp45
 70
     1
102
RTVSPost2010Prop46
 90
       50
102
RTVSPost2010PropOp46
 70
     1
102
RTVSPost2010Prop47
 90
       50
102
RTVSPost2010PropOp47
 70
     1
102
RTVSPost2010Prop48
 90
       50
102
RTVSPost2010PropOp48
 70
     1
102
RTVSPost2010Prop49
280
     0
102
RTVSPost2010PropOp49
 70
     1
102
RTVSPost2010Prop50
 90
       50
102
RTVSPost2010PropOp50
 70
     1
102
RTVSPost2010Prop51ColorIndex
 90
      256
102
RTVSPost2010Prop51ColorRGB
 90
-16777216
102
RTVSPost2010PropOp51
 70
     0
102
RTVSPost2010Prop52
140
1.0
102
RTVSPost2010PropOp52
 70
     0
102
RTVSPost2010Prop53
 90
        2
102
RTVSPost2010PropOp53
 70
     1
102
RTVSPost2010Prop54
  1
strokes_ogs.tif
102
RTVSPost2010PropOp54
 70
     1
102
RTVSPost2010Prop55
280
     0
102
RTVSPost2010PropOp55
 70
     1
102
RTVSPost2010Prop56
140
1.0
102
RTVSPost2010PropOp56
 70
     1
102
RTVSPost2010Prop57
140
1.0
102
RTVSPost2010PropOp57
 70
     1
102
RTVSPropertyOp0
 70
     1
102
RTVSPropertyOp1
 70
     1
102
RTVSPropertyOp2
 70
     1
102
RTVSPropertyOp3
 70
     1
102
RTVSPropertyOp4
 70
     1
102
RTVSPropertyOp5
 70
     1
102
RTVSPropertyOp6
 70
     1
102
RTVSPropertyOp7
 70
     1
102
RTVSPropertyOp8
 70
     1
102
RTVSPropertyOp9
 70
     1
102
RTVSPropertyOp10
 70
     1
102
RTVSPropertyOp11
 70
     1
102
RTVSPropertyOp12
 70
     1
102
RTVSPropertyOp13
 70
     1
102
RTVSPropertyOp14
 70
     1
102
RTVSPropertyOp15
 70
     1
102
RTVSPropertyOp16
 70
     1
102
RTVSPropertyOp17
 70
     1
102
RTVSPropertyOp18
 70
     1
102
RTVSPropertyOp19
 70
     1
102
RTVSPropertyOp20
 70
     1
102
RTVSPropertyOp21
 70
     1
102
RTVSPropertyOp22
 70
     1
102
RTVSPropertyOp23
 70
     1
102
RTVSPropertyOp24
 70
     1
102
RTVSPropertyOp25
 70
     1
102
RTVSPropertyOp26
 70
     1
102
RTVSPropertyOp27
 70
     1
102
RTVSPropertyOp28
 70
     1
102
RTVSPropertyOp29
 70
     1
102
RTVSPropertyOp30
 70
     1
102
RTVSPropertyOp31
 70
     1
102
RTVSPropertyOp32
 70
     1
102
RTVSPropertyOp33
 70
     1
102
RTVSPropertyOp34
 70
     1
102
RTVSPropertyOp35
 70
     1
102
RTVSPropertyOp36
 70
     1
102
RTVSPropertyOp37
 70
     1
102
RTVSPropertyOp38
 70
     1
102
RTVSPropertyOp39
 70
     1
102
RTVSPropertyOp40
 70
     1
102
RTVSPropertyOp41
 70
     1
102
RTVSPropertyOp42
 70
     1
102
RTVSPropertyOp43
 70
     1
102
RTVSPropertyOp44
 70
     1
102
RTVSPropertyOp45
 70
     1
102
RTVSPropertyOp46
 70
     1
102
RTVSPropertyOp47
 70
     1
102
RTVSPropertyOp48
 70
     1
102
RTVSPropertyOp49
 70
     1
102
RTVSPropertyOp50
 70
     1
102
RTVSPropertyOp51
 70
     0
102
RTVSPropertyOp52
 70
     0
102
RTVSPropertyOp53
 70
     1
102
RTVSPropertyOp54
 70
     1
102
RTVSPropertyOp55
 70
     1
102
RTVSPropertyOp56
 70
     1
102
RTVSPropertyOp57
 70
     1
102
RTVSPropertyOp58
 70
     1
102
RTVSPropertyOp59
 70
     1
102
RTVSPropertyOp60
 70
     1
102
RTVSPropertyOp61
 70
     1
102
RTVSPropertyOp62
 70
     1
  0
XRECORD
  5
636
102
{ACAD_REACTORS
330
635
102
}
330
635
100
AcDbXrecord
280
     1
102
RTVSPost2010Prop28
280
     0
102
RTVSPost2010PropOp28
 70
     1
102
RTVSPost2010Prop29
280
     1
102
RTVSPost2010PropOp29
 70
     1
102
RTVSPost2010Prop30
280
     1
102
RTVSPost2010PropOp30
 70
     1
102
RTVSPost2010Prop31
280
     0
102
RTVSPost2010PropOp31
 70
     1
102
RTVSPost2010Prop32
280
     0
102
RTVSPost2010PropOp32
 70
     1
102
RTVSPost2010Prop33
280
     0
102
RTVSPost2010PropOp33
 70
     1
102
RTVSPost2010Prop34
280
     0
102
RTVSPost2010PropOp34
 70
     1
102
RTVSPost2010Prop35
280
     0
102
RTVSPost2010PropOp35
 70
     1
102
RTVSPost2010Prop36
280
     0
102
RTVSPost2010PropOp36
 70
     1
102
RTVSPost2010Prop37
 90
       50
102
RTVSPost2010PropOp37
 70
     1
102
RTVSPost2010Prop38
140
0.0
102
RTVSPost2010PropOp38
 70
     1
102
RTVSPost2010Prop39
140
1.0
102
RTVSPost2010PropOp39
 70
     1
102
RTVSPost2010Prop40
 90
        0
102
RTVSPost2010PropOp40
 70
     1
102
RTVSPost2010Prop41ColorIndex
 90
       18
102
RTVSPost2010Prop41ColorRGB
 90
        0
102
RTVSPost2010PropOp41
 70
     1
102
RTVSPost2010Prop42
 90
       50
102
RTVSPost2010PropOp42
 70
     1
102
RTVSPost2010Prop43
 90
        3
102
RTVSPost2010PropOp43
 70
     1
102
RTVSPost2010Prop44ColorIndex
 90
        5
102
RTVSPost2010Prop44ColorRGB
 90
      255
102
RTVSPost2010PropOp44
 70
     1
102
RTVSPost2010Prop45
280
     0
102
RTVSPost2010PropOp45
 70
     1
102
RTVSPost2010Prop46
 90
       50
102
RTVSPost2010PropOp46
 70
     1
102
RTVSPost2010Prop47
 90
       50
102
RTVSPost2010PropOp47
 70
     1
102
RTVSPost2010Prop48
 90
       50
102
RTVSPost2010PropOp48
 70
     1
102
RTVSPost2010Prop49
280
     0
102
RTVSPost2010PropOp49
 70
     1
102
RTVSPost2010Prop50
 90
       50
102
RTVSPost2010PropOp50
 70
     1
102
RTVSPost2010Prop51ColorIndex
 90
      256
102
RTVSPost2010Prop51ColorRGB
 90
-16777216
102
RTVSPost2010PropOp51
 70
     0
102
RTVSPost2010Prop52
140
1.0
102
RTVSPost2010PropOp52
 70
     0
102
RTVSPost2010Prop53
 90
        2
102
RTVSPost2010PropOp53
 70
     1
102
RTVSPost2010Prop54
  1
strokes_ogs.tif
102
RTVSPost2010PropOp54
 70
     1
102
RTVSPost2010Prop55
280
     0
102
RTVSPost2010PropOp55
 70
     1
102
RTVSPost2010Prop56
140
1.0
102
RTVSPost2010PropOp56
 70
     1
102
RTVSPost2010Prop57
140
1.0
102
RTVSPost2010PropOp57
 70
     1
102
RTVSPropertyOp0
 70
     1
102
RTVSPropertyOp1
 70
     1
102
RTVSPropertyOp2
 70
     1
102
RTVSPropertyOp3
 70
     1
102
RTVSPropertyOp4
 70
     1
102
RTVSPropertyOp5
 70
     1
102
RTVSPropertyOp6
 70
     1
102
RTVSPropertyOp7
 70
     1
102
RTVSPropertyOp8
 70
     1
102
RTVSPropertyOp9
 70
     1
102
RTVSPropertyOp10
 70
     1
102
RTVSPropertyOp11
 70
     1
102
RTVSPropertyOp12
 70
     1
102
RTVSPropertyOp13
 70
     1
102
RTVSPropertyOp14
 70
     1
102
RTVSPropertyOp15
 70
     1
102
RTVSPropertyOp16
 70
     1
102
RTVSPropertyOp17
 70
     1
102
RTVSPropertyOp18
 70
     1
102
RTVSPropertyOp19
 70
     1
102
RTVSPropertyOp20
 70
     1
102
RTVSPropertyOp21
 70
     1
102
RTVSPropertyOp22
 70
     1
102
RTVSPropertyOp23
 70
     1
102
RTVSPropertyOp24
 70
     1
102
RTVSPropertyOp25
 70
     1
102
RTVSPropertyOp26
 70
     1
102
RTVSPropertyOp27
 70
     1
102
RTVSPropertyOp28
 70
     1
102
RTVSPropertyOp29
 70
     1
102
RTVSPropertyOp30
 70
     1
102
RTVSPropertyOp31
 70
     1
102
RTVSPropertyOp32
 70
     1
102
RTVSPropertyOp33
 70
     1
102
RTVSPropertyOp34
 70
     1
102
RTVSPropertyOp35
 70
     1
102
RTVSPropertyOp36
 70
     1
102
RTVSPropertyOp37
 70
     1
102
RTVSPropertyOp38
 70
     1
102
RTVSPropertyOp39
 70
     1
102
RTVSPropertyOp40
 70
     1
102
RTVSPropertyOp41
 70
     1
102
RTVSPropertyOp42
 70
     1
102
RTVSPropertyOp43
 70
     1
102
RTVSPropertyOp44
 70
     1
102
RTVSPropertyOp45
 70
     1
102
RTVSPropertyOp46
 70
     1
102
RTVSPropertyOp47
 70
     1
102
RTVSPropertyOp48
 70
     1
102
RTVSPropertyOp49
 70
     1
102
RTVSPropertyOp50
 70
     1
102
RTVSPropertyOp51
 70
     0
102
RTVSPropertyOp52
 70
     0
102
RTVSPropertyOp53
 70
     1
102
RTVSPropertyOp54
 70
     1
102
RTVSPropertyOp55
 70
     1
102
RTVSPropertyOp56
 70
     1
102
RTVSPropertyOp57
 70
     1
102
RTVSPropertyOp58
 70
     1
102
RTVSPropertyOp59
 70
     1
102
RTVSPropertyOp60
 70
     1
102
RTVSPropertyOp61
 70
     1
102
RTVSPropertyOp62
 70
     1
  0
XRECORD
  5
634
102
{ACAD_REACTORS
330
633
102
}
330
633
100
AcDbXrecord
280
     1
102
RTVSPost2010Prop28
280
     0
102
RTVSPost2010PropOp28
 70
     1
102
RTVSPost2010Prop29
280
     1
102
RTVSPost2010PropOp29
 70
     1
102
RTVSPost2010Prop30
280
     1
102
RTVSPost2010PropOp30
 70
     1
102
RTVSPost2010Prop31
280
     0
102
RTVSPost2010PropOp31
 70
     1
102
RTVSPost2010Prop32
280
     0
102
RTVSPost2010PropOp32
 70
     1
102
RTVSPost2010Prop33
280
     0
102
RTVSPost2010PropOp33
 70
     1
102
RTVSPost2010Prop34
280
     0
102
RTVSPost2010PropOp34
 70
     1
102
RTVSPost2010Prop35
280
     0
102
RTVSPost2010PropOp35
 70
     1
102
RTVSPost2010Prop36
280
     0
102
RTVSPost2010PropOp36
 70
     1
102
RTVSPost2010Prop37
 90
       50
102
RTVSPost2010PropOp37
 70
     1
102
RTVSPost2010Prop38
140
0.0
102
RTVSPost2010PropOp38
 70
     1
102
RTVSPost2010Prop39
140
1.0
102
RTVSPost2010PropOp39
 70
     1
102
RTVSPost2010Prop40
 90
        0
102
RTVSPost2010PropOp40
 70
     1
102
RTVSPost2010Prop41ColorIndex
 90
       18
102
RTVSPost2010Prop41ColorRGB
 90
        0
102
RTVSPost2010PropOp41
 70
     1
102
RTVSPost2010Prop42
 90
       50
102
RTVSPost2010PropOp42
 70
     1
102
RTVSPost2010Prop43
 90
        3
102
RTVSPost2010PropOp43
 70
     1
102
RTVSPost2010Prop44ColorIndex
 90
        5
102
RTVSPost2010Prop44ColorRGB
 90
      255
102
RTVSPost2010PropOp44
 70
     1
102
RTVSPost2010Prop45
280
     0
102
RTVSPost2010PropOp45
 70
     1
102
RTVSPost2010Prop46
 90
       50
102
RTVSPost2010PropOp46
 70
     1
102
RTVSPost2010Prop47
 90
       50
102
RTVSPost2010PropOp47
 70
     1
102
RTVSPost2010Prop48
 90
       50
102
RTVSPost2010PropOp48
 70
     1
102
RTVSPost2010Prop49
280
     0
102
RTVSPost2010PropOp49
 70
     1
102
RTVSPost2010Prop50
 90
       50
102
RTVSPost2010PropOp50
 70
     1
102
RTVSPost2010Prop51ColorIndex
 90
      256
102
RTVSPost2010Prop51ColorRGB
 90
-16777216
102
RTVSPost2010PropOp51
 70
     0
102
RTVSPost2010Prop52
140
1.0
102
RTVSPost2010PropOp52
 70
     0
102
RTVSPost2010Prop53
 90
        2
102
RTVSPost2010PropOp53
 70
     1
102
RTVSPost2010Prop54
  1
strokes_ogs.tif
102
RTVSPost2010PropOp54
 70
     1
102
RTVSPost2010Prop55
280
     0
102
RTVSPost2010PropOp55
 70
     1
102
RTVSPost2010Prop56
140
1.0
102
RTVSPost2010PropOp56
 70
     1
102
RTVSPost2010Prop57
140
1.0
102
RTVSPost2010PropOp57
 70
     1
102
RTVSPropertyOp0
 70
     1
102
RTVSPropertyOp1
 70
     1
102
RTVSPropertyOp2
 70
     1
102
RTVSPropertyOp3
 70
     1
102
RTVSPropertyOp4
 70
     1
102
RTVSPropertyOp5
 70
     1
102
RTVSPropertyOp6
 70
     1
102
RTVSPropertyOp7
 70
     1
102
RTVSPropertyOp8
 70
     1
102
RTVSPropertyOp9
 70
     1
102
RTVSPropertyOp10
 70
     1
102
RTVSPropertyOp11
 70
     1
102
RTVSPropertyOp12
 70
     1
102
RTVSPropertyOp13
 70
     1
102
RTVSPropertyOp14
 70
     1
102
RTVSPropertyOp15
 70
     1
102
RTVSPropertyOp16
 70
     1
102
RTVSPropertyOp17
 70
     1
102
RTVSPropertyOp18
 70
     1
102
RTVSPropertyOp19
 70
     1
102
RTVSPropertyOp20
 70
     1
102
RTVSPropertyOp21
 70
     1
102
RTVSPropertyOp22
 70
     1
102
RTVSPropertyOp23
 70
     1
102
RTVSPropertyOp24
 70
     1
102
RTVSPropertyOp25
 70
     1
102
RTVSPropertyOp26
 70
     1
102
RTVSPropertyOp27
 70
     1
102
RTVSPropertyOp28
 70
     1
102
RTVSPropertyOp29
 70
     1
102
RTVSPropertyOp30
 70
     1
102
RTVSPropertyOp31
 70
     1
102
RTVSPropertyOp32
 70
     1
102
RTVSPropertyOp33
 70
     1
102
RTVSPropertyOp34
 70
     1
102
RTVSPropertyOp35
 70
     1
102
RTVSPropertyOp36
 70
     1
102
RTVSPropertyOp37
 70
     1
102
RTVSPropertyOp38
 70
     1
102
RTVSPropertyOp39
 70
     1
102
RTVSPropertyOp40
 70
     1
102
RTVSPropertyOp41
 70
     1
102
RTVSPropertyOp42
 70
     1
102
RTVSPropertyOp43
 70
     1
102
RTVSPropertyOp44
 70
     1
102
RTVSPropertyOp45
 70
     1
102
RTVSPropertyOp46
 70
     1
102
RTVSPropertyOp47
 70
     1
102
RTVSPropertyOp48
 70
     1
102
RTVSPropertyOp49
 70
     1
102
RTVSPropertyOp50
 70
     1
102
RTVSPropertyOp51
 70
     0
102
RTVSPropertyOp52
 70
     0
102
RTVSPropertyOp53
 70
     1
102
RTVSPropertyOp54
 70
     1
102
RTVSPropertyOp55
 70
     1
102
RTVSPropertyOp56
 70
     1
102
RTVSPropertyOp57
 70
     1
102
RTVSPropertyOp58
 70
     1
102
RTVSPropertyOp59
 70
     1
102
RTVSPropertyOp60
 70
     1
102
RTVSPropertyOp61
 70
     1
102
RTVSPropertyOp62
 70
     1
  0
XRECORD
  5
62E
102
{ACAD_REACTORS
330
62D
102
}
330
62D
100
AcDbXrecord
280
     1
102
RTVSPost2010Prop28
280
     0
102
RTVSPost2010PropOp28
 70
     1
102
RTVSPost2010Prop29
280
     1
102
RTVSPost2010PropOp29
 70
     1
102
RTVSPost2010Prop30
280
     1
102
RTVSPost2010PropOp30
 70
     1
102
RTVSPost2010Prop31
280
     0
102
RTVSPost2010PropOp31
 70
     1
102
RTVSPost2010Prop32
280
     0
102
RTVSPost2010PropOp32
 70
     1
102
RTVSPost2010Prop33
280
     0
102
RTVSPost2010PropOp33
 70
     1
102
RTVSPost2010Prop34
280
     0
102
RTVSPost2010PropOp34
 70
     1
102
RTVSPost2010Prop35
280
     0
102
RTVSPost2010PropOp35
 70
     1
102
RTVSPost2010Prop36
280
     0
102
RTVSPost2010PropOp36
 70
     1
102
RTVSPost2010Prop37
 90
       50
102
RTVSPost2010PropOp37
 70
     1
102
RTVSPost2010Prop38
140
0.0
102
RTVSPost2010PropOp38
 70
     1
102
RTVSPost2010Prop39
140
1.0
102
RTVSPost2010PropOp39
 70
     1
102
RTVSPost2010Prop40
 90
        0
102
RTVSPost2010PropOp40
 70
     1
102
RTVSPost2010Prop41ColorIndex
 90
       18
102
RTVSPost2010Prop41ColorRGB
 90
        0
102
RTVSPost2010PropOp41
 70
     1
102
RTVSPost2010Prop42
 90
       50
102
RTVSPost2010PropOp42
 70
     1
102
RTVSPost2010Prop43
 90
        3
102
RTVSPost2010PropOp43
 70
     1
102
RTVSPost2010Prop44ColorIndex
 90
        5
102
RTVSPost2010Prop44ColorRGB
 90
      255
102
RTVSPost2010PropOp44
 70
     1
102
RTVSPost2010Prop45
280
     0
102
RTVSPost2010PropOp45
 70
     1
102
RTVSPost2010Prop46
 90
       50
102
RTVSPost2010PropOp46
 70
     1
102
RTVSPost2010Prop47
 90
       50
102
RTVSPost2010PropOp47
 70
     1
102
RTVSPost2010Prop48
 90
       50
102
RTVSPost2010PropOp48
 70
     1
102
RTVSPost2010Prop49
280
     0
102
RTVSPost2010PropOp49
 70
     1
102
RTVSPost2010Prop50
 90
       50
102
RTVSPost2010PropOp50
 70
     1
102
RTVSPost2010Prop51ColorIndex
 90
      256
102
RTVSPost2010Prop51ColorRGB
 90
-16777216
102
RTVSPost2010PropOp51
 70
     0
102
RTVSPost2010Prop52
140
1.0
102
RTVSPost2010PropOp52
 70
     0
102
RTVSPost2010Prop53
 90
        2
102
RTVSPost2010PropOp53
 70
     1
102
RTVSPost2010Prop54
  1
strokes_ogs.tif
102
RTVSPost2010PropOp54
 70
     1
102
RTVSPost2010Prop55
280
     0
102
RTVSPost2010PropOp55
 70
     1
102
RTVSPost2010Prop56
140
1.0
102
RTVSPost2010PropOp56
 70
     1
102
RTVSPost2010Prop57
140
1.0
102
RTVSPost2010PropOp57
 70
     1
102
RTVSPropertyOp0
 70
     1
102
RTVSPropertyOp1
 70
     1
102
RTVSPropertyOp2
 70
     1
102
RTVSPropertyOp3
 70
     1
102
RTVSPropertyOp4
 70
     1
102
RTVSPropertyOp5
 70
     1
102
RTVSPropertyOp6
 70
     1
102
RTVSPropertyOp7
 70
     1
102
RTVSPropertyOp8
 70
     1
102
RTVSPropertyOp9
 70
     1
102
RTVSPropertyOp10
 70
     1
102
RTVSPropertyOp11
 70
     1
102
RTVSPropertyOp12
 70
     1
102
RTVSPropertyOp13
 70
     1
102
RTVSPropertyOp14
 70
     1
102
RTVSPropertyOp15
 70
     1
102
RTVSPropertyOp16
 70
     1
102
RTVSPropertyOp17
 70
     1
102
RTVSPropertyOp18
 70
     1
102
RTVSPropertyOp19
 70
     1
102
RTVSPropertyOp20
 70
     1
102
RTVSPropertyOp21
 70
     1
102
RTVSPropertyOp22
 70
     1
102
RTVSPropertyOp23
 70
     1
102
RTVSPropertyOp24
 70
     1
102
RTVSPropertyOp25
 70
     1
102
RTVSPropertyOp26
 70
     1
102
RTVSPropertyOp27
 70
     1
102
RTVSPropertyOp28
 70
     1
102
RTVSPropertyOp29
 70
     1
102
RTVSPropertyOp30
 70
     1
102
RTVSPropertyOp31
 70
     1
102
RTVSPropertyOp32
 70
     1
102
RTVSPropertyOp33
 70
     1
102
RTVSPropertyOp34
 70
     1
102
RTVSPropertyOp35
 70
     1
102
RTVSPropertyOp36
 70
     1
102
RTVSPropertyOp37
 70
     1
102
RTVSPropertyOp38
 70
     1
102
RTVSPropertyOp39
 70
     1
102
RTVSPropertyOp40
 70
     1
102
RTVSPropertyOp41
 70
     1
102
RTVSPropertyOp42
 70
     1
102
RTVSPropertyOp43
 70
     1
102
RTVSPropertyOp44
 70
     1
102
RTVSPropertyOp45
 70
     1
102
RTVSPropertyOp46
 70
     1
102
RTVSPropertyOp47
 70
     1
102
RTVSPropertyOp48
 70
     1
102
RTVSPropertyOp49
 70
     1
102
RTVSPropertyOp50
 70
     1
102
RTVSPropertyOp51
 70
     0
102
RTVSPropertyOp52
 70
     0
102
RTVSPropertyOp53
 70
     1
102
RTVSPropertyOp54
 70
     1
102
RTVSPropertyOp55
 70
     1
102
RTVSPropertyOp56
 70
     1
102
RTVSPropertyOp57
 70
     1
102
RTVSPropertyOp58
 70
     1
102
RTVSPropertyOp59
 70
     1
102
RTVSPropertyOp60
 70
     1
102
RTVSPropertyOp61
 70
     1
102
RTVSPropertyOp62
 70
     1
  0
XRECORD
  5
630
102
{ACAD_REACTORS
330
62F
102
}
330
62F
100
AcDbXrecord
280
     1
102
RTVSPost2010Prop28
280
     0
102
RTVSPost2010PropOp28
 70
     1
102
RTVSPost2010Prop29
280
     1
102
RTVSPost2010PropOp29
 70
     1
102
RTVSPost2010Prop30
280
     1
102
RTVSPost2010PropOp30
 70
     1
102
RTVSPost2010Prop31
280
     0
102
RTVSPost2010PropOp31
 70
     1
102
RTVSPost2010Prop32
280
     0
102
RTVSPost2010PropOp32
 70
     1
102
RTVSPost2010Prop33
280
     0
102
RTVSPost2010PropOp33
 70
     1
102
RTVSPost2010Prop34
280
     0
102
RTVSPost2010PropOp34
 70
     1
102
RTVSPost2010Prop35
280
     0
102
RTVSPost2010PropOp35
 70
     1
102
RTVSPost2010Prop36
280
     0
102
RTVSPost2010PropOp36
 70
     1
102
RTVSPost2010Prop37
 90
       50
102
RTVSPost2010PropOp37
 70
     1
102
RTVSPost2010Prop38
140
0.0
102
RTVSPost2010PropOp38
 70
     1
102
RTVSPost2010Prop39
140
1.0
102
RTVSPost2010PropOp39
 70
     1
102
RTVSPost2010Prop40
 90
        0
102
RTVSPost2010PropOp40
 70
     1
102
RTVSPost2010Prop41ColorIndex
 90
       18
102
RTVSPost2010Prop41ColorRGB
 90
        0
102
RTVSPost2010PropOp41
 70
     1
102
RTVSPost2010Prop42
 90
       50
102
RTVSPost2010PropOp42
 70
     1
102
RTVSPost2010Prop43
 90
        3
102
RTVSPost2010PropOp43
 70
     1
102
RTVSPost2010Prop44ColorIndex
 90
        5
102
RTVSPost2010Prop44ColorRGB
 90
      255
102
RTVSPost2010PropOp44
 70
     1
102
RTVSPost2010Prop45
280
     0
102
RTVSPost2010PropOp45
 70
     1
102
RTVSPost2010Prop46
 90
       50
102
RTVSPost2010PropOp46
 70
     1
102
RTVSPost2010Prop47
 90
       50
102
RTVSPost2010PropOp47
 70
     1
102
RTVSPost2010Prop48
 90
       50
102
RTVSPost2010PropOp48
 70
     1
102
RTVSPost2010Prop49
280
     0
102
RTVSPost2010PropOp49
 70
     1
102
RTVSPost2010Prop50
 90
       50
102
RTVSPost2010PropOp50
 70
     1
102
RTVSPost2010Prop51ColorIndex
 90
      256
102
RTVSPost2010Prop51ColorRGB
 90
-16777216
102
RTVSPost2010PropOp51
 70
     0
102
RTVSPost2010Prop52
140
1.0
102
RTVSPost2010PropOp52
 70
     0
102
RTVSPost2010Prop53
 90
        2
102
RTVSPost2010PropOp53
 70
     1
102
RTVSPost2010Prop54
  1
strokes_ogs.tif
102
RTVSPost2010PropOp54
 70
     1
102
RTVSPost2010Prop55
280
     0
102
RTVSPost2010PropOp55
 70
     1
102
RTVSPost2010Prop56
140
1.0
102
RTVSPost2010PropOp56
 70
     1
102
RTVSPost2010Prop57
140
1.0
102
RTVSPost2010PropOp57
 70
     1
102
RTVSPropertyOp0
 70
     1
102
RTVSPropertyOp1
 70
     1
102
RTVSPropertyOp2
 70
     1
102
RTVSPropertyOp3
 70
     1
102
RTVSPropertyOp4
 70
     1
102
RTVSPropertyOp5
 70
     1
102
RTVSPropertyOp6
 70
     1
102
RTVSPropertyOp7
 70
     1
102
RTVSPropertyOp8
 70
     1
102
RTVSPropertyOp9
 70
     1
102
RTVSPropertyOp10
 70
     1
102
RTVSPropertyOp11
 70
     1
102
RTVSPropertyOp12
 70
     1
102
RTVSPropertyOp13
 70
     1
102
RTVSPropertyOp14
 70
     1
102
RTVSPropertyOp15
 70
     1
102
RTVSPropertyOp16
 70
     1
102
RTVSPropertyOp17
 70
     1
102
RTVSPropertyOp18
 70
     1
102
RTVSPropertyOp19
 70
     1
102
RTVSPropertyOp20
 70
     1
102
RTVSPropertyOp21
 70
     1
102
RTVSPropertyOp22
 70
     1
102
RTVSPropertyOp23
 70
     1
102
RTVSPropertyOp24
 70
     1
102
RTVSPropertyOp25
 70
     1
102
RTVSPropertyOp26
 70
     1
102
RTVSPropertyOp27
 70
     1
102
RTVSPropertyOp28
 70
     1
102
RTVSPropertyOp29
 70
     1
102
RTVSPropertyOp30
 70
     1
102
RTVSPropertyOp31
 70
     1
102
RTVSPropertyOp32
 70
     1
102
RTVSPropertyOp33
 70
     1
102
RTVSPropertyOp34
 70
     1
102
RTVSPropertyOp35
 70
     1
102
RTVSPropertyOp36
 70
     1
102
RTVSPropertyOp37
 70
     1
102
RTVSPropertyOp38
 70
     1
102
RTVSPropertyOp39
 70
     1
102
RTVSPropertyOp40
 70
     1
102
RTVSPropertyOp41
 70
     1
102
RTVSPropertyOp42
 70
     1
102
RTVSPropertyOp43
 70
     1
102
RTVSPropertyOp44
 70
     1
102
RTVSPropertyOp45
 70
     1
102
RTVSPropertyOp46
 70
     1
102
RTVSPropertyOp47
 70
     1
102
RTVSPropertyOp48
 70
     1
102
RTVSPropertyOp49
 70
     1
102
RTVSPropertyOp50
 70
     1
102
RTVSPropertyOp51
 70
     0
102
RTVSPropertyOp52
 70
     0
102
RTVSPropertyOp53
 70
     1
102
RTVSPropertyOp54
 70
     1
102
RTVSPropertyOp55
 70
     1
102
RTVSPropertyOp56
 70
     1
102
RTVSPropertyOp57
 70
     1
102
RTVSPropertyOp58
 70
     1
102
RTVSPropertyOp59
 70
     1
102
RTVSPropertyOp60
 70
     1
102
RTVSPropertyOp61
 70
     1
102
RTVSPropertyOp62
 70
     1
  0
XRECORD
  5
626
102
{ACAD_REACTORS
330
625
102
}
330
625
100
AcDbXrecord
280
     1
102
RTVSPost2010Prop28
280
     0
102
RTVSPost2010PropOp28
 70
     1
102
RTVSPost2010Prop29
280
     1
102
RTVSPost2010PropOp29
 70
     1
102
RTVSPost2010Prop30
280
     1
102
RTVSPost2010PropOp30
 70
     1
102
RTVSPost2010Prop31
280
     0
102
RTVSPost2010PropOp31
 70
     1
102
RTVSPost2010Prop32
280
     0
102
RTVSPost2010PropOp32
 70
     1
102
RTVSPost2010Prop33
280
     0
102
RTVSPost2010PropOp33
 70
     1
102
RTVSPost2010Prop34
280
     0
102
RTVSPost2010PropOp34
 70
     1
102
RTVSPost2010Prop35
280
     0
102
RTVSPost2010PropOp35
 70
     1
102
RTVSPost2010Prop36
280
     0
102
RTVSPost2010PropOp36
 70
     1
102
RTVSPost2010Prop37
 90
       50
102
RTVSPost2010PropOp37
 70
     1
102
RTVSPost2010Prop38
140
0.0
102
RTVSPost2010PropOp38
 70
     1
102
RTVSPost2010Prop39
140
1.0
102
RTVSPost2010PropOp39
 70
     1
102
RTVSPost2010Prop40
 90
        0
102
RTVSPost2010PropOp40
 70
     1
102
RTVSPost2010Prop41ColorIndex
 90
       18
102
RTVSPost2010Prop41ColorRGB
 90
        0
102
RTVSPost2010PropOp41
 70
     1
102
RTVSPost2010Prop42
 90
       50
102
RTVSPost2010PropOp42
 70
     1
102
RTVSPost2010Prop43
 90
        3
102
RTVSPost2010PropOp43
 70
     1
102
RTVSPost2010Prop44ColorIndex
 90
        5
102
RTVSPost2010Prop44ColorRGB
 90
      255
102
RTVSPost2010PropOp44
 70
     1
102
RTVSPost2010Prop45
280
     0
102
RTVSPost2010PropOp45
 70
     1
102
RTVSPost2010Prop46
 90
       50
102
RTVSPost2010PropOp46
 70
     1
102
RTVSPost2010Prop47
 90
       50
102
RTVSPost2010PropOp47
 70
     1
102
RTVSPost2010Prop48
 90
       50
102
RTVSPost2010PropOp48
 70
     1
102
RTVSPost2010Prop49
280
     0
102
RTVSPost2010PropOp49
 70
     1
102
RTVSPost2010Prop50
 90
       50
102
RTVSPost2010PropOp50
 70
     1
102
RTVSPost2010Prop51ColorIndex
 90
      256
102
RTVSPost2010Prop51ColorRGB
 90
-16777216
102
RTVSPost2010PropOp51
 70
     0
102
RTVSPost2010Prop52
140
1.0
102
RTVSPost2010PropOp52
 70
     0
102
RTVSPost2010Prop53
 90
        2
102
RTVSPost2010PropOp53
 70
     1
102
RTVSPost2010Prop54
  1
strokes_ogs.tif
102
RTVSPost2010PropOp54
 70
     1
102
RTVSPost2010Prop55
280
     0
102
RTVSPost2010PropOp55
 70
     1
102
RTVSPost2010Prop56
140
1.0
102
RTVSPost2010PropOp56
 70
     1
102
RTVSPost2010Prop57
140
1.0
102
RTVSPost2010PropOp57
 70
     1
102
RTVSPropertyOp0
 70
     1
102
RTVSPropertyOp1
 70
     1
102
RTVSPropertyOp2
 70
     1
102
RTVSPropertyOp3
 70
     1
102
RTVSPropertyOp4
 70
     1
102
RTVSPropertyOp5
 70
     1
102
RTVSPropertyOp6
 70
     1
102
RTVSPropertyOp7
 70
     1
102
RTVSPropertyOp8
 70
     1
102
RTVSPropertyOp9
 70
     1
102
RTVSPropertyOp10
 70
     1
102
RTVSPropertyOp11
 70
     1
102
RTVSPropertyOp12
 70
     1
102
RTVSPropertyOp13
 70
     1
102
RTVSPropertyOp14
 70
     1
102
RTVSPropertyOp15
 70
     1
102
RTVSPropertyOp16
 70
     1
102
RTVSPropertyOp17
 70
     1
102
RTVSPropertyOp18
 70
     1
102
RTVSPropertyOp19
 70
     1
102
RTVSPropertyOp20
 70
     1
102
RTVSPropertyOp21
 70
     1
102
RTVSPropertyOp22
 70
     1
102
RTVSPropertyOp23
 70
     1
102
RTVSPropertyOp24
 70
     1
102
RTVSPropertyOp25
 70
     1
102
RTVSPropertyOp26
 70
     1
102
RTVSPropertyOp27
 70
     1
102
RTVSPropertyOp28
 70
     1
102
RTVSPropertyOp29
 70
     1
102
RTVSPropertyOp30
 70
     1
102
RTVSPropertyOp31
 70
     1
102
RTVSPropertyOp32
 70
     1
102
RTVSPropertyOp33
 70
     1
102
RTVSPropertyOp34
 70
     1
102
RTVSPropertyOp35
 70
     1
102
RTVSPropertyOp36
 70
     1
102
RTVSPropertyOp37
 70
     1
102
RTVSPropertyOp38
 70
     1
102
RTVSPropertyOp39
 70
     1
102
RTVSPropertyOp40
 70
     1
102
RTVSPropertyOp41
 70
     1
102
RTVSPropertyOp42
 70
     1
102
RTVSPropertyOp43
 70
     1
102
RTVSPropertyOp44
 70
     1
102
RTVSPropertyOp45
 70
     1
102
RTVSPropertyOp46
 70
     1
102
RTVSPropertyOp47
 70
     1
102
RTVSPropertyOp48
 70
     1
102
RTVSPropertyOp49
 70
     1
102
RTVSPropertyOp50
 70
     1
102
RTVSPropertyOp51
 70
     0
102
RTVSPropertyOp52
 70
     0
102
RTVSPropertyOp53
 70
     1
102
RTVSPropertyOp54
 70
     1
102
RTVSPropertyOp55
 70
     1
102
RTVSPropertyOp56
 70
     1
102
RTVSPropertyOp57
 70
     1
102
RTVSPropertyOp58
 70
     1
102
RTVSPropertyOp59
 70
     1
102
RTVSPropertyOp60
 70
     1
102
RTVSPropertyOp61
 70
     1
102
RTVSPropertyOp62
 70
     1
  0
XRECORD
  5
61A
102
{ACAD_REACTORS
330
619
102
}
330
619
100
AcDbXrecord
280
     1
102
RTVSPost2010Prop28
280
     0
102
RTVSPost2010PropOp28
 70
     1
102
RTVSPost2010Prop29
280
     1
102
RTVSPost2010PropOp29
 70
     1
102
RTVSPost2010Prop30
280
     1
102
RTVSPost2010PropOp30
 70
     1
102
RTVSPost2010Prop31
280
     0
102
RTVSPost2010PropOp31
 70
     1
102
RTVSPost2010Prop32
280
     0
102
RTVSPost2010PropOp32
 70
     1
102
RTVSPost2010Prop33
280
     0
102
RTVSPost2010PropOp33
 70
     1
102
RTVSPost2010Prop34
280
     0
102
RTVSPost2010PropOp34
 70
     1
102
RTVSPost2010Prop35
280
     0
102
RTVSPost2010PropOp35
 70
     1
102
RTVSPost2010Prop36
280
     0
102
RTVSPost2010PropOp36
 70
     1
102
RTVSPost2010Prop37
 90
       50
102
RTVSPost2010PropOp37
 70
     1
102
RTVSPost2010Prop38
140
0.0
102
RTVSPost2010PropOp38
 70
     1
102
RTVSPost2010Prop39
140
1.0
102
RTVSPost2010PropOp39
 70
     1
102
RTVSPost2010Prop40
 90
        0
102
RTVSPost2010PropOp40
 70
     1
102
RTVSPost2010Prop41ColorIndex
 90
       18
102
RTVSPost2010Prop41ColorRGB
 90
        0
102
RTVSPost2010PropOp41
 70
     1
102
RTVSPost2010Prop42
 90
       50
102
RTVSPost2010PropOp42
 70
     1
102
RTVSPost2010Prop43
 90
        3
102
RTVSPost2010PropOp43
 70
     1
102
RTVSPost2010Prop44ColorIndex
 90
        5
102
RTVSPost2010Prop44ColorRGB
 90
      255
102
RTVSPost2010PropOp44
 70
     1
102
RTVSPost2010Prop45
280
     0
102
RTVSPost2010PropOp45
 70
     1
102
RTVSPost2010Prop46
 90
       50
102
RTVSPost2010PropOp46
 70
     1
102
RTVSPost2010Prop47
 90
       50
102
RTVSPost2010PropOp47
 70
     1
102
RTVSPost2010Prop48
 90
       50
102
RTVSPost2010PropOp48
 70
     1
102
RTVSPost2010Prop49
280
     0
102
RTVSPost2010PropOp49
 70
     1
102
RTVSPost2010Prop50
 90
       50
102
RTVSPost2010PropOp50
 70
     1
102
RTVSPost2010Prop51ColorIndex
 90
      256
102
RTVSPost2010Prop51ColorRGB
 90
-16777216
102
RTVSPost2010PropOp51
 70
     0
102
RTVSPost2010Prop52
140
1.0
102
RTVSPost2010PropOp52
 70
     0
102
RTVSPost2010Prop53
 90
        2
102
RTVSPost2010PropOp53
 70
     1
102
RTVSPost2010Prop54
  1
strokes_ogs.tif
102
RTVSPost2010PropOp54
 70
     1
102
RTVSPost2010Prop55
280
     0
102
RTVSPost2010PropOp55
 70
     1
102
RTVSPost2010Prop56
140
1.0
102
RTVSPost2010PropOp56
 70
     1
102
RTVSPost2010Prop57
140
1.0
102
RTVSPost2010PropOp57
 70
     1
102
RTVSPropertyOp0
 70
     1
102
RTVSPropertyOp1
 70
     1
102
RTVSPropertyOp2
 70
     1
102
RTVSPropertyOp3
 70
     1
102
RTVSPropertyOp4
 70
     1
102
RTVSPropertyOp5
 70
     1
102
RTVSPropertyOp6
 70
     1
102
RTVSPropertyOp7
 70
     1
102
RTVSPropertyOp8
 70
     1
102
RTVSPropertyOp9
 70
     1
102
RTVSPropertyOp10
 70
     1
102
RTVSPropertyOp11
 70
     1
102
RTVSPropertyOp12
 70
     1
102
RTVSPropertyOp13
 70
     1
102
RTVSPropertyOp14
 70
     1
102
RTVSPropertyOp15
 70
     1
102
RTVSPropertyOp16
 70
     1
102
RTVSPropertyOp17
 70
     1
102
RTVSPropertyOp18
 70
     1
102
RTVSPropertyOp19
 70
     1
102
RTVSPropertyOp20
 70
     1
102
RTVSPropertyOp21
 70
     1
102
RTVSPropertyOp22
 70
     1
102
RTVSPropertyOp23
 70
     1
102
RTVSPropertyOp24
 70
     1
102
RTVSPropertyOp25
 70
     1
102
RTVSPropertyOp26
 70
     1
102
RTVSPropertyOp27
 70
     1
102
RTVSPropertyOp28
 70
     1
102
RTVSPropertyOp29
 70
     1
102
RTVSPropertyOp30
 70
     1
102
RTVSPropertyOp31
 70
     1
102
RTVSPropertyOp32
 70
     1
102
RTVSPropertyOp33
 70
     1
102
RTVSPropertyOp34
 70
     1
102
RTVSPropertyOp35
 70
     1
102
RTVSPropertyOp36
 70
     1
102
RTVSPropertyOp37
 70
     1
102
RTVSPropertyOp38
 70
     1
102
RTVSPropertyOp39
 70
     1
102
RTVSPropertyOp40
 70
     1
102
RTVSPropertyOp41
 70
     1
102
RTVSPropertyOp42
 70
     1
102
RTVSPropertyOp43
 70
     1
102
RTVSPropertyOp44
 70
     1
102
RTVSPropertyOp45
 70
     1
102
RTVSPropertyOp46
 70
     1
102
RTVSPropertyOp47
 70
     1
102
RTVSPropertyOp48
 70
     1
102
RTVSPropertyOp49
 70
     1
102
RTVSPropertyOp50
 70
     1
102
RTVSPropertyOp51
 70
     0
102
RTVSPropertyOp52
 70
     0
102
RTVSPropertyOp53
 70
     1
102
RTVSPropertyOp54
 70
     1
102
RTVSPropertyOp55
 70
     1
102
RTVSPropertyOp56
 70
     1
102
RTVSPropertyOp57
 70
     1
102
RTVSPropertyOp58
 70
     1
102
RTVSPropertyOp59
 70
     1
102
RTVSPropertyOp60
 70
     1
102
RTVSPropertyOp61
 70
     1
102
RTVSPropertyOp62
 70
     1
  0
XRECORD
  5
632
102
{ACAD_REACTORS
330
631
102
}
330
631
100
AcDbXrecord
280
     1
102
RTVSPost2010Prop28
280
     0
102
RTVSPost2010PropOp28
 70
     1
102
RTVSPost2010Prop29
280
     1
102
RTVSPost2010PropOp29
 70
     1
102
RTVSPost2010Prop30
280
     1
102
RTVSPost2010PropOp30
 70
     1
102
RTVSPost2010Prop31
280
     0
102
RTVSPost2010PropOp31
 70
     1
102
RTVSPost2010Prop32
280
     0
102
RTVSPost2010PropOp32
 70
     1
102
RTVSPost2010Prop33
280
     0
102
RTVSPost2010PropOp33
 70
     1
102
RTVSPost2010Prop34
280
     0
102
RTVSPost2010PropOp34
 70
     1
102
RTVSPost2010Prop35
280
     0
102
RTVSPost2010PropOp35
 70
     1
102
RTVSPost2010Prop36
280
     0
102
RTVSPost2010PropOp36
 70
     1
102
RTVSPost2010Prop37
 90
       50
102
RTVSPost2010PropOp37
 70
     1
102
RTVSPost2010Prop38
140
0.0
102
RTVSPost2010PropOp38
 70
     1
102
RTVSPost2010Prop39
140
1.0
102
RTVSPost2010PropOp39
 70
     1
102
RTVSPost2010Prop40
 90
        0
102
RTVSPost2010PropOp40
 70
     1
102
RTVSPost2010Prop41ColorIndex
 90
       18
102
RTVSPost2010Prop41ColorRGB
 90
        0
102
RTVSPost2010PropOp41
 70
     1
102
RTVSPost2010Prop42
 90
       50
102
RTVSPost2010PropOp42
 70
     1
102
RTVSPost2010Prop43
 90
        3
102
RTVSPost2010PropOp43
 70
     1
102
RTVSPost2010Prop44ColorIndex
 90
        5
102
RTVSPost2010Prop44ColorRGB
 90
      255
102
RTVSPost2010PropOp44
 70
     1
102
RTVSPost2010Prop45
280
     0
102
RTVSPost2010PropOp45
 70
     1
102
RTVSPost2010Prop46
 90
       50
102
RTVSPost2010PropOp46
 70
     1
102
RTVSPost2010Prop47
 90
       50
102
RTVSPost2010PropOp47
 70
     1
102
RTVSPost2010Prop48
 90
       50
102
RTVSPost2010PropOp48
 70
     1
102
RTVSPost2010Prop49
280
     0
102
RTVSPost2010PropOp49
 70
     1
102
RTVSPost2010Prop50
 90
       50
102
RTVSPost2010PropOp50
 70
     1
102
RTVSPost2010Prop51ColorIndex
 90
      256
102
RTVSPost2010Prop51ColorRGB
 90
-16777216
102
RTVSPost2010PropOp51
 70
     0
102
RTVSPost2010Prop52
140
1.0
102
RTVSPost2010PropOp52
 70
     0
102
RTVSPost2010Prop53
 90
        2
102
RTVSPost2010PropOp53
 70
     1
102
RTVSPost2010Prop54
  1
strokes_ogs.tif
102
RTVSPost2010PropOp54
 70
     1
102
RTVSPost2010Prop55
280
     0
102
RTVSPost2010PropOp55
 70
     1
102
RTVSPost2010Prop56
140
1.0
102
RTVSPost2010PropOp56
 70
     1
102
RTVSPost2010Prop57
140
1.0
102
RTVSPost2010PropOp57
 70
     1
102
RTVSPropertyOp0
 70
     1
102
RTVSPropertyOp1
 70
     1
102
RTVSPropertyOp2
 70
     1
102
RTVSPropertyOp3
 70
     1
102
RTVSPropertyOp4
 70
     1
102
RTVSPropertyOp5
 70
     1
102
RTVSPropertyOp6
 70
     1
102
RTVSPropertyOp7
 70
     1
102
RTVSPropertyOp8
 70
     1
102
RTVSPropertyOp9
 70
     1
102
RTVSPropertyOp10
 70
     1
102
RTVSPropertyOp11
 70
     1
102
RTVSPropertyOp12
 70
     1
102
RTVSPropertyOp13
 70
     1
102
RTVSPropertyOp14
 70
     1
102
RTVSPropertyOp15
 70
     1
102
RTVSPropertyOp16
 70
     1
102
RTVSPropertyOp17
 70
     1
102
RTVSPropertyOp18
 70
     1
102
RTVSPropertyOp19
 70
     1
102
RTVSPropertyOp20
 70
     1
102
RTVSPropertyOp21
 70
     1
102
RTVSPropertyOp22
 70
     1
102
RTVSPropertyOp23
 70
     1
102
RTVSPropertyOp24
 70
     1
102
RTVSPropertyOp25
 70
     1
102
RTVSPropertyOp26
 70
     1
102
RTVSPropertyOp27
 70
     1
102
RTVSPropertyOp28
 70
     1
102
RTVSPropertyOp29
 70
     1
102
RTVSPropertyOp30
 70
     1
102
RTVSPropertyOp31
 70
     1
102
RTVSPropertyOp32
 70
     1
102
RTVSPropertyOp33
 70
     1
102
RTVSPropertyOp34
 70
     1
102
RTVSPropertyOp35
 70
     1
102
RTVSPropertyOp36
 70
     1
102
RTVSPropertyOp37
 70
     1
102
RTVSPropertyOp38
 70
     1
102
RTVSPropertyOp39
 70
     1
102
RTVSPropertyOp40
 70
     1
102
RTVSPropertyOp41
 70
     1
102
RTVSPropertyOp42
 70
     1
102
RTVSPropertyOp43
 70
     1
102
RTVSPropertyOp44
 70
     1
102
RTVSPropertyOp45
 70
     1
102
RTVSPropertyOp46
 70
     1
102
RTVSPropertyOp47
 70
     1
102
RTVSPropertyOp48
 70
     1
102
RTVSPropertyOp49
 70
     1
102
RTVSPropertyOp50
 70
     1
102
RTVSPropertyOp51
 70
     0
102
RTVSPropertyOp52
 70
     0
102
RTVSPropertyOp53
 70
     1
102
RTVSPropertyOp54
 70
     1
102
RTVSPropertyOp55
 70
     1
102
RTVSPropertyOp56
 70
     1
102
RTVSPropertyOp57
 70
     1
102
RTVSPropertyOp58
 70
     1
102
RTVSPropertyOp59
 70
     1
102
RTVSPropertyOp60
 70
     1
102
RTVSPropertyOp61
 70
     1
102
RTVSPropertyOp62
 70
     1
  0
ENDSEC
  0
EOF
