  0
SECTION
  2
HEADER
  9
$ACADVER
  1
AC1015
  9
$ACADMAINTVER
 70
    20
  9
$DWGCODEPAGE
  3
ANSI_932
  9
$INSBASE
 10
0.0
 20
0.0
 30
0.0
  9
$EXTMIN
 10
-307.0284575647456
 20
-0.0000000000000021
 30
0.0
  9
$EXTMAX
 10
101.0
 20
1243.858898291137
 30
0.0
  9
$LIMMIN
 10
0.0
 20
0.0
  9
$LIMMAX
 10
12.0
 20
9.0
  9
$ORTHOMODE
 70
     0
  9
$REGENMODE
 70
     1
  9
$FILLMODE
 70
     1
  9
$QTEXTMODE
 70
     0
  9
$MIRRTEXT
 70
     1
  9
$LTSCALE
 40
1.0
  9
$ATTMODE
 70
     1
  9
$TEXTSIZE
 40
0.2
  9
$TRACEWID
 40
0.05
  9
$TEXTSTYLE
  7
Standard
  9
$CLAYER
  8
0
  9
$CELTYPE
  6
ByBlock
  9
$CECOLOR
 62
   256
  9
$CELTSCALE
 40
1.0
  9
$DISPSILH
 70
     0
  9
$DIMSCALE
 40
1.0
  9
$DIMASZ
 40
0.18
  9
$DIMEXO
 40
0.0625
  9
$DIMDLI
 40
0.38
  9
$DIMRND
 40
0.0
  9
$DIMDLE
 40
0.0
  9
$DIMEXE
 40
0.18
  9
$DIMTP
 40
0.0
  9
$DIMTM
 40
0.0
  9
$DIMTXT
 40
0.18
  9
$DIMCEN
 40
0.09
  9
$DIMTSZ
 40
0.0
  9
$DIMTOL
 70
     0
  9
$DIMLIM
 70
     0
  9
$DIMTIH
 70
     1
  9
$DIMTOH
 70
     1
  9
$DIMSE1
 70
     0
  9
$DIMSE2
 70
     0
  9
$DIMTAD
 70
     0
  9
$DIMZIN
 70
     0
  9
$DIMBLK
  1

  9
$DIMASO
 70
     1
  9
$DIMSHO
 70
     1
  9
$DIMPOST
  1

  9
$DIMAPOST
  1

  9
$DIMALT
 70
     0
  9
$DIMALTD
 70
     2
  9
$DIMALTF
 40
25.4
  9
$DIMLFAC
 40
1.0
  9
$DIMTOFL
 70
     0
  9
$DIMTVP
 40
0.0
  9
$DIMTIX
 70
     0
  9
$DIMSOXD
 70
     0
  9
$DIMSAH
 70
     0
  9
$DIMBLK1
  1

  9
$DIMBLK2
  1

  9
$DIMSTYLE
  2
Standard
  9
$DIMCLRD
 70
     0
  9
$DIMCLRE
 70
     0
  9
$DIMCLRT
 70
     0
  9
$DIMTFAC
 40
1.0
  9
$DIMGAP
 40
0.09
  9
$DIMJUST
 70
     0
  9
$DIMSD1
 70
     0
  9
$DIMSD2
 70
     0
  9
$DIMTOLJ
 70
     1
  9
$DIMTZIN
 70
     0
  9
$DIMALTZ
 70
     0
  9
$DIMALTTZ
 70
     0
  9
$DIMUPT
 70
     0
  9
$DIMDEC
 70
     4
  9
$DIMTDEC
 70
     4
  9
$DIMALTU
 70
     2
  9
$DIMALTTD
 70
     2
  9
$DIMTXSTY
  7
Standard
  9
$DIMAUNIT
 70
     0
  9
$DIMADEC
 70
     0
  9
$DIMALTRND
 40
0.0
  9
$DIMAZIN
 70
     0
  9
$DIMDSEP
 70
    46
  9
$DIMATFIT
 70
     3
  9
$DIMFRAC
 70
     0
  9
$DIMLDRBLK
  1

  9
$DIMLUNIT
 70
     2
  9
$DIMLWD
 70
    -2
  9
$DIMLWE
 70
    -2
  9
$DIMTMOVE
 70
     2
  9
$LUNITS
 70
     2
  9
$LUPREC
 70
     4
  9
$SKETCHINC
 40
0.1
  9
$FILLETRAD
 40
0.5
  9
$AUNITS
 70
     0
  9
$AUPREC
 70
     0
  9
$MENU
  1
.
  9
$ELEVATION
 40
0.0
  9
$PELEVATION
 40
0.0
  9
$THICKNESS
 40
0.0
  9
$LIMCHECK
 70
     0
  9
$CHAMFERA
 40
0.5
  9
$CHAMFERB
 40
0.5
  9
$CHAMFERC
 40
1.0
  9
$CHAMFERD
 40
0.0
  9
$SKPOLY
 70
     0
  9
$TDCREATE
 40
2456646.271342593
  9
$TDUCREATE
 40
2456645.896344572
  9
$TDUPDATE
 40
2458093.751944445
  9
$TDUUPDATE
 40
2458093.376944445
  9
$TDINDWG
 40
0.0078007523
  9
$TDUSRTIMER
 40
0.0078007523
  9
$USRTIMER
 70
     1
  9
$ANGBASE
 50
0.0
  9
$ANGDIR
 70
     0
  9
$PDMODE
 70
     0
  9
$PDSIZE
 40
0.0
  9
$PLINEWID
 40
0.0
  9
$SPLFRAME
 70
     0
  9
$SPLINETYPE
 70
     6
  9
$SPLINESEGS
 70
     8
  9
$HANDSEED
  5
621
  9
$SURFTAB1
 70
     6
  9
$SURFTAB2
 70
     6
  9
$SURFTYPE
 70
     6
  9
$SURFU
 70
     6
  9
$SURFV
 70
     6
  9
$UCSBASE
  2

  9
$UCSNAME
  2

  9
$UCSORG
 10
0.0
 20
0.0
 30
0.0
  9
$UCSXDIR
 10
1.0
 20
0.0
 30
0.0
  9
$UCSYDIR
 10
0.0
 20
1.0
 30
0.0
  9
$UCSORTHOREF
  2

  9
$UCSORTHOVIEW
 70
     0
  9
$UCSORGTOP
 10
0.0
 20
0.0
 30
0.0
  9
$UCSORGBOTTOM
 10
0.0
 20
0.0
 30
0.0
  9
$UCSORGLEFT
 10
0.0
 20
0.0
 30
0.0
  9
$UCSORGRIGHT
 10
0.0
 20
0.0
 30
0.0
  9
$UCSORGFRONT
 10
0.0
 20
0.0
 30
0.0
  9
$UCSORGBACK
 10
0.0
 20
0.0
 30
0.0
  9
$PUCSBASE
  2

  9
$PUCSNAME
  2

  9
$PUCSORG
 10
0.0
 20
0.0
 30
0.0
  9
$PUCSXDIR
 10
1.0
 20
0.0
 30
0.0
  9
$PUCSYDIR
 10
0.0
 20
1.0
 30
0.0
  9
$PUCSORTHOREF
  2

  9
$PUCSORTHOVIEW
 70
     0
  9
$PUCSORGTOP
 10
0.0
 20
0.0
 30
0.0
  9
$PUCSORGBOTTOM
 10
0.0
 20
0.0
 30
0.0
  9
$PUCSORGLEFT
 10
0.0
 20
0.0
 30
0.0
  9
$PUCSORGRIGHT
 10
0.0
 20
0.0
 30
0.0
  9
$PUCSORGFRONT
 10
0.0
 20
0.0
 30
0.0
  9
$PUCSORGBACK
 10
0.0
 20
0.0
 30
0.0
  9
$USERI1
 70
     0
  9
$USERI2
 70
     0
  9
$USERI3
 70
     0
  9
$USERI4
 70
     0
  9
$USERI5
 70
     0
  9
$USERR1
 40
0.0
  9
$USERR2
 40
0.0
  9
$USERR3
 40
0.0
  9
$USERR4
 40
0.0
  9
$USERR5
 40
0.0
  9
$WORLDVIEW
 70
     1
  9
$SHADEDGE
 70
     3
  9
$SHADEDIF
 70
    70
  9
$TILEMODE
 70
     1
  9
$MAXACTVP
 70
    64
  9
$PINSBASE
 10
0.0
 20
0.0
 30
0.0
  9
$PLIMCHECK
 70
     0
  9
$PEXTMIN
 10
1.000000000000000E+20
 20
1.000000000000000E+20
 30
1.000000000000000E+20
  9
$PEXTMAX
 10
-1.000000000000000E+20
 20
-1.000000000000000E+20
 30
-1.000000000000000E+20
  9
$PLIMMIN
 10
0.0
 20
0.0
  9
$PLIMMAX
 10
12.0
 20
9.0
  9
$UNITMODE
 70
     0
  9
$VISRETAIN
 70
     1
  9
$PLINEGEN
 70
     0
  9
$PSLTSCALE
 70
     1
  9
$TREEDEPTH
 70
  3020
  9
$CMLSTYLE
  2
Standard
  9
$CMLJUST
 70
     0
  9
$CMLSCALE
 40
1.0
  9
$PROXYGRAPHICS
 70
     1
  9
$MEASUREMENT
 70
     0
  9
$CELWEIGHT
370
    -1
  9
$ENDCAPS
280
     0
  9
$JOINSTYLE
280
     0
  9
$LWDISPLAY
290
     0
  9
$INSUNITS
 70
     0
  9
$HYPERLINKBASE
  1

  9
$STYLESHEET
  1

  9
$XEDIT
290
     1
  9
$CEPSNTYPE
380
     0
  9
$PSTYLEMODE
290
     1
  9
$FINGERPRINTGUID
  2
{E49C84B9-B829-4E3D-A37B-0E58A3AFE840}
  9
$VERSIONGUID
  2
{E03C43DF-9A1D-5A4F-BB3D-2E2A5EAE9D3F}
  9
$EXTNAMES
290
     1
  9
$PSVPSCALE
 40
0.0
  9
$OLESTARTUP
290
     0
  0
ENDSEC
  0
SECTION
  2
CLASSES
  0
CLASS
  1
ACDBDICTIONARYWDFLT
  2
AcDbDictionaryWithDefault
  3
ObjectDBX Classes
 90
        0
280
     0
281
     0
  0
CLASS
  1
SCALE
  2
AcDbScale
  3
ObjectDBX Classes
 90
     1153
280
     0
281
     0
  0
CLASS
  1
DICTIONARYVAR
  2
AcDbDictionaryVar
  3
ObjectDBX Classes
 90
        0
280
     0
281
     0
  0
CLASS
  1
ACDBPLACEHOLDER
  2
AcDbPlaceHolder
  3
ObjectDBX Classes
 90
        0
280
     0
281
     0
  0
CLASS
  1
LAYOUT
  2
AcDbLayout
  3
ObjectDBX Classes
 90
        0
280
     0
281
     0
  0
CLASS
  1
MATERIAL
  2
AcDbMaterial
  3
ObjectDBX Classes
 90
     1153
280
     0
281
     0
  0
CLASS
  1
VISUALSTYLE
  2
AcDbVisualStyle
  3
ObjectDBX Classes
 90
     4095
280
     0
281
     0
  0
CLASS
  1
TABLESTYLE
  2
AcDbTableStyle
  3
ObjectDBX Classes
 90
     4095
280
     0
281
     0
  0
CLASS
  1
MLEADERSTYLE
  2
AcDbMLeaderStyle
  3
ACDB_MLEADERSTYLE_CLASS
 90
     4095
280
     0
281
     0
  0
CLASS
  1
ACDBSECTIONVIEWSTYLE
  2
AcDbSectionViewStyle
  3
ObjectDBX Classes
 90
     1025
280
     0
281
     0
  0
CLASS
  1
ACDBDETAILVIEWSTYLE
  2
AcDbDetailViewStyle
  3
ObjectDBX Classes
 90
     1025
280
     0
281
     0
  0
CLASS
  1
ACME_DOCUMENT
  2
AcMeDbDoc
  3
AcMeServices
 90
     1024
280
     0
281
     0
  0
CLASS
  1
ACMESCOPE
  2
AcMeScope
  3
AcMeServices
 90
     1024
280
     0
281
     0
  0
CLASS
  1
ACMECOMMANDHISTORY
  2
AcMeCommandHistory
  3
AcMeServices
 90
     1024
280
     0
281
     0
  0
CLASS
  1
ACIMSYSVARMAN
  2
AcImSysVarManager
  3
AcMeServices
 90
     1024
280
     0
281
     0
  0
CLASS
  1
ACIMINTSYSVAR
  2
AcImIntSysVar
  3
AcMeServices
 90
     1024
280
     0
281
     0
  0
CLASS
  1
ACMESTATEMGR
  2
AcMeStateMgr
  3
AcMeServices
 90
     1024
280
     0
281
     0
  0
CLASS
  1
ACDBENTITYCACHE
  2
AcMeEntityCache
  3
AcMeServices
 90
     1024
280
     0
281
     0
  0
CLASS
  1
ACGREFMASTER
  2
AcGrefMaster
  3
AcAttribServices
 90
     1024
280
     0
281
     0
  0
CLASS
  1
ACME_DATABASE
  2
AcMeDbDatabase
  3
AcMeServices
 90
     1024
280
     0
281
     0
  0
CLASS
  1
ACRFINSADJUSTERMGR
  2
AcRfInsAdjusterMgr
  3
AcMeServices
 90
     1024
280
     0
281
     0
  0
CLASS
  1
ACGREFACADMASTER
  2
AcGrefacadMaster
  3
AcGrefServices
 90
     1024
280
     0
281
     0
  0
CLASS
  1
AMIMASTER
  2
AmiMaster
  3
AmiServices
 90
     1024
280
     0
281
     0
  0
CLASS
  1
AMGSETTINGSOBJ
  2
AmgSettingsObj
  3
"AcadM|Product Description: AutoCAD Mechanical|Company: Autodesk, Inc."
 90
     1024
280
     0
281
     0
  0
CLASS
  1
AMDTMENUSTATEMGR
  2
AmdtMenuStateMgr
  3
McadcomServices
 90
     1024
280
     0
281
     0
  0
CLASS
  1
AMDTMCOMMENUSTATE
  2
AmdtMcomMenuState
  3
McadcomServices
 90
     1024
280
     0
281
     0
  0
CLASS
  1
MAPIAMMOUDLE
  2
MApiAmModule
  3
MApiAmServices
 90
     1024
280
     0
281
     0
  0
CLASS
  1
ACIMSTRSYSVAR
  2
AcImStrSysVar
  3
AcMeServices
 90
     1024
280
     0
281
     0
  0
CLASS
  1
AMDTAMMENUSTATE
  2
AmdtAmMenuState
  3
DesignerAssemblies_arx
 90
     1024
280
     0
281
     0
  0
CLASS
  1
ACAMPROJECT
  2
AcAmProject
  3
DesignerAssemblies
 90
     1024
280
     0
281
     0
  0
CLASS
  1
ACAMGRCOMPDEF
  2
AcAmGrCompDef
  3
DesignerAssemblies
 90
     1024
280
     0
281
     0
  0
CLASS
  1
ACAMCOMPDEF
  2
AcAmCompDef
  3
DesignerAssemblies
 90
     1024
280
     0
281
     0
  0
CLASS
  1
ACAMCOMPDEFMGR
  2
AcAmCompDefMgr
  3
DesignerAssemblies
 90
     1024
280
     0
281
     0
  0
CLASS
  1
AMCONTEXTMGR
  2
AcAmContextMgr
  3
DesignerAssemblies
 90
     1024
280
     0
281
     0
  0
CLASS
  1
ACAMCONTEXTMODELER
  2
AcAmContextModeler
  3
DesignerAssemblies
 90
     1024
280
     0
281
     0
  0
CLASS
  1
ACMDATADICTIONARY
  2
AcmDataDictionary
  3
"AcmSymBB|Product Description: AutoCAD Mechanical|Company: Autodesk, Inc."
 90
     1024
280
     0
281
     0
  0
CLASS
  1
ACAMGRCOMPDEFSET
  2
AcAmGrCompDefSet
  3
DesignerAssemblies
 90
     1024
280
     0
281
     0
  0
CLASS
  1
AMDTBROWSERDBTAB
  2
AmdtBrowserDbTab
  3
McadcomServices
 90
     1024
280
     0
281
     0
  0
CLASS
  1
CBROWSERAPPOBJECT
  2
CBrowserAppObject
  3
McadcomServices
 90
     1024
280
     0
281
     0
  0
CLASS
  1
DM_PLACEHOLDER
  2
AcDmSelsetPlaceholder
  3
McadcomServices
 90
     1024
280
     0
281
     0
  0
CLASS
  1
ACMSTANDARDANSI
  2
AcmStandardANSI
  3
"Amdt_StdImp|Product Description: AutoCAD Mechanical|Company: Autodesk, Inc."
 90
     1024
280
     0
281
     0
  0
CLASS
  1
ACMSURFSTANDARDANSI
  2
AcmSurfTextStdANSI
  3
"Amdt_StdImp|Product Description: AutoCAD Mechanical|Company: Autodesk, Inc."
 90
     1024
280
     0
281
     0
  0
CLASS
  1
ACMFCFSTANDARDANSI
  2
AcmFCFStdANSI
  3
"Amdt_StdImp|Product Description: AutoCAD Mechanical|Company: Autodesk, Inc."
 90
     1024
280
     0
281
     0
  0
CLASS
  1
ACMWELDSTANDARDANSI
  2
AcmWeldingStdANSI
  3
"Amdt_StdImp|Product Description: AutoCAD Mechanical|Company: Autodesk, Inc."
 90
     1024
280
     0
281
     0
  0
CLASS
  1
ACMIDSTANDARDANSI
  2
AcmIdStdANSI
  3
"Amdt_StdImp|Product Description: AutoCAD Mechanical|Company: Autodesk, Inc."
 90
     1024
280
     0
281
     0
  0
CLASS
  1
ACMDATUMSTANDARDANSI
  2
AcmDatumStdANSI
  3
"Amdt_StdImp|Product Description: AutoCAD Mechanical|Company: Autodesk, Inc."
 90
     1024
280
     0
281
     0
  0
CLASS
  1
ACMBOMSTANDARDANSI
  2
AcmBOMStdANSI
  3
"Amdt_StdImp|Product Description: AutoCAD Mechanical|Company: Autodesk, Inc."
 90
     1024
280
     0
281
     0
  0
CLASS
  1
ACMDETAILSTANDARDANSI
  2
AmdtDetailSymStdANSI
  3
"Amdt_StdImp|Product Description: AutoCAD Mechanical|Company: Autodesk, Inc."
 90
     1024
280
     0
281
     0
  0
CLASS
  1
ACMSECTIONSTANDARDANSI
  2
AmdtSectionSymStdANSI
  3
"Amdt_StdImp|Product Description: AutoCAD Mechanical|Company: Autodesk, Inc."
 90
     1024
280
     0
281
     0
  0
CLASS
  1
ACMCENTERLINESTANDARDANSI
  2
AmdtCenterLineStdANSI
  3
"Amdt_StdImp|Product Description: AutoCAD Mechanical|Company: Autodesk, Inc."
 90
     1024
280
     0
281
     0
  0
CLASS
  1
ACMTHREADLINESTANDARDANSI
  2
AmdtThreadLineStdANSI
  3
"Amdt_StdImp|Product Description: AutoCAD Mechanical|Company: Autodesk, Inc."
 90
     1024
280
     0
281
     0
  0
CLASS
  1
ACMNOTESTANDARDANSI
  2
AmdtNoteStdANSI
  3
"Amdt_StdImp|Product Description: AutoCAD Mechanical|Company: Autodesk, Inc."
 90
     1024
280
     0
281
     0
  0
CLASS
  1
ACMTAPERSTANDARDANSI
  2
AcmTaperStdANSI
  3
"Amdt_StdImp|Product Description: AutoCAD Mechanical|Company: Autodesk, Inc."
 90
     1024
280
     0
281
     0
  0
CLASS
  1
ACMANOOTATIONVIEWSTANDARDANSI
  2
AmdtAnViewStdANSI
  3
"Amdt_StdImp|Product Description: AutoCAD Mechanical|Company: Autodesk, Inc."
 90
     1024
280
     0
281
     0
  0
CLASS
  1
ACAMGLAYSTD
  2
AcAmgLayStd
  3
"AmgLay|Product Description: AutoCAD Mechanical|Company: Autodesk, Inc."
 90
     1024
280
     0
281
     0
  0
CLASS
  1
ACAMGDIMSTD
  2
AcAmgDimStd
  3
"AmgDim|Product Description: AutoCAD Mechanical|Company: Autodesk, Inc."
 90
     1024
280
     0
281
     0
  0
CLASS
  1
AMGOBJPROPCFG
  2
AmgObjPropCfg
  3
"AmgLay|Product Description: AutoCAD Mechanical|Company: Autodesk, Inc."
 90
     1024
280
     0
281
     0
  0
CLASS
  1
ACAMGHOLECHARTSTDANSI
  2
AcAmgHoleChartStdANSI
  3
"AmgDim" "Product Description: AutoCAD Mechanical|Company: Autodesk, Inc."
 90
     1024
280
     0
281
     0
  0
CLASS
  1
ACAMGTITLESTD
  2
AcAmgTitleStd
  3
"AmgTitle|Product Description: AutoCAD Mechanical|Company: Autodesk, Inc."
 90
     1024
280
     0
281
     0
  0
CLASS
  1
ACMSECTIONSTANDARDCUSTOM
  2
AmdtSectionSymStdCustom
  3
"Amdt_StdImp|Product Description: AutoCAD Mechanical|Company: Autodesk, Inc."
 90
     1024
280
     0
281
     0
  0
CLASS
  1
ACMDETAILTANDARDCUSTOM
  2
AmdtDetailSymStdCustom
  3
"Amdt_StdImp|Product Description: AutoCAD Mechanical|Company: Autodesk, Inc."
 90
     1024
280
     0
281
     0
  0
CLASS
  1
FIELD
  2
AcDbField
  3
ObjectDBX Classes
 90
     1152
280
     0
281
     0
  0
CLASS
  1
FIELDLIST
  2
AcDbFieldList
  3
ObjectDBX Classes
 90
     1152
280
     0
281
     0
  0
CLASS
  1
AMDTNOTETEMPLATEDB
  2
AmdtNoteTemplateDB
  3
"AcmSymBB" "Product Description: AutoCAD Mechanical|Company: Autodesk, Inc."
 90
     1024
280
     0
281
     0
  0
CLASS
  1
ACAMGFILTERDAT
  2
AcAmgFilterDat
  3
"AcadM|Product Description: AutoCAD Mechanical|Company: Autodesk, Inc."
 90
     1024
280
     0
281
     0
  0
CLASS
  1
SORTENTSTABLE
  2
AcDbSortentsTable
  3
ObjectDBX Classes
 90
        0
280
     0
281
     0
  0
CLASS
  1
CELLSTYLEMAP
  2
AcDbCellStyleMap
  3
ObjectDBX Classes
 90
     1152
280
     0
281
     0
  0
ENDSEC
  0
SECTION
  2
TABLES
  0
TABLE
  2
VPORT
  5
8
330
0
100
AcDbSymbolTable
 70
     1
  0
VPORT
  5
156
330
8
100
AcDbSymbolTableRecord
100
AcDbViewportTableRecord
  2
*Active
 70
     0
 10
0.0
 20
0.0
 11
1.0
 21
1.0
 12
-257.9958531681332
 22
819.3180504068688
 13
0.0
 23
0.0
 14
0.5
 24
0.5
 15
0.5
 25
0.5
 16
0.0
 26
0.0
 36
1.0
 17
0.0
 27
0.0
 37
0.0
 40
2487.481312773946
 41
2.236596736596736
 42
50.0
 43
0.0
 44
0.0
 50
0.0
 51
0.0
 71
    16
 72
   100
 73
     1
 74
     3
 75
     0
 76
     0
 77
     0
 78
     0
281
     0
 65
     0
110
0.0
120
0.0
130
0.0
111
1.0
121
0.0
131
0.0
112
0.0
122
1.0
132
0.0
 79
     0
146
0.0
1001
ACAD_NAV_VCDISPLAY
1070
     3
  0
ENDTAB
  0
TABLE
  2
LTYPE
  5
5
330
0
100
AcDbSymbolTable
 70
    16
  0
LTYPE
  5
14
330
5
100
AcDbSymbolTableRecord
100
AcDbLinetypeTableRecord
  2
ByBlock
 70
     0
  3

 72
    65
 73
     0
 40
0.0
  0
LTYPE
  5
15
330
5
100
AcDbSymbolTableRecord
100
AcDbLinetypeTableRecord
  2
ByLayer
 70
     0
  3

 72
    65
 73
     0
 40
0.0
  0
LTYPE
  5
16
330
5
100
AcDbSymbolTableRecord
100
AcDbLinetypeTableRecord
  2
Continuous
 70
     0
  3
Solid line
 72
    65
 73
     0
 40
0.0
  0
LTYPE
  5
1CC
330
5
100
AcDbSymbolTableRecord
100
AcDbLinetypeTableRecord
  2
HIDDEN
 70
     0
  3
Hidden __ __ __ __ __ __ __ __ __ __ __ __ __ _
 72
    65
 73
     2
 40
0.375
 49
0.25
 74
     0
 49
-0.125
 74
     0
  0
LTYPE
  5
1CD
330
5
100
AcDbSymbolTableRecord
100
AcDbLinetypeTableRecord
  2
PHANTOM2
 70
     0
  3
Phantom (.5x) ___ _ _ ___ _ _ ___ _ _ ___ _ _
 72
    65
 73
     6
 40
1.25
 49
0.625
 74
     0
 49
-0.125
 74
     0
 49
0.125
 74
     0
 49
-0.125
 74
     0
 49
0.125
 74
     0
 49
-0.125
 74
     0
  0
LTYPE
  5
1CE
330
5
100
AcDbSymbolTableRecord
100
AcDbLinetypeTableRecord
  2
CENTER
 70
     0
  3
Center ____ _ ____ _ ____ _ ____ _ ____ _ ____
 72
    65
 73
     4
 40
2.0
 49
1.25
 74
     0
 49
-0.25
 74
     0
 49
0.25
 74
     0
 49
-0.25
 74
     0
  0
LTYPE
  5
20C
330
5
100
AcDbSymbolTableRecord
100
AcDbLinetypeTableRecord
  2
AM_ISO02W050
 70
     0
  3
__ __ __ __ __ __ __ __ __ __ __ __ __ __ __
 72
    65
 73
     2
 40
7.5
 49
6.0
 74
     0
 49
-1.5
 74
     0
  0
LTYPE
  5
20D
330
5
100
AcDbSymbolTableRecord
100
AcDbLinetypeTableRecord
  2
AM_ISO08W050
 70
     0
  3
____ . ____ . ____ . ____ . ____ . ____ . ____
 72
    65
 73
     4
 40
18.0
 49
12.0
 74
     0
 49
-1.5
 74
     0
 49
3.0
 74
     0
 49
-1.5
 74
     0
  0
LTYPE
  5
20E
330
5
100
AcDbSymbolTableRecord
100
AcDbLinetypeTableRecord
  2
AM_ISO09W050
 70
     0
  3
_____ . . _____ . . _____ . . ____ .. ____
 72
    65
 73
     6
 40
22.5
 49
12.0
 74
     0
 49
-1.5
 74
     0
 49
3.0
 74
     0
 49
-1.5
 74
     0
 49
3.0
 74
     0
 49
-1.5
 74
     0
  0
LTYPE
  5
20F
330
5
100
AcDbSymbolTableRecord
100
AcDbLinetypeTableRecord
  2
Amconstr
 70
     0
  3
_______________________
 72
    65
 73
     2
 40
9999.0
 49
9999.0
 74
     0
 49
0.0
 74
     0
  0
LTYPE
  5
210
330
5
100
AcDbSymbolTableRecord
100
AcDbLinetypeTableRecord
  2
AM_ISO08W050x2
 70
     0
  3
__ . __ . __ . __ . __ . __
 72
    65
 73
     4
 40
9.0
 49
6.0
 74
     0
 49
-0.75
 74
     0
 49
1.5
 74
     0
 49
-0.75
 74
     0
  0
LTYPE
  5
211
330
5
100
AcDbSymbolTableRecord
100
AcDbLinetypeTableRecord
  2
AM_ISO02W050x2
 70
     0
  3
 _ _ _ _ _ _ _ _ _ _ _ _
 72
    65
 73
     2
 40
3.75
 49
3.0
 74
     0
 49
-0.75
 74
     0
  0
LTYPE
  5
214
330
5
100
AcDbSymbolTableRecord
100
AcDbLinetypeTableRecord
  2
Amzigzag
 70
     0
  3
/\/-/\/-/\/-/\/-/\/-/\/
 72
    65
 73
     2
 40
11.0001
 49
0.0001
 74
     4
 75
   136
340
213
 46
0.04
 50
0.0
 44
0.0
 45
0.0
 49
-11.0
 74
     0
  0
LTYPE
  5
215
330
5
100
AcDbSymbolTableRecord
100
AcDbLinetypeTableRecord
  2
CENTER2
 70
     0
  3
Center (.5x) ___ _ ___ _ ___ _ ___ _ ___ _ ___
 72
    65
 73
     4
 40
1.125
 49
0.75
 74
     0
 49
-0.125
 74
     0
 49
0.125
 74
     0
 49
-0.125
 74
     0
  0
LTYPE
  5
216
330
5
100
AcDbSymbolTableRecord
100
AcDbLinetypeTableRecord
  2
HIDDEN2
 70
     0
  3
Hidden (.5x) _ _ _ _ _ _ _ _ _ _ _ _ _ _ _ _ _
 72
    65
 73
     2
 40
0.1875
 49
0.125
 74
     0
 49
-0.0625
 74
     0
  0
LTYPE
  5
217
330
5
100
AcDbSymbolTableRecord
100
AcDbLinetypeTableRecord
  2
Amzigzag2
 70
     0
  3
/\/-/\/-/\/-/\/-/\/-/\/
 72
    65
 73
     2
 40
0.4401
 49
0.0001
 74
     4
 75
   136
340
213
 46
0.0016
 50
0.0
 44
0.0
 45
0.0
 49
-0.4400000000000001
 74
     0
  0
LTYPE
  5
227
330
5
100
AcDbSymbolTableRecord
100
AcDbLinetypeTableRecord
  2
ACANSTGB
 70
     0
  3
__ . . __ . .
 72
    65
 73
     6
 40
0.35433070866
 49
0.15748031496
 74
     0
 49
-0.03937007874
 74
     0
 49
0.03937007874
 74
     0
 49
-0.03937007874
 74
     0
 49
0.03937007874
 74
     0
 49
-0.03937007874
 74
     0
  0
LTYPE
  5
228
330
5
100
AcDbSymbolTableRecord
100
AcDbLinetypeTableRecord
  2
ACANSTGL
 70
     0
  3
_ _ _ _ _
 72
    65
 73
     2
 40
0.11811023622
 49
0.07874015748
 74
     0
 49
-0.03937007874
 74
     0
  0
ENDTAB
  0
TABLE
  2
LAYER
  5
2
330
0
100
AcDbSymbolTable
 70
     2
  0
LAYER
  5
10
102
{ACAD_XDICTIONARY
360
5CE
102
}
330
2
100
AcDbSymbolTableRecord
100
AcDbLayerTableRecord
  2
0
 70
     0
 62
     7
  6
Continuous
370
    -3
390
F
  0
LAYER
  5
24C
102
{ACAD_XDICTIONARY
360
5D0
102
}
330
2
100
AcDbSymbolTableRecord
100
AcDbLayerTableRecord
  2
AM_CL
 70
     0
 62
     1
  6
Amconstr
370
    15
390
F
1001
AcAecLayerStandard
1000

1000

  0
ENDTAB
  0
TABLE
  2
STYLE
  5
3
330
0
100
AcDbSymbolTable
 70
     4
  0
STYLE
  5
11
330
3
100
AcDbSymbolTableRecord
100
AcDbTextStyleTableRecord
  2
Standard
 70
     0
 40
0.0
 41
1.0
 50
0.0
 71
     0
 42
0.2
  3
txt
  4

  0
STYLE
  5
213
330
3
100
AcDbSymbolTableRecord
100
AcDbTextStyleTableRecord
  2

 70
     1
 40
0.0
 41
1.0
 50
0.0
 71
     0
 42
0.2
  3
genltshp.shx
  4

  0
STYLE
  5
225
330
3
100
AcDbSymbolTableRecord
100
AcDbTextStyleTableRecord
  2
ACANSTS
 70
     0
 40
0.0
 41
1.0
 50
0.0
 71
     0
 42
0.2
  3
romans.shx
  4
extfont.shx
  0
STYLE
  5
226
330
3
100
AcDbSymbolTableRecord
100
AcDbTextStyleTableRecord
  2
ACANSGDT
 70
     0
 40
0.0
 41
1.0
 50
0.0
 71
     0
 42
0.2
  3
amgdt.shx
  4

  0
ENDTAB
  0
TABLE
  2
VIEW
  5
6
330
0
100
AcDbSymbolTable
 70
     0
  0
ENDTAB
  0
TABLE
  2
UCS
  5
7
330
0
100
AcDbSymbolTable
 70
     0
  0
ENDTAB
  0
TABLE
  2
APPID
  5
9
330
0
100
AcDbSymbolTable
 70
    14
  0
APPID
  5
12
330
9
100
AcDbSymbolTableRecord
100
AcDbRegAppTableRecord
  2
ACAD
 70
     0
  0
APPID
  5
1C5
330
9
100
AcDbSymbolTableRecord
100
AcDbRegAppTableRecord
  2
MCAD_NO_VIS
 70
     0
  0
APPID
  5
1C6
330
9
100
AcDbSymbolTableRecord
100
AcDbRegAppTableRecord
  2
ACAD_TEMP_GRAPHIC
 70
     0
  0
APPID
  5
1D3
330
9
100
AcDbSymbolTableRecord
100
AcDbRegAppTableRecord
  2
ACATTRIBSERVICES
 70
     0
  0
APPID
  5
1EF
330
9
100
AcDbSymbolTableRecord
100
AcDbRegAppTableRecord
  2
DESIGNERASSEMBLIES
 70
     0
  0
APPID
  5
209
330
9
100
AcDbSymbolTableRecord
100
AcDbRegAppTableRecord
  2
ACAD_DSTYLE_DIMJAG
 70
     0
  0
APPID
  5
20A
330
9
100
AcDbSymbolTableRecord
100
AcDbRegAppTableRecord
  2
ACAD_DSTYLE_DIMBREAK
 70
     0
  0
APPID
  5
244
330
9
100
AcDbSymbolTableRecord
100
AcDbRegAppTableRecord
  2
ACAD_NAV_VCDISPLAY
 70
     0
  0
APPID
  5
24D
330
9
100
AcDbSymbolTableRecord
100
AcDbRegAppTableRecord
  2
AcAecLayerStandard
 70
     0
  0
APPID
  5
616
330
9
100
AcDbSymbolTableRecord
100
AcDbRegAppTableRecord
  2
ACAD_MLEADERVER
 70
     0
  0
APPID
  5
61D
330
9
100
AcDbSymbolTableRecord
100
AcDbRegAppTableRecord
  2
ACAD_DSTYLE_DIMARC_LENGTH_SYMBOL
 70
     0
  0
APPID
  5
61E
330
9
100
AcDbSymbolTableRecord
100
AcDbRegAppTableRecord
  2
ACAD_DSTYLE_DIM_LINETYPE
 70
     0
  0
APPID
  5
61F
330
9
100
AcDbSymbolTableRecord
100
AcDbRegAppTableRecord
  2
ACAD_DSTYLE_DIM_EXT1_LINETYPE
 70
     0
  0
APPID
  5
620
330
9
100
AcDbSymbolTableRecord
100
AcDbRegAppTableRecord
  2
ACAD_DSTYLE_DIM_EXT2_LINETYPE
 70
     0
  0
ENDTAB
  0
TABLE
  2
DIMSTYLE
  5
A
330
0
100
AcDbSymbolTable
 70
     7
100
AcDbDimStyleTable
 71
     0
  0
DIMSTYLE
105
20
330
A
100
AcDbSymbolTableRecord
100
AcDbDimStyleTableRecord
  2
Standard
 70
     0
340
11
  0
DIMSTYLE
105
208
102
{ACAD_REACTORS
330
1F8
102
}
330
A
100
AcDbSymbolTableRecord
100
AcDbDimStyleTableRecord
  2
AM_ANSI
 70
     0
  4
mm
 41
0.12
 42
0.05
 43
0.5
 44
0.1
 47
0.1
 48
0.1
 78
     7
 79
     2
140
0.12
141
0.0
146
0.71
147
0.06
176
   256
177
   256
178
     2
274
     4
284
     7
340
11
371
    -1
372
    -1
1001
ACAD_DSTYLE_DIMJAG
1070
   388
1040
1.5
1001
ACAD_DSTYLE_DIMBREAK
1070
   391
1040
0.125
1001
ACAD_DSTYLE_DIMARC_LENGTH_SYMBOL
1070
   379
1070
     1
1001
ACAD_DSTYLE_DIM_LINETYPE
1070
   380
1005
14
1001
ACAD_DSTYLE_DIM_EXT1_LINETYPE
1070
   381
1005
14
1001
ACAD_DSTYLE_DIM_EXT2_LINETYPE
1070
   382
1005
14
  0
DIMSTYLE
105
218
330
A
100
AcDbSymbolTableRecord
100
AcDbDimStyleTableRecord
  2
AM_ANSI$3
 70
     0
  4
mm
 41
0.12
 42
0.05
 43
0.5
 44
0.1
 47
0.1
 48
0.1
 78
     7
 79
     2
140
0.12
141
0.0
146
0.71
147
0.06
176
   256
177
   256
178
     2
274
     4
284
     7
288
     1
289
     0
340
11
371
    -1
372
    -1
1001
ACAD_DSTYLE_DIMBREAK
1070
   391
1040
0.125
1001
ACAD_DSTYLE_DIMJAG
1070
   388
1040
1.5
1001
ACAD_DSTYLE_DIMARC_LENGTH_SYMBOL
1070
   379
1070
     1
1001
ACAD_DSTYLE_DIM_LINETYPE
1070
   380
1005
14
1001
ACAD_DSTYLE_DIM_EXT1_LINETYPE
1070
   381
1005
14
1001
ACAD_DSTYLE_DIM_EXT2_LINETYPE
1070
   382
1005
14
  0
DIMSTYLE
105
219
330
A
100
AcDbSymbolTableRecord
100
AcDbDimStyleTableRecord
  2
AM_ANSI$4
 70
     0
  4
mm
 41
0.12
 42
0.05
 43
0.5
 44
0.1
 47
0.1
 48
0.1
 78
     7
 79
     2
140
0.12
141
0.0
146
0.71
147
0.06
176
   256
177
   256
178
     2
274
     4
284
     7
288
     1
289
     0
340
11
371
    -1
372
    -1
1001
ACAD_DSTYLE_DIMBREAK
1070
   391
1040
0.125
1001
ACAD_DSTYLE_DIMJAG
1070
   388
1040
1.5
1001
ACAD_DSTYLE_DIMARC_LENGTH_SYMBOL
1070
   379
1070
     1
1001
ACAD_DSTYLE_DIM_LINETYPE
1070
   380
1005
14
1001
ACAD_DSTYLE_DIM_EXT1_LINETYPE
1070
   381
1005
14
1001
ACAD_DSTYLE_DIM_EXT2_LINETYPE
1070
   382
1005
14
  0
DIMSTYLE
105
21A
330
A
100
AcDbSymbolTableRecord
100
AcDbDimStyleTableRecord
  2
AM_ANSI$7
 70
     0
  4
mm
 41
0.12
 42
0.05
 43
0.5
 44
0.1
 47
0.1
 48
0.1
 78
     7
 79
     2
140
0.12
141
0.0
146
0.71
147
0.06
176
   256
177
   256
178
     2
274
     4
284
     7
340
11
371
    -1
372
    -1
1001
ACAD_DSTYLE_DIMBREAK
1070
   391
1040
0.125
1001
ACAD_DSTYLE_DIMJAG
1070
   388
1040
1.5
1001
ACAD_DSTYLE_DIMARC_LENGTH_SYMBOL
1070
   379
1070
     1
1001
ACAD_DSTYLE_DIM_LINETYPE
1070
   380
1005
14
1001
ACAD_DSTYLE_DIM_EXT1_LINETYPE
1070
   381
1005
14
1001
ACAD_DSTYLE_DIM_EXT2_LINETYPE
1070
   382
1005
14
  0
DIMSTYLE
105
21B
330
A
100
AcDbSymbolTableRecord
100
AcDbDimStyleTableRecord
  2
AM_ANSI$SF
 70
     0
  4
mm
 41
0.12
 42
0.05
 43
0.5
 44
0.1
 47
0.1
 48
0.1
 75
     1
 76
     1
 78
     7
 79
     2
140
0.12
141
0.0
146
0.71
147
0.06
176
   256
177
   256
178
     2
274
     4
284
     7
340
11
371
    -1
372
    -1
1001
ACAD_DSTYLE_DIMBREAK
1070
   391
1040
0.125
1001
ACAD_DSTYLE_DIMJAG
1070
   388
1040
1.5
1001
ACAD_DSTYLE_DIMARC_LENGTH_SYMBOL
1070
   379
1070
     1
1001
ACAD_DSTYLE_DIM_LINETYPE
1070
   380
1005
14
1001
ACAD_DSTYLE_DIM_EXT1_LINETYPE
1070
   381
1005
14
1001
ACAD_DSTYLE_DIM_EXT2_LINETYPE
1070
   382
1005
14
  0
DIMSTYLE
105
220
330
A
100
AcDbSymbolTableRecord
100
AcDbDimStyleTableRecord
  2
AM_ANSI$SH
 70
     0
  4
mm
 41
0.12
 42
0.05
 43
0.5
 44
0.1
 47
0.1
 48
0.1
 75
     1
 76
     1
 78
     7
 79
     2
140
0.12
141
0.0
146
0.71
147
0.06
173
     1
176
   256
177
   256
178
     2
274
     4
284
     7
340
11
343
21C
371
    -1
372
    -1
1001
ACAD_DSTYLE_DIMBREAK
1070
   391
1040
0.125
1001
ACAD_DSTYLE_DIMJAG
1070
   388
1040
1.5
1001
ACAD_DSTYLE_DIMARC_LENGTH_SYMBOL
1070
   379
1070
     1
1001
ACAD_DSTYLE_DIM_LINETYPE
1070
   380
1005
14
1001
ACAD_DSTYLE_DIM_EXT1_LINETYPE
1070
   381
1005
14
1001
ACAD_DSTYLE_DIM_EXT2_LINETYPE
1070
   382
1005
14
  0
ENDTAB
  0
TABLE
  2
BLOCK_RECORD
  5
1
330
0
100
AcDbSymbolTable
 70
     5
  0
BLOCK_RECORD
  5
1D
102
{ACAD_XDICTIONARY
360
24F
102
}
330
1
100
AcDbSymbolTableRecord
100
AcDbBlockTableRecord
  2
*Model_Space
340
1E
  0
BLOCK_RECORD
  5
1B
330
1
100
AcDbSymbolTableRecord
100
AcDbBlockTableRecord
  2
*Paper_Space
340
1C
  0
BLOCK_RECORD
  5
21C
330
1
100
AcDbSymbolTableRecord
100
AcDbBlockTableRecord
  2
GENAXEH
340
0
  0
BLOCK_RECORD
  5
22A
330
1
100
AcDbSymbolTableRecord
100
AcDbBlockTableRecord
  2
_ACMFILLEDHALF
340
0
  0
BLOCK_RECORD
  5
3D3
330
1
100
AcDbSymbolTableRecord
100
AcDbBlockTableRecord
  2
A$C0A1A2E2D
340
0
  0
ENDTAB
  0
ENDSEC
  0
SECTION
  2
BLOCKS
  0
BLOCK
  5
159
330
1D
100
AcDbEntity
  8
0
100
AcDbBlockBegin
  2
*Model_Space
 70
     0
 10
0.0
 20
0.0
 30
0.0
  3
*Model_Space
  1

  0
ENDBLK
  5
15A
330
1D
100
AcDbEntity
  8
0
100
AcDbBlockEnd
  0
BLOCK
  5
157
330
1B
100
AcDbEntity
 67
     1
  8
0
100
AcDbBlockBegin
  2
*Paper_Space
 70
     0
 10
0.0
 20
0.0
 30
0.0
  3
*Paper_Space
  1

  0
ENDBLK
  5
158
330
1B
100
AcDbEntity
 67
     1
  8
0
100
AcDbBlockEnd
  0
BLOCK
  5
21E
330
21C
100
AcDbEntity
  8
0
100
AcDbBlockBegin
  2
GENAXEH
 70
     0
 10
0.0
 20
0.0
 30
0.0
  3
GENAXEH
  1

  0
LINE
  5
21D
330
21C
100
AcDbEntity
  8
0
100
AcDbLine
 10
-1.0
 20
0.0
 30
0.0
 11
1.0
 21
0.0
 31
0.0
  0
ENDBLK
  5
21F
330
21C
100
AcDbEntity
  8
0
100
AcDbBlockEnd
  0
BLOCK
  5
22B
330
22A
100
AcDbEntity
  8
0
100
AcDbBlockBegin
  2
_ACMFILLEDHALF
 70
     0
 10
0.0
 20
0.0
 30
0.0
  3
_ACMFILLEDHALF
  1

  0
TRACE
  5
22D
330
22A
100
AcDbEntity
  8
0
  6
ByBlock
 62
     0
100
AcDbTrace
 10
-0.8
 20
0.0
 30
0.0
 11
-1.0
 21
0.166666666
 31
0.0
 12
0.0
 22
0.0
 32
0.0
 13
0.0
 23
0.0
 33
0.0
  0
LINE
  5
22E
330
22A
100
AcDbEntity
  8
0
  6
ByBlock
 62
     0
100
AcDbLine
 10
-1.0
 20
0.0
 30
0.0
 11
-0.8
 21
0.0
 31
0.0
  0
ENDBLK
  5
22C
330
22A
100
AcDbEntity
  8
0
100
AcDbBlockEnd
  0
BLOCK
  5
4CF
330
3D3
100
AcDbEntity
  8
0
100
AcDbBlockBegin
  2
A$C0A1A2E2D
 70
     0
 10
0.0
 20
0.0
 30
0.0
  3
A$C0A1A2E2D
  1

  0
LINE
  5
3D4
330
3D3
100
AcDbEntity
  8
0
100
AcDbLine
 10
0.1026747913469088
 20
23.18769985086288
 30
0.0
 11
0.3765067913469087
 21
22.46679985086288
 31
0.0
  0
LINE
  5
3D5
330
3D3
100
AcDbEntity
  8
0
100
AcDbLine
 10
0.3765067913469087
 20
22.46679985086288
 30
0.0
 11
0.8328947913469088
 21
21.82999985086288
 31
0.0
  0
LINE
  5
3D6
330
3D3
100
AcDbEntity
  8
0
100
AcDbLine
 10
0.8328947913469088
 20
21.82999985086288
 30
0.0
 11
1.437649791346908
 21
21.34939985086288
 31
0.0
  0
LINE
  5
3D7
330
3D3
100
AcDbEntity
  8
0
100
AcDbLine
 10
1.437649791346908
 20
21.34939985086288
 30
0.0
 11
2.122279791346908
 21
21.06109985086288
 31
0.0
  0
LINE
  5
3D8
330
3D3
100
AcDbEntity
  8
0
100
AcDbLine
 10
2.122279791346908
 20
21.06109985086288
 30
0.0
 11
2.852499791346908
 21
20.95289985086288
 31
0.0
  0
LINE
  5
3D9
330
3D3
100
AcDbEntity
  8
0
100
AcDbLine
 10
4.792919791346908
 20
7.936819850862868
 30
0.0
 11
33.24749979134691
 21
7.936819850862868
 31
0.0
  0
LINE
  5
3DA
330
3D3
100
AcDbEntity
  8
0
100
AcDbLine
 10
4.792919791346908
 20
7.936819850862868
 30
0.0
 11
33.24749979134691
 21
7.936819850862868
 31
0.0
  0
LINE
  5
3DB
330
3D3
100
AcDbEntity
  8
0
100
AcDbLine
 10
4.023909791346908
 20
8.321299850862867
 30
0.0
 11
4.023909791346908
 21
8.898009850862868
 31
0.0
  0
LINE
  5
3DC
330
3D3
100
AcDbEntity
  8
0
100
AcDbLine
 10
4.023909791346908
 20
8.321299850862867
 30
0.0
 11
4.792919791346908
 21
7.936819850862868
 31
0.0
  0
LINE
  5
3DD
330
3D3
100
AcDbEntity
  8
0
100
AcDbLine
 10
4.023909791346908
 20
8.898009850862868
 30
0.0
 11
4.023909791346908
 21
8.321299850862867
 31
0.0
  0
LINE
  5
3DE
330
3D3
100
AcDbEntity
  8
0
100
AcDbLine
 10
4.023909791346908
 20
8.898009850862868
 30
0.0
 11
4.023909791346908
 21
10.43589985086287
 31
0.0
  0
LINE
  5
3DF
330
3D3
100
AcDbEntity
  8
0
100
AcDbLine
 10
34.01649979134691
 20
7.876749850862867
 30
0.0
 11
34.01649979134691
 21
8.479489850862867
 31
0.0
  0
LINE
  5
3E0
330
3D3
100
AcDbEntity
  8
0
100
AcDbLine
 10
34.01649979134691
 20
7.876749850862867
 30
0.0
 11
74.0066997913469
 21
7.876749850862867
 31
0.0
  0
LINE
  5
3E1
330
3D3
100
AcDbEntity
  8
0
100
AcDbLine
 10
34.01649979134691
 20
8.479489850862867
 30
0.0
 11
34.01649979134691
 21
10.03939985086288
 31
0.0
  0
LINE
  5
3E2
330
3D3
100
AcDbEntity
  8
0
100
AcDbLine
 10
33.24749979134691
 20
7.936819850862868
 30
0.0
 11
34.01649979134691
 21
8.321299850862867
 31
0.0
  0
LINE
  5
3E3
330
3D3
100
AcDbEntity
  8
0
100
AcDbLine
 10
4.023909791346908
 20
12.93499985086288
 30
0.0
 11
4.023909791346908
 21
16.20299985086288
 31
0.0
  0
LINE
  5
3E4
330
3D3
100
AcDbEntity
  8
0
100
AcDbLine
 10
4.023909791346908
 20
12.93499985086288
 30
0.0
 11
4.023909791346908
 21
10.43589985086287
 31
0.0
  0
LINE
  5
3E5
330
3D3
100
AcDbEntity
  8
0
100
AcDbLine
 10
4.023909791346908
 20
12.93499985086288
 30
0.0
 11
4.023909791346908
 21
10.43589985086287
 31
0.0
  0
LINE
  5
3E6
330
3D3
100
AcDbEntity
  8
0
100
AcDbLine
 10
4.023909791346908
 20
12.93499985086288
 30
0.0
 11
4.023909791346908
 21
16.20299985086288
 31
0.0
  0
LINE
  5
3E7
330
3D3
100
AcDbEntity
  8
0
100
AcDbLine
 10
34.01649979134691
 20
10.03939985086288
 30
0.0
 11
34.01649979134691
 21
12.66969985086288
 31
0.0
  0
LINE
  5
3E8
330
3D3
100
AcDbEntity
  8
0
100
AcDbLine
 10
34.01649979134691
 20
12.66969985086288
 30
0.0
 11
34.01649979134691
 21
15.92469985086288
 31
0.0
  0
LINE
  5
3E9
330
3D3
100
AcDbEntity
  8
0
100
AcDbLine
 10
4.023909791346908
 20
10.43589985086287
 30
0.0
 11
4.023909791346908
 21
8.898009850862868
 31
0.0
  0
LINE
  5
3EA
330
3D3
100
AcDbEntity
  8
0
100
AcDbLine
 10
4.023909791346908
 20
10.43589985086287
 30
0.0
 11
4.023909791346908
 21
12.93499985086288
 31
0.0
  0
LINE
  5
3EB
330
3D3
100
AcDbEntity
  8
0
100
AcDbLine
 10
4.023909791346908
 20
10.43589985086287
 30
0.0
 11
4.023909791346908
 21
12.93499985086288
 31
0.0
  0
LINE
  5
3EC
330
3D3
100
AcDbEntity
  8
0
100
AcDbLine
 10
4.023909791346908
 20
19.91959985086287
 30
0.0
 11
4.023909791346908
 21
16.20299985086288
 31
0.0
  0
LINE
  5
3ED
330
3D3
100
AcDbEntity
  8
0
100
AcDbLine
 10
4.023909791346908
 20
19.91959985086287
 30
0.0
 11
4.023909791346908
 21
20.95289985086288
 31
0.0
  0
LINE
  5
3EE
330
3D3
100
AcDbEntity
  8
0
100
AcDbLine
 10
34.01649979134691
 20
19.78049985086288
 30
0.0
 11
34.01649979134691
 21
23.91259985086288
 31
0.0
  0
LINE
  5
3EF
330
3D3
100
AcDbEntity
  8
0
100
AcDbLine
 10
34.01649979134691
 20
15.92469985086288
 30
0.0
 11
34.01649979134691
 21
19.78049985086288
 31
0.0
  0
LINE
  5
3F0
330
3D3
100
AcDbEntity
  8
0
100
AcDbLine
 10
4.023909791346908
 20
16.20299985086288
 30
0.0
 11
4.023909791346908
 21
12.93499985086288
 31
0.0
  0
LINE
  5
3F1
330
3D3
100
AcDbEntity
  8
0
100
AcDbLine
 10
4.023909791346908
 20
16.20299985086288
 30
0.0
 11
4.023909791346908
 21
19.91959985086287
 31
0.0
  0
LINE
  5
3F2
330
3D3
100
AcDbEntity
  8
0
100
AcDbLine
 10
4.023909791346908
 20
16.20299985086288
 30
0.0
 11
4.023909791346908
 21
12.93499985086288
 31
0.0
  0
LINE
  5
3F3
330
3D3
100
AcDbEntity
  8
0
100
AcDbLine
 10
4.023909791346908
 20
20.95289985086288
 30
0.0
 11
4.023909791346908
 21
19.91959985086287
 31
0.0
  0
LINE
  5
3F4
330
3D3
100
AcDbEntity
  8
0
100
AcDbLine
 10
34.01649979134691
 20
19.91959985086287
 30
0.0
 11
34.01649979134691
 21
23.95659985086288
 31
0.0
  0
LINE
  5
3F5
330
3D3
100
AcDbEntity
  8
0
100
AcDbLine
 10
34.01649979134691
 20
19.91959985086287
 30
0.0
 11
34.01649979134691
 21
16.20299985086288
 31
0.0
  0
LINE
  5
3F6
330
3D3
100
AcDbEntity
  8
0
100
AcDbLine
 10
34.01649979134691
 20
16.20299985086288
 30
0.0
 11
34.01649979134691
 21
19.91959985086287
 31
0.0
  0
LINE
  5
3F7
330
3D3
100
AcDbEntity
  8
0
100
AcDbLine
 10
34.01649979134691
 20
16.20299985086288
 30
0.0
 11
34.01649979134691
 21
12.93499985086288
 31
0.0
  0
LINE
  5
3F8
330
3D3
100
AcDbEntity
  8
0
100
AcDbLine
 10
34.01649979134691
 20
12.93499985086288
 30
0.0
 11
34.01649979134691
 21
16.20299985086288
 31
0.0
  0
LINE
  5
3F9
330
3D3
100
AcDbEntity
  8
0
100
AcDbLine
 10
34.01649979134691
 20
12.93499985086288
 30
0.0
 11
34.01649979134691
 21
10.43589985086287
 31
0.0
  0
LINE
  5
3FA
330
3D3
100
AcDbEntity
  8
0
100
AcDbLine
 10
34.01649979134691
 20
10.43589985086287
 30
0.0
 11
34.01649979134691
 21
12.93499985086288
 31
0.0
  0
LINE
  5
3FB
330
3D3
100
AcDbEntity
  8
0
100
AcDbLine
 10
34.01649979134691
 20
10.43589985086287
 30
0.0
 11
34.01649979134691
 21
8.898009850862868
 31
0.0
  0
LINE
  5
3FC
330
3D3
100
AcDbEntity
  8
0
100
AcDbLine
 10
34.01649979134691
 20
8.898009850862868
 30
0.0
 11
34.01649979134691
 21
10.43589985086287
 31
0.0
  0
LINE
  5
3FD
330
3D3
100
AcDbEntity
  8
0
100
AcDbLine
 10
34.01649979134691
 20
8.898009850862868
 30
0.0
 11
34.01649979134691
 21
8.321299850862867
 31
0.0
  0
LINE
  5
3FE
330
3D3
100
AcDbEntity
  8
0
100
AcDbLine
 10
34.01649979134691
 20
8.321299850862867
 30
0.0
 11
34.01649979134691
 21
8.898009850862868
 31
0.0
  0
LINE
  5
3FF
330
3D3
100
AcDbEntity
  8
0
100
AcDbLine
 10
34.01649979134691
 20
8.321299850862867
 30
0.0
 11
34.01649979134691
 21
7.876749850862867
 31
0.0
  0
LINE
  5
400
330
3D3
100
AcDbEntity
  8
0
100
AcDbLine
 10
34.01649979134691
 20
23.91259985086288
 30
0.0
 11
34.01649979134691
 21
28.07569985086288
 31
0.0
  0
LINE
  5
401
330
3D3
100
AcDbEntity
  8
0
100
AcDbLine
 10
34.01649979134691
 20
23.95659985086288
 30
0.0
 11
34.01649979134691
 21
27.99359985086288
 31
0.0
  0
LINE
  5
402
330
3D3
100
AcDbEntity
  8
0
100
AcDbLine
 10
34.01649979134691
 20
23.95659985086288
 30
0.0
 11
34.01649979134691
 21
19.91959985086287
 31
0.0
  0
LINE
  5
403
330
3D3
100
AcDbEntity
  8
0
100
AcDbLine
 10
5.602219791346908
 20
23.18769985086288
 30
0.0
 11
5.704889791346908
 21
23.95659985086288
 31
0.0
  0
LINE
  5
404
330
3D3
100
AcDbEntity
  8
0
100
AcDbLine
 10
5.328389791346908
 20
22.46679985086288
 30
0.0
 11
5.602219791346908
 21
23.18769985086288
 31
0.0
  0
LINE
  5
405
330
3D3
100
AcDbEntity
  8
0
100
AcDbLine
 10
4.871999791346908
 20
21.82999985086288
 30
0.0
 11
5.328389791346908
 21
22.46679985086288
 31
0.0
  0
LINE
  5
406
330
3D3
100
AcDbEntity
  8
0
100
AcDbLine
 10
4.267249791346908
 20
21.34939985086288
 30
0.0
 11
4.871999791346908
 21
21.82999985086288
 31
0.0
  0
LINE
  5
407
330
3D3
100
AcDbEntity
  8
0
100
AcDbLine
 10
3.582719791346908
 20
21.06109985086288
 30
0.0
 11
4.267249791346908
 21
21.34939985086288
 31
0.0
  0
LINE
  5
408
330
3D3
100
AcDbEntity
  8
0
100
AcDbLine
 10
2.852499791346908
 20
20.95289985086288
 30
0.0
 11
3.582719791346908
 21
21.06109985086288
 31
0.0
  0
LINE
  5
409
330
3D3
100
AcDbEntity
  8
0
100
AcDbLine
 10
2.852499791346908
 20
20.95289985086288
 30
0.0
 11
4.792919791346908
 21
20.95289985086288
 31
0.0
  0
LINE
  5
40A
330
3D3
100
AcDbEntity
  8
0
100
AcDbLine
 10
-0.0000002086530912
 20
23.95659985086288
 30
0.0
 11
0.1026747913469088
 21
24.72559985086288
 31
0.0
  0
LINE
  5
40B
330
3D3
100
AcDbEntity
  8
0
100
AcDbLine
 10
-0.0000002086530912
 20
23.95659985086288
 30
0.0
 11
0.1026747913469088
 21
23.18769985086288
 31
0.0
  0
LINE
  5
40C
330
3D3
100
AcDbEntity
  8
0
100
AcDbLine
 10
0.1026747913469088
 20
24.72559985086288
 30
0.0
 11
0.3765067913469087
 21
25.44649985086288
 31
0.0
  0
LINE
  5
40D
330
3D3
100
AcDbEntity
  8
0
100
AcDbLine
 10
0.3765067913469087
 20
25.44649985086288
 30
0.0
 11
0.8328947913469088
 21
26.08329985086288
 31
0.0
  0
LINE
  5
40E
330
3D3
100
AcDbEntity
  8
0
100
AcDbLine
 10
0.8328947913469088
 20
26.08329985086288
 30
0.0
 11
1.437649791346908
 21
26.56389985086288
 31
0.0
  0
LINE
  5
40F
330
3D3
100
AcDbEntity
  8
0
100
AcDbLine
 10
5.602219791346908
 20
24.72559985086288
 30
0.0
 11
5.704889791346908
 21
23.95659985086288
 31
0.0
  0
LINE
  5
410
330
3D3
100
AcDbEntity
  8
0
100
AcDbLine
 10
5.328389791346908
 20
25.44649985086288
 30
0.0
 11
5.602219791346908
 21
24.72559985086288
 31
0.0
  0
LINE
  5
411
330
3D3
100
AcDbEntity
  8
0
100
AcDbLine
 10
4.871999791346908
 20
26.08329985086288
 30
0.0
 11
5.328389791346908
 21
25.44649985086288
 31
0.0
  0
LINE
  5
412
330
3D3
100
AcDbEntity
  8
0
100
AcDbLine
 10
4.267249791346908
 20
26.56389985086288
 30
0.0
 11
4.871999791346908
 21
26.08329985086288
 31
0.0
  0
LINE
  5
413
330
3D3
100
AcDbEntity
  8
0
100
AcDbLine
 10
1.437649791346908
 20
26.56389985086288
 30
0.0
 11
2.122279791346908
 21
26.85219985086288
 31
0.0
  0
LINE
  5
414
330
3D3
100
AcDbEntity
  8
0
100
AcDbLine
 10
39.01529979134691
 20
23.95659985086288
 30
0.0
 11
39.41119979134691
 21
26.77609985086288
 31
0.0
  0
LINE
  5
415
330
3D3
100
AcDbEntity
  8
0
100
AcDbLine
 10
39.01529979134691
 20
23.95659985086288
 30
0.0
 11
39.41119979134691
 21
21.13719985086288
 31
0.0
  0
LINE
  5
416
330
3D3
100
AcDbEntity
  8
0
100
AcDbLine
 10
39.41119979134691
 20
21.13719985086288
 30
0.0
 11
40.46689979134691
 21
18.49389985086288
 31
0.0
  0
LINE
  5
417
330
3D3
100
AcDbEntity
  8
0
100
AcDbLine
 10
39.41119979134691
 20
21.13719985086288
 30
0.0
 11
40.46689979134691
 21
18.49389985086288
 31
0.0
  0
LINE
  5
418
330
3D3
100
AcDbEntity
  8
0
100
AcDbLine
 10
39.67509979134691
 20
21.18119985086288
 30
0.0
 11
40.73089979134691
 21
18.62599985086288
 31
0.0
  0
LINE
  5
419
330
3D3
100
AcDbEntity
  8
0
100
AcDbLine
 10
39.27919979134691
 20
23.95659985086288
 30
0.0
 11
39.67509979134691
 21
26.73209985086288
 31
0.0
  0
LINE
  5
41A
330
3D3
100
AcDbEntity
  8
0
100
AcDbLine
 10
39.27919979134691
 20
23.95659985086288
 30
0.0
 11
39.67509979134691
 21
21.18119985086288
 31
0.0
  0
LINE
  5
41B
330
3D3
100
AcDbEntity
  8
0
100
AcDbLine
 10
39.67509979134691
 20
26.73209985086288
 30
0.0
 11
40.73089979134691
 21
29.28719985086288
 31
0.0
  0
LINE
  5
41C
330
3D3
100
AcDbEntity
  8
0
100
AcDbLine
 10
39.01529979134691
 20
23.95659985086288
 30
0.0
 11
39.41119979134691
 21
26.77609985086288
 31
0.0
  0
LINE
  5
41D
330
3D3
100
AcDbEntity
  8
0
100
AcDbLine
 10
39.01529979134691
 20
23.95659985086288
 30
0.0
 11
39.41119979134691
 21
21.13719985086288
 31
0.0
  0
LINE
  5
41E
330
3D3
100
AcDbEntity
  8
0
100
AcDbLine
 10
3.582719791346908
 20
26.85219985086288
 30
0.0
 11
4.267249791346908
 21
26.56389985086288
 31
0.0
  0
LINE
  5
41F
330
3D3
100
AcDbEntity
  8
0
100
AcDbLine
 10
4.023909791346908
 20
26.96039985086288
 30
0.0
 11
4.023909791346908
 21
27.99359985086288
 31
0.0
  0
LINE
  5
420
330
3D3
100
AcDbEntity
  8
0
100
AcDbLine
 10
4.023909791346908
 20
27.99359985086288
 30
0.0
 11
4.023909791346908
 21
26.96039985086288
 31
0.0
  0
LINE
  5
421
330
3D3
100
AcDbEntity
  8
0
100
AcDbLine
 10
4.023909791346908
 20
27.99359985086288
 30
0.0
 11
4.023909791346908
 21
31.71019985086288
 31
0.0
  0
LINE
  5
422
330
3D3
100
AcDbEntity
  8
0
100
AcDbLine
 10
4.023909791346908
 20
27.99359985086288
 30
0.0
 11
4.023909791346908
 21
31.71019985086288
 31
0.0
  0
LINE
  5
423
330
3D3
100
AcDbEntity
  8
0
100
AcDbLine
 10
4.023909791346908
 20
31.71019985086288
 30
0.0
 11
4.023909791346908
 21
34.97829985086287
 31
0.0
  0
LINE
  5
424
330
3D3
100
AcDbEntity
  8
0
100
AcDbLine
 10
4.023909791346908
 20
31.71019985086288
 30
0.0
 11
4.023909791346908
 21
27.99359985086288
 31
0.0
  0
LINE
  5
425
330
3D3
100
AcDbEntity
  8
0
100
AcDbLine
 10
4.023909791346908
 20
34.97829985086287
 30
0.0
 11
4.023909791346908
 21
37.47739985086288
 31
0.0
  0
LINE
  5
426
330
3D3
100
AcDbEntity
  8
0
100
AcDbLine
 10
4.023909791346908
 20
34.97829985086287
 30
0.0
 11
4.023909791346908
 21
31.71019985086288
 31
0.0
  0
LINE
  5
427
330
3D3
100
AcDbEntity
  8
0
100
AcDbLine
 10
4.023909791346908
 20
31.71019985086288
 30
0.0
 11
4.023909791346908
 21
27.99359985086288
 31
0.0
  0
LINE
  5
428
330
3D3
100
AcDbEntity
  8
0
100
AcDbLine
 10
4.023909791346908
 20
31.71019985086288
 30
0.0
 11
4.023909791346908
 21
34.97829985086287
 31
0.0
  0
LINE
  5
429
330
3D3
100
AcDbEntity
  8
0
100
AcDbLine
 10
34.01649979134691
 20
31.98259985086288
 30
0.0
 11
34.01649979134691
 21
35.23559985086288
 31
0.0
  0
LINE
  5
42A
330
3D3
100
AcDbEntity
  8
0
100
AcDbLine
 10
34.01649979134691
 20
28.07569985086288
 30
0.0
 11
34.01649979134691
 21
31.98259985086288
 31
0.0
  0
LINE
  5
42B
330
3D3
100
AcDbEntity
  8
0
100
AcDbLine
 10
4.023909791346908
 20
34.97829985086287
 30
0.0
 11
4.023909791346908
 21
31.71019985086288
 31
0.0
  0
LINE
  5
42C
330
3D3
100
AcDbEntity
  8
0
100
AcDbLine
 10
4.023909791346908
 20
34.97829985086287
 30
0.0
 11
4.023909791346908
 21
37.47739985086288
 31
0.0
  0
LINE
  5
42D
330
3D3
100
AcDbEntity
  8
0
100
AcDbLine
 10
34.01649979134691
 20
27.99359985086288
 30
0.0
 11
34.01649979134691
 21
31.71019985086288
 31
0.0
  0
LINE
  5
42E
330
3D3
100
AcDbEntity
  8
0
100
AcDbLine
 10
34.01649979134691
 20
27.99359985086288
 30
0.0
 11
34.01649979134691
 21
23.95659985086288
 31
0.0
  0
LINE
  5
42F
330
3D3
100
AcDbEntity
  8
0
100
AcDbLine
 10
34.01649979134691
 20
31.71019985086288
 30
0.0
 11
34.01649979134691
 21
34.97829985086287
 31
0.0
  0
LINE
  5
430
330
3D3
100
AcDbEntity
  8
0
100
AcDbLine
 10
34.01649979134691
 20
31.71019985086288
 30
0.0
 11
34.01649979134691
 21
27.99359985086288
 31
0.0
  0
LINE
  5
431
330
3D3
100
AcDbEntity
  8
0
100
AcDbLine
 10
4.023909791346908
 20
37.47739985086288
 30
0.0
 11
4.023909791346908
 21
39.01529985086288
 31
0.0
  0
LINE
  5
432
330
3D3
100
AcDbEntity
  8
0
100
AcDbLine
 10
4.023909791346908
 20
37.47739985086288
 30
0.0
 11
4.023909791346908
 21
34.97829985086287
 31
0.0
  0
LINE
  5
433
330
3D3
100
AcDbEntity
  8
0
100
AcDbLine
 10
4.023909791346908
 20
37.47739985086288
 30
0.0
 11
4.023909791346908
 21
34.97829985086287
 31
0.0
  0
LINE
  5
434
330
3D3
100
AcDbEntity
  8
0
100
AcDbLine
 10
4.023909791346908
 20
37.47739985086288
 30
0.0
 11
4.023909791346908
 21
39.01529985086288
 31
0.0
  0
LINE
  5
435
330
3D3
100
AcDbEntity
  8
0
100
AcDbLine
 10
34.01649979134691
 20
37.80879985086288
 30
0.0
 11
34.01649979134691
 21
39.34069985086288
 31
0.0
  0
LINE
  5
436
330
3D3
100
AcDbEntity
  8
0
100
AcDbLine
 10
34.01649979134691
 20
35.23559985086288
 30
0.0
 11
34.01649979134691
 21
37.80879985086288
 31
0.0
  0
LINE
  5
437
330
3D3
100
AcDbEntity
  8
0
100
AcDbLine
 10
4.023909791346908
 20
39.01529985086288
 30
0.0
 11
4.023909791346908
 21
37.47739985086288
 31
0.0
  0
LINE
  5
438
330
3D3
100
AcDbEntity
  8
0
100
AcDbLine
 10
4.023909791346908
 20
39.01529985086288
 30
0.0
 11
4.023909791346908
 21
39.59199985086288
 31
0.0
  0
LINE
  5
439
330
3D3
100
AcDbEntity
  8
0
100
AcDbLine
 10
4.023909791346908
 20
39.01529985086288
 30
0.0
 11
4.023909791346908
 21
37.47739985086288
 31
0.0
  0
LINE
  5
43A
330
3D3
100
AcDbEntity
  8
0
100
AcDbLine
 10
34.01649979134691
 20
34.97829985086287
 30
0.0
 11
34.01649979134691
 21
37.47739985086288
 31
0.0
  0
LINE
  5
43B
330
3D3
100
AcDbEntity
  8
0
100
AcDbLine
 10
34.01649979134691
 20
34.97829985086287
 30
0.0
 11
34.01649979134691
 21
31.71019985086288
 31
0.0
  0
LINE
  5
43C
330
3D3
100
AcDbEntity
  8
0
100
AcDbLine
 10
34.01649979134691
 20
37.47739985086288
 30
0.0
 11
34.01649979134691
 21
39.01529985086288
 31
0.0
  0
LINE
  5
43D
330
3D3
100
AcDbEntity
  8
0
100
AcDbLine
 10
34.01649979134691
 20
37.47739985086288
 30
0.0
 11
34.01649979134691
 21
34.97829985086287
 31
0.0
  0
LINE
  5
43E
330
3D3
100
AcDbEntity
  8
0
100
AcDbLine
 10
4.792919791346908
 20
39.97649985086288
 30
0.0
 11
33.24749979134691
 21
39.97649985086288
 31
0.0
  0
LINE
  5
43F
330
3D3
100
AcDbEntity
  8
0
100
AcDbLine
 10
4.792919791346908
 20
39.97649985086288
 30
0.0
 11
33.24749979134691
 21
39.97649985086288
 31
0.0
  0
LINE
  5
440
330
3D3
100
AcDbEntity
  8
0
100
AcDbLine
 10
4.023909791346908
 20
39.59199985086288
 30
0.0
 11
4.023909791346908
 21
39.01529985086288
 31
0.0
  0
LINE
  5
441
330
3D3
100
AcDbEntity
  8
0
100
AcDbLine
 10
4.023909791346908
 20
39.59199985086288
 30
0.0
 11
4.792919791346908
 21
39.97649985086288
 31
0.0
  0
LINE
  5
442
330
3D3
100
AcDbEntity
  8
0
100
AcDbLine
 10
34.01649979134691
 20
39.34069985086288
 30
0.0
 11
34.01649979134691
 21
39.99249985086288
 31
0.0
  0
LINE
  5
443
330
3D3
100
AcDbEntity
  8
0
100
AcDbLine
 10
34.01649979134691
 20
39.99249985086288
 30
0.0
 11
34.01649979134691
 21
39.59199985086288
 31
0.0
  0
LINE
  5
444
330
3D3
100
AcDbEntity
  8
0
100
AcDbLine
 10
34.01649979134691
 20
39.99249985086288
 30
0.0
 11
40.01499979134691
 21
39.99249985086288
 31
0.0
  0
LINE
  5
445
330
3D3
100
AcDbEntity
  8
0
100
AcDbLine
 10
34.01649979134691
 20
39.59199985086288
 30
0.0
 11
34.01649979134691
 21
39.01529985086288
 31
0.0
  0
LINE
  5
446
330
3D3
100
AcDbEntity
  8
0
100
AcDbLine
 10
33.24749979134691
 20
39.97649985086288
 30
0.0
 11
34.01649979134691
 21
39.59199985086288
 31
0.0
  0
LINE
  5
447
330
3D3
100
AcDbEntity
  8
0
100
AcDbLine
 10
34.01649979134691
 20
39.01529985086288
 30
0.0
 11
34.01649979134691
 21
39.59199985086288
 31
0.0
  0
LINE
  5
448
330
3D3
100
AcDbEntity
  8
0
100
AcDbLine
 10
34.01649979134691
 20
39.01529985086288
 30
0.0
 11
34.01649979134691
 21
37.47739985086288
 31
0.0
  0
LINE
  5
449
330
3D3
100
AcDbEntity
  8
0
100
AcDbLine
 10
2.852499791346908
 20
26.96039985086288
 30
0.0
 11
4.792919791346908
 21
26.96039985086288
 31
0.0
  0
LINE
  5
44A
330
3D3
100
AcDbEntity
  8
0
100
AcDbLine
 10
2.852499791346908
 20
26.96039985086288
 30
0.0
 11
3.582719791346908
 21
26.85219985086288
 31
0.0
  0
LINE
  5
44B
330
3D3
100
AcDbEntity
  8
0
100
AcDbLine
 10
2.122279791346908
 20
26.85219985086288
 30
0.0
 11
2.852499791346908
 21
26.96039985086288
 31
0.0
  0
LINE
  5
44C
330
3D3
100
AcDbEntity
  8
0
100
AcDbLine
 10
39.41119979134691
 20
26.77609985086288
 30
0.0
 11
40.46689979134691
 21
29.41939985086288
 31
0.0
  0
LINE
  5
44D
330
3D3
100
AcDbEntity
  8
0
100
AcDbLine
 10
39.41119979134691
 20
26.77609985086288
 30
0.0
 11
40.01499979134691
 21
28.28791621914938
 31
0.0
  0
LINE
  5
44E
330
3D3
100
AcDbEntity
  8
0
100
AcDbLine
 10
40.01499979134691
 20
39.99249985086288
 30
0.0
 11
40.01499979134691
 21
58.99999985086288
 31
0.0
  0
LINE
  5
44F
330
3D3
100
AcDbEntity
  8
0
100
AcDbLine
 10
40.01499979134691
 20
58.99999985086288
 30
0.0
 11
40.01499979134691
 21
39.99249985086288
 31
0.0
  0
LINE
  5
450
330
3D3
100
AcDbEntity
  8
0
100
AcDbLine
 10
47.1972997913469
 20
13.33949985086287
 30
0.0
 11
50.0125997913469
 21
12.94299985086287
 31
0.0
  0
LINE
  5
451
330
3D3
100
AcDbEntity
  8
0
100
AcDbLine
 10
44.5578997913469
 20
14.39679985086288
 30
0.0
 11
47.1972997913469
 21
13.33949985086287
 31
0.0
  0
LINE
  5
452
330
3D3
100
AcDbEntity
  8
0
100
AcDbLine
 10
44.5578997913469
 20
14.39679985086288
 30
0.0
 11
47.1972997913469
 21
13.33949985086287
 31
0.0
  0
LINE
  5
453
330
3D3
100
AcDbEntity
  8
0
100
AcDbLine
 10
47.24129979134691
 20
13.60379985086288
 30
0.0
 11
50.0125997913469
 21
13.20729985086288
 31
0.0
  0
LINE
  5
454
330
3D3
100
AcDbEntity
  8
0
100
AcDbLine
 10
47.1972997913469
 20
13.33949985086287
 30
0.0
 11
50.0125997913469
 21
12.94299985086287
 31
0.0
  0
LINE
  5
455
330
3D3
100
AcDbEntity
  8
0
100
AcDbLine
 10
40.46689979134691
 20
18.49389985086288
 30
0.0
 11
42.22649979134691
 21
16.15899985086288
 31
0.0
  0
LINE
  5
456
330
3D3
100
AcDbEntity
  8
0
100
AcDbLine
 10
42.22649979134691
 20
16.15899985086288
 30
0.0
 11
44.5578997913469
 21
14.39679985086288
 31
0.0
  0
LINE
  5
457
330
3D3
100
AcDbEntity
  8
0
100
AcDbLine
 10
40.73089979134691
 20
18.62599985086288
 30
0.0
 11
42.4463997913469
 21
16.37929985086288
 31
0.0
  0
LINE
  5
458
330
3D3
100
AcDbEntity
  8
0
100
AcDbLine
 10
42.4463997913469
 20
16.37929985086288
 30
0.0
 11
44.68989979134691
 21
14.66109985086287
 31
0.0
  0
LINE
  5
459
330
3D3
100
AcDbEntity
  8
0
100
AcDbLine
 10
40.46689979134691
 20
18.49389985086288
 30
0.0
 11
42.22649979134691
 21
16.15899985086288
 31
0.0
  0
LINE
  5
45A
330
3D3
100
AcDbEntity
  8
0
100
AcDbLine
 10
42.22649979134691
 20
16.15899985086288
 30
0.0
 11
44.5578997913469
 21
14.39679985086288
 31
0.0
  0
LINE
  5
45B
330
3D3
100
AcDbEntity
  8
0
100
AcDbLine
 10
44.68989979134691
 20
14.66109985086287
 30
0.0
 11
47.24129979134691
 21
13.60379985086288
 31
0.0
  0
LINE
  5
45C
330
3D3
100
AcDbEntity
  8
0
100
AcDbLine
 10
40.46689979134691
 20
29.41939985086288
 30
0.0
 11
42.22649979134691
 21
31.75429985086288
 31
0.0
  0
LINE
  5
45D
330
3D3
100
AcDbEntity
  8
0
100
AcDbLine
 10
42.22649979134691
 20
31.75429985086288
 30
0.0
 11
44.5578997913469
 21
33.51649985086288
 31
0.0
  0
LINE
  5
45E
330
3D3
100
AcDbEntity
  8
0
100
AcDbLine
 10
40.73089979134691
 20
29.28719985086288
 30
0.0
 11
42.4463997913469
 21
31.53399985086288
 31
0.0
  0
LINE
  5
45F
330
3D3
100
AcDbEntity
  8
0
100
AcDbLine
 10
42.4463997913469
 20
31.53399985086288
 30
0.0
 11
44.68989979134691
 21
33.25209985086288
 31
0.0
  0
LINE
  5
460
330
3D3
100
AcDbEntity
  8
0
100
AcDbLine
 10
44.5578997913469
 20
33.51649985086288
 30
0.0
 11
47.1972997913469
 21
34.57379985086288
 31
0.0
  0
LINE
  5
461
330
3D3
100
AcDbEntity
  8
0
100
AcDbLine
 10
47.1972997913469
 20
34.57379985086288
 30
0.0
 11
50.0125997913469
 21
34.97029985086288
 31
0.0
  0
LINE
  5
462
330
3D3
100
AcDbEntity
  8
0
100
AcDbLine
 10
44.68989979134691
 20
33.25209985086288
 30
0.0
 11
47.24129979134691
 21
34.30949985086288
 31
0.0
  0
LINE
  5
463
330
3D3
100
AcDbEntity
  8
0
100
AcDbLine
 10
47.24129979134691
 20
34.30949985086288
 30
0.0
 11
50.0125997913469
 21
34.70589985086288
 31
0.0
  0
LINE
  5
464
330
3D3
100
AcDbEntity
  8
0
100
AcDbLine
 10
40.01499979134691
 20
28.28791621914938
 30
0.0
 11
40.01499979134691
 21
58.99999985086288
 31
0.0
  0
LINE
  5
465
330
3D3
100
AcDbEntity
  8
0
100
AcDbLine
 10
40.01499979134691
 20
28.28791621914938
 30
0.0
 11
40.01499979134691
 21
58.99999985086288
 31
0.0
  0
LINE
  5
466
330
3D3
100
AcDbEntity
  8
0
100
AcDbLine
 10
40.01499979134691
 20
58.99999985086288
 30
0.0
 11
60.01009979134691
 21
58.99999985086288
 31
0.0
  0
LINE
  5
467
330
3D3
100
AcDbEntity
  8
0
100
AcDbLine
 10
40.01499979134691
 20
58.99999985086288
 30
0.0
 11
40.01499979134691
 21
28.28791621914938
 31
0.0
  0
LINE
  5
468
330
3D3
100
AcDbEntity
  8
0
100
AcDbLine
 10
40.01499979134691
 20
58.99999985086288
 30
0.0
 11
40.01499979134691
 21
28.28791621914938
 31
0.0
  0
LINE
  5
469
330
3D3
100
AcDbEntity
  8
0
100
AcDbLine
 10
50.0125997913469
 20
12.94299985086287
 30
0.0
 11
52.8278997913469
 21
13.33949985086287
 31
0.0
  0
LINE
  5
46A
330
3D3
100
AcDbEntity
  8
0
100
AcDbLine
 10
50.0125997913469
 20
12.94299985086287
 30
0.0
 11
52.8278997913469
 21
13.33949985086287
 31
0.0
  0
LINE
  5
46B
330
3D3
100
AcDbEntity
  8
0
100
AcDbLine
 10
50.0125997913469
 20
13.20729985086288
 30
0.0
 11
52.78389979134691
 21
13.60379985086288
 31
0.0
  0
LINE
  5
46C
330
3D3
100
AcDbEntity
  8
0
100
AcDbLine
 10
52.8278997913469
 20
13.33949985086287
 30
0.0
 11
55.46719979134691
 21
14.39679985086288
 31
0.0
  0
LINE
  5
46D
330
3D3
100
AcDbEntity
  8
0
100
AcDbLine
 10
78.8054997913469
 20
-0.00000014913713
 30
0.0
 11
80.20509979134692
 21
1.213499850862867
 31
0.0
  0
LINE
  5
46E
330
3D3
100
AcDbEntity
  8
0
100
AcDbLine
 10
75.5062997913469
 20
5.029219850862867
 30
0.0
 11
76.70599979134691
 21
2.340899850862868
 31
0.0
  0
LINE
  5
46F
330
3D3
100
AcDbEntity
  8
0
100
AcDbLine
 10
76.70599979134691
 20
2.340899850862868
 30
0.0
 11
78.8054997913469
 21
-0.00000014913713
 31
0.0
  0
LINE
  5
470
330
3D3
100
AcDbEntity
  8
0
100
AcDbLine
 10
76.70599979134691
 20
2.340899850862868
 30
0.0
 11
78.8054997913469
 21
-0.00000014913713
 31
0.0
  0
LINE
  5
471
330
3D3
100
AcDbEntity
  8
0
100
AcDbLine
 10
77.0058997913469
 20
5.549869850862867
 30
0.0
 11
78.5054997913469
 21
3.207969850862868
 31
0.0
  0
LINE
  5
472
330
3D3
100
AcDbEntity
  8
0
100
AcDbLine
 10
77.0058997913469
 20
5.549869850862867
 30
0.0
 11
77.0058997913469
 21
7.976869850862867
 31
0.0
  0
LINE
  5
473
330
3D3
100
AcDbEntity
  8
0
100
AcDbLine
 10
78.5054997913469
 20
3.207969850862868
 30
0.0
 11
80.20509979134692
 21
1.213499850862867
 31
0.0
  0
LINE
  5
474
330
3D3
100
AcDbEntity
  8
0
100
AcDbLine
 10
78.5054997913469
 20
3.207969850862868
 30
0.0
 11
80.20509979134692
 21
1.213499850862867
 31
0.0
  0
LINE
  5
475
330
3D3
100
AcDbEntity
  8
0
100
AcDbLine
 10
95.8012997913469
 20
1.213499850862867
 30
0.0
 11
97.50089979134692
 21
3.207969850862868
 31
0.0
  0
LINE
  5
476
330
3D3
100
AcDbEntity
  8
0
100
AcDbLine
 10
97.20089979134691
 20
-0.00000014913713
 30
0.0
 11
99.3003997913469
 21
2.340899850862868
 31
0.0
  0
LINE
  5
477
330
3D3
100
AcDbEntity
  8
0
100
AcDbLine
 10
99.3003997913469
 20
2.340899850862868
 30
0.0
 11
100.4999997913469
 21
5.029219850862867
 31
0.0
  0
LINE
  5
478
330
3D3
100
AcDbEntity
  8
0
100
AcDbLine
 10
97.20089979134691
 20
-0.00000014913713
 30
0.0
 11
99.3003997913469
 21
2.340899850862868
 31
0.0
  0
LINE
  5
479
330
3D3
100
AcDbEntity
  8
0
100
AcDbLine
 10
100.4999997913469
 20
5.029219850862867
 30
0.0
 11
100.9999997913469
 21
7.976869850862867
 31
0.0
  0
LINE
  5
47A
330
3D3
100
AcDbEntity
  8
0
100
AcDbLine
 10
99.00049979134692
 20
5.549869850862867
 30
0.0
 11
99.00049979134692
 21
7.976869850862867
 31
0.0
  0
LINE
  5
47B
330
3D3
100
AcDbEntity
  8
0
100
AcDbLine
 10
97.50089979134692
 20
3.207969850862868
 30
0.0
 11
99.00049979134692
 21
5.549869850862867
 31
0.0
  0
LINE
  5
47C
330
3D3
100
AcDbEntity
  8
0
100
AcDbLine
 10
95.8012997913469
 20
1.213499850862867
 30
0.0
 11
95.8012997913469
 21
14.74019985086288
 31
0.0
  0
LINE
  5
47D
330
3D3
100
AcDbEntity
  8
0
100
AcDbLine
 10
95.8012997913469
 20
1.213499850862867
 30
0.0
 11
97.50089979134692
 21
3.207969850862868
 31
0.0
  0
LINE
  5
47E
330
3D3
100
AcDbEntity
  8
0
100
AcDbLine
 10
95.8012997913469
 20
1.213499850862867
 30
0.0
 11
97.20089979134691
 21
-0.00000014913713
 31
0.0
  0
LINE
  5
47F
330
3D3
100
AcDbEntity
  8
0
100
AcDbLine
 10
75.00639979134691
 20
7.976869850862867
 30
0.0
 11
75.5062997913469
 21
10.92549985086288
 31
0.0
  0
LINE
  5
480
330
3D3
100
AcDbEntity
  8
0
100
AcDbLine
 10
75.00639979134691
 20
7.976869850862867
 30
0.0
 11
75.00639979134691
 21
39.99249985086288
 31
0.0
  0
LINE
  5
481
330
3D3
100
AcDbEntity
  8
0
100
AcDbLine
 10
75.00639979134691
 20
7.976869850862867
 30
0.0
 11
75.5062997913469
 21
5.029219850862867
 31
0.0
  0
LINE
  5
482
330
3D3
100
AcDbEntity
  8
0
100
AcDbLine
 10
75.5062997913469
 20
10.92549985086288
 30
0.0
 11
76.70599979134691
 21
13.61279985086288
 31
0.0
  0
LINE
  5
483
330
3D3
100
AcDbEntity
  8
0
100
AcDbLine
 10
77.0058997913469
 20
7.976869850862867
 30
0.0
 11
77.0058997913469
 21
10.40489985086288
 31
0.0
  0
LINE
  5
484
330
3D3
100
AcDbEntity
  8
0
100
AcDbLine
 10
77.0058997913469
 20
7.976869850862867
 30
0.0
 11
77.0058997913469
 21
5.549869850862867
 31
0.0
  0
LINE
  5
485
330
3D3
100
AcDbEntity
  8
0
100
AcDbLine
 10
77.0058997913469
 20
10.40489985086288
 30
0.0
 11
78.5054997913469
 21
12.74579985086288
 31
0.0
  0
LINE
  5
486
330
3D3
100
AcDbEntity
  8
0
100
AcDbLine
 10
77.0058997913469
 20
10.40489985086288
 30
0.0
 11
77.0058997913469
 21
7.976869850862867
 31
0.0
  0
LINE
  5
487
330
3D3
100
AcDbEntity
  8
0
100
AcDbLine
 10
76.70599979134691
 20
13.61279985086288
 30
0.0
 11
78.8054997913469
 21
15.95469985086288
 31
0.0
  0
LINE
  5
488
330
3D3
100
AcDbEntity
  8
0
100
AcDbLine
 10
78.5054997913469
 20
12.74579985086288
 30
0.0
 11
80.20509979134692
 21
14.74019985086288
 31
0.0
  0
LINE
  5
489
330
3D3
100
AcDbEntity
  8
0
100
AcDbLine
 10
100.9999997913469
 20
7.976869850862867
 30
0.0
 11
100.9999997913469
 21
25.49849985086288
 31
0.0
  0
LINE
  5
48A
330
3D3
100
AcDbEntity
  8
0
100
AcDbLine
 10
99.00049979134692
 20
7.976869850862867
 30
0.0
 11
99.00049979134692
 21
10.40489985086288
 31
0.0
  0
LINE
  5
48B
330
3D3
100
AcDbEntity
  8
0
100
AcDbLine
 10
99.00049979134692
 20
7.976869850862867
 30
0.0
 11
99.00049979134692
 21
5.549869850862867
 31
0.0
  0
LINE
  5
48C
330
3D3
100
AcDbEntity
  8
0
100
AcDbLine
 10
100.4999997913469
 20
10.92549985086288
 30
0.0
 11
100.9999997913469
 21
7.976869850862867
 31
0.0
  0
LINE
  5
48D
330
3D3
100
AcDbEntity
  8
0
100
AcDbLine
 10
99.3003997913469
 20
13.61279985086288
 30
0.0
 11
100.4999997913469
 21
10.92549985086288
 31
0.0
  0
LINE
  5
48E
330
3D3
100
AcDbEntity
  8
0
100
AcDbLine
 10
99.00049979134692
 20
10.40489985086288
 30
0.0
 11
99.00049979134692
 21
7.976869850862867
 31
0.0
  0
LINE
  5
48F
330
3D3
100
AcDbEntity
  8
0
100
AcDbLine
 10
97.50089979134692
 20
12.74579985086288
 30
0.0
 11
99.00049979134692
 21
10.40489985086288
 31
0.0
  0
LINE
  5
490
330
3D3
100
AcDbEntity
  8
0
100
AcDbLine
 10
74.0066997913469
 20
7.876749850862867
 30
0.0
 11
75.023379415115
 21
7.876749850862867
 31
0.0
  0
LINE
  5
491
330
3D3
100
AcDbEntity
  8
0
100
AcDbLine
 10
55.46719979134691
 20
14.39679985086288
 30
0.0
 11
57.79869979134691
 21
16.15899985086288
 31
0.0
  0
LINE
  5
492
330
3D3
100
AcDbEntity
  8
0
100
AcDbLine
 10
55.33529979134691
 20
14.66109985086287
 30
0.0
 11
57.57869979134691
 21
16.37929985086288
 31
0.0
  0
LINE
  5
493
330
3D3
100
AcDbEntity
  8
0
100
AcDbLine
 10
55.46719979134691
 20
14.39679985086288
 30
0.0
 11
57.79869979134691
 21
16.15899985086288
 31
0.0
  0
LINE
  5
494
330
3D3
100
AcDbEntity
  8
0
100
AcDbLine
 10
52.8278997913469
 20
13.33949985086287
 30
0.0
 11
55.46719979134691
 21
14.39679985086288
 31
0.0
  0
LINE
  5
495
330
3D3
100
AcDbEntity
  8
0
100
AcDbLine
 10
80.20509979134692
 20
14.74019985086288
 30
0.0
 11
80.20509979134692
 21
1.213499850862867
 31
0.0
  0
LINE
  5
496
330
3D3
100
AcDbEntity
  8
0
100
AcDbLine
 10
78.8054997913469
 20
15.95469985086288
 30
0.0
 11
81.50479979134692
 21
17.77599985086288
 31
0.0
  0
LINE
  5
497
330
3D3
100
AcDbEntity
  8
0
100
AcDbLine
 10
85.20389979134691
 20
17.51569985086288
 30
0.0
 11
88.00319979134691
 21
17.51569985086288
 31
0.0
  0
LINE
  5
498
330
3D3
100
AcDbEntity
  8
0
100
AcDbLine
 10
82.5045997913469
 20
16.21509985086287
 30
0.0
 11
85.20389979134691
 21
17.51569985086288
 31
0.0
  0
LINE
  5
499
330
3D3
100
AcDbEntity
  8
0
100
AcDbLine
 10
80.20509979134692
 20
14.74019985086288
 30
0.0
 11
82.5045997913469
 21
16.21509985086287
 31
0.0
  0
LINE
  5
49A
330
3D3
100
AcDbEntity
  8
0
100
AcDbLine
 10
88.00319979134691
 20
17.51569985086288
 30
0.0
 11
90.8024997913469
 21
17.51569985086288
 31
0.0
  0
LINE
  5
49B
330
3D3
100
AcDbEntity
  8
0
100
AcDbLine
 10
81.50479979134692
 20
17.77599985086288
 30
0.0
 11
84.6039997913469
 21
18.81629985086287
 31
0.0
  0
LINE
  5
49C
330
3D3
100
AcDbEntity
  8
0
100
AcDbLine
 10
90.8024997913469
 20
17.51569985086288
 30
0.0
 11
93.50179979134692
 21
16.21509985086287
 31
0.0
  0
LINE
  5
49D
330
3D3
100
AcDbEntity
  8
0
100
AcDbLine
 10
97.20089979134691
 20
15.95469985086288
 30
0.0
 11
99.3003997913469
 21
13.61279985086288
 31
0.0
  0
LINE
  5
49E
330
3D3
100
AcDbEntity
  8
0
100
AcDbLine
 10
95.8012997913469
 20
14.74019985086288
 30
0.0
 11
97.50089979134692
 21
12.74579985086288
 31
0.0
  0
LINE
  5
49F
330
3D3
100
AcDbEntity
  8
0
100
AcDbLine
 10
94.5015997913469
 20
17.77599985086288
 30
0.0
 11
97.20089979134691
 21
15.95469985086288
 31
0.0
  0
LINE
  5
4A0
330
3D3
100
AcDbEntity
  8
0
100
AcDbLine
 10
93.50179979134692
 20
16.21509985086287
 30
0.0
 11
95.8012997913469
 21
14.74019985086288
 31
0.0
  0
LINE
  5
4A1
330
3D3
100
AcDbEntity
  8
0
100
AcDbLine
 10
59.29429979134691
 20
18.62599985086288
 30
0.0
 11
60.34999979134691
 21
21.18119985086288
 31
0.0
  0
LINE
  5
4A2
330
3D3
100
AcDbEntity
  8
0
100
AcDbLine
 10
59.55819979134691
 20
18.49389985086288
 30
0.0
 11
60.61399979134691
 21
21.13719985086288
 31
0.0
  0
LINE
  5
4A3
330
3D3
100
AcDbEntity
  8
0
100
AcDbLine
 10
57.79869979134691
 20
16.15899985086288
 30
0.0
 11
59.55819979134691
 21
18.49389985086288
 31
0.0
  0
LINE
  5
4A4
330
3D3
100
AcDbEntity
  8
0
100
AcDbLine
 10
84.6039997913469
 20
18.81629985086287
 30
0.0
 11
88.00319979134691
 21
19.24979985086288
 31
0.0
  0
LINE
  5
4A5
330
3D3
100
AcDbEntity
  8
0
100
AcDbLine
 10
88.00319979134691
 20
19.24979985086288
 30
0.0
 11
91.4023997913469
 21
18.81629985086287
 31
0.0
  0
LINE
  5
4A6
330
3D3
100
AcDbEntity
  8
0
100
AcDbLine
 10
91.4023997913469
 20
18.81629985086287
 30
0.0
 11
94.5015997913469
 21
17.77599985086288
 31
0.0
  0
LINE
  5
4A7
330
3D3
100
AcDbEntity
  8
0
100
AcDbLine
 10
75.00639979134691
 20
39.99249985086288
 30
0.0
 11
75.00639979134691
 21
7.976869850862867
 31
0.0
  0
LINE
  5
4A8
330
3D3
100
AcDbEntity
  8
0
100
AcDbLine
 10
100.9999997913469
 20
25.49849985086288
 30
0.0
 11
100.9999997913469
 21
7.976869850862867
 31
0.0
  0
LINE
  5
4A9
330
3D3
100
AcDbEntity
  8
0
100
AcDbLine
 10
60.61399979134691
 20
21.13719985086288
 30
0.0
 11
61.00989979134691
 21
23.95659985086288
 31
0.0
  0
LINE
  5
4AA
330
3D3
100
AcDbEntity
  8
0
100
AcDbLine
 10
60.34999979134691
 20
21.18119985086288
 30
0.0
 11
60.74589979134691
 21
23.95659985086288
 31
0.0
  0
LINE
  5
4AB
330
3D3
100
AcDbEntity
  8
0
100
AcDbLine
 10
59.29429979134691
 20
18.62599985086288
 30
0.0
 11
60.34999979134691
 21
21.18119985086288
 31
0.0
  0
LINE
  5
4AC
330
3D3
100
AcDbEntity
  8
0
100
AcDbLine
 10
59.29429979134691
 20
18.62599985086288
 30
0.0
 11
60.34999979134691
 21
21.18119985086288
 31
0.0
  0
LINE
  5
4AD
330
3D3
100
AcDbEntity
  8
0
100
AcDbLine
 10
57.57869979134691
 20
16.37929985086288
 30
0.0
 11
59.29429979134691
 21
18.62599985086288
 31
0.0
  0
LINE
  5
4AE
330
3D3
100
AcDbEntity
  8
0
100
AcDbLine
 10
55.33529979134691
 20
14.66109985086287
 30
0.0
 11
57.57869979134691
 21
16.37929985086288
 31
0.0
  0
LINE
  5
4AF
330
3D3
100
AcDbEntity
  8
0
100
AcDbLine
 10
52.78389979134691
 20
13.60379985086288
 30
0.0
 11
55.33529979134691
 21
14.66109985086287
 31
0.0
  0
LINE
  5
4B0
330
3D3
100
AcDbEntity
  8
0
100
AcDbLine
 10
60.61399979134691
 20
26.77609985086288
 30
0.0
 11
61.00989979134691
 21
23.95659985086288
 31
0.0
  0
LINE
  5
4B1
330
3D3
100
AcDbEntity
  8
0
100
AcDbLine
 10
60.34999979134691
 20
26.73209985086288
 30
0.0
 11
60.74589979134691
 21
23.95659985086288
 31
0.0
  0
LINE
  5
4B2
330
3D3
100
AcDbEntity
  8
0
100
AcDbLine
 10
59.55819979134691
 20
29.41939985086288
 30
0.0
 11
60.61399979134691
 21
26.77609985086288
 31
0.0
  0
LINE
  5
4B3
330
3D3
100
AcDbEntity
  8
0
100
AcDbLine
 10
57.79869979134691
 20
31.75429985086288
 30
0.0
 11
59.55819979134691
 21
29.41939985086288
 31
0.0
  0
LINE
  5
4B4
330
3D3
100
AcDbEntity
  8
0
100
AcDbLine
 10
59.29429979134691
 20
29.28719985086288
 30
0.0
 11
60.34999979134691
 21
26.73209985086288
 31
0.0
  0
LINE
  5
4B5
330
3D3
100
AcDbEntity
  8
0
100
AcDbLine
 10
57.57869979134691
 20
31.53399985086288
 30
0.0
 11
59.29429979134691
 21
29.28719985086288
 31
0.0
  0
LINE
  5
4B6
330
3D3
100
AcDbEntity
  8
0
100
AcDbLine
 10
55.46719979134691
 20
33.51649985086288
 30
0.0
 11
57.79869979134691
 21
31.75429985086288
 31
0.0
  0
LINE
  5
4B7
330
3D3
100
AcDbEntity
  8
0
100
AcDbLine
 10
52.8278997913469
 20
34.57379985086288
 30
0.0
 11
55.46719979134691
 21
33.51649985086288
 31
0.0
  0
LINE
  5
4B8
330
3D3
100
AcDbEntity
  8
0
100
AcDbLine
 10
55.33529979134691
 20
33.25209985086288
 30
0.0
 11
57.57869979134691
 21
31.53399985086288
 31
0.0
  0
LINE
  5
4B9
330
3D3
100
AcDbEntity
  8
0
100
AcDbLine
 10
52.78389979134691
 20
34.30949985086288
 30
0.0
 11
55.33529979134691
 21
33.25209985086288
 31
0.0
  0
LINE
  5
4BA
330
3D3
100
AcDbEntity
  8
0
100
AcDbLine
 10
60.01009979134691
 20
39.99249985086288
 30
0.0
 11
74.0066997913469
 21
39.99249985086288
 31
0.0
  0
LINE
  5
4BB
330
3D3
100
AcDbEntity
  8
0
100
AcDbLine
 10
50.0125997913469
 20
34.97029985086288
 30
0.0
 11
52.8278997913469
 21
34.57379985086288
 31
0.0
  0
LINE
  5
4BC
330
3D3
100
AcDbEntity
  8
0
100
AcDbLine
 10
50.0125997913469
 20
34.70589985086288
 30
0.0
 11
52.78389979134691
 21
34.30949985086288
 31
0.0
  0
LINE
  5
4BD
330
3D3
100
AcDbEntity
  8
0
100
AcDbLine
 10
76.70599979134691
 20
31.13449985086288
 30
0.0
 11
78.8054997913469
 21
33.47639985086288
 31
0.0
  0
LINE
  5
4BE
330
3D3
100
AcDbEntity
  8
0
100
AcDbLine
 10
100.4999997913469
 20
28.44719985086288
 30
0.0
 11
100.9999997913469
 21
25.49849985086288
 31
0.0
  0
LINE
  5
4BF
330
3D3
100
AcDbEntity
  8
0
100
AcDbLine
 10
99.3003997913469
 20
31.13449985086288
 30
0.0
 11
100.4999997913469
 21
28.44719985086288
 31
0.0
  0
LINE
  5
4C0
330
3D3
100
AcDbEntity
  8
0
100
AcDbLine
 10
77.0058997913469
 20
39.34069985086288
 30
0.0
 11
77.0058997913469
 21
37.80879985086288
 31
0.0
  0
LINE
  5
4C1
330
3D3
100
AcDbEntity
  8
0
100
AcDbLine
 10
77.0058997913469
 20
39.99249985086288
 30
0.0
 11
77.0058997913469
 21
39.34069985086288
 31
0.0
  0
LINE
  5
4C2
330
3D3
100
AcDbEntity
  8
0
100
AcDbLine
 10
74.0066997913469
 20
39.99249985086288
 30
0.0
 11
77.0058997913469
 21
39.99249985086288
 31
0.0
  0
LINE
  5
4C3
330
3D3
100
AcDbEntity
  8
0
100
AcDbLine
 10
77.0058997913469
 20
37.80879985086288
 30
0.0
 11
77.0058997913469
 21
35.23559985086288
 31
0.0
  0
LINE
  5
4C4
330
3D3
100
AcDbEntity
  8
0
100
AcDbLine
 10
81.50479979134692
 20
35.29769985086288
 30
0.0
 11
84.6039997913469
 21
36.33799985086288
 31
0.0
  0
LINE
  5
4C5
330
3D3
100
AcDbEntity
  8
0
100
AcDbLine
 10
78.8054997913469
 20
33.47639985086288
 30
0.0
 11
81.50479979134692
 21
35.29769985086288
 31
0.0
  0
LINE
  5
4C6
330
3D3
100
AcDbEntity
  8
0
100
AcDbLine
 10
97.20089979134691
 20
33.47639985086288
 30
0.0
 11
99.3003997913469
 21
31.13449985086288
 31
0.0
  0
LINE
  5
4C7
330
3D3
100
AcDbEntity
  8
0
100
AcDbLine
 10
84.6039997913469
 20
36.33799985086288
 30
0.0
 11
88.00319979134691
 21
36.77149985086288
 31
0.0
  0
LINE
  5
4C8
330
3D3
100
AcDbEntity
  8
0
100
AcDbLine
 10
88.00319979134691
 20
36.77149985086288
 30
0.0
 11
91.4023997913469
 21
36.33799985086288
 31
0.0
  0
LINE
  5
4C9
330
3D3
100
AcDbEntity
  8
0
100
AcDbLine
 10
91.4023997913469
 20
36.33799985086288
 30
0.0
 11
94.5015997913469
 21
35.29769985086288
 31
0.0
  0
LINE
  5
4CA
330
3D3
100
AcDbEntity
  8
0
100
AcDbLine
 10
94.5015997913469
 20
35.29769985086288
 30
0.0
 11
97.20089979134691
 21
33.47639985086288
 31
0.0
  0
LINE
  5
4CB
330
3D3
100
AcDbEntity
  8
0
100
AcDbLine
 10
77.0058997913469
 20
35.23559985086288
 30
0.0
 11
77.0058997913469
 21
31.98259985086288
 31
0.0
  0
LINE
  5
4CC
330
3D3
100
AcDbEntity
  8
0
100
AcDbLine
 10
77.0058997913469
 20
31.98259985086288
 30
0.0
 11
77.0058997913469
 21
31.46902512354688
 31
0.0
  0
LINE
  5
4CD
330
3D3
100
AcDbEntity
  8
0
100
AcDbLine
 10
60.01009979134691
 20
58.99999985086288
 30
0.0
 11
60.01009979134691
 21
28.28802338751758
 31
0.0
  0
LINE
  5
4CE
330
3D3
100
AcDbEntity
  8
0
100
AcDbLine
 10
60.01009979134691
 20
28.28802338751758
 30
0.0
 11
60.01009979134691
 21
58.99999985086288
 31
0.0
  0
ENDBLK
  5
4D0
330
3D3
100
AcDbEntity
  8
0
100
AcDbBlockEnd
  0
ENDSEC
  0
SECTION
  2
ENTITIES
  0
LINE
  5
21
330
1D
100
AcDbEntity
  8
0
100
AcDbLine
 10
39.01530000000001
 20
90.6
 30
0.0
 11
39.2792
 21
90.0
 31
0.0
  0
LINE
  5
22
330
1D
100
AcDbEntity
  8
0
100
AcDbLine
 10
39.01530000000001
 20
90.6
 30
0.0
 11
39.01530000000001
 21
534.0
 31
0.0
  0
LINE
  5
23
330
1D
100
AcDbEntity
  8
0
100
AcDbLine
 10
39.01530000000001
 20
0.384614999999999
 30
0.0
 11
39.2792
 21
-0.0000000000000015
 31
0.0
  0
LINE
  5
24
330
1D
100
AcDbEntity
  8
0
100
AcDbLine
 10
39.01530000000001
 20
0.384614999999999
 30
0.0
 11
39.01530000000001
 21
89.61539999999999
 31
0.0
  0
LINE
  5
25
330
1D
100
AcDbEntity
  8
0
100
AcDbLine
 10
39.01530000000001
 20
0.384614999999999
 30
0.0
 11
39.4112
 21
0.384614999999999
 31
0.0
  0
LINE
  5
26
330
1D
100
AcDbEntity
  8
0
100
AcDbLine
 10
39.01530000000001
 20
0.384614999999999
 30
0.0
 11
39.2792
 21
-0.0000000000000015
 31
0.0
  0
LINE
  5
27
330
1D
100
AcDbEntity
  8
0
100
AcDbLine
 10
39.01530000000001
 20
89.61539999999999
 30
0.0
 11
39.2792
 21
90.0
 31
0.0
  0
LINE
  5
28
330
1D
100
AcDbEntity
  8
0
100
AcDbLine
 10
39.01530000000001
 20
89.61539999999999
 30
0.0
 11
39.4112
 21
89.61539999999999
 31
0.0
  0
LINE
  5
29
330
1D
100
AcDbEntity
  8
0
100
AcDbLine
 10
39.01530000000001
 20
89.61539999999999
 30
0.0
 11
39.01530000000001
 21
0.384615
 31
0.0
  0
LINE
  5
2A
330
1D
100
AcDbEntity
  8
0
100
AcDbLine
 10
34.0165
 20
675.0
 30
0.0
 11
39.01530000000001
 21
675.0
 31
0.0
  0
LINE
  5
2B
330
1D
100
AcDbEntity
  8
0
100
AcDbLine
 10
34.0165
 20
675.0
 30
0.0
 11
34.0165
 21
675.6019999999999
 31
0.0
  0
LINE
  5
2C
330
1D
100
AcDbEntity
  8
0
100
AcDbLine
 10
34.0165
 20
675.0
 30
0.0
 11
39.01530000000001
 21
675.0
 31
0.0
  0
LINE
  5
2D
330
1D
100
AcDbEntity
  8
0
100
AcDbLine
 10
33.2475
 20
675.0
 30
0.0
 11
34.0165
 21
675.384
 31
0.0
  0
LINE
  5
2E
330
1D
100
AcDbEntity
  8
0
100
AcDbLine
 10
4.792919999999999
 20
675.0
 30
0.0
 11
33.2475
 21
675.0
 31
0.0
  0
LINE
  5
2F
330
1D
100
AcDbEntity
  8
0
100
AcDbLine
 10
4.792919999999999
 20
675.0
 30
0.0
 11
33.2475
 21
675.0
 31
0.0
  0
LINE
  5
30
330
1D
100
AcDbEntity
  8
0
100
AcDbLine
 10
0.0
 20
713.412
 30
0.0
 11
0.102675
 21
713.446
 31
0.0
  0
LINE
  5
31
330
1D
100
AcDbEntity
  8
0
100
AcDbLine
 10
0.0
 20
713.412
 30
0.0
 11
4.023909999999999
 21
701.025110005007
 31
0.0
  0
LINE
  5
32
330
1D
100
AcDbEntity
  8
0
100
AcDbLine
 10
0.102675
 20
713.446
 30
0.0
 11
0.376507
 21
713.5349999999999
 31
0.0
  0
LINE
  5
33
330
1D
100
AcDbEntity
  8
0
100
AcDbLine
 10
0.376507
 20
713.5349999999999
 30
0.0
 11
0.832895
 21
713.6829999999999
 31
0.0
  0
LINE
  5
34
330
1D
100
AcDbEntity
  8
0
100
AcDbLine
 10
1.43765
 20
713.879
 30
0.0
 11
2.122279999999999
 21
714.102
 31
0.0
  0
LINE
  5
35
330
1D
100
AcDbEntity
  8
0
100
AcDbLine
 10
0.832895
 20
713.6829999999999
 30
0.0
 11
1.43765
 21
713.879
 31
0.0
  0
LINE
  5
36
330
1D
100
AcDbEntity
  8
0
100
AcDbLine
 10
1.43765
 20
713.879
 30
0.0
 11
2.122279999999999
 21
714.102
 31
0.0
  0
LINE
  5
37
330
1D
100
AcDbEntity
  8
0
100
AcDbLine
 10
4.023909999999999
 20
675.384
 30
0.0
 11
4.023909999999999
 21
675.96
 31
0.0
  0
LINE
  5
38
330
1D
100
AcDbEntity
  8
0
100
AcDbLine
 10
4.023909999999999
 20
675.384
 30
0.0
 11
4.792919999999999
 21
675.0
 31
0.0
  0
LINE
  5
39
330
1D
100
AcDbEntity
  8
0
100
AcDbLine
 10
4.023909999999999
 20
675.96
 30
0.0
 11
4.023909999999999
 21
677.496
 31
0.0
  0
LINE
  5
3A
330
1D
100
AcDbEntity
  8
0
100
AcDbLine
 10
4.023909999999999
 20
675.96
 30
0.0
 11
4.023909999999999
 21
675.384
 31
0.0
  0
LINE
  5
3B
330
1D
100
AcDbEntity
  8
0
100
AcDbLine
 10
4.023909999999999
 20
677.496
 30
0.0
 11
4.023909999999999
 21
679.992
 31
0.0
  0
LINE
  5
3C
330
1D
100
AcDbEntity
  8
0
100
AcDbLine
 10
4.023909999999999
 20
677.496
 30
0.0
 11
4.023909999999999
 21
675.96
 31
0.0
  0
LINE
  5
3D
330
1D
100
AcDbEntity
  8
0
100
AcDbLine
 10
4.023909999999999
 20
679.992
 30
0.0
 11
4.023909999999999
 21
683.2559999999999
 31
0.0
  0
LINE
  5
3E
330
1D
100
AcDbEntity
  8
0
100
AcDbLine
 10
4.023909999999999
 20
679.992
 30
0.0
 11
4.023909999999999
 21
677.496
 31
0.0
  0
LINE
  5
3F
330
1D
100
AcDbEntity
  8
0
100
AcDbLine
 10
4.023909999999999
 20
683.2559999999999
 30
0.0
 11
4.023909999999999
 21
686.9679999999999
 31
0.0
  0
LINE
  5
40
330
1D
100
AcDbEntity
  8
0
100
AcDbLine
 10
4.023909999999999
 20
683.2559999999999
 30
0.0
 11
4.023909999999999
 21
679.992
 31
0.0
  0
LINE
  5
41
330
1D
100
AcDbEntity
  8
0
100
AcDbLine
 10
4.023909999999999
 20
686.9679999999999
 30
0.0
 11
4.023909999999999
 21
691.0
 31
0.0
  0
LINE
  5
42
330
1D
100
AcDbEntity
  8
0
100
AcDbLine
 10
4.023909999999999
 20
686.9679999999999
 30
0.0
 11
4.023909999999999
 21
683.2559999999999
 31
0.0
  0
LINE
  5
43
330
1D
100
AcDbEntity
  8
0
100
AcDbLine
 10
4.023909999999999
 20
695.032
 30
0.0
 11
4.023909999999999
 21
698.744
 31
0.0
  0
LINE
  5
44
330
1D
100
AcDbEntity
  8
0
100
AcDbLine
 10
4.023909999999999
 20
695.032
 30
0.0
 11
4.023909999999999
 21
691.0
 31
0.0
  0
LINE
  5
45
330
1D
100
AcDbEntity
  8
0
100
AcDbLine
 10
34.0165
 20
675.6019999999999
 30
0.0
 11
34.0165
 21
677.1599999999999
 31
0.0
  0
LINE
  5
46
330
1D
100
AcDbEntity
  8
0
100
AcDbLine
 10
34.0165
 20
675.384
 30
0.0
 11
34.0165
 21
675.96
 31
0.0
  0
LINE
  5
47
330
1D
100
AcDbEntity
  8
0
100
AcDbLine
 10
34.0165
 20
675.384
 30
0.0
 11
34.0165
 21
675.0
 31
0.0
  0
LINE
  5
48
330
1D
100
AcDbEntity
  8
0
100
AcDbLine
 10
34.0165
 20
679.787
 30
0.0
 11
34.0165
 21
683.0379999999999
 31
0.0
  0
LINE
  5
49
330
1D
100
AcDbEntity
  8
0
100
AcDbLine
 10
34.0165
 20
677.1599999999999
 30
0.0
 11
34.0165
 21
679.787
 31
0.0
  0
LINE
  5
4A
330
1D
100
AcDbEntity
  8
0
100
AcDbLine
 10
34.0165
 20
675.96
 30
0.0
 11
34.0165
 21
677.496
 31
0.0
  0
LINE
  5
4B
330
1D
100
AcDbEntity
  8
0
100
AcDbLine
 10
34.0165
 20
675.96
 30
0.0
 11
34.0165
 21
675.384
 31
0.0
  0
LINE
  5
4C
330
1D
100
AcDbEntity
  8
0
100
AcDbLine
 10
34.0165
 20
677.496
 30
0.0
 11
34.0165
 21
679.992
 31
0.0
  0
LINE
  5
4D
330
1D
100
AcDbEntity
  8
0
100
AcDbLine
 10
34.0165
 20
677.496
 30
0.0
 11
34.0165
 21
675.96
 31
0.0
  0
LINE
  5
4E
330
1D
100
AcDbEntity
  8
0
100
AcDbLine
 10
34.0165
 20
683.0379999999999
 30
0.0
 11
34.0165
 21
686.889
 31
0.0
  0
LINE
  5
4F
330
1D
100
AcDbEntity
  8
0
100
AcDbLine
 10
34.0165
 20
686.889
 30
0.0
 11
34.0165
 21
691.0159999999999
 31
0.0
  0
LINE
  5
50
330
1D
100
AcDbEntity
  8
0
100
AcDbLine
 10
34.0165
 20
679.992
 30
0.0
 11
34.0165
 21
683.2559999999999
 31
0.0
  0
LINE
  5
51
330
1D
100
AcDbEntity
  8
0
100
AcDbLine
 10
34.0165
 20
679.992
 30
0.0
 11
34.0165
 21
677.496
 31
0.0
  0
LINE
  5
52
330
1D
100
AcDbEntity
  8
0
100
AcDbLine
 10
34.0165
 20
683.2559999999999
 30
0.0
 11
34.0165
 21
686.9679999999999
 31
0.0
  0
LINE
  5
53
330
1D
100
AcDbEntity
  8
0
100
AcDbLine
 10
34.0165
 20
683.2559999999999
 30
0.0
 11
34.0165
 21
679.992
 31
0.0
  0
LINE
  5
54
330
1D
100
AcDbEntity
  8
0
100
AcDbLine
 10
34.0165
 20
691.0159999999999
 30
0.0
 11
34.0165
 21
695.174
 31
0.0
  0
LINE
  5
55
330
1D
100
AcDbEntity
  8
0
100
AcDbLine
 10
34.0165
 20
686.9679999999999
 30
0.0
 11
34.0165
 21
691.0
 31
0.0
  0
LINE
  5
56
330
1D
100
AcDbEntity
  8
0
100
AcDbLine
 10
34.0165
 20
686.9679999999999
 30
0.0
 11
34.0165
 21
683.2559999999999
 31
0.0
  0
LINE
  5
57
330
1D
100
AcDbEntity
  8
0
100
AcDbLine
 10
4.023909999999999
 20
691.0
 30
0.0
 11
4.023909999999999
 21
695.032
 31
0.0
  0
LINE
  5
58
330
1D
100
AcDbEntity
  8
0
100
AcDbLine
 10
4.023909999999999
 20
691.0
 30
0.0
 11
4.023909999999999
 21
686.9679999999999
 31
0.0
  0
LINE
  5
59
330
1D
100
AcDbEntity
  8
0
100
AcDbLine
 10
4.023909999999999
 20
702.008
 30
0.0
 11
4.023909999999999
 21
698.744
 31
0.0
  0
LINE
  5
5A
330
1D
100
AcDbEntity
  8
0
100
AcDbLine
 10
4.023909999999999
 20
702.008
 30
0.0
 11
4.023909999999999
 21
704.504
 31
0.0
  0
LINE
  5
5B
330
1D
100
AcDbEntity
  8
0
100
AcDbLine
 10
4.023909999999999
 20
701.025110005007
 30
0.0
 11
4.023909999999999
 21
698.744
 31
0.0
  0
LINE
  5
5C
330
1D
100
AcDbEntity
  8
0
100
AcDbLine
 10
34.0165
 20
695.174
 30
0.0
 11
34.0165
 21
699.076
 31
0.0
  0
LINE
  5
5D
330
1D
100
AcDbEntity
  8
0
100
AcDbLine
 10
34.0165
 20
699.076
 30
0.0
 11
34.0165
 21
702.325
 31
0.0
  0
LINE
  5
5E
330
1D
100
AcDbEntity
  8
0
100
AcDbLine
 10
4.023909999999999
 20
698.744
 30
0.0
 11
4.023909999999999
 21
701.025110005007
 31
0.0
  0
LINE
  5
5F
330
1D
100
AcDbEntity
  8
0
100
AcDbLine
 10
4.023909999999999
 20
698.744
 30
0.0
 11
4.023909999999999
 21
695.032
 31
0.0
  0
LINE
  5
60
330
1D
100
AcDbEntity
  8
0
100
AcDbLine
 10
4.023909999999999
 20
698.744
 30
0.0
 11
4.023909999999999
 21
702.008
 31
0.0
  0
LINE
  5
61
330
1D
100
AcDbEntity
  8
0
100
AcDbLine
 10
34.0165
 20
702.008
 30
0.0
 11
34.0165
 21
704.504
 31
0.0
  0
LINE
  5
62
330
1D
100
AcDbEntity
  8
0
100
AcDbLine
 10
34.0165
 20
702.008
 30
0.0
 11
34.0165
 21
698.744
 31
0.0
  0
LINE
  5
63
330
1D
100
AcDbEntity
  8
0
100
AcDbLine
 10
34.0165
 20
698.744
 30
0.0
 11
34.0165
 21
702.008
 31
0.0
  0
LINE
  5
64
330
1D
100
AcDbEntity
  8
0
100
AcDbLine
 10
34.0165
 20
698.744
 30
0.0
 11
34.0165
 21
695.032
 31
0.0
  0
LINE
  5
65
330
1D
100
AcDbEntity
  8
0
100
AcDbLine
 10
34.0165
 20
695.032
 30
0.0
 11
34.0165
 21
698.744
 31
0.0
  0
LINE
  5
66
330
1D
100
AcDbEntity
  8
0
100
AcDbLine
 10
34.0165
 20
695.032
 30
0.0
 11
34.0165
 21
691.0
 31
0.0
  0
LINE
  5
67
330
1D
100
AcDbEntity
  8
0
100
AcDbLine
 10
34.0165
 20
691.0
 30
0.0
 11
34.0165
 21
695.032
 31
0.0
  0
LINE
  5
68
330
1D
100
AcDbEntity
  8
0
100
AcDbLine
 10
34.0165
 20
691.0
 30
0.0
 11
34.0165
 21
686.9679999999999
 31
0.0
  0
LINE
  5
69
330
1D
100
AcDbEntity
  8
0
100
AcDbLine
 10
4.023909999999999
 20
706.0399999999999
 30
0.0
 11
4.023909999999999
 21
704.504
 31
0.0
  0
LINE
  5
6A
330
1D
100
AcDbEntity
  8
0
100
AcDbLine
 10
4.023909999999999
 20
704.504
 30
0.0
 11
4.023909999999999
 21
702.008
 31
0.0
  0
LINE
  5
6B
330
1D
100
AcDbEntity
  8
0
100
AcDbLine
 10
4.023909999999999
 20
704.504
 30
0.0
 11
4.023909999999999
 21
706.0399999999999
 31
0.0
  0
LINE
  5
6C
330
1D
100
AcDbEntity
  8
0
100
AcDbLine
 10
8.36089893720678
 20
707.0
 30
0.0
 11
33.2475
 21
707.0
 31
0.0
  0
LINE
  5
6D
330
1D
100
AcDbEntity
  8
0
100
AcDbLine
 10
8.360898937206789
 20
707.0
 30
0.0
 11
33.2475
 21
707.0
 31
0.0
  0
LINE
  5
6E
330
1D
100
AcDbEntity
  8
0
100
AcDbLine
 10
34.0165
 20
702.325
 30
0.0
 11
34.0165
 21
704.8939999999999
 31
0.0
  0
LINE
  5
6F
330
1D
100
AcDbEntity
  8
0
100
AcDbLine
 10
34.0165
 20
706.4249999999999
 30
0.0
 11
34.0165
 21
707.0759999999999
 31
0.0
  0
LINE
  5
70
330
1D
100
AcDbEntity
  8
0
100
AcDbLine
 10
34.0165
 20
704.8939999999999
 30
0.0
 11
34.0165
 21
706.4249999999999
 31
0.0
  0
LINE
  5
71
330
1D
100
AcDbEntity
  8
0
100
AcDbLine
 10
34.0165
 20
707.0759999999999
 30
0.0
 11
39.01530000000001
 21
707.0759999999999
 31
0.0
  0
LINE
  5
72
330
1D
100
AcDbEntity
  8
0
100
AcDbLine
 10
34.0165
 20
707.0759999999999
 30
0.0
 11
34.0165
 21
706.6159999999999
 31
0.0
  0
LINE
  5
73
330
1D
100
AcDbEntity
  8
0
100
AcDbLine
 10
34.0165
 20
707.0759999999999
 30
0.0
 11
39.01530000000001
 21
707.0759999999999
 31
0.0
  0
LINE
  5
74
330
1D
100
AcDbEntity
  8
0
100
AcDbLine
 10
34.0165
 20
706.6159999999999
 30
0.0
 11
34.0165
 21
706.0399999999999
 31
0.0
  0
LINE
  5
75
330
1D
100
AcDbEntity
  8
0
100
AcDbLine
 10
34.0165
 20
706.0399999999999
 30
0.0
 11
34.0165
 21
706.6159999999999
 31
0.0
  0
LINE
  5
76
330
1D
100
AcDbEntity
  8
0
100
AcDbLine
 10
34.0165
 20
706.0399999999999
 30
0.0
 11
34.0165
 21
704.504
 31
0.0
  0
LINE
  5
77
330
1D
100
AcDbEntity
  8
0
100
AcDbLine
 10
34.0165
 20
704.504
 30
0.0
 11
34.0165
 21
706.0399999999999
 31
0.0
  0
LINE
  5
78
330
1D
100
AcDbEntity
  8
0
100
AcDbLine
 10
34.0165
 20
704.504
 30
0.0
 11
34.0165
 21
702.008
 31
0.0
  0
LINE
  5
79
330
1D
100
AcDbEntity
  8
0
100
AcDbLine
 10
33.2475
 20
707.0
 30
0.0
 11
34.0165
 21
706.6159999999999
 31
0.0
  0
LINE
  5
7A
330
1D
100
AcDbEntity
  8
0
100
AcDbLine
 10
2.8525
 20
714.3390000000001
 30
0.0
 11
3.58272
 21
714.5769999999999
 31
0.0
  0
LINE
  5
7B
330
1D
100
AcDbEntity
  8
0
100
AcDbLine
 10
5.602219999999999
 20
715.2329999999999
 30
0.0
 11
5.704889999999999
 21
715.266
 31
0.0
  0
LINE
  5
7C
330
1D
100
AcDbEntity
  8
0
100
AcDbLine
 10
5.704889999999999
 20
715.266
 30
0.0
 11
8.41387543569686
 21
706.926701770648
 31
0.0
  0
LINE
  5
7D
330
1D
100
AcDbEntity
  8
0
100
AcDbLine
 10
5.704889999999999
 20
715.266
 30
0.0
 11
8.41387543569686
 21
706.926701770648
 31
0.0
  0
LINE
  5
7E
330
1D
100
AcDbEntity
  8
0
100
AcDbLine
 10
5.328389999999999
 20
715.144
 30
0.0
 11
5.602219999999999
 21
715.2329999999999
 31
0.0
  0
LINE
  5
7F
330
1D
100
AcDbEntity
  8
0
100
AcDbLine
 10
4.871999999999999
 20
714.996
 30
0.0
 11
5.328389999999999
 21
715.144
 31
0.0
  0
LINE
  5
80
330
1D
100
AcDbEntity
  8
0
100
AcDbLine
 10
4.267249999999999
 20
714.799
 30
0.0
 11
4.871999999999999
 21
714.996
 31
0.0
  0
LINE
  5
81
330
1D
100
AcDbEntity
  8
0
100
AcDbLine
 10
3.58272
 20
714.5769999999999
 30
0.0
 11
4.267249999999999
 21
714.799
 31
0.0
  0
LINE
  5
82
330
1D
100
AcDbEntity
  8
0
100
AcDbLine
 10
2.122279999999999
 20
714.102
 30
0.0
 11
2.8525
 21
714.3390000000001
 31
0.0
  0
LINE
  5
83
330
1D
100
AcDbEntity
  8
0
100
AcDbLine
 10
39.01530000000001
 20
675.0
 30
0.0
 11
39.01530000000001
 21
534.0
 31
0.0
  0
LINE
  5
84
330
1D
100
AcDbEntity
  8
0
100
AcDbLine
 10
39.01530000000001
 20
706.994624593025
 30
0.0
 11
39.01530000000001
 21
959.3999999999999
 31
0.0
  0
LINE
  5
85
330
1D
100
AcDbEntity
  8
0
100
AcDbLine
 10
39.01530000000001
 20
534.0
 30
0.0
 11
39.01530000000001
 21
675.0
 31
0.0
  0
LINE
  5
86
330
1D
100
AcDbEntity
  8
0
100
AcDbLine
 10
39.01530000000001
 20
534.0
 30
0.0
 11
39.01530000000001
 21
90.6
 31
0.0
  0
LINE
  5
87
330
1D
100
AcDbEntity
  8
0
100
AcDbLine
 10
39.01530000000001
 20
959.3999999999999
 30
0.0
 11
39.2792
 21
960.0
 31
0.0
  0
LINE
  5
88
330
1D
100
AcDbEntity
  8
0
100
AcDbLine
 10
39.01530000000001
 20
959.3999999999999
 30
0.0
 11
39.01530000000001
 21
706.994624593025
 31
0.0
  0
LINE
  5
89
330
1D
100
AcDbEntity
  8
0
100
AcDbLine
 10
39.01530000000001
 20
1049.62
 30
0.0
 11
39.2792
 21
1050.0
 31
0.0
  0
LINE
  5
8A
330
1D
100
AcDbEntity
  8
0
100
AcDbLine
 10
39.01530000000001
 20
1049.62
 30
0.0
 11
39.01530000000001
 21
960.3849999999999
 31
0.0
  0
LINE
  5
8B
330
1D
100
AcDbEntity
  8
0
100
AcDbLine
 10
39.01530000000001
 20
1049.62
 30
0.0
 11
39.4112
 21
1049.62
 31
0.0
  0
LINE
  5
8C
330
1D
100
AcDbEntity
  8
0
100
AcDbLine
 10
39.2792
 20
-0.0000000000000015
 30
0.0
 11
39.6751
 21
-0.0000000000000016
 31
0.0
  0
LINE
  5
8D
330
1D
100
AcDbEntity
  8
0
100
AcDbLine
 10
39.2792
 20
-0.0000000000000015
 30
0.0
 11
39.6751
 21
-0.0000000000000013
 31
0.0
  0
LINE
  5
8E
330
1D
100
AcDbEntity
  8
0
100
AcDbLine
 10
39.2792
 20
90.0
 30
0.0
 11
39.6751
 21
90.0
 31
0.0
  0
LINE
  5
8F
330
1D
100
AcDbEntity
  8
0
100
AcDbLine
 10
39.6751
 20
-0.0000000000000013
 30
0.0
 11
40.73089999999999
 21
-0.0000000000000011
 31
0.0
  0
LINE
  5
90
330
1D
100
AcDbEntity
  8
0
100
AcDbLine
 10
39.4112
 20
0.384614999999999
 30
0.0
 11
40.4669
 21
0.384614999999999
 31
0.0
  0
LINE
  5
91
330
1D
100
AcDbEntity
  8
0
100
AcDbLine
 10
39.6751
 20
-0.0000000000000016
 30
0.0
 11
40.73089999999999
 21
-0.0000000000000018
 31
0.0
  0
LINE
  5
92
330
1D
100
AcDbEntity
  8
0
100
AcDbLine
 10
39.4112
 20
89.61539999999999
 30
0.0
 11
40.4669
 21
89.61539999999999
 31
0.0
  0
LINE
  5
93
330
1D
100
AcDbEntity
  8
0
100
AcDbLine
 10
40.73089999999999
 20
-0.0000000000000011
 30
0.0
 11
42.44639999999999
 21
-0.000000000000001
 31
0.0
  0
LINE
  5
94
330
1D
100
AcDbEntity
  8
0
100
AcDbLine
 10
40.4669
 20
0.384614999999999
 30
0.0
 11
42.2265
 21
0.384614999999999
 31
0.0
  0
LINE
  5
95
330
1D
100
AcDbEntity
  8
0
100
AcDbLine
 10
40.73089999999999
 20
-0.0000000000000018
 30
0.0
 11
42.44639999999999
 21
-0.0000000000000019
 31
0.0
  0
LINE
  5
96
330
1D
100
AcDbEntity
  8
0
100
AcDbLine
 10
40.4669
 20
89.61539999999999
 30
0.0
 11
42.2265
 21
89.61539999999999
 31
0.0
  0
LINE
  5
97
330
1D
100
AcDbEntity
  8
0
100
AcDbLine
 10
39.6751
 20
90.0
 30
0.0
 11
40.73089999999999
 21
90.0
 31
0.0
  0
LINE
  5
98
330
1D
100
AcDbEntity
  8
0
100
AcDbLine
 10
40.73089999999999
 20
90.0
 30
0.0
 11
42.44639999999999
 21
90.0
 31
0.0
  0
LINE
  5
99
330
1D
100
AcDbEntity
  8
0
100
AcDbLine
 10
39.2792
 20
960.0
 30
0.0
 11
39.6751
 21
960.0
 31
0.0
  0
LINE
  5
9A
330
1D
100
AcDbEntity
  8
0
100
AcDbLine
 10
39.6751
 20
960.0
 30
0.0
 11
40.73089999999999
 21
960.0
 31
0.0
  0
LINE
  5
9B
330
1D
100
AcDbEntity
  8
0
100
AcDbLine
 10
42.2265
 20
0.384614999999999
 30
0.0
 11
44.55789999999999
 21
0.384614999999999
 31
0.0
  0
LINE
  5
9C
330
1D
100
AcDbEntity
  8
0
100
AcDbLine
 10
42.44639999999999
 20
-0.000000000000001
 30
0.0
 11
44.6899
 21
-0.0000000000000009
 31
0.0
  0
LINE
  5
9D
330
1D
100
AcDbEntity
  8
0
100
AcDbLine
 10
42.44639999999999
 20
-0.0000000000000019
 30
0.0
 11
44.6899
 21
-0.000000000000002
 31
0.0
  0
LINE
  5
9E
330
1D
100
AcDbEntity
  8
0
100
AcDbLine
 10
42.2265
 20
89.61539999999999
 30
0.0
 11
44.55789999999999
 21
89.61539999999999
 31
0.0
  0
LINE
  5
9F
330
1D
100
AcDbEntity
  8
0
100
AcDbLine
 10
44.55789999999999
 20
0.384614999999999
 30
0.0
 11
47.1973
 21
0.384614999999999
 31
0.0
  0
LINE
  5
A0
330
1D
100
AcDbEntity
  8
0
100
AcDbLine
 10
44.6899
 20
-0.0000000000000009
 30
0.0
 11
47.2413
 21
-0.0000000000000008
 31
0.0
  0
LINE
  5
A1
330
1D
100
AcDbEntity
  8
0
100
AcDbLine
 10
44.6899
 20
-0.000000000000002
 30
0.0
 11
47.2413
 21
-0.0000000000000021
 31
0.0
  0
LINE
  5
A2
330
1D
100
AcDbEntity
  8
0
100
AcDbLine
 10
44.55789999999999
 20
89.61539999999999
 30
0.0
 11
47.1973
 21
89.61539999999999
 31
0.0
  0
LINE
  5
A3
330
1D
100
AcDbEntity
  8
0
100
AcDbLine
 10
42.44639999999999
 20
90.0
 30
0.0
 11
44.6899
 21
90.0
 31
0.0
  0
LINE
  5
A4
330
1D
100
AcDbEntity
  8
0
100
AcDbLine
 10
44.6899
 20
90.0
 30
0.0
 11
47.2413
 21
90.0
 31
0.0
  0
LINE
  5
A5
330
1D
100
AcDbEntity
  8
0
100
AcDbLine
 10
40.73089999999999
 20
960.0
 30
0.0
 11
42.44639999999999
 21
960.0
 31
0.0
  0
LINE
  5
A6
330
1D
100
AcDbEntity
  8
0
100
AcDbLine
 10
42.44639999999999
 20
960.0
 30
0.0
 11
44.6899
 21
960.0
 31
0.0
  0
LINE
  5
A7
330
1D
100
AcDbEntity
  8
0
100
AcDbLine
 10
47.1973
 20
0.384614999999999
 30
0.0
 11
50.0126
 21
0.384614999999999
 31
0.0
  0
LINE
  5
A8
330
1D
100
AcDbEntity
  8
0
100
AcDbLine
 10
50.0126
 20
-0.0000000000000021
 30
0.0
 11
52.7839
 21
-0.0000000000000021
 31
0.0
  0
LINE
  5
A9
330
1D
100
AcDbEntity
  8
0
100
AcDbLine
 10
50.0126
 20
90.0
 30
0.0
 11
52.7839
 21
90.0
 31
0.0
  0
LINE
  5
AA
330
1D
100
AcDbEntity
  8
0
100
AcDbLine
 10
50.0126
 20
89.61539999999999
 30
0.0
 11
52.8279
 21
89.61539999999999
 31
0.0
  0
LINE
  5
AB
330
1D
100
AcDbEntity
  8
0
100
AcDbLine
 10
50.0126
 20
0.384614999999999
 30
0.0
 11
52.8279
 21
0.384614999999999
 31
0.0
  0
LINE
  5
AC
330
1D
100
AcDbEntity
  8
0
100
AcDbLine
 10
50.0126
 20
-0.0000000000000008
 30
0.0
 11
52.7839
 21
-0.0000000000000008
 31
0.0
  0
LINE
  5
AD
330
1D
100
AcDbEntity
  8
0
100
AcDbLine
 10
47.2413
 20
-0.0000000000000008
 30
0.0
 11
50.0126
 21
-0.0000000000000008
 31
0.0
  0
LINE
  5
AE
330
1D
100
AcDbEntity
  8
0
100
AcDbLine
 10
47.2413
 20
-0.0000000000000021
 30
0.0
 11
50.0126
 21
-0.0000000000000021
 31
0.0
  0
LINE
  5
AF
330
1D
100
AcDbEntity
  8
0
100
AcDbLine
 10
47.1973
 20
89.61539999999999
 30
0.0
 11
50.0126
 21
89.61539999999999
 31
0.0
  0
LINE
  5
B0
330
1D
100
AcDbEntity
  8
0
100
AcDbLine
 10
47.2413
 20
90.0
 30
0.0
 11
50.0126
 21
90.0
 31
0.0
  0
LINE
  5
B1
330
1D
100
AcDbEntity
  8
0
100
AcDbLine
 10
55.33529999999999
 20
-0.0000000000000009
 30
0.0
 11
57.5787
 21
-0.000000000000001
 31
0.0
  0
LINE
  5
B2
330
1D
100
AcDbEntity
  8
0
100
AcDbLine
 10
52.7839
 20
90.0
 30
0.0
 11
55.33529999999999
 21
90.0
 31
0.0
  0
LINE
  5
B3
330
1D
100
AcDbEntity
  8
0
100
AcDbLine
 10
52.8279
 20
89.61539999999999
 30
0.0
 11
55.4672
 21
89.61539999999999
 31
0.0
  0
LINE
  5
B4
330
1D
100
AcDbEntity
  8
0
100
AcDbLine
 10
55.33529999999999
 20
90.0
 30
0.0
 11
57.5787
 21
90.0
 31
0.0
  0
LINE
  5
B5
330
1D
100
AcDbEntity
  8
0
100
AcDbLine
 10
52.8279
 20
0.384614999999999
 30
0.0
 11
55.4672
 21
0.384614999999999
 31
0.0
  0
LINE
  5
B6
330
1D
100
AcDbEntity
  8
0
100
AcDbLine
 10
52.7839
 20
-0.0000000000000008
 30
0.0
 11
55.33529999999999
 21
-0.0000000000000009
 31
0.0
  0
LINE
  5
B7
330
1D
100
AcDbEntity
  8
0
100
AcDbLine
 10
55.33529999999999
 20
-0.000000000000002
 30
0.0
 11
57.5787
 21
-0.0000000000000019
 31
0.0
  0
LINE
  5
B8
330
1D
100
AcDbEntity
  8
0
100
AcDbLine
 10
52.7839
 20
-0.0000000000000021
 30
0.0
 11
55.33529999999999
 21
-0.000000000000002
 31
0.0
  0
LINE
  5
B9
330
1D
100
AcDbEntity
  8
0
100
AcDbLine
 10
59.29429999999999
 20
-0.0000000000000011
 30
0.0
 11
60.35
 21
-0.0000000000000013
 31
0.0
  0
LINE
  5
BA
330
1D
100
AcDbEntity
  8
0
100
AcDbLine
 10
55.4672
 20
89.61539999999999
 30
0.0
 11
57.79869999999999
 21
89.61539999999999
 31
0.0
  0
LINE
  5
BB
330
1D
100
AcDbEntity
  8
0
100
AcDbLine
 10
57.5787
 20
90.0
 30
0.0
 11
59.29429999999999
 21
90.0
 31
0.0
  0
LINE
  5
BC
330
1D
100
AcDbEntity
  8
0
100
AcDbLine
 10
59.29429999999999
 20
90.0
 30
0.0
 11
60.35
 21
90.0
 31
0.0
  0
LINE
  5
BD
330
1D
100
AcDbEntity
  8
0
100
AcDbLine
 10
57.79869999999999
 20
89.61539999999999
 30
0.0
 11
59.5582
 21
89.61539999999999
 31
0.0
  0
LINE
  5
BE
330
1D
100
AcDbEntity
  8
0
100
AcDbLine
 10
57.79869999999999
 20
0.384614999999999
 30
0.0
 11
59.5582
 21
0.384614999999999
 31
0.0
  0
LINE
  5
BF
330
1D
100
AcDbEntity
  8
0
100
AcDbLine
 10
55.4672
 20
0.384614999999999
 30
0.0
 11
57.79869999999999
 21
0.384614999999999
 31
0.0
  0
LINE
  5
C0
330
1D
100
AcDbEntity
  8
0
100
AcDbLine
 10
57.5787
 20
-0.000000000000001
 30
0.0
 11
59.29429999999999
 21
-0.0000000000000011
 31
0.0
  0
LINE
  5
C1
330
1D
100
AcDbEntity
  8
0
100
AcDbLine
 10
59.29429999999999
 20
-0.0000000000000018
 30
0.0
 11
60.35
 21
-0.0000000000000016
 31
0.0
  0
LINE
  5
C2
330
1D
100
AcDbEntity
  8
0
100
AcDbLine
 10
57.5787
 20
-0.0000000000000019
 30
0.0
 11
59.29429999999999
 21
-0.0000000000000018
 31
0.0
  0
LINE
  5
C3
330
1D
100
AcDbEntity
  8
0
100
AcDbLine
 10
60.7459
 20
-0.0000000000000015
 30
0.0
 11
61.0099
 21
0.384614999999999
 31
0.0
  0
LINE
  5
C4
330
1D
100
AcDbEntity
  8
0
100
AcDbLine
 10
59.5582
 20
89.61539999999999
 30
0.0
 11
60.61399999999999
 21
89.61539999999999
 31
0.0
  0
LINE
  5
C5
330
1D
100
AcDbEntity
  8
0
100
AcDbLine
 10
60.35
 20
90.0
 30
0.0
 11
60.7459
 21
90.0
 31
0.0
  0
LINE
  5
C6
330
1D
100
AcDbEntity
  8
0
100
AcDbLine
 10
60.7459
 20
90.0
 30
0.0
 11
61.0099
 21
89.61539999999999
 31
0.0
  0
LINE
  5
C7
330
1D
100
AcDbEntity
  8
0
100
AcDbLine
 10
60.7459
 20
90.0
 30
0.0
 11
61.0099
 21
90.6
 31
0.0
  0
LINE
  5
C8
330
1D
100
AcDbEntity
  8
0
100
AcDbLine
 10
60.61399999999999
 20
89.61539999999999
 30
0.0
 11
61.0099
 21
89.61539999999999
 31
0.0
  0
LINE
  5
C9
330
1D
100
AcDbEntity
  8
0
100
AcDbLine
 10
60.61399999999999
 20
0.384614999999999
 30
0.0
 11
61.0099
 21
0.384614999999999
 31
0.0
  0
LINE
  5
CA
330
1D
100
AcDbEntity
  8
0
100
AcDbLine
 10
59.5582
 20
0.384614999999999
 30
0.0
 11
60.61399999999999
 21
0.384614999999999
 31
0.0
  0
LINE
  5
CB
330
1D
100
AcDbEntity
  8
0
100
AcDbLine
 10
60.35
 20
-0.0000000000000013
 30
0.0
 11
60.7459
 21
-0.0000000000000015
 31
0.0
  0
LINE
  5
CC
330
1D
100
AcDbEntity
  8
0
100
AcDbLine
 10
61.0099
 20
0.384614999999999
 30
0.0
 11
61.0099
 21
89.61539999999999
 31
0.0
  0
LINE
  5
CD
330
1D
100
AcDbEntity
  8
0
100
AcDbLine
 10
61.0099
 20
675.0
 30
0.0
 11
74.00669999999999
 21
675.0
 31
0.0
  0
LINE
  5
CE
330
1D
100
AcDbEntity
  8
0
100
AcDbLine
 10
61.0099
 20
90.6
 30
0.0
 11
61.0099
 21
534.0
 31
0.0
  0
LINE
  5
CF
330
1D
100
AcDbEntity
  8
0
100
AcDbLine
 10
61.0099
 20
89.61539999999999
 30
0.0
 11
61.0099
 21
0.384615
 31
0.0
  0
LINE
  5
D0
330
1D
100
AcDbEntity
  8
0
100
AcDbLine
 10
60.7459
 20
-0.0000000000000015
 30
0.0
 11
61.0099
 21
0.384614999999999
 31
0.0
  0
LINE
  5
D1
330
1D
100
AcDbEntity
  8
0
100
AcDbLine
 10
60.35
 20
-0.0000000000000016
 30
0.0
 11
60.7459
 21
-0.0000000000000015
 31
0.0
  0
LINE
  5
D2
330
1D
100
AcDbEntity
  8
0
100
AcDbLine
 10
61.0099
 20
534.0
 30
0.0
 11
61.0099
 21
675.1956497741949
 31
0.0
  0
LINE
  5
D3
330
1D
100
AcDbEntity
  8
0
100
AcDbLine
 10
61.0099
 20
534.0
 30
0.0
 11
61.0099
 21
90.6
 31
0.0
  0
LINE
  5
D4
330
1D
100
AcDbEntity
  8
0
100
AcDbLine
 10
61.0099
 20
707.0759999999999
 30
0.0
 11
61.0099
 21
959.3999999999999
 31
0.0
  0
LINE
  5
D5
330
1D
100
AcDbEntity
  8
0
100
AcDbLine
 10
61.0099
 20
707.0759999999999
 30
0.0
 11
74.00669999999999
 21
707.0759999999999
 31
0.0
  0
LINE
  5
D6
330
1D
100
AcDbEntity
  8
0
100
AcDbLine
 10
61.0099
 20
675.1956497741949
 30
0.0
 11
61.0099
 21
534.0
 31
0.0
  0
LINE
  5
D7
330
1D
100
AcDbEntity
  8
0
100
AcDbLine
 10
77.0059
 20
683.0379999999999
 30
0.0
 11
77.0059
 21
679.787
 31
0.0
  0
LINE
  5
D8
330
1D
100
AcDbEntity
  8
0
100
AcDbLine
 10
77.0059
 20
679.787
 30
0.0
 11
77.0059
 21
677.1599999999999
 31
0.0
  0
LINE
  5
D9
330
1D
100
AcDbEntity
  8
0
100
AcDbLine
 10
77.0059
 20
677.1599999999999
 30
0.0
 11
77.0059
 21
675.6019999999999
 31
0.0
  0
LINE
  5
DA
330
1D
100
AcDbEntity
  8
0
100
AcDbLine
 10
77.0059
 20
675.6019999999999
 30
0.0
 11
77.0059
 21
675.0
 31
0.0
  0
LINE
  5
DB
330
1D
100
AcDbEntity
  8
0
100
AcDbLine
 10
74.00669999999999
 20
675.0
 30
0.0
 11
77.0059
 21
675.0
 31
0.0
  0
LINE
  5
DC
330
1D
100
AcDbEntity
  8
0
100
AcDbLine
 10
77.0059
 20
686.889
 30
0.0
 11
77.0059
 21
683.0379999999999
 31
0.0
  0
LINE
  5
DD
330
1D
100
AcDbEntity
  8
0
100
AcDbLine
 10
77.0059
 20
691.0159999999999
 30
0.0
 11
77.0059
 21
686.889
 31
0.0
  0
LINE
  5
DE
330
1D
100
AcDbEntity
  8
0
100
AcDbLine
 10
77.0059
 20
698.889161228864
 30
0.0
 11
78.80549999999999
 21
697.7319999999999
 31
0.0
  0
LINE
  5
DF
330
1D
100
AcDbEntity
  8
0
100
AcDbLine
 10
77.0059
 20
695.174
 30
0.0
 11
77.0059
 21
691.0159999999999
 31
0.0
  0
LINE
  5
E0
330
1D
100
AcDbEntity
  8
0
100
AcDbLine
 10
77.0059
 20
699.076
 30
0.0
 11
77.0059
 21
695.174
 31
0.0
  0
LINE
  5
E1
330
1D
100
AcDbEntity
  8
0
100
AcDbLine
 10
75.0064
 20
706.859007235263
 30
0.0
 11
75.0064
 21
732.643
 31
0.0
  0
LINE
  5
E2
330
1D
100
AcDbEntity
  8
0
100
AcDbLine
 10
77.0059
 20
702.325
 30
0.0
 11
77.0059
 21
699.076
 31
0.0
  0
LINE
  5
E3
330
1D
100
AcDbEntity
  8
0
100
AcDbLine
 10
80.20509999999999
 20
698.432
 30
0.0
 11
80.20509999999999
 21
728.743
 31
0.0
  0
LINE
  5
E4
330
1D
100
AcDbEntity
  8
0
100
AcDbLine
 10
78.80549999999999
 20
697.7319999999999
 30
0.0
 11
80.20509999999999
 21
698.432
 31
0.0
  0
LINE
  5
E6
330
1D
100
AcDbEntity
  8
0
100
AcDbLine
 10
95.8013
 20
698.432
 30
0.0
 11
97.2009
 21
697.7319999999999
 31
0.0
  0
LINE
  5
E8
330
1D
100
AcDbEntity
  8
0
100
AcDbLine
 10
100.5
 20
700.6319999999999
 30
0.0
 11
101.0
 21
702.332
 31
0.0
  0
LINE
  5
E9
330
1D
100
AcDbEntity
  8
0
100
AcDbLine
 10
99.30039999999999
 20
699.082
 30
0.0
 11
100.5
 21
700.6319999999999
 31
0.0
  0
LINE
  5
EA
330
1D
100
AcDbEntity
  8
0
100
AcDbLine
 10
97.2009
 20
697.7319999999999
 30
0.0
 11
99.30039999999999
 21
699.082
 31
0.0
  0
LINE
  5
EB
330
1D
100
AcDbEntity
  8
0
100
AcDbLine
 10
97.2009
 20
697.7319999999999
 30
0.0
 11
97.2009
 21
728.0429999999999
 31
0.0
  0
LINE
  5
EC
330
1D
100
AcDbEntity
  8
0
100
AcDbLine
 10
80.20509999999999
 20
706.2319999999999
 30
0.0
 11
82.5046
 21
707.082
 31
0.0
  0
LINE
  5
ED
330
1D
100
AcDbEntity
  8
0
100
AcDbLine
 10
101.0
 20
702.332
 30
0.0
 11
101.0
 21
732.643
 31
0.0
  0
LINE
  5
EE
330
1D
100
AcDbEntity
  8
0
100
AcDbLine
 10
77.0059
 20
704.8939999999999
 30
0.0
 11
77.0059
 21
702.325
 31
0.0
  0
LINE
  5
EF
330
1D
100
AcDbEntity
  8
0
100
AcDbLine
 10
85.2039
 20
707.8319999999999
 30
0.0
 11
88.00320000000001
 21
707.8319999999999
 31
0.0
  0
LINE
  5
F0
330
1D
100
AcDbEntity
  8
0
100
AcDbLine
 10
82.5046
 20
707.082
 30
0.0
 11
85.2039
 21
707.8319999999999
 31
0.0
  0
LINE
  5
F1
330
1D
100
AcDbEntity
  8
0
100
AcDbLine
 10
88.00320000000001
 20
707.8319999999999
 30
0.0
 11
90.80249999999999
 21
707.8319999999999
 31
0.0
  0
LINE
  5
F2
330
1D
100
AcDbEntity
  8
0
100
AcDbLine
 10
75.50629999999999
 20
730.9429999999999
 30
0.0
 11
76.706
 21
729.393
 31
0.0
  0
LINE
  5
F3
330
1D
100
AcDbEntity
  8
0
100
AcDbLine
 10
76.706
 20
729.393
 30
0.0
 11
78.80549999999999
 21
728.0429999999999
 31
0.0
  0
LINE
  5
F4
330
1D
100
AcDbEntity
  8
0
100
AcDbLine
 10
77.0059
 20
731.243
 30
0.0
 11
78.5055
 21
729.893
 31
0.0
  0
LINE
  5
F5
330
1D
100
AcDbEntity
  8
0
100
AcDbLine
 10
77.0059
 20
731.243
 30
0.0
 11
77.0059
 21
732.643
 31
0.0
  0
LINE
  5
F6
330
1D
100
AcDbEntity
  8
0
100
AcDbLine
 10
75.0064
 20
732.643
 30
0.0
 11
75.50629999999999
 21
734.3429999999999
 31
0.0
  0
LINE
  5
F7
330
1D
100
AcDbEntity
  8
0
100
AcDbLine
 10
75.0064
 20
732.643
 30
0.0
 11
75.0064
 21
706.859007235263
 31
0.0
  0
LINE
  5
F8
330
1D
100
AcDbEntity
  8
0
100
AcDbLine
 10
75.0064
 20
732.643
 30
0.0
 11
75.50629999999999
 21
730.9429999999999
 31
0.0
  0
LINE
  5
F9
330
1D
100
AcDbEntity
  8
0
100
AcDbLine
 10
78.5055
 20
729.893
 30
0.0
 11
80.20509999999999
 21
728.743
 31
0.0
  0
LINE
  5
FA
330
1D
100
AcDbEntity
  8
0
100
AcDbLine
 10
77.0059
 20
732.643
 30
0.0
 11
77.0059
 21
734.043
 31
0.0
  0
LINE
  5
FB
330
1D
100
AcDbEntity
  8
0
100
AcDbLine
 10
77.0059
 20
732.643
 30
0.0
 11
77.0059
 21
731.243
 31
0.0
  0
LINE
  5
FC
330
1D
100
AcDbEntity
  8
0
100
AcDbLine
 10
75.50629999999999
 20
734.3429999999999
 30
0.0
 11
76.706
 21
735.893
 31
0.0
  0
LINE
  5
FD
330
1D
100
AcDbEntity
  8
0
100
AcDbLine
 10
76.706
 20
735.893
 30
0.0
 11
78.80549999999999
 21
737.243
 31
0.0
  0
LINE
  5
FE
330
1D
100
AcDbEntity
  8
0
100
AcDbLine
 10
77.0059
 20
734.043
 30
0.0
 11
78.5055
 21
735.393
 31
0.0
  0
LINE
  5
FF
330
1D
100
AcDbEntity
  8
0
100
AcDbLine
 10
77.0059
 20
734.043
 30
0.0
 11
77.0059
 21
732.643
 31
0.0
  0
LINE
  5
100
330
1D
100
AcDbEntity
  8
0
100
AcDbLine
 10
78.80549999999999
 20
728.0429999999999
 30
0.0
 11
80.20509999999999
 21
728.743
 31
0.0
  0
LINE
  5
101
330
1D
100
AcDbEntity
  8
0
100
AcDbLine
 10
78.80549999999999
 20
728.0429999999999
 30
0.0
 11
78.80549999999999
 21
697.7319999999999
 31
0.0
  0
LINE
  5
102
330
1D
100
AcDbEntity
  8
0
100
AcDbLine
 10
78.5055
 20
735.393
 30
0.0
 11
80.20509999999999
 21
736.5429999999999
 31
0.0
  0
LINE
  5
103
330
1D
100
AcDbEntity
  8
0
100
AcDbLine
 10
78.80549999999999
 20
737.243
 30
0.0
 11
81.50479999999999
 21
738.2929999999999
 31
0.0
  0
LINE
  5
104
330
1D
100
AcDbEntity
  8
0
100
AcDbLine
 10
85.2039
 20
738.143
 30
0.0
 11
88.00320000000001
 21
738.143
 31
0.0
  0
LINE
  5
105
330
1D
100
AcDbEntity
  8
0
100
AcDbLine
 10
82.5046
 20
737.393
 30
0.0
 11
85.2039
 21
738.143
 31
0.0
  0
LINE
  5
106
330
1D
100
AcDbEntity
  8
0
100
AcDbLine
 10
80.20509999999999
 20
736.5429999999999
 30
0.0
 11
82.5046
 21
737.393
 31
0.0
  0
LINE
  5
107
330
1D
100
AcDbEntity
  8
0
100
AcDbLine
 10
88.00320000000001
 20
738.143
 30
0.0
 11
90.80249999999999
 21
738.143
 31
0.0
  0
LINE
  5
108
330
1D
100
AcDbEntity
  8
0
100
AcDbLine
 10
84.60399999999999
 20
738.893
 30
0.0
 11
88.00320000000001
 21
739.143
 31
0.0
  0
LINE
  5
109
330
1D
100
AcDbEntity
  8
0
100
AcDbLine
 10
81.50479999999999
 20
738.2929999999999
 30
0.0
 11
84.60399999999999
 21
738.893
 31
0.0
  0
LINE
  5
10A
330
1D
100
AcDbEntity
  8
0
100
AcDbLine
 10
88.00320000000001
 20
739.143
 30
0.0
 11
91.4024
 21
738.893
 31
0.0
  0
LINE
  5
10B
330
1D
100
AcDbEntity
  8
0
100
AcDbLine
 10
91.4024
 20
738.893
 30
0.0
 11
94.5016
 21
738.2929999999999
 31
0.0
  0
LINE
  5
10C
330
1D
100
AcDbEntity
  8
0
100
AcDbLine
 10
90.80249999999999
 20
738.143
 30
0.0
 11
93.50179999999999
 21
737.393
 31
0.0
  0
LINE
  5
10D
330
1D
100
AcDbEntity
  8
0
100
AcDbLine
 10
93.50179999999999
 20
737.393
 30
0.0
 11
95.8013
 21
736.5429999999999
 31
0.0
  0
LINE
  5
10E
330
1D
100
AcDbEntity
  8
0
100
AcDbLine
 10
90.80249999999999
 20
707.8319999999999
 30
0.0
 11
93.50179999999999
 21
707.082
 31
0.0
  0
LINE
  5
10F
330
1D
100
AcDbEntity
  8
0
100
AcDbLine
 10
95.8013
 20
728.743
 30
0.0
 11
95.8013
 21
698.432
 31
0.0
  0
LINE
  5
110
330
1D
100
AcDbEntity
  8
0
100
AcDbLine
 10
95.8013
 20
728.743
 30
0.0
 11
97.5009
 21
729.893
 31
0.0
  0
LINE
  5
111
330
1D
100
AcDbEntity
  8
0
100
AcDbLine
 10
95.8013
 20
728.743
 30
0.0
 11
97.2009
 21
728.0429999999999
 31
0.0
  0
LINE
  5
112
330
1D
100
AcDbEntity
  8
0
100
AcDbLine
 10
97.2009
 20
728.0429999999999
 30
0.0
 11
99.30039999999999
 21
729.393
 31
0.0
  0
LINE
  5
113
330
1D
100
AcDbEntity
  8
0
100
AcDbLine
 10
99.0005
 20
731.243
 30
0.0
 11
99.0005
 21
732.643
 31
0.0
  0
LINE
  5
114
330
1D
100
AcDbEntity
  8
0
100
AcDbLine
 10
97.5009
 20
729.893
 30
0.0
 11
99.0005
 21
731.243
 31
0.0
  0
LINE
  5
115
330
1D
100
AcDbEntity
  8
0
100
AcDbLine
 10
99.0005
 20
732.643
 30
0.0
 11
99.0005
 21
734.043
 31
0.0
  0
LINE
  5
116
330
1D
100
AcDbEntity
  8
0
100
AcDbLine
 10
99.0005
 20
732.643
 30
0.0
 11
99.0005
 21
731.243
 31
0.0
  0
LINE
  5
117
330
1D
100
AcDbEntity
  8
0
100
AcDbLine
 10
101.0
 20
732.643
 30
0.0
 11
101.0
 21
702.332
 31
0.0
  0
LINE
  5
118
330
1D
100
AcDbEntity
  8
0
100
AcDbLine
 10
100.5
 20
730.9429999999999
 30
0.0
 11
101.0
 21
732.643
 31
0.0
  0
LINE
  5
119
330
1D
100
AcDbEntity
  8
0
100
AcDbLine
 10
99.30039999999999
 20
729.393
 30
0.0
 11
100.5
 21
730.9429999999999
 31
0.0
  0
LINE
  5
11A
330
1D
100
AcDbEntity
  8
0
100
AcDbLine
 10
100.5
 20
734.3429999999999
 30
0.0
 11
101.0
 21
732.643
 31
0.0
  0
LINE
  5
11B
330
1D
100
AcDbEntity
  8
0
100
AcDbLine
 10
99.0005
 20
734.043
 30
0.0
 11
99.0005
 21
732.643
 31
0.0
  0
LINE
  5
11C
330
1D
100
AcDbEntity
  8
0
100
AcDbLine
 10
99.30039999999999
 20
735.893
 30
0.0
 11
100.5
 21
734.3429999999999
 31
0.0
  0
LINE
  5
11D
330
1D
100
AcDbEntity
  8
0
100
AcDbLine
 10
97.2009
 20
737.243
 30
0.0
 11
99.30039999999999
 21
735.893
 31
0.0
  0
LINE
  5
11E
330
1D
100
AcDbEntity
  8
0
100
AcDbLine
 10
97.5009
 20
735.393
 30
0.0
 11
99.0005
 21
734.043
 31
0.0
  0
LINE
  5
11F
330
1D
100
AcDbEntity
  8
0
100
AcDbLine
 10
95.8013
 20
736.5429999999999
 30
0.0
 11
97.5009
 21
735.393
 31
0.0
  0
LINE
  5
120
330
1D
100
AcDbEntity
  8
0
100
AcDbLine
 10
94.5016
 20
738.2929999999999
 30
0.0
 11
97.2009
 21
737.243
 31
0.0
  0
LINE
  5
121
330
1D
100
AcDbEntity
  8
0
100
AcDbLine
 10
93.50179999999999
 20
707.082
 30
0.0
 11
95.8013
 21
706.2319999999999
 31
0.0
  0
LINE
  5
122
330
1D
100
AcDbEntity
  8
0
100
AcDbLine
 10
74.00669999999999
 20
707.0759999999999
 30
0.0
 11
75.0064
 21
707.0759999999999
 31
0.0
  0
LINE
  5
123
330
1D
100
AcDbEntity
  8
0
100
AcDbLine
 10
61.0099
 20
959.3999999999999
 30
0.0
 11
61.0099
 21
707.0759999999999
 31
0.0
  0
LINE
  5
124
330
1D
100
AcDbEntity
  8
0
100
AcDbLine
 10
60.35
 20
960.0
 30
0.0
 11
60.7459
 21
960.0
 31
0.0
  0
LINE
  5
125
330
1D
100
AcDbEntity
  8
0
100
AcDbLine
 10
59.29429999999999
 20
960.0
 30
0.0
 11
60.35
 21
960.0
 31
0.0
  0
LINE
  5
126
330
1D
100
AcDbEntity
  8
0
100
AcDbLine
 10
57.5787
 20
960.0
 30
0.0
 11
59.29429999999999
 21
960.0
 31
0.0
  0
LINE
  5
127
330
1D
100
AcDbEntity
  8
0
100
AcDbLine
 10
55.33529999999999
 20
960.0
 30
0.0
 11
57.5787
 21
960.0
 31
0.0
  0
LINE
  5
128
330
1D
100
AcDbEntity
  8
0
100
AcDbLine
 10
52.7839
 20
960.0
 30
0.0
 11
55.33529999999999
 21
960.0
 31
0.0
  0
LINE
  5
129
330
1D
100
AcDbEntity
  8
0
100
AcDbLine
 10
50.0126
 20
960.0
 30
0.0
 11
52.7839
 21
960.0
 31
0.0
  0
LINE
  5
12A
330
1D
100
AcDbEntity
  8
0
100
AcDbLine
 10
60.7459
 20
960.0
 30
0.0
 11
61.0099
 21
960.3849999999999
 31
0.0
  0
LINE
  5
12B
330
1D
100
AcDbEntity
  8
0
100
AcDbLine
 10
60.7459
 20
960.0
 30
0.0
 11
61.0099
 21
959.3999999999999
 31
0.0
  0
LINE
  5
12C
330
1D
100
AcDbEntity
  8
0
100
AcDbLine
 10
44.6899
 20
960.0
 30
0.0
 11
47.2413
 21
960.0
 31
0.0
  0
LINE
  5
12D
330
1D
100
AcDbEntity
  8
0
100
AcDbLine
 10
39.4112
 20
960.3849999999999
 30
0.0
 11
40.4669
 21
960.3849999999999
 31
0.0
  0
LINE
  5
12E
330
1D
100
AcDbEntity
  8
0
100
AcDbLine
 10
40.4669
 20
960.3849999999999
 30
0.0
 11
42.2265
 21
960.3849999999999
 31
0.0
  0
LINE
  5
12F
330
1D
100
AcDbEntity
  8
0
100
AcDbLine
 10
42.2265
 20
960.3849999999999
 30
0.0
 11
44.55789999999999
 21
960.3849999999999
 31
0.0
  0
LINE
  5
130
330
1D
100
AcDbEntity
  8
0
100
AcDbLine
 10
39.4112
 20
1049.62
 30
0.0
 11
40.4669
 21
1049.62
 31
0.0
  0
LINE
  5
131
330
1D
100
AcDbEntity
  8
0
100
AcDbLine
 10
40.4669
 20
1049.62
 30
0.0
 11
42.2265
 21
1049.62
 31
0.0
  0
LINE
  5
132
330
1D
100
AcDbEntity
  8
0
100
AcDbLine
 10
39.2792
 20
1050.0
 30
0.0
 11
39.6751
 21
1050.0
 31
0.0
  0
LINE
  5
133
330
1D
100
AcDbEntity
  8
0
100
AcDbLine
 10
39.6751
 20
1050.0
 30
0.0
 11
40.73089999999999
 21
1050.0
 31
0.0
  0
LINE
  5
134
330
1D
100
AcDbEntity
  8
0
100
AcDbLine
 10
42.2265
 20
1049.62
 30
0.0
 11
44.55789999999999
 21
1049.62
 31
0.0
  0
LINE
  5
135
330
1D
100
AcDbEntity
  8
0
100
AcDbLine
 10
44.55789999999999
 20
1049.62
 30
0.0
 11
47.1973
 21
1049.62
 31
0.0
  0
LINE
  5
136
330
1D
100
AcDbEntity
  8
0
100
AcDbLine
 10
40.73089999999999
 20
1050.0
 30
0.0
 11
42.44639999999999
 21
1050.0
 31
0.0
  0
LINE
  5
137
330
1D
100
AcDbEntity
  8
0
100
AcDbLine
 10
42.44639999999999
 20
1050.0
 30
0.0
 11
44.6899
 21
1050.0
 31
0.0
  0
LINE
  5
138
330
1D
100
AcDbEntity
  8
0
100
AcDbLine
 10
47.1973
 20
1049.62
 30
0.0
 11
50.0126
 21
1049.62
 31
0.0
  0
LINE
  5
139
330
1D
100
AcDbEntity
  8
0
100
AcDbLine
 10
44.6899
 20
1050.0
 30
0.0
 11
47.2413
 21
1050.0
 31
0.0
  0
LINE
  5
13A
330
1D
100
AcDbEntity
  8
0
100
AcDbLine
 10
44.55789999999999
 20
960.3849999999999
 30
0.0
 11
47.1973
 21
960.3849999999999
 31
0.0
  0
LINE
  5
13B
330
1D
100
AcDbEntity
  8
0
100
AcDbLine
 10
50.0126
 20
960.3849999999999
 30
0.0
 11
52.8279
 21
960.3849999999999
 31
0.0
  0
LINE
  5
13C
330
1D
100
AcDbEntity
  8
0
100
AcDbLine
 10
50.0126
 20
1049.62
 30
0.0
 11
52.8279
 21
1049.62
 31
0.0
  0
LINE
  5
13D
330
1D
100
AcDbEntity
  8
0
100
AcDbLine
 10
55.4672
 20
960.3849999999999
 30
0.0
 11
57.79869999999999
 21
960.3849999999999
 31
0.0
  0
LINE
  5
13E
330
1D
100
AcDbEntity
  8
0
100
AcDbLine
 10
52.8279
 20
960.3849999999999
 30
0.0
 11
55.4672
 21
960.3849999999999
 31
0.0
  0
LINE
  5
13F
330
1D
100
AcDbEntity
  8
0
100
AcDbLine
 10
55.4672
 20
1049.62
 30
0.0
 11
57.79869999999999
 21
1049.62
 31
0.0
  0
LINE
  5
140
330
1D
100
AcDbEntity
  8
0
100
AcDbLine
 10
52.8279
 20
1049.62
 30
0.0
 11
55.4672
 21
1049.62
 31
0.0
  0
LINE
  5
141
330
1D
100
AcDbEntity
  8
0
100
AcDbLine
 10
59.5582
 20
960.3849999999999
 30
0.0
 11
60.61399999999999
 21
960.3849999999999
 31
0.0
  0
LINE
  5
142
330
1D
100
AcDbEntity
  8
0
100
AcDbLine
 10
57.79869999999999
 20
960.3849999999999
 30
0.0
 11
59.5582
 21
960.3849999999999
 31
0.0
  0
LINE
  5
143
330
1D
100
AcDbEntity
  8
0
100
AcDbLine
 10
59.5582
 20
1049.62
 30
0.0
 11
60.61399999999999
 21
1049.62
 31
0.0
  0
LINE
  5
144
330
1D
100
AcDbEntity
  8
0
100
AcDbLine
 10
57.79869999999999
 20
1049.62
 30
0.0
 11
59.5582
 21
1049.62
 31
0.0
  0
LINE
  5
145
330
1D
100
AcDbEntity
  8
0
100
AcDbLine
 10
60.61399999999999
 20
960.3849999999999
 30
0.0
 11
61.0099
 21
960.3849999999999
 31
0.0
  0
LINE
  5
146
330
1D
100
AcDbEntity
  8
0
100
AcDbLine
 10
60.61399999999999
 20
1049.62
 30
0.0
 11
61.0099
 21
1049.62
 31
0.0
  0
LINE
  5
147
330
1D
100
AcDbEntity
  8
0
100
AcDbLine
 10
60.35
 20
1050.0
 30
0.0
 11
60.7459
 21
1050.0
 31
0.0
  0
LINE
  5
148
330
1D
100
AcDbEntity
  8
0
100
AcDbLine
 10
59.29429999999999
 20
1050.0
 30
0.0
 11
60.35
 21
1050.0
 31
0.0
  0
LINE
  5
149
330
1D
100
AcDbEntity
  8
0
100
AcDbLine
 10
57.5787
 20
1050.0
 30
0.0
 11
59.29429999999999
 21
1050.0
 31
0.0
  0
LINE
  5
14A
330
1D
100
AcDbEntity
  8
0
100
AcDbLine
 10
55.33529999999999
 20
1050.0
 30
0.0
 11
57.5787
 21
1050.0
 31
0.0
  0
LINE
  5
14B
330
1D
100
AcDbEntity
  8
0
100
AcDbLine
 10
52.7839
 20
1050.0
 30
0.0
 11
55.33529999999999
 21
1050.0
 31
0.0
  0
LINE
  5
14C
330
1D
100
AcDbEntity
  8
0
100
AcDbLine
 10
50.0126
 20
1050.0
 30
0.0
 11
52.7839
 21
1050.0
 31
0.0
  0
LINE
  5
14D
330
1D
100
AcDbEntity
  8
0
100
AcDbLine
 10
61.0099
 20
1049.62
 30
0.0
 11
61.0099
 21
960.3849999999999
 31
0.0
  0
LINE
  5
14E
330
1D
100
AcDbEntity
  8
0
100
AcDbLine
 10
61.0099
 20
960.3849999999999
 30
0.0
 11
61.0099
 21
1049.62
 31
0.0
  0
LINE
  5
14F
330
1D
100
AcDbEntity
  8
0
100
AcDbLine
 10
60.7459
 20
1050.0
 30
0.0
 11
61.0099
 21
1049.62
 31
0.0
  0
LINE
  5
150
330
1D
100
AcDbEntity
  8
0
100
AcDbLine
 10
47.2413
 20
1050.0
 30
0.0
 11
50.0126
 21
1050.0
 31
0.0
  0
LINE
  5
151
330
1D
100
AcDbEntity
  8
0
100
AcDbLine
 10
47.1973
 20
960.3849999999999
 30
0.0
 11
50.0126
 21
960.3849999999999
 31
0.0
  0
LINE
  5
152
330
1D
100
AcDbEntity
  8
0
100
AcDbLine
 10
47.2413
 20
960.0
 30
0.0
 11
50.0126
 21
960.0
 31
0.0
  0
LINE
  5
153
330
1D
100
AcDbEntity
  8
0
100
AcDbLine
 10
39.01530000000001
 20
960.3849999999999
 30
0.0
 11
39.2792
 21
960.0
 31
0.0
  0
LINE
  5
154
330
1D
100
AcDbEntity
  8
0
100
AcDbLine
 10
39.01530000000001
 20
960.3849999999999
 30
0.0
 11
39.4112
 21
960.3849999999999
 31
0.0
  0
LINE
  5
155
330
1D
100
AcDbEntity
  8
0
100
AcDbLine
 10
39.01530000000001
 20
960.3849999999999
 30
0.0
 11
39.01530000000001
 21
1049.62
 31
0.0
  0
LINE
  5
17D
330
1D
100
AcDbEntity
  8
0
100
AcDbLine
 10
77.0059
 20
704.8939999999999
 30
0.0
 11
77.0059
 21
707.093510534356
 31
0.0
  0
LINE
  5
17E
330
1D
100
AcDbEntity
  8
0
100
AcDbLine
 10
77.0059
 20
707.093510534356
 30
0.0
 11
75.0064
 21
707.0759999999999
 31
0.0
  0
LINE
  5
17F
330
1D
100
AcDbEntity
  8
0
100
AcDbLine
 10
39.01530000000001
 20
707.0759999999999
 30
0.0
 11
61.0099
 21
707.0759999999999
 31
0.0
  0
LINE
  5
180
330
1D
100
AcDbEntity
  8
0
100
AcDbLine
 10
61.0099
 20
675.1956497741949
 30
0.0
 11
39.01530000000001
 21
675.0
 31
0.0
  0
LINE
  5
316
330
1D
100
AcDbEntity
  8
0
100
AcDbLine
 10
-293.6889575647456
 20
0.7692303667100818
 30
0.0
 11
-292.6316575647458
 21
0.7692303667100818
 31
0.0
  0
LINE
  5
317
330
1D
100
AcDbEntity
  8
0
100
AcDbLine
 10
-293.8211575647457
 20
0.3846153667100819
 30
0.0
 11
-293.4246575647457
 21
0.3846153667100819
 31
0.0
  0
LINE
  5
318
330
1D
100
AcDbEntity
  8
0
100
AcDbLine
 10
-294.0854575647457
 20
0.7692303667100827
 30
0.0
 11
-294.0854575647456
 21
90.00001536671007
 31
0.0
  0
LINE
  5
319
330
1D
100
AcDbEntity
  8
0
100
AcDbLine
 10
-294.0854575647457
 20
0.7692303667100818
 30
0.0
 11
-293.8211575647457
 21
0.3846153667100819
 31
0.0
  0
LINE
  5
31A
330
1D
100
AcDbEntity
  8
0
100
AcDbLine
 10
-294.0854575647457
 20
0.7692303667100818
 30
0.0
 11
-294.0854575647456
 21
90.00001536671007
 31
0.0
  0
LINE
  5
31B
330
1D
100
AcDbEntity
  8
0
100
AcDbLine
 10
-294.0854575647457
 20
0.7692303667100818
 30
0.0
 11
-293.6889575647456
 21
0.7692303667100818
 31
0.0
  0
LINE
  5
31C
330
1D
100
AcDbEntity
  8
0
100
AcDbLine
 10
-294.0854575647457
 20
0.7692303667100818
 30
0.0
 11
-293.8211575647457
 21
0.384615366710082
 31
0.0
  0
LINE
  5
31D
330
1D
100
AcDbEntity
  8
0
100
AcDbLine
 10
-285.8472575647456
 20
0.3846153667100815
 30
0.0
 11
-283.0718575647457
 21
0.3846153667100813
 31
0.0
  0
LINE
  5
31E
330
1D
100
AcDbEntity
  8
0
100
AcDbLine
 10
-288.4024575647457
 20
0.3846153667100816
 30
0.0
 11
-285.8472575647456
 21
0.3846153667100815
 31
0.0
  0
LINE
  5
31F
330
1D
100
AcDbEntity
  8
0
100
AcDbLine
 10
-290.6491575647456
 20
0.3846153667100817
 30
0.0
 11
-288.4024575647457
 21
0.3846153667100816
 31
0.0
  0
LINE
  5
320
330
1D
100
AcDbEntity
  8
0
100
AcDbLine
 10
-285.8912575647456
 20
0.7692303667100818
 30
0.0
 11
-283.0718575647457
 21
0.7692303667100818
 31
0.0
  0
LINE
  5
321
330
1D
100
AcDbEntity
  8
0
100
AcDbLine
 10
-288.5345575647456
 20
0.7692303667100818
 30
0.0
 11
-285.8912575647456
 21
0.7692303667100818
 31
0.0
  0
LINE
  5
322
330
1D
100
AcDbEntity
  8
0
100
AcDbLine
 10
-290.8694575647457
 20
0.7692303667100818
 30
0.0
 11
-288.5345575647456
 21
0.7692303667100818
 31
0.0
  0
LINE
  5
323
330
1D
100
AcDbEntity
  8
0
100
AcDbLine
 10
-292.6316575647458
 20
0.7692303667100818
 30
0.0
 11
-290.8694575647457
 21
0.7692303667100818
 31
0.0
  0
LINE
  5
324
330
1D
100
AcDbEntity
  8
0
100
AcDbLine
 10
-283.0718575647457
 20
0.7692303667100818
 30
0.0
 11
-280.2523575647457
 21
0.7692303667100808
 31
0.0
  0
LINE
  5
325
330
1D
100
AcDbEntity
  8
0
100
AcDbLine
 10
-292.3673575647457
 20
0.3846153667100818
 30
0.0
 11
-290.6491575647456
 21
0.3846153667100817
 31
0.0
  0
LINE
  5
326
330
1D
100
AcDbEntity
  8
0
100
AcDbLine
 10
-293.4246575647457
 20
0.3846153667100819
 30
0.0
 11
-292.3673575647457
 21
0.3846153667100818
 31
0.0
  0
LINE
  5
327
330
1D
100
AcDbEntity
  8
0
100
AcDbLine
 10
-283.0718575647457
 20
0.3846153667100813
 30
0.0
 11
-280.2963575647457
 21
0.3846153667100811
 31
0.0
  0
LINE
  5
328
330
1D
100
AcDbEntity
  8
0
100
AcDbLine
 10
-280.2523575647457
 20
0.7692303667100808
 30
0.0
 11
-277.6090575647456
 21
0.7692303667100808
 31
0.0
  0
LINE
  5
329
330
1D
100
AcDbEntity
  8
0
100
AcDbLine
 10
-280.2963575647457
 20
0.3846153667100811
 30
0.0
 11
-277.7412575647458
 21
0.3846153667100809
 31
0.0
  0
LINE
  5
32A
330
1D
100
AcDbEntity
  8
0
100
AcDbLine
 10
-285.8472575647456
 20
90.38461536671007
 30
0.0
 11
-283.0718575647456
 21
90.38461536671007
 31
0.0
  0
LINE
  5
32B
330
1D
100
AcDbEntity
  8
0
100
AcDbLine
 10
-288.4024575647456
 20
90.38461536671007
 30
0.0
 11
-285.8472575647456
 21
90.38461536671007
 31
0.0
  0
LINE
  5
32C
330
1D
100
AcDbEntity
  8
0
100
AcDbLine
 10
-290.6491575647456
 20
90.38461536671007
 30
0.0
 11
-288.4024575647456
 21
90.38461536671007
 31
0.0
  0
LINE
  5
32D
330
1D
100
AcDbEntity
  8
0
100
AcDbLine
 10
-292.3673575647456
 20
90.38461536671007
 30
0.0
 11
-290.6491575647456
 21
90.38461536671007
 31
0.0
  0
LINE
  5
32E
330
1D
100
AcDbEntity
  8
0
100
AcDbLine
 10
-293.4246575647456
 20
90.38461536671007
 30
0.0
 11
-292.3673575647456
 21
90.38461536671007
 31
0.0
  0
LINE
  5
32F
330
1D
100
AcDbEntity
  8
0
100
AcDbLine
 10
-293.8211575647457
 20
90.38461536671007
 30
0.0
 11
-293.4246575647456
 21
90.38461536671007
 31
0.0
  0
LINE
  5
330
330
1D
100
AcDbEntity
  8
0
100
AcDbLine
 10
-283.0718575647456
 20
90.38461536671007
 30
0.0
 11
-280.2963575647456
 21
90.38461536671007
 31
0.0
  0
LINE
  5
331
330
1D
100
AcDbEntity
  8
0
100
AcDbLine
 10
-294.0854575647456
 20
90.00001536671007
 30
0.0
 11
-293.8211575647457
 21
90.38461536671007
 31
0.0
  0
LINE
  5
332
330
1D
100
AcDbEntity
  8
0
100
AcDbLine
 10
-272.3225575647457
 20
0.3846153667100806
 30
0.0
 11
-272.0581575647457
 21
0.7692303667100808
 31
0.0
  0
LINE
  5
333
330
1D
100
AcDbEntity
  8
0
100
AcDbLine
 10
-272.3225575647457
 20
0.3846153667100806
 30
0.0
 11
-272.0581575647457
 21
0.7692303667100808
 31
0.0
  0
LINE
  5
334
330
1D
100
AcDbEntity
  8
0
100
AcDbLine
 10
-277.6090575647456
 20
0.7692303667100808
 30
0.0
 11
-275.2741575647458
 21
0.7692303667100808
 31
0.0
  0
LINE
  5
335
330
1D
100
AcDbEntity
  8
0
100
AcDbLine
 10
-275.2741575647458
 20
0.7692303667100808
 30
0.0
 11
-273.5119575647457
 21
0.7692303667100808
 31
0.0
  0
LINE
  5
336
330
1D
100
AcDbEntity
  8
0
100
AcDbLine
 10
-277.7412575647458
 20
0.3846153667100809
 30
0.0
 11
-275.4944575647457
 21
0.3846153667100807
 31
0.0
  0
LINE
  5
337
330
1D
100
AcDbEntity
  8
0
100
AcDbLine
 10
-275.4944575647457
 20
0.3846153667100807
 30
0.0
 11
-273.7763575647456
 21
0.3846153667100807
 31
0.0
  0
LINE
  5
338
330
1D
100
AcDbEntity
  8
0
100
AcDbLine
 10
-272.3225575647457
 20
90.38461536671007
 30
0.0
 11
-272.0581575647456
 21
90.98461536671008
 31
0.0
  0
LINE
  5
339
330
1D
100
AcDbEntity
  8
0
100
AcDbLine
 10
-273.5119575647457
 20
0.7692303667100808
 30
0.0
 11
-272.4546575647457
 21
0.7692303667100808
 31
0.0
  0
LINE
  5
33A
330
1D
100
AcDbEntity
  8
0
100
AcDbLine
 10
-272.4546575647457
 20
0.7692303667100808
 30
0.0
 11
-272.0581575647457
 21
0.7692303667100808
 31
0.0
  0
LINE
  5
33B
330
1D
100
AcDbEntity
  8
0
100
AcDbLine
 10
-273.7763575647456
 20
0.3846153667100807
 30
0.0
 11
-272.7189575647456
 21
0.3846153667100806
 31
0.0
  0
LINE
  5
33C
330
1D
100
AcDbEntity
  8
0
100
AcDbLine
 10
-272.7189575647456
 20
0.3846153667100806
 30
0.0
 11
-272.3225575647457
 21
0.3846153667100806
 31
0.0
  0
LINE
  5
33D
330
1D
100
AcDbEntity
  8
0
100
AcDbLine
 10
-278.9307073425718
 20
45.38461536671007
 30
0.0
 11
-248.0284575647456
 21
45.38461536671007
 31
0.0
  0
LINE
  5
33E
330
1D
100
AcDbEntity
  8
0
100
AcDbLine
 10
-296.9670575647456
 20
683.4226153667101
 30
0.0
 11
-294.3948575647456
 21
680.1716153667102
 31
0.0
  0
LINE
  5
33F
330
1D
100
AcDbEntity
  8
0
100
AcDbLine
 10
-298.4999075647456
 20
687.2736153667101
 30
0.0
 11
-296.9670575647456
 21
683.4226153667101
 31
0.0
  0
LINE
  5
340
330
1D
100
AcDbEntity
  8
0
100
AcDbLine
 10
-294.0854575647456
 20
90.98461536671008
 30
0.0
 11
-294.0854575647456
 21
534.3846153667101
 31
0.0
  0
LINE
  5
341
330
1D
100
AcDbEntity
  8
0
100
AcDbLine
 10
-294.0854575647456
 20
90.98461536671008
 30
0.0
 11
-293.8211575647457
 21
90.38461536671007
 31
0.0
  0
LINE
  5
342
330
1D
100
AcDbEntity
  8
0
100
AcDbLine
 10
-294.0854575647456
 20
90.98461536671008
 30
0.0
 11
-294.0854575647456
 21
534.3846153667101
 31
0.0
  0
LINE
  5
343
330
1D
100
AcDbEntity
  8
0
100
AcDbLine
 10
-294.3948575647456
 20
680.1716153667102
 30
0.0
 11
-291.1417575647456
 21
677.54461536671
 31
0.0
  0
LINE
  5
344
330
1D
100
AcDbEntity
  8
0
100
AcDbLine
 10
-294.3948575647456
 20
680.1716153667102
 30
0.0
 11
-294.0854575647456
 21
679.9217632871552
 31
0.0
  0
LINE
  5
345
330
1D
100
AcDbEntity
  8
0
100
AcDbLine
 10
-299.1517075647456
 20
691.40061536671
 30
0.0
 11
-298.5489675647457
 21
695.5586153667101
 31
0.0
  0
LINE
  5
346
330
1D
100
AcDbEntity
  8
0
100
AcDbLine
 10
-299.1517075647456
 20
691.40061536671
 30
0.0
 11
-298.4999075647456
 21
687.2736153667101
 31
0.0
  0
LINE
  5
347
330
1D
100
AcDbEntity
  8
0
100
AcDbLine
 10
-307.0284575647456
 20
728.4276153667101
 30
0.0
 11
-305.8149575647456
 21
729.1276153667102
 31
0.0
  0
LINE
  5
348
330
1D
100
AcDbEntity
  8
0
100
AcDbLine
 10
-307.0284575647456
 20
728.4276153667101
 30
0.0
 11
-304.6875575647456
 21
729.7776153667101
 31
0.0
  0
LINE
  5
349
330
1D
100
AcDbEntity
  8
0
100
AcDbLine
 10
-307.0284575647456
 20
728.4276153667101
 30
0.0
 11
-305.8148825585107
 21
729.1274856125201
 31
0.0
  0
LINE
  5
34A
330
1D
100
AcDbEntity
  8
0
100
AcDbLine
 10
-307.0284575647456
 20
728.4276153667101
 30
0.0
 11
-305.8149575647456
 21
729.1276153667102
 31
0.0
  0
LINE
  5
34B
330
1D
100
AcDbEntity
  8
0
100
AcDbLine
 10
-307.0284575647456
 20
728.4276153667101
 30
0.0
 11
-289.5067575647456
 21
698.1166153667101
 31
0.0
  0
LINE
  5
34C
330
1D
100
AcDbEntity
  8
0
100
AcDbLine
 10
-307.0284575647456
 20
728.4276153667101
 30
0.0
 11
-304.6875575647456
 21
729.7776153667101
 31
0.0
  0
LINE
  5
34D
330
1D
100
AcDbEntity
  8
0
100
AcDbLine
 10
-307.0284575647456
 20
728.4276153667101
 30
0.0
 11
-305.8148825585107
 21
729.1274856125201
 31
0.0
  0
LINE
  5
34E
330
1D
100
AcDbEntity
  8
0
100
AcDbLine
 10
-305.8149575647456
 20
729.1276153667102
 30
0.0
 11
-303.8204875647456
 21
730.2776153667101
 31
0.0
  0
LINE
  5
34F
330
1D
100
AcDbEntity
  8
0
100
AcDbLine
 10
-304.6875575647456
 20
729.7776153667101
 30
0.0
 11
-301.9992375647456
 21
731.3276153667101
 31
0.0
  0
LINE
  5
350
330
1D
100
AcDbEntity
  8
0
100
AcDbLine
 10
-303.1586462605489
 20
730.6591371057532
 30
0.0
 11
-301.9992375647456
 21
731.3276153667101
 31
0.0
  0
LINE
  5
351
330
1D
100
AcDbEntity
  8
0
100
AcDbLine
 10
-303.1586462605482
 20
730.6591371057541
 30
0.0
 11
-301.9992375647456
 21
731.3276153667101
 31
0.0
  0
LINE
  5
352
330
1D
100
AcDbEntity
  8
0
100
AcDbLine
 10
-303.8204875647456
 20
730.2776153667101
 30
0.0
 11
-303.1586462605479
 21
730.6591371057541
 31
0.0
  0
LINE
  5
353
330
1D
100
AcDbEntity
  8
0
100
AcDbLine
 10
-303.8204875647456
 20
730.2776153667101
 30
0.0
 11
-303.1586462605479
 21
730.6591371057541
 31
0.0
  0
LINE
  5
354
330
1D
100
AcDbEntity
  8
0
100
AcDbLine
 10
-303.8204875647456
 20
730.2776153667101
 30
0.0
 11
-303.1586462605485
 21
730.6591371057541
 31
0.0
  0
LINE
  5
355
330
1D
100
AcDbEntity
  8
0
100
AcDbLine
 10
-301.9992375647456
 20
731.3276153667101
 30
0.0
 11
-299.0515875647457
 21
733.0276153667101
 31
0.0
  0
LINE
  5
356
330
1D
100
AcDbEntity
  8
0
100
AcDbLine
 10
-301.9992375647456
 20
731.3276153667101
 30
0.0
 11
-299.0515875647479
 21
733.0276153667091
 31
0.0
  0
LINE
  5
357
330
1D
100
AcDbEntity
  8
0
100
AcDbLine
 10
-305.8149575647456
 20
729.1276153667102
 30
0.0
 11
-303.8204875647456
 21
730.2776153667101
 31
0.0
  0
LINE
  5
358
330
1D
100
AcDbEntity
  8
0
100
AcDbLine
 10
-299.0515875647457
 20
733.0276153667101
 30
0.0
 11
-296.6235575647456
 21
734.4276153667101
 31
0.0
  0
LINE
  5
359
330
1D
100
AcDbEntity
  8
0
100
AcDbLine
 10
-299.0515875647457
 20
733.0276153667101
 30
0.0
 11
-296.1029575647456
 21
734.7276153667101
 31
0.0
  0
LINE
  5
35A
330
1D
100
AcDbEntity
  8
0
100
AcDbLine
 10
-298.5489675647457
 20
695.5586153667101
 30
0.0
 11
-296.9890575647456
 21
699.4606153667101
 31
0.0
  0
LINE
  5
35B
330
1D
100
AcDbEntity
  8
0
100
AcDbLine
 10
-296.1029575647456
 20
734.7276153667101
 30
0.0
 11
-293.4156575647456
 21
736.2776153667101
 31
0.0
  0
LINE
  5
35C
330
1D
100
AcDbEntity
  8
0
100
AcDbLine
 10
-296.6235575647456
 20
734.4276153667101
 30
0.0
 11
-294.2826575647456
 21
735.7776153667101
 31
0.0
  0
LINE
  5
35D
330
1D
100
AcDbEntity
  8
0
100
AcDbLine
 10
-296.9890575647456
 20
699.4606153667101
 30
0.0
 11
-294.3587575647456
 21
702.7096153667102
 31
0.0
  0
LINE
  5
35E
330
1D
100
AcDbEntity
  8
0
100
AcDbLine
 10
-294.2826575647456
 20
735.7776153667101
 30
0.0
 11
-293.8514359434087
 21
736.026264015194
 31
0.0
  0
LINE
  5
35F
330
1D
100
AcDbEntity
  8
0
100
AcDbLine
 10
-294.3587575647456
 20
702.7096153667102
 30
0.0
 11
-294.0854575647456
 21
702.9253166570331
 31
0.0
  0
LINE
  5
360
330
1D
100
AcDbEntity
  8
0
100
AcDbLine
 10
-294.3587575647456
 20
702.7096153667102
 30
0.0
 11
-292.8501061746893
 21
703.9003144207971
 31
0.0
  0
LINE
  5
361
330
1D
100
AcDbEntity
  8
0
100
AcDbLine
 10
-293.8514359434086
 20
736.0262640151951
 30
0.0
 11
-293.4156575647456
 21
736.2776153667101
 31
0.0
  0
LINE
  5
362
330
1D
100
AcDbEntity
  8
0
100
AcDbLine
 10
-293.8514359434092
 20
736.026264015194
 30
0.0
 11
-293.4156575647456
 21
736.2776153667101
 31
0.0
  0
LINE
  5
363
330
1D
100
AcDbEntity
  8
0
100
AcDbLine
 10
-294.0854575647456
 20
735.8913237501841
 30
0.0
 11
-294.0854575647456
 21
959.78461536671
 31
0.0
  0
LINE
  5
364
330
1D
100
AcDbEntity
  8
0
100
AcDbLine
 10
-294.0854575647456
 20
735.8913237501841
 30
0.0
 11
-294.0854575647456
 21
959.78461536671
 31
0.0
  0
LINE
  5
365
330
1D
100
AcDbEntity
  8
0
100
AcDbLine
 10
-294.0854575647456
 20
534.3846153667101
 30
0.0
 11
-294.0854575647456
 21
679.9217632871552
 31
0.0
  0
LINE
  5
366
330
1D
100
AcDbEntity
  8
0
100
AcDbLine
 10
-294.0854575647456
 20
959.78461536671
 30
0.0
 11
-293.8211575647457
 21
960.3846153667101
 31
0.0
  0
LINE
  5
367
330
1D
100
AcDbEntity
  8
0
100
AcDbLine
 10
-292.9441340742236
 20
736.5494274475871
 30
0.0
 11
-292.2882575647456
 21
736.9276153667101
 31
0.0
  0
LINE
  5
368
330
1D
100
AcDbEntity
  8
0
100
AcDbLine
 10
-293.4156575647456
 20
736.2776153667101
 30
0.0
 11
-291.0737575647456
 21
737.6276153667101
 31
0.0
  0
LINE
  5
369
330
1D
100
AcDbEntity
  8
0
100
AcDbLine
 10
-293.4156575647456
 20
736.2776153667101
 30
0.0
 11
-292.9441340742235
 21
736.5494274475871
 31
0.0
  0
LINE
  5
36A
330
1D
100
AcDbEntity
  8
0
100
AcDbLine
 10
-291.1417575647456
 20
677.54461536671
 30
0.0
 11
-287.2349575647456
 21
675.98661536671
 31
0.0
  0
LINE
  5
36B
330
1D
100
AcDbEntity
  8
0
100
AcDbLine
 10
-292.9441340742231
 20
736.5494274475871
 30
0.0
 11
-292.2882575647456
 21
736.9276153667101
 31
0.0
  0
LINE
  5
36C
330
1D
100
AcDbEntity
  8
0
100
AcDbLine
 10
-291.5655565653196
 20
737.3441153663791
 30
0.0
 11
-291.0737575647456
 21
737.6276153667101
 31
0.0
  0
LINE
  5
36D
330
1D
100
AcDbEntity
  8
0
100
AcDbLine
 10
-291.0737575647456
 20
737.6276153667101
 30
0.0
 11
-289.2524575647456
 21
738.6776153667101
 31
0.0
  0
LINE
  5
36E
330
1D
100
AcDbEntity
  8
0
100
AcDbLine
 10
-291.0737575647456
 20
737.6276153667101
 30
0.0
 11
-289.9651401729914
 21
738.2667458017521
 31
0.0
  0
LINE
  5
36F
330
1D
100
AcDbEntity
  8
0
100
AcDbLine
 10
-291.0737575647456
 20
737.6276153667101
 30
0.0
 11
-289.9651401729924
 21
738.2667458017521
 31
0.0
  0
LINE
  5
370
330
1D
100
AcDbEntity
  8
0
100
AcDbLine
 10
-292.2882575647456
 20
736.9276153667101
 30
0.0
 11
-291.5655565653231
 21
737.3441153663771
 31
0.0
  0
LINE
  5
371
330
1D
100
AcDbEntity
  8
0
100
AcDbLine
 10
-292.2882575647456
 20
736.9276153667101
 30
0.0
 11
-291.5655565653218
 21
737.344115366378
 31
0.0
  0
LINE
  5
372
330
1D
100
AcDbEntity
  8
0
100
AcDbLine
 10
-287.2349575647456
 20
675.98661536671
 30
0.0
 11
-283.0718575647456
 21
675.3846153667101
 31
0.0
  0
LINE
  5
373
330
1D
100
AcDbEntity
  8
0
100
AcDbLine
 10
-287.1658575647456
 20
699.4666153667101
 30
0.0
 11
-284.4775575647456
 21
701.0166153667101
 31
0.0
  0
LINE
  5
374
330
1D
100
AcDbEntity
  8
0
100
AcDbLine
 10
-289.5067575647456
 20
698.1166153667101
 30
0.0
 11
-287.1658575647456
 21
699.4666153667101
 31
0.0
  0
LINE
  5
375
330
1D
100
AcDbEntity
  8
0
100
AcDbLine
 10
-289.9651401729916
 20
738.2667458017521
 30
0.0
 11
-289.5127575647456
 21
738.5276153667101
 31
0.0
  0
LINE
  5
376
330
1D
100
AcDbEntity
  8
0
100
AcDbLine
 10
-289.5127289981244
 20
738.5275659486861
 30
0.0
 11
-289.2524575647456
 21
738.6776153667101
 31
0.0
  0
LINE
  5
377
330
1D
100
AcDbEntity
  8
0
100
AcDbLine
 10
-287.7786575647456
 20
739.5276153667102
 30
0.0
 11
-270.2569575647456
 21
709.2166153667101
 31
0.0
  0
LINE
  5
378
330
1D
100
AcDbEntity
  8
0
100
AcDbLine
 10
-288.2121575647456
 20
739.2776153667101
 30
0.0
 11
-287.7786575647456
 21
739.5276153667102
 31
0.0
  0
LINE
  5
379
330
1D
100
AcDbEntity
  8
0
100
AcDbLine
 10
-289.2524575647456
 20
738.6776153667101
 30
0.0
 11
-288.2121575647456
 21
739.2776153667101
 31
0.0
  0
LINE
  5
37A
330
1D
100
AcDbEntity
  8
0
100
AcDbLine
 10
-289.965140172992
 20
738.2667458017521
 30
0.0
 11
-289.5127575647456
 21
738.5276153667101
 31
0.0
  0
LINE
  5
37B
330
1D
100
AcDbEntity
  8
0
100
AcDbLine
 10
-283.0718575647456
 20
675.3846153667101
 30
0.0
 11
-278.9386575647456
 21
676.0356153667101
 31
0.0
  0
LINE
  5
37C
330
1D
100
AcDbEntity
  8
0
100
AcDbLine
 10
-284.4775575647456
 20
701.0166153667101
 30
0.0
 11
-281.5299575647456
 21
702.7166153667101
 31
0.0
  0
LINE
  5
37D
330
1D
100
AcDbEntity
  8
0
100
AcDbLine
 10
-285.8472575647456
 20
960.3846153667101
 30
0.0
 11
-283.0718575647456
 21
960.3846153667101
 31
0.0
  0
LINE
  5
37E
330
1D
100
AcDbEntity
  8
0
100
AcDbLine
 10
-288.4024575647456
 20
960.3846153667101
 30
0.0
 11
-285.8472575647456
 21
960.3846153667101
 31
0.0
  0
LINE
  5
37F
330
1D
100
AcDbEntity
  8
0
100
AcDbLine
 10
-290.6491575647456
 20
960.3846153667101
 30
0.0
 11
-288.4024575647456
 21
960.3846153667101
 31
0.0
  0
LINE
  5
380
330
1D
100
AcDbEntity
  8
0
100
AcDbLine
 10
-292.3673575647456
 20
960.3846153667101
 30
0.0
 11
-290.6491575647456
 21
960.3846153667101
 31
0.0
  0
LINE
  5
381
330
1D
100
AcDbEntity
  8
0
100
AcDbLine
 10
-293.4246575647456
 20
960.3846153667101
 30
0.0
 11
-292.3673575647456
 21
960.3846153667101
 31
0.0
  0
LINE
  5
382
330
1D
100
AcDbEntity
  8
0
100
AcDbLine
 10
-293.8211575647457
 20
960.3846153667101
 30
0.0
 11
-293.4246575647456
 21
960.3846153667101
 31
0.0
  0
LINE
  5
383
330
1D
100
AcDbEntity
  8
0
100
AcDbLine
 10
-278.9386575647456
 20
676.0356153667101
 30
0.0
 11
-275.0839575647456
 21
677.5666153667101
 31
0.0
  0
LINE
  5
384
330
1D
100
AcDbEntity
  8
0
100
AcDbLine
 10
-281.5299575647456
 20
702.7166153667101
 30
0.0
 11
-278.5812575647456
 21
704.4166153667101
 31
0.0
  0
LINE
  5
385
330
1D
100
AcDbEntity
  8
0
100
AcDbLine
 10
-278.5812575647456
 20
704.4166153667101
 30
0.0
 11
-275.8939575647456
 21
705.9666153667101
 31
0.0
  0
LINE
  5
386
330
1D
100
AcDbEntity
  8
0
100
AcDbLine
 10
-278.5812575647456
 20
704.4166153667101
 30
0.0
 11
-276.3297359427317
 21
705.7152640155851
 31
0.0
  0
LINE
  5
387
330
1D
100
AcDbEntity
  8
0
100
AcDbLine
 10
-276.3297359427308
 20
705.7152640155851
 30
0.0
 11
-275.4224340750939
 21
706.2384274470851
 31
0.0
  0
LINE
  5
388
330
1D
100
AcDbEntity
  8
0
100
AcDbLine
 10
-276.3297359427317
 20
705.7152640155851
 30
0.0
 11
-275.4224340750939
 21
706.2384274470851
 31
0.0
  0
LINE
  5
389
330
1D
100
AcDbEntity
  8
0
100
AcDbLine
 10
-275.8939575647456
 20
705.9666153667101
 30
0.0
 11
-273.5520575647456
 21
707.3166153667101
 31
0.0
  0
LINE
  5
38A
330
1D
100
AcDbEntity
  8
0
100
AcDbLine
 10
-283.0718575647456
 20
960.3846153667101
 30
0.0
 11
-280.2963575647456
 21
960.3846153667101
 31
0.0
  0
LINE
  5
38B
330
1D
100
AcDbEntity
  8
0
100
AcDbLine
 10
-277.7412575647456
 20
960.3846153667101
 30
0.0
 11
-275.4944575647456
 21
960.3846153667101
 31
0.0
  0
LINE
  5
38C
330
1D
100
AcDbEntity
  8
0
100
AcDbLine
 10
-275.0839575647456
 20
677.5666153667101
 30
0.0
 11
-271.8288575647457
 21
680.1356153667101
 31
0.0
  0
LINE
  5
38D
330
1D
100
AcDbEntity
  8
0
100
AcDbLine
 10
-275.4224340750937
 20
706.2384274470851
 30
0.0
 11
-273.7766233174915
 21
707.1871633123071
 31
0.0
  0
LINE
  5
38E
330
1D
100
AcDbEntity
  8
0
100
AcDbLine
 10
-275.4224340750937
 20
706.2384274470851
 30
0.0
 11
-273.7766233174912
 21
707.1871633123071
 31
0.0
  0
LINE
  5
38F
330
1D
100
AcDbEntity
  8
0
100
AcDbLine
 10
-273.7766233174915
 20
707.1871633123071
 30
0.0
 11
-273.2917575647456
 21
707.4666153667101
 31
0.0
  0
LINE
  5
390
330
1D
100
AcDbEntity
  8
0
100
AcDbLine
 10
-273.2917575647456
 20
707.4666153667101
 30
0.0
 11
-272.8393749561756
 21
707.727484931855
 31
0.0
  0
LINE
  5
391
330
1D
100
AcDbEntity
  8
0
100
AcDbLine
 10
-273.5520575647456
 20
707.3166153667101
 30
0.0
 11
-271.7307575647456
 21
708.3666153667101
 31
0.0
  0
LINE
  5
392
330
1D
100
AcDbEntity
  8
0
100
AcDbLine
 10
-275.4944575647456
 20
960.3846153667101
 30
0.0
 11
-273.7763575647456
 21
960.3846153667101
 31
0.0
  0
LINE
  5
393
330
1D
100
AcDbEntity
  8
0
100
AcDbLine
 10
-273.7763575647456
 20
960.3846153667101
 30
0.0
 11
-272.7189575647456
 21
960.3846153667101
 31
0.0
  0
LINE
  5
394
330
1D
100
AcDbEntity
  8
0
100
AcDbLine
 10
-272.7189575647456
 20
960.3846153667101
 30
0.0
 11
-272.3225575647457
 21
960.3846153667101
 31
0.0
  0
LINE
  5
395
330
1D
100
AcDbEntity
  8
0
100
AcDbLine
 10
-280.2963575647456
 20
90.38461536671007
 30
0.0
 11
-248.0284575647456
 21
90.38461536671007
 31
0.0
  0
LINE
  5
396
330
1D
100
AcDbEntity
  8
0
100
AcDbLine
 10
-272.3225575647457
 20
960.3846153667101
 30
0.0
 11
-248.0284575647456
 21
960.3846153667101
 31
0.0
  0
LINE
  5
397
330
1D
100
AcDbEntity
  8
0
100
AcDbLine
 10
-272.3225575647457
 20
960.3846153667101
 30
0.0
 11
-272.0581575647456
 21
959.78461536671
 31
0.0
  0
LINE
  5
398
330
1D
100
AcDbEntity
  8
0
100
AcDbLine
 10
-280.2963575647456
 20
960.3846153667101
 30
0.0
 11
-248.0284575647456
 21
960.3846153667101
 31
0.0
  0
LINE
  5
399
330
1D
100
AcDbEntity
  8
0
100
AcDbLine
 10
-272.0581575647457
 20
0.7692303667100808
 30
0.0
 11
-272.0581575647457
 21
45.38461536671007
 31
0.0
  0
LINE
  5
39A
330
1D
100
AcDbEntity
  8
0
100
AcDbLine
 10
-272.0581575647457
 20
45.38461536671007
 30
0.0
 11
-248.0284575647456
 21
45.38461536671007
 31
0.0
  0
LINE
  5
39B
330
1D
100
AcDbEntity
  8
0
100
AcDbLine
 10
-272.0581575647457
 20
45.38461536671007
 30
0.0
 11
-272.0581575647457
 21
0.7692303667100827
 31
0.0
  0
LINE
  5
39C
330
1D
100
AcDbEntity
  8
0
100
AcDbLine
 10
-272.0581575647456
 20
45.38461536671007
 30
0.0
 11
-248.0284575647456
 21
45.38461536671007
 31
0.0
  0
LINE
  5
39D
330
1D
100
AcDbEntity
  8
0
100
AcDbLine
 10
-272.0581575647456
 20
90.98461536671008
 30
0.0
 11
-272.0581575647456
 21
534.3846153667101
 31
0.0
  0
LINE
  5
39E
330
1D
100
AcDbEntity
  8
0
100
AcDbLine
 10
-272.0581575647456
 20
90.98461536671008
 30
0.0
 11
-272.0581575647456
 21
534.3846153667101
 31
0.0
  0
LINE
  5
39F
330
1D
100
AcDbEntity
  8
0
100
AcDbLine
 10
-272.0581575647456
 20
679.9546465178271
 30
0.0
 11
-271.8288575647457
 21
680.1356153667101
 31
0.0
  0
LINE
  5
3A0
330
1D
100
AcDbEntity
  8
0
100
AcDbLine
 10
-272.0581575647456
 20
702.8878616316961
 30
0.0
 11
-271.7928575647456
 21
702.6736153667101
 31
0.0
  0
LINE
  5
3A1
330
1D
100
AcDbEntity
  8
0
100
AcDbLine
 10
-269.1986575647456
 20
683.3846153667101
 30
0.0
 11
-267.6387575647456
 21
687.2866153667102
 31
0.0
  0
LINE
  5
3A2
330
1D
100
AcDbEntity
  8
0
100
AcDbLine
 10
-271.8288575647457
 20
680.1356153667101
 30
0.0
 11
-269.1986575647456
 21
683.3846153667101
 31
0.0
  0
LINE
  5
3A3
330
1D
100
AcDbEntity
  8
0
100
AcDbLine
 10
-267.6387575647456
 20
687.2866153667102
 30
0.0
 11
-267.0359575647456
 21
691.4446153667101
 31
0.0
  0
LINE
  5
3A4
330
1D
100
AcDbEntity
  8
0
100
AcDbLine
 10
-270.6904575647456
 20
708.9666153667101
 30
0.0
 11
-270.2569575647456
 21
709.2166153667101
 31
0.0
  0
LINE
  5
3A5
330
1D
100
AcDbEntity
  8
0
100
AcDbLine
 10
-271.7307575647456
 20
708.3666153667101
 30
0.0
 11
-270.6904575647456
 21
708.9666153667101
 31
0.0
  0
LINE
  5
3A6
330
1D
100
AcDbEntity
  8
0
100
AcDbLine
 10
-271.7928575647456
 20
702.6736153667101
 30
0.0
 11
-269.2196575647456
 21
699.4226153667101
 31
0.0
  0
LINE
  5
3A7
330
1D
100
AcDbEntity
  8
0
100
AcDbLine
 10
-269.2196575647456
 20
699.4226153667101
 30
0.0
 11
-267.6877575647456
 21
695.5716153667101
 31
0.0
  0
LINE
  5
3A8
330
1D
100
AcDbEntity
  8
0
100
AcDbLine
 10
-267.6877575647456
 20
695.5716153667101
 30
0.0
 11
-267.0359575647456
 21
691.4446153667101
 31
0.0
  0
LINE
  5
3A9
330
1D
100
AcDbEntity
  8
0
100
AcDbLine
 10
-272.0581575647456
 20
712.332532954615
 30
0.0
 11
-272.0581575647456
 21
959.78461536671
 31
0.0
  0
LINE
  5
3AA
330
1D
100
AcDbEntity
  8
0
100
AcDbLine
 10
-272.0581575647456
 20
534.3846153667101
 30
0.0
 11
-271.8288575647457
 21
680.1356153667101
 31
0.0
  0
LINE
  5
3AB
330
1D
100
AcDbEntity
  8
0
100
AcDbLine
 10
-248.0284575647456
 20
90.38461536671007
 30
0.0
 11
-248.0284575647456
 21
45.38461536671007
 31
0.0
  0
LINE
  5
3AC
330
1D
100
AcDbEntity
  8
0
100
AcDbLine
 10
-248.0284575647456
 20
45.38461536671007
 30
0.0
 11
-248.0284575647456
 21
90.38461536671007
 31
0.0
  0
LINE
  5
3AD
330
1D
100
AcDbEntity
  8
0
100
AcDbLine
 10
-272.3225575647457
 20
960.3846153667101
 30
0.0
 11
-248.0284575647456
 21
960.3846153667101
 31
0.0
  0
LINE
  5
3AE
330
1D
100
AcDbEntity
  8
0
100
AcDbLine
 10
-294.0854575647456
 20
960.7696153667101
 30
0.0
 11
-293.8211575647457
 21
960.3846153667101
 31
0.0
  0
LINE
  5
3AF
330
1D
100
AcDbEntity
  8
0
100
AcDbLine
 10
-294.0854575647456
 20
960.7696153667101
 30
0.0
 11
-294.0854575647456
 21
1050.00461536671
 31
0.0
  0
LINE
  5
3B0
330
1D
100
AcDbEntity
  8
0
100
AcDbLine
 10
-285.8912575647456
 20
1050.00461536671
 30
0.0
 11
-283.0718575647456
 21
1050.00461536671
 31
0.0
  0
LINE
  5
3B1
330
1D
100
AcDbEntity
  8
0
100
AcDbLine
 10
-288.5345575647456
 20
1050.00461536671
 30
0.0
 11
-285.8912575647456
 21
1050.00461536671
 31
0.0
  0
LINE
  5
3B2
330
1D
100
AcDbEntity
  8
0
100
AcDbLine
 10
-290.8694575647457
 20
1050.00461536671
 30
0.0
 11
-288.5345575647456
 21
1050.00461536671
 31
0.0
  0
LINE
  5
3B3
330
1D
100
AcDbEntity
  8
0
100
AcDbLine
 10
-292.6316575647456
 20
1050.00461536671
 30
0.0
 11
-290.8694575647457
 21
1050.00461536671
 31
0.0
  0
LINE
  5
3B4
330
1D
100
AcDbEntity
  8
0
100
AcDbLine
 10
-293.6889575647456
 20
1050.00461536671
 30
0.0
 11
-292.6316575647456
 21
1050.00461536671
 31
0.0
  0
LINE
  5
3B5
330
1D
100
AcDbEntity
  8
0
100
AcDbLine
 10
-285.8472575647456
 20
1050.38461536671
 30
0.0
 11
-283.0718575647456
 21
1050.38461536671
 31
0.0
  0
LINE
  5
3B6
330
1D
100
AcDbEntity
  8
0
100
AcDbLine
 10
-288.4024575647456
 20
1050.38461536671
 30
0.0
 11
-285.8472575647456
 21
1050.38461536671
 31
0.0
  0
LINE
  5
3B7
330
1D
100
AcDbEntity
  8
0
100
AcDbLine
 10
-290.6491575647456
 20
1050.38461536671
 30
0.0
 11
-288.4024575647456
 21
1050.38461536671
 31
0.0
  0
LINE
  5
3B8
330
1D
100
AcDbEntity
  8
0
100
AcDbLine
 10
-292.3673575647456
 20
1050.38461536671
 30
0.0
 11
-290.6491575647456
 21
1050.38461536671
 31
0.0
  0
LINE
  5
3B9
330
1D
100
AcDbEntity
  8
0
100
AcDbLine
 10
-293.4246575647456
 20
1050.38461536671
 30
0.0
 11
-292.3673575647456
 21
1050.38461536671
 31
0.0
  0
LINE
  5
3BA
330
1D
100
AcDbEntity
  8
0
100
AcDbLine
 10
-293.8211575647457
 20
1050.38461536671
 30
0.0
 11
-293.4246575647456
 21
1050.38461536671
 31
0.0
  0
LINE
  5
3BB
330
1D
100
AcDbEntity
  8
0
100
AcDbLine
 10
-283.0718575647456
 20
1050.00461536671
 30
0.0
 11
-280.2523575647456
 21
1050.00461536671
 31
0.0
  0
LINE
  5
3BC
330
1D
100
AcDbEntity
  8
0
100
AcDbLine
 10
-280.2523575647456
 20
1050.00461536671
 30
0.0
 11
-277.6090575647456
 21
1050.00461536671
 31
0.0
  0
LINE
  5
3BD
330
1D
100
AcDbEntity
  8
0
100
AcDbLine
 10
-283.0718575647456
 20
1050.38461536671
 30
0.0
 11
-280.2963575647456
 21
1050.38461536671
 31
0.0
  0
LINE
  5
3BE
330
1D
100
AcDbEntity
  8
0
100
AcDbLine
 10
-280.2963575647456
 20
1050.38461536671
 30
0.0
 11
-277.7412575647456
 21
1050.38461536671
 31
0.0
  0
LINE
  5
3BF
330
1D
100
AcDbEntity
  8
0
100
AcDbLine
 10
-294.0854575647456
 20
1050.00461536671
 30
0.0
 11
-293.8211575647457
 21
1050.38461536671
 31
0.0
  0
LINE
  5
3C0
330
1D
100
AcDbEntity
  8
0
100
AcDbLine
 10
-294.0854575647456
 20
1050.00461536671
 30
0.0
 11
-293.6889575647456
 21
1050.00461536671
 31
0.0
  0
LINE
  5
3C1
330
1D
100
AcDbEntity
  8
0
100
AcDbLine
 10
-272.0581575647456
 20
1005.38461536671
 30
0.0
 11
-272.0581575647456
 21
1050.00461536671
 31
0.0
  0
LINE
  5
3C2
330
1D
100
AcDbEntity
  8
0
100
AcDbLine
 10
-277.6090575647456
 20
1050.00461536671
 30
0.0
 11
-275.2741575647456
 21
1050.00461536671
 31
0.0
  0
LINE
  5
3C3
330
1D
100
AcDbEntity
  8
0
100
AcDbLine
 10
-275.2741575647456
 20
1050.00461536671
 30
0.0
 11
-273.5119575647456
 21
1050.00461536671
 31
0.0
  0
LINE
  5
3C4
330
1D
100
AcDbEntity
  8
0
100
AcDbLine
 10
-277.7412575647456
 20
1050.38461536671
 30
0.0
 11
-275.4944575647456
 21
1050.38461536671
 31
0.0
  0
LINE
  5
3C5
330
1D
100
AcDbEntity
  8
0
100
AcDbLine
 10
-275.4944575647456
 20
1050.38461536671
 30
0.0
 11
-273.7763575647456
 21
1050.38461536671
 31
0.0
  0
LINE
  5
3C6
330
1D
100
AcDbEntity
  8
0
100
AcDbLine
 10
-273.5119575647456
 20
1050.00461536671
 30
0.0
 11
-272.4546575647456
 21
1050.00461536671
 31
0.0
  0
LINE
  5
3C7
330
1D
100
AcDbEntity
  8
0
100
AcDbLine
 10
-272.4546575647456
 20
1050.00461536671
 30
0.0
 11
-272.0581575647456
 21
1050.00461536671
 31
0.0
  0
LINE
  5
3C8
330
1D
100
AcDbEntity
  8
0
100
AcDbLine
 10
-273.7763575647456
 20
1050.38461536671
 30
0.0
 11
-272.7189575647456
 21
1050.38461536671
 31
0.0
  0
LINE
  5
3C9
330
1D
100
AcDbEntity
  8
0
100
AcDbLine
 10
-272.7189575647456
 20
1050.38461536671
 30
0.0
 11
-272.3225575647457
 21
1050.38461536671
 31
0.0
  0
LINE
  5
3CA
330
1D
100
AcDbEntity
  8
0
100
AcDbLine
 10
-272.3225575647457
 20
1050.38461536671
 30
0.0
 11
-272.0581575647456
 21
1050.00461536671
 31
0.0
  0
LINE
  5
3CB
330
1D
100
AcDbEntity
  8
0
100
AcDbLine
 10
-278.9306335102827
 20
1005.38461536671
 30
0.0
 11
-248.0284575647456
 21
1005.38461536671
 31
0.0
  0
LINE
  5
3CC
330
1D
100
AcDbEntity
  8
0
100
AcDbLine
 10
-278.9306335102827
 20
1005.38461536671
 30
0.0
 11
-248.0284575647456
 21
1005.38461536671
 31
0.0
  0
LINE
  5
3CD
330
1D
100
AcDbEntity
  8
0
100
AcDbLine
 10
-280.2963575647456
 20
960.3846153667101
 30
0.0
 11
-248.0284575647456
 21
960.3846153667101
 31
0.0
  0
LINE
  5
3CE
330
1D
100
AcDbEntity
  8
0
100
AcDbLine
 10
-280.2963575647456
 20
960.3846153667101
 30
0.0
 11
-277.7412575647456
 21
960.3846153667101
 31
0.0
  0
LINE
  5
3CF
330
1D
100
AcDbEntity
  8
0
100
AcDbLine
 10
-248.0284575647456
 20
960.3846153667101
 30
0.0
 11
-248.0284575647456
 21
1005.38461536671
 31
0.0
  0
LINE
  5
3D0
330
1D
100
AcDbEntity
  8
0
100
AcDbLine
 10
-272.0581575647456
 20
702.8878616316961
 30
0.0
 11
-272.0581575647456
 21
708.1778655726069
 31
0.0
  0
LINE
  5
3D1
330
1D
100
AcDbEntity
  8
0
100
AcDbLine
 10
-294.0854575647456
 20
706.0373636788031
 30
0.0
 11
-294.0854575647456
 21
702.9253166570331
 31
0.0
  0
LINE
  5
4D3
330
1D
100
AcDbEntity
  8
0
100
AcDbLine
 10
0.0814952939375879
 20
1208.046598291137
 30
0.0
 11
0.3553272939375878
 21
1207.325698291137
 31
0.0
  0
LINE
  5
4D4
330
1D
100
AcDbEntity
  8
0
100
AcDbLine
 10
0.3553272939375878
 20
1207.325698291137
 30
0.0
 11
0.8117152939375879
 21
1206.688898291137
 31
0.0
  0
LINE
  5
4D5
330
1D
100
AcDbEntity
  8
0
100
AcDbLine
 10
0.8117152939375879
 20
1206.688898291137
 30
0.0
 11
1.416470293937587
 21
1206.208298291137
 31
0.0
  0
LINE
  5
4D6
330
1D
100
AcDbEntity
  8
0
100
AcDbLine
 10
1.416470293937587
 20
1206.208298291137
 30
0.0
 11
2.101100293937587
 21
1205.919998291137
 31
0.0
  0
LINE
  5
4D7
330
1D
100
AcDbEntity
  8
0
100
AcDbLine
 10
2.101100293937587
 20
1205.919998291137
 30
0.0
 11
2.831320293937587
 21
1205.811798291137
 31
0.0
  0
LINE
  5
4D8
330
1D
100
AcDbEntity
  8
0
100
AcDbLine
 10
4.771740293937587
 20
1192.795718291137
 30
0.0
 11
33.22632029393759
 21
1192.795718291137
 31
0.0
  0
LINE
  5
4D9
330
1D
100
AcDbEntity
  8
0
100
AcDbLine
 10
4.771740293937587
 20
1192.795718291137
 30
0.0
 11
33.22632029393759
 21
1192.795718291137
 31
0.0
  0
LINE
  5
4DA
330
1D
100
AcDbEntity
  8
0
100
AcDbLine
 10
4.002730293937587
 20
1193.180198291137
 30
0.0
 11
4.002730293937587
 21
1193.756908291137
 31
0.0
  0
LINE
  5
4DB
330
1D
100
AcDbEntity
  8
0
100
AcDbLine
 10
4.002730293937587
 20
1193.180198291137
 30
0.0
 11
4.771740293937587
 21
1192.795718291137
 31
0.0
  0
LINE
  5
4DC
330
1D
100
AcDbEntity
  8
0
100
AcDbLine
 10
4.002730293937587
 20
1193.756908291137
 30
0.0
 11
4.002730293937587
 21
1193.180198291137
 31
0.0
  0
LINE
  5
4DD
330
1D
100
AcDbEntity
  8
0
100
AcDbLine
 10
4.002730293937587
 20
1193.756908291137
 30
0.0
 11
4.002730293937587
 21
1195.294798291137
 31
0.0
  0
LINE
  5
4DE
330
1D
100
AcDbEntity
  8
0
100
AcDbLine
 10
33.99532029393759
 20
1192.735648291137
 30
0.0
 11
33.99532029393759
 21
1193.338388291137
 31
0.0
  0
LINE
  5
4DF
330
1D
100
AcDbEntity
  8
0
100
AcDbLine
 10
33.99532029393759
 20
1192.735648291137
 30
0.0
 11
73.98552029393758
 21
1192.735648291137
 31
0.0
  0
LINE
  5
4E0
330
1D
100
AcDbEntity
  8
0
100
AcDbLine
 10
33.99532029393759
 20
1193.338388291137
 30
0.0
 11
33.99532029393759
 21
1194.898298291137
 31
0.0
  0
LINE
  5
4E1
330
1D
100
AcDbEntity
  8
0
100
AcDbLine
 10
33.22632029393759
 20
1192.795718291137
 30
0.0
 11
33.99532029393759
 21
1193.180198291137
 31
0.0
  0
LINE
  5
4E2
330
1D
100
AcDbEntity
  8
0
100
AcDbLine
 10
4.002730293937587
 20
1197.793898291137
 30
0.0
 11
4.002730293937587
 21
1201.061898291137
 31
0.0
  0
LINE
  5
4E3
330
1D
100
AcDbEntity
  8
0
100
AcDbLine
 10
4.002730293937587
 20
1197.793898291137
 30
0.0
 11
4.002730293937587
 21
1195.294798291137
 31
0.0
  0
LINE
  5
4E4
330
1D
100
AcDbEntity
  8
0
100
AcDbLine
 10
4.002730293937587
 20
1197.793898291137
 30
0.0
 11
4.002730293937587
 21
1195.294798291137
 31
0.0
  0
LINE
  5
4E5
330
1D
100
AcDbEntity
  8
0
100
AcDbLine
 10
4.002730293937587
 20
1197.793898291137
 30
0.0
 11
4.002730293937587
 21
1201.061898291137
 31
0.0
  0
LINE
  5
4E6
330
1D
100
AcDbEntity
  8
0
100
AcDbLine
 10
33.99532029393759
 20
1194.898298291137
 30
0.0
 11
33.99532029393759
 21
1197.528598291137
 31
0.0
  0
LINE
  5
4E7
330
1D
100
AcDbEntity
  8
0
100
AcDbLine
 10
33.99532029393759
 20
1197.528598291137
 30
0.0
 11
33.99532029393759
 21
1200.783598291137
 31
0.0
  0
LINE
  5
4E8
330
1D
100
AcDbEntity
  8
0
100
AcDbLine
 10
4.002730293937587
 20
1195.294798291137
 30
0.0
 11
4.002730293937587
 21
1193.756908291137
 31
0.0
  0
LINE
  5
4E9
330
1D
100
AcDbEntity
  8
0
100
AcDbLine
 10
4.002730293937587
 20
1195.294798291137
 30
0.0
 11
4.002730293937587
 21
1197.793898291137
 31
0.0
  0
LINE
  5
4EA
330
1D
100
AcDbEntity
  8
0
100
AcDbLine
 10
4.002730293937587
 20
1195.294798291137
 30
0.0
 11
4.002730293937587
 21
1197.793898291137
 31
0.0
  0
LINE
  5
4EB
330
1D
100
AcDbEntity
  8
0
100
AcDbLine
 10
4.002730293937587
 20
1204.778498291137
 30
0.0
 11
4.002730293937587
 21
1201.061898291137
 31
0.0
  0
LINE
  5
4EC
330
1D
100
AcDbEntity
  8
0
100
AcDbLine
 10
4.002730293937587
 20
1204.778498291137
 30
0.0
 11
4.002730293937587
 21
1205.811798291137
 31
0.0
  0
LINE
  5
4ED
330
1D
100
AcDbEntity
  8
0
100
AcDbLine
 10
33.99532029393759
 20
1204.639398291137
 30
0.0
 11
33.99532029393759
 21
1208.771498291137
 31
0.0
  0
LINE
  5
4EE
330
1D
100
AcDbEntity
  8
0
100
AcDbLine
 10
33.99532029393759
 20
1200.783598291137
 30
0.0
 11
33.99532029393759
 21
1204.639398291137
 31
0.0
  0
LINE
  5
4EF
330
1D
100
AcDbEntity
  8
0
100
AcDbLine
 10
4.002730293937587
 20
1201.061898291137
 30
0.0
 11
4.002730293937587
 21
1197.793898291137
 31
0.0
  0
LINE
  5
4F0
330
1D
100
AcDbEntity
  8
0
100
AcDbLine
 10
4.002730293937587
 20
1201.061898291137
 30
0.0
 11
4.002730293937587
 21
1204.778498291137
 31
0.0
  0
LINE
  5
4F1
330
1D
100
AcDbEntity
  8
0
100
AcDbLine
 10
4.002730293937587
 20
1201.061898291137
 30
0.0
 11
4.002730293937587
 21
1197.793898291137
 31
0.0
  0
LINE
  5
4F2
330
1D
100
AcDbEntity
  8
0
100
AcDbLine
 10
4.002730293937587
 20
1205.811798291137
 30
0.0
 11
4.002730293937587
 21
1204.778498291137
 31
0.0
  0
LINE
  5
4F3
330
1D
100
AcDbEntity
  8
0
100
AcDbLine
 10
33.99532029393759
 20
1204.778498291137
 30
0.0
 11
33.99532029393759
 21
1208.815498291137
 31
0.0
  0
LINE
  5
4F4
330
1D
100
AcDbEntity
  8
0
100
AcDbLine
 10
33.99532029393759
 20
1204.778498291137
 30
0.0
 11
33.99532029393759
 21
1201.061898291137
 31
0.0
  0
LINE
  5
4F5
330
1D
100
AcDbEntity
  8
0
100
AcDbLine
 10
33.99532029393759
 20
1201.061898291137
 30
0.0
 11
33.99532029393759
 21
1204.778498291137
 31
0.0
  0
LINE
  5
4F6
330
1D
100
AcDbEntity
  8
0
100
AcDbLine
 10
33.99532029393759
 20
1201.061898291137
 30
0.0
 11
33.99532029393759
 21
1197.793898291137
 31
0.0
  0
LINE
  5
4F7
330
1D
100
AcDbEntity
  8
0
100
AcDbLine
 10
33.99532029393759
 20
1197.793898291137
 30
0.0
 11
33.99532029393759
 21
1201.061898291137
 31
0.0
  0
LINE
  5
4F8
330
1D
100
AcDbEntity
  8
0
100
AcDbLine
 10
33.99532029393759
 20
1197.793898291137
 30
0.0
 11
33.99532029393759
 21
1195.294798291137
 31
0.0
  0
LINE
  5
4F9
330
1D
100
AcDbEntity
  8
0
100
AcDbLine
 10
33.99532029393759
 20
1195.294798291137
 30
0.0
 11
33.99532029393759
 21
1197.793898291137
 31
0.0
  0
LINE
  5
4FA
330
1D
100
AcDbEntity
  8
0
100
AcDbLine
 10
33.99532029393759
 20
1195.294798291137
 30
0.0
 11
33.99532029393759
 21
1193.756908291137
 31
0.0
  0
LINE
  5
4FB
330
1D
100
AcDbEntity
  8
0
100
AcDbLine
 10
33.99532029393759
 20
1193.756908291137
 30
0.0
 11
33.99532029393759
 21
1195.294798291137
 31
0.0
  0
LINE
  5
4FC
330
1D
100
AcDbEntity
  8
0
100
AcDbLine
 10
33.99532029393759
 20
1193.756908291137
 30
0.0
 11
33.99532029393759
 21
1193.180198291137
 31
0.0
  0
LINE
  5
4FD
330
1D
100
AcDbEntity
  8
0
100
AcDbLine
 10
33.99532029393759
 20
1193.180198291137
 30
0.0
 11
33.99532029393759
 21
1193.756908291137
 31
0.0
  0
LINE
  5
4FE
330
1D
100
AcDbEntity
  8
0
100
AcDbLine
 10
33.99532029393759
 20
1193.180198291137
 30
0.0
 11
33.99532029393759
 21
1192.735648291137
 31
0.0
  0
LINE
  5
4FF
330
1D
100
AcDbEntity
  8
0
100
AcDbLine
 10
33.99532029393759
 20
1208.771498291137
 30
0.0
 11
33.99532029393759
 21
1212.934598291137
 31
0.0
  0
LINE
  5
500
330
1D
100
AcDbEntity
  8
0
100
AcDbLine
 10
33.99532029393759
 20
1208.815498291137
 30
0.0
 11
33.99532029393759
 21
1212.852498291137
 31
0.0
  0
LINE
  5
501
330
1D
100
AcDbEntity
  8
0
100
AcDbLine
 10
33.99532029393759
 20
1208.815498291137
 30
0.0
 11
33.99532029393759
 21
1204.778498291137
 31
0.0
  0
LINE
  5
502
330
1D
100
AcDbEntity
  8
0
100
AcDbLine
 10
5.581040293937587
 20
1208.046598291137
 30
0.0
 11
5.683710293937587
 21
1208.815498291137
 31
0.0
  0
LINE
  5
503
330
1D
100
AcDbEntity
  8
0
100
AcDbLine
 10
5.307210293937587
 20
1207.325698291137
 30
0.0
 11
5.581040293937587
 21
1208.046598291137
 31
0.0
  0
LINE
  5
504
330
1D
100
AcDbEntity
  8
0
100
AcDbLine
 10
4.850820293937587
 20
1206.688898291137
 30
0.0
 11
5.307210293937587
 21
1207.325698291137
 31
0.0
  0
LINE
  5
505
330
1D
100
AcDbEntity
  8
0
100
AcDbLine
 10
4.246070293937587
 20
1206.208298291137
 30
0.0
 11
4.850820293937587
 21
1206.688898291137
 31
0.0
  0
LINE
  5
506
330
1D
100
AcDbEntity
  8
0
100
AcDbLine
 10
3.561540293937587
 20
1205.919998291137
 30
0.0
 11
4.246070293937587
 21
1206.208298291137
 31
0.0
  0
LINE
  5
507
330
1D
100
AcDbEntity
  8
0
100
AcDbLine
 10
2.831320293937587
 20
1205.811798291137
 30
0.0
 11
3.561540293937587
 21
1205.919998291137
 31
0.0
  0
LINE
  5
508
330
1D
100
AcDbEntity
  8
0
100
AcDbLine
 10
2.831320293937587
 20
1205.811798291137
 30
0.0
 11
4.771740293937587
 21
1205.811798291137
 31
0.0
  0
LINE
  5
509
330
1D
100
AcDbEntity
  8
0
100
AcDbLine
 10
-0.0211797060624122
 20
1208.815498291137
 30
0.0
 11
0.0814952939375879
 21
1209.584498291137
 31
0.0
  0
LINE
  5
50A
330
1D
100
AcDbEntity
  8
0
100
AcDbLine
 10
-0.0211797060624122
 20
1208.815498291137
 30
0.0
 11
0.0814952939375879
 21
1208.046598291137
 31
0.0
  0
LINE
  5
50B
330
1D
100
AcDbEntity
  8
0
100
AcDbLine
 10
0.0814952939375879
 20
1209.584498291137
 30
0.0
 11
0.3553272939375878
 21
1210.305398291137
 31
0.0
  0
LINE
  5
50C
330
1D
100
AcDbEntity
  8
0
100
AcDbLine
 10
0.3553272939375878
 20
1210.305398291137
 30
0.0
 11
0.8117152939375879
 21
1210.942198291137
 31
0.0
  0
LINE
  5
50D
330
1D
100
AcDbEntity
  8
0
100
AcDbLine
 10
0.8117152939375879
 20
1210.942198291137
 30
0.0
 11
1.416470293937587
 21
1211.422798291137
 31
0.0
  0
LINE
  5
50E
330
1D
100
AcDbEntity
  8
0
100
AcDbLine
 10
5.581040293937587
 20
1209.584498291137
 30
0.0
 11
5.683710293937587
 21
1208.815498291137
 31
0.0
  0
LINE
  5
50F
330
1D
100
AcDbEntity
  8
0
100
AcDbLine
 10
5.307210293937587
 20
1210.305398291137
 30
0.0
 11
5.581040293937587
 21
1209.584498291137
 31
0.0
  0
LINE
  5
510
330
1D
100
AcDbEntity
  8
0
100
AcDbLine
 10
4.850820293937587
 20
1210.942198291137
 30
0.0
 11
5.307210293937587
 21
1210.305398291137
 31
0.0
  0
LINE
  5
511
330
1D
100
AcDbEntity
  8
0
100
AcDbLine
 10
4.246070293937587
 20
1211.422798291137
 30
0.0
 11
4.850820293937587
 21
1210.942198291137
 31
0.0
  0
LINE
  5
512
330
1D
100
AcDbEntity
  8
0
100
AcDbLine
 10
1.416470293937587
 20
1211.422798291137
 30
0.0
 11
2.101100293937587
 21
1211.711098291137
 31
0.0
  0
LINE
  5
513
330
1D
100
AcDbEntity
  8
0
100
AcDbLine
 10
38.99412029393759
 20
1208.815498291137
 30
0.0
 11
39.39002029393759
 21
1211.634998291137
 31
0.0
  0
LINE
  5
514
330
1D
100
AcDbEntity
  8
0
100
AcDbLine
 10
38.99412029393759
 20
1208.815498291137
 30
0.0
 11
39.39002029393759
 21
1205.996098291137
 31
0.0
  0
LINE
  5
515
330
1D
100
AcDbEntity
  8
0
100
AcDbLine
 10
39.39002029393759
 20
1205.996098291137
 30
0.0
 11
40.44572029393759
 21
1203.352798291137
 31
0.0
  0
LINE
  5
516
330
1D
100
AcDbEntity
  8
0
100
AcDbLine
 10
39.39002029393759
 20
1205.996098291137
 30
0.0
 11
40.44572029393759
 21
1203.352798291137
 31
0.0
  0
LINE
  5
517
330
1D
100
AcDbEntity
  8
0
100
AcDbLine
 10
39.65392029393759
 20
1206.040098291137
 30
0.0
 11
40.70972029393758
 21
1203.484898291137
 31
0.0
  0
LINE
  5
518
330
1D
100
AcDbEntity
  8
0
100
AcDbLine
 10
39.25802029393759
 20
1208.815498291137
 30
0.0
 11
39.65392029393759
 21
1211.590998291137
 31
0.0
  0
LINE
  5
519
330
1D
100
AcDbEntity
  8
0
100
AcDbLine
 10
39.25802029393759
 20
1208.815498291137
 30
0.0
 11
39.65392029393759
 21
1206.040098291137
 31
0.0
  0
LINE
  5
51A
330
1D
100
AcDbEntity
  8
0
100
AcDbLine
 10
39.65392029393759
 20
1211.590998291137
 30
0.0
 11
40.70972029393758
 21
1214.146098291137
 31
0.0
  0
LINE
  5
51B
330
1D
100
AcDbEntity
  8
0
100
AcDbLine
 10
38.99412029393759
 20
1208.815498291137
 30
0.0
 11
39.39002029393759
 21
1211.634998291137
 31
0.0
  0
LINE
  5
51C
330
1D
100
AcDbEntity
  8
0
100
AcDbLine
 10
38.99412029393759
 20
1208.815498291137
 30
0.0
 11
39.39002029393759
 21
1205.996098291137
 31
0.0
  0
LINE
  5
51D
330
1D
100
AcDbEntity
  8
0
100
AcDbLine
 10
3.561540293937587
 20
1211.711098291137
 30
0.0
 11
4.246070293937587
 21
1211.422798291137
 31
0.0
  0
LINE
  5
51E
330
1D
100
AcDbEntity
  8
0
100
AcDbLine
 10
4.002730293937587
 20
1211.819298291137
 30
0.0
 11
4.002730293937587
 21
1212.852498291137
 31
0.0
  0
LINE
  5
51F
330
1D
100
AcDbEntity
  8
0
100
AcDbLine
 10
4.002730293937587
 20
1212.852498291137
 30
0.0
 11
4.002730293937587
 21
1211.819298291137
 31
0.0
  0
LINE
  5
520
330
1D
100
AcDbEntity
  8
0
100
AcDbLine
 10
4.002730293937587
 20
1212.852498291137
 30
0.0
 11
4.002730293937587
 21
1216.569098291137
 31
0.0
  0
LINE
  5
521
330
1D
100
AcDbEntity
  8
0
100
AcDbLine
 10
4.002730293937587
 20
1212.852498291137
 30
0.0
 11
4.002730293937587
 21
1216.569098291137
 31
0.0
  0
LINE
  5
522
330
1D
100
AcDbEntity
  8
0
100
AcDbLine
 10
4.002730293937587
 20
1216.569098291137
 30
0.0
 11
4.002730293937587
 21
1219.837198291137
 31
0.0
  0
LINE
  5
523
330
1D
100
AcDbEntity
  8
0
100
AcDbLine
 10
4.002730293937587
 20
1216.569098291137
 30
0.0
 11
4.002730293937587
 21
1212.852498291137
 31
0.0
  0
LINE
  5
524
330
1D
100
AcDbEntity
  8
0
100
AcDbLine
 10
4.002730293937587
 20
1219.837198291137
 30
0.0
 11
4.002730293937587
 21
1222.336298291137
 31
0.0
  0
LINE
  5
525
330
1D
100
AcDbEntity
  8
0
100
AcDbLine
 10
4.002730293937587
 20
1219.837198291137
 30
0.0
 11
4.002730293937587
 21
1216.569098291137
 31
0.0
  0
LINE
  5
526
330
1D
100
AcDbEntity
  8
0
100
AcDbLine
 10
4.002730293937587
 20
1216.569098291137
 30
0.0
 11
4.002730293937587
 21
1212.852498291137
 31
0.0
  0
LINE
  5
527
330
1D
100
AcDbEntity
  8
0
100
AcDbLine
 10
4.002730293937587
 20
1216.569098291137
 30
0.0
 11
4.002730293937587
 21
1219.837198291137
 31
0.0
  0
LINE
  5
528
330
1D
100
AcDbEntity
  8
0
100
AcDbLine
 10
33.99532029393759
 20
1216.841498291137
 30
0.0
 11
33.99532029393759
 21
1220.094498291137
 31
0.0
  0
LINE
  5
529
330
1D
100
AcDbEntity
  8
0
100
AcDbLine
 10
33.99532029393759
 20
1212.934598291137
 30
0.0
 11
33.99532029393759
 21
1216.841498291137
 31
0.0
  0
LINE
  5
52A
330
1D
100
AcDbEntity
  8
0
100
AcDbLine
 10
4.002730293937587
 20
1219.837198291137
 30
0.0
 11
4.002730293937587
 21
1216.569098291137
 31
0.0
  0
LINE
  5
52B
330
1D
100
AcDbEntity
  8
0
100
AcDbLine
 10
4.002730293937587
 20
1219.837198291137
 30
0.0
 11
4.002730293937587
 21
1222.336298291137
 31
0.0
  0
LINE
  5
52C
330
1D
100
AcDbEntity
  8
0
100
AcDbLine
 10
33.99532029393759
 20
1212.852498291137
 30
0.0
 11
33.99532029393759
 21
1216.569098291137
 31
0.0
  0
LINE
  5
52D
330
1D
100
AcDbEntity
  8
0
100
AcDbLine
 10
33.99532029393759
 20
1212.852498291137
 30
0.0
 11
33.99532029393759
 21
1208.815498291137
 31
0.0
  0
LINE
  5
52E
330
1D
100
AcDbEntity
  8
0
100
AcDbLine
 10
33.99532029393759
 20
1216.569098291137
 30
0.0
 11
33.99532029393759
 21
1219.837198291137
 31
0.0
  0
LINE
  5
52F
330
1D
100
AcDbEntity
  8
0
100
AcDbLine
 10
33.99532029393759
 20
1216.569098291137
 30
0.0
 11
33.99532029393759
 21
1212.852498291137
 31
0.0
  0
LINE
  5
530
330
1D
100
AcDbEntity
  8
0
100
AcDbLine
 10
4.002730293937587
 20
1222.336298291137
 30
0.0
 11
4.002730293937587
 21
1223.874198291137
 31
0.0
  0
LINE
  5
531
330
1D
100
AcDbEntity
  8
0
100
AcDbLine
 10
4.002730293937587
 20
1222.336298291137
 30
0.0
 11
4.002730293937587
 21
1219.837198291137
 31
0.0
  0
LINE
  5
532
330
1D
100
AcDbEntity
  8
0
100
AcDbLine
 10
4.002730293937587
 20
1222.336298291137
 30
0.0
 11
4.002730293937587
 21
1219.837198291137
 31
0.0
  0
LINE
  5
533
330
1D
100
AcDbEntity
  8
0
100
AcDbLine
 10
4.002730293937587
 20
1222.336298291137
 30
0.0
 11
4.002730293937587
 21
1223.874198291137
 31
0.0
  0
LINE
  5
534
330
1D
100
AcDbEntity
  8
0
100
AcDbLine
 10
33.99532029393759
 20
1222.667698291137
 30
0.0
 11
33.99532029393759
 21
1224.199598291137
 31
0.0
  0
LINE
  5
535
330
1D
100
AcDbEntity
  8
0
100
AcDbLine
 10
33.99532029393759
 20
1220.094498291137
 30
0.0
 11
33.99532029393759
 21
1222.667698291137
 31
0.0
  0
LINE
  5
536
330
1D
100
AcDbEntity
  8
0
100
AcDbLine
 10
4.002730293937587
 20
1223.874198291137
 30
0.0
 11
4.002730293937587
 21
1222.336298291137
 31
0.0
  0
LINE
  5
537
330
1D
100
AcDbEntity
  8
0
100
AcDbLine
 10
4.002730293937587
 20
1223.874198291137
 30
0.0
 11
4.002730293937587
 21
1224.450898291137
 31
0.0
  0
LINE
  5
538
330
1D
100
AcDbEntity
  8
0
100
AcDbLine
 10
4.002730293937587
 20
1223.874198291137
 30
0.0
 11
4.002730293937587
 21
1222.336298291137
 31
0.0
  0
LINE
  5
539
330
1D
100
AcDbEntity
  8
0
100
AcDbLine
 10
33.99532029393759
 20
1219.837198291137
 30
0.0
 11
33.99532029393759
 21
1222.336298291137
 31
0.0
  0
LINE
  5
53A
330
1D
100
AcDbEntity
  8
0
100
AcDbLine
 10
33.99532029393759
 20
1219.837198291137
 30
0.0
 11
33.99532029393759
 21
1216.569098291137
 31
0.0
  0
LINE
  5
53B
330
1D
100
AcDbEntity
  8
0
100
AcDbLine
 10
33.99532029393759
 20
1222.336298291137
 30
0.0
 11
33.99532029393759
 21
1223.874198291137
 31
0.0
  0
LINE
  5
53C
330
1D
100
AcDbEntity
  8
0
100
AcDbLine
 10
33.99532029393759
 20
1222.336298291137
 30
0.0
 11
33.99532029393759
 21
1219.837198291137
 31
0.0
  0
LINE
  5
53D
330
1D
100
AcDbEntity
  8
0
100
AcDbLine
 10
4.771740293937587
 20
1224.835398291137
 30
0.0
 11
33.22632029393759
 21
1224.835398291137
 31
0.0
  0
LINE
  5
53E
330
1D
100
AcDbEntity
  8
0
100
AcDbLine
 10
4.771740293937587
 20
1224.835398291137
 30
0.0
 11
33.22632029393759
 21
1224.835398291137
 31
0.0
  0
LINE
  5
53F
330
1D
100
AcDbEntity
  8
0
100
AcDbLine
 10
4.002730293937587
 20
1224.450898291137
 30
0.0
 11
4.002730293937587
 21
1223.874198291137
 31
0.0
  0
LINE
  5
540
330
1D
100
AcDbEntity
  8
0
100
AcDbLine
 10
4.002730293937587
 20
1224.450898291137
 30
0.0
 11
4.771740293937587
 21
1224.835398291137
 31
0.0
  0
LINE
  5
541
330
1D
100
AcDbEntity
  8
0
100
AcDbLine
 10
33.99532029393759
 20
1224.199598291137
 30
0.0
 11
33.99532029393759
 21
1224.851398291137
 31
0.0
  0
LINE
  5
542
330
1D
100
AcDbEntity
  8
0
100
AcDbLine
 10
33.99532029393759
 20
1224.851398291137
 30
0.0
 11
33.99532029393759
 21
1224.450898291137
 31
0.0
  0
LINE
  5
543
330
1D
100
AcDbEntity
  8
0
100
AcDbLine
 10
33.99532029393759
 20
1224.851398291137
 30
0.0
 11
39.99382029393759
 21
1224.851398291137
 31
0.0
  0
LINE
  5
544
330
1D
100
AcDbEntity
  8
0
100
AcDbLine
 10
33.99532029393759
 20
1224.450898291137
 30
0.0
 11
33.99532029393759
 21
1223.874198291137
 31
0.0
  0
LINE
  5
545
330
1D
100
AcDbEntity
  8
0
100
AcDbLine
 10
33.22632029393759
 20
1224.835398291137
 30
0.0
 11
33.99532029393759
 21
1224.450898291137
 31
0.0
  0
LINE
  5
546
330
1D
100
AcDbEntity
  8
0
100
AcDbLine
 10
33.99532029393759
 20
1223.874198291137
 30
0.0
 11
33.99532029393759
 21
1224.450898291137
 31
0.0
  0
LINE
  5
547
330
1D
100
AcDbEntity
  8
0
100
AcDbLine
 10
33.99532029393759
 20
1223.874198291137
 30
0.0
 11
33.99532029393759
 21
1222.336298291137
 31
0.0
  0
LINE
  5
548
330
1D
100
AcDbEntity
  8
0
100
AcDbLine
 10
2.831320293937587
 20
1211.819298291137
 30
0.0
 11
4.771740293937587
 21
1211.819298291137
 31
0.0
  0
LINE
  5
549
330
1D
100
AcDbEntity
  8
0
100
AcDbLine
 10
2.831320293937587
 20
1211.819298291137
 30
0.0
 11
3.561540293937587
 21
1211.711098291137
 31
0.0
  0
LINE
  5
54A
330
1D
100
AcDbEntity
  8
0
100
AcDbLine
 10
2.101100293937587
 20
1211.711098291137
 30
0.0
 11
2.831320293937587
 21
1211.819298291137
 31
0.0
  0
LINE
  5
54B
330
1D
100
AcDbEntity
  8
0
100
AcDbLine
 10
39.39002029393759
 20
1211.634998291137
 30
0.0
 11
40.44572029393759
 21
1214.278298291137
 31
0.0
  0
LINE
  5
54C
330
1D
100
AcDbEntity
  8
0
100
AcDbLine
 10
39.39002029393759
 20
1211.634998291137
 30
0.0
 11
39.99382029393759
 21
1213.146814659423
 31
0.0
  0
LINE
  5
54D
330
1D
100
AcDbEntity
  8
0
100
AcDbLine
 10
39.99382029393759
 20
1224.851398291137
 30
0.0
 11
39.99382029393759
 21
1243.858898291137
 31
0.0
  0
LINE
  5
54E
330
1D
100
AcDbEntity
  8
0
100
AcDbLine
 10
39.99382029393759
 20
1243.858898291137
 30
0.0
 11
39.99382029393759
 21
1224.851398291137
 31
0.0
  0
LINE
  5
54F
330
1D
100
AcDbEntity
  8
0
100
AcDbLine
 10
47.17612029393758
 20
1198.198398291137
 30
0.0
 11
49.99142029393759
 21
1197.801898291137
 31
0.0
  0
LINE
  5
550
330
1D
100
AcDbEntity
  8
0
100
AcDbLine
 10
44.53672029393758
 20
1199.255698291137
 30
0.0
 11
47.17612029393758
 21
1198.198398291137
 31
0.0
  0
LINE
  5
551
330
1D
100
AcDbEntity
  8
0
100
AcDbLine
 10
44.53672029393758
 20
1199.255698291137
 30
0.0
 11
47.17612029393758
 21
1198.198398291137
 31
0.0
  0
LINE
  5
552
330
1D
100
AcDbEntity
  8
0
100
AcDbLine
 10
47.22012029393758
 20
1198.462698291137
 30
0.0
 11
49.99142029393759
 21
1198.066198291137
 31
0.0
  0
LINE
  5
553
330
1D
100
AcDbEntity
  8
0
100
AcDbLine
 10
47.17612029393758
 20
1198.198398291137
 30
0.0
 11
49.99142029393759
 21
1197.801898291137
 31
0.0
  0
LINE
  5
554
330
1D
100
AcDbEntity
  8
0
100
AcDbLine
 10
40.44572029393759
 20
1203.352798291137
 30
0.0
 11
42.20532029393758
 21
1201.017898291137
 31
0.0
  0
LINE
  5
555
330
1D
100
AcDbEntity
  8
0
100
AcDbLine
 10
42.20532029393758
 20
1201.017898291137
 30
0.0
 11
44.53672029393758
 21
1199.255698291137
 31
0.0
  0
LINE
  5
556
330
1D
100
AcDbEntity
  8
0
100
AcDbLine
 10
40.70972029393758
 20
1203.484898291137
 30
0.0
 11
42.42522029393758
 21
1201.238198291137
 31
0.0
  0
LINE
  5
557
330
1D
100
AcDbEntity
  8
0
100
AcDbLine
 10
42.42522029393758
 20
1201.238198291137
 30
0.0
 11
44.66872029393758
 21
1199.519998291137
 31
0.0
  0
LINE
  5
558
330
1D
100
AcDbEntity
  8
0
100
AcDbLine
 10
40.44572029393759
 20
1203.352798291137
 30
0.0
 11
42.20532029393758
 21
1201.017898291137
 31
0.0
  0
LINE
  5
559
330
1D
100
AcDbEntity
  8
0
100
AcDbLine
 10
42.20532029393758
 20
1201.017898291137
 30
0.0
 11
44.53672029393758
 21
1199.255698291137
 31
0.0
  0
LINE
  5
55A
330
1D
100
AcDbEntity
  8
0
100
AcDbLine
 10
44.66872029393758
 20
1199.519998291137
 30
0.0
 11
47.22012029393758
 21
1198.462698291137
 31
0.0
  0
LINE
  5
55B
330
1D
100
AcDbEntity
  8
0
100
AcDbLine
 10
40.44572029393759
 20
1214.278298291137
 30
0.0
 11
42.20532029393758
 21
1216.613198291137
 31
0.0
  0
LINE
  5
55C
330
1D
100
AcDbEntity
  8
0
100
AcDbLine
 10
42.20532029393758
 20
1216.613198291137
 30
0.0
 11
44.53672029393758
 21
1218.375398291137
 31
0.0
  0
LINE
  5
55D
330
1D
100
AcDbEntity
  8
0
100
AcDbLine
 10
40.70972029393758
 20
1214.146098291137
 30
0.0
 11
42.42522029393758
 21
1216.392898291137
 31
0.0
  0
LINE
  5
55E
330
1D
100
AcDbEntity
  8
0
100
AcDbLine
 10
42.42522029393758
 20
1216.392898291137
 30
0.0
 11
44.66872029393758
 21
1218.110998291137
 31
0.0
  0
LINE
  5
55F
330
1D
100
AcDbEntity
  8
0
100
AcDbLine
 10
44.53672029393758
 20
1218.375398291137
 30
0.0
 11
47.17612029393758
 21
1219.432698291137
 31
0.0
  0
LINE
  5
560
330
1D
100
AcDbEntity
  8
0
100
AcDbLine
 10
47.17612029393758
 20
1219.432698291137
 30
0.0
 11
49.99142029393759
 21
1219.829198291137
 31
0.0
  0
LINE
  5
561
330
1D
100
AcDbEntity
  8
0
100
AcDbLine
 10
44.66872029393758
 20
1218.110998291137
 30
0.0
 11
47.22012029393758
 21
1219.168398291137
 31
0.0
  0
LINE
  5
562
330
1D
100
AcDbEntity
  8
0
100
AcDbLine
 10
47.22012029393758
 20
1219.168398291137
 30
0.0
 11
49.99142029393759
 21
1219.564798291137
 31
0.0
  0
LINE
  5
563
330
1D
100
AcDbEntity
  8
0
100
AcDbLine
 10
39.99382029393759
 20
1213.146814659423
 30
0.0
 11
39.99382029393759
 21
1243.858898291137
 31
0.0
  0
LINE
  5
564
330
1D
100
AcDbEntity
  8
0
100
AcDbLine
 10
39.99382029393759
 20
1213.146814659423
 30
0.0
 11
39.99382029393759
 21
1243.858898291137
 31
0.0
  0
LINE
  5
565
330
1D
100
AcDbEntity
  8
0
100
AcDbLine
 10
39.99382029393759
 20
1243.858898291137
 30
0.0
 11
59.98892029393759
 21
1243.858898291137
 31
0.0
  0
LINE
  5
566
330
1D
100
AcDbEntity
  8
0
100
AcDbLine
 10
39.99382029393759
 20
1243.858898291137
 30
0.0
 11
39.99382029393759
 21
1213.146814659423
 31
0.0
  0
LINE
  5
567
330
1D
100
AcDbEntity
  8
0
100
AcDbLine
 10
39.99382029393759
 20
1243.858898291137
 30
0.0
 11
39.99382029393759
 21
1213.146814659423
 31
0.0
  0
LINE
  5
568
330
1D
100
AcDbEntity
  8
0
100
AcDbLine
 10
49.99142029393759
 20
1197.801898291137
 30
0.0
 11
52.80672029393759
 21
1198.198398291137
 31
0.0
  0
LINE
  5
569
330
1D
100
AcDbEntity
  8
0
100
AcDbLine
 10
49.99142029393759
 20
1197.801898291137
 30
0.0
 11
52.80672029393759
 21
1198.198398291137
 31
0.0
  0
LINE
  5
56A
330
1D
100
AcDbEntity
  8
0
100
AcDbLine
 10
49.99142029393759
 20
1198.066198291137
 30
0.0
 11
52.76272029393759
 21
1198.462698291137
 31
0.0
  0
LINE
  5
56B
330
1D
100
AcDbEntity
  8
0
100
AcDbLine
 10
52.80672029393759
 20
1198.198398291137
 30
0.0
 11
55.44602029393758
 21
1199.255698291137
 31
0.0
  0
LINE
  5
56C
330
1D
100
AcDbEntity
  8
0
100
AcDbLine
 10
78.78432029393758
 20
1184.858898291137
 30
0.0
 11
80.18392029393758
 21
1186.072398291137
 31
0.0
  0
LINE
  5
56D
330
1D
100
AcDbEntity
  8
0
100
AcDbLine
 10
75.48512029393759
 20
1189.888118291137
 30
0.0
 11
76.68482029393759
 21
1187.199798291137
 31
0.0
  0
LINE
  5
56E
330
1D
100
AcDbEntity
  8
0
100
AcDbLine
 10
76.68482029393759
 20
1187.199798291137
 30
0.0
 11
78.78432029393758
 21
1184.858898291137
 31
0.0
  0
LINE
  5
56F
330
1D
100
AcDbEntity
  8
0
100
AcDbLine
 10
76.68482029393759
 20
1187.199798291137
 30
0.0
 11
78.78432029393758
 21
1184.858898291137
 31
0.0
  0
LINE
  5
570
330
1D
100
AcDbEntity
  8
0
100
AcDbLine
 10
76.98472029393759
 20
1190.408768291137
 30
0.0
 11
78.48432029393759
 21
1188.066868291137
 31
0.0
  0
LINE
  5
571
330
1D
100
AcDbEntity
  8
0
100
AcDbLine
 10
76.98472029393759
 20
1190.408768291137
 30
0.0
 11
76.98472029393759
 21
1192.835768291137
 31
0.0
  0
LINE
  5
572
330
1D
100
AcDbEntity
  8
0
100
AcDbLine
 10
78.48432029393759
 20
1188.066868291137
 30
0.0
 11
80.18392029393758
 21
1186.072398291137
 31
0.0
  0
LINE
  5
573
330
1D
100
AcDbEntity
  8
0
100
AcDbLine
 10
78.48432029393759
 20
1188.066868291137
 30
0.0
 11
80.18392029393758
 21
1186.072398291137
 31
0.0
  0
LINE
  5
574
330
1D
100
AcDbEntity
  8
0
100
AcDbLine
 10
95.78012029393759
 20
1186.072398291137
 30
0.0
 11
97.47972029393759
 21
1188.066868291137
 31
0.0
  0
LINE
  5
575
330
1D
100
AcDbEntity
  8
0
100
AcDbLine
 10
97.17972029393759
 20
1184.858898291137
 30
0.0
 11
99.27922029393759
 21
1187.199798291137
 31
0.0
  0
LINE
  5
576
330
1D
100
AcDbEntity
  8
0
100
AcDbLine
 10
99.27922029393759
 20
1187.199798291137
 30
0.0
 11
100.4788202939376
 21
1189.888118291137
 31
0.0
  0
LINE
  5
577
330
1D
100
AcDbEntity
  8
0
100
AcDbLine
 10
97.17972029393759
 20
1184.858898291137
 30
0.0
 11
99.27922029393759
 21
1187.199798291137
 31
0.0
  0
LINE
  5
578
330
1D
100
AcDbEntity
  8
0
100
AcDbLine
 10
100.4788202939376
 20
1189.888118291137
 30
0.0
 11
100.9788202939376
 21
1192.835768291137
 31
0.0
  0
LINE
  5
579
330
1D
100
AcDbEntity
  8
0
100
AcDbLine
 10
98.97932029393759
 20
1190.408768291137
 30
0.0
 11
98.97932029393759
 21
1192.835768291137
 31
0.0
  0
LINE
  5
57A
330
1D
100
AcDbEntity
  8
0
100
AcDbLine
 10
97.47972029393759
 20
1188.066868291137
 30
0.0
 11
98.97932029393759
 21
1190.408768291137
 31
0.0
  0
LINE
  5
57B
330
1D
100
AcDbEntity
  8
0
100
AcDbLine
 10
95.78012029393759
 20
1186.072398291137
 30
0.0
 11
95.78012029393759
 21
1199.599098291137
 31
0.0
  0
LINE
  5
57C
330
1D
100
AcDbEntity
  8
0
100
AcDbLine
 10
95.78012029393759
 20
1186.072398291137
 30
0.0
 11
97.47972029393759
 21
1188.066868291137
 31
0.0
  0
LINE
  5
57D
330
1D
100
AcDbEntity
  8
0
100
AcDbLine
 10
95.78012029393759
 20
1186.072398291137
 30
0.0
 11
97.17972029393759
 21
1184.858898291137
 31
0.0
  0
LINE
  5
57E
330
1D
100
AcDbEntity
  8
0
100
AcDbLine
 10
74.98522029393758
 20
1192.835768291137
 30
0.0
 11
75.48512029393759
 21
1195.784398291137
 31
0.0
  0
LINE
  5
57F
330
1D
100
AcDbEntity
  8
0
100
AcDbLine
 10
74.98522029393758
 20
1192.835768291137
 30
0.0
 11
74.98522029393758
 21
1224.851398291137
 31
0.0
  0
LINE
  5
580
330
1D
100
AcDbEntity
  8
0
100
AcDbLine
 10
74.98522029393758
 20
1192.835768291137
 30
0.0
 11
75.48512029393759
 21
1189.888118291137
 31
0.0
  0
LINE
  5
581
330
1D
100
AcDbEntity
  8
0
100
AcDbLine
 10
75.48512029393759
 20
1195.784398291137
 30
0.0
 11
76.68482029393759
 21
1198.471698291137
 31
0.0
  0
LINE
  5
582
330
1D
100
AcDbEntity
  8
0
100
AcDbLine
 10
76.98472029393759
 20
1192.835768291137
 30
0.0
 11
76.98472029393759
 21
1195.263798291137
 31
0.0
  0
LINE
  5
583
330
1D
100
AcDbEntity
  8
0
100
AcDbLine
 10
76.98472029393759
 20
1192.835768291137
 30
0.0
 11
76.98472029393759
 21
1190.408768291137
 31
0.0
  0
LINE
  5
584
330
1D
100
AcDbEntity
  8
0
100
AcDbLine
 10
76.98472029393759
 20
1195.263798291137
 30
0.0
 11
78.48432029393759
 21
1197.604698291137
 31
0.0
  0
LINE
  5
585
330
1D
100
AcDbEntity
  8
0
100
AcDbLine
 10
76.98472029393759
 20
1195.263798291137
 30
0.0
 11
76.98472029393759
 21
1192.835768291137
 31
0.0
  0
LINE
  5
586
330
1D
100
AcDbEntity
  8
0
100
AcDbLine
 10
76.68482029393759
 20
1198.471698291137
 30
0.0
 11
78.78432029393758
 21
1200.813598291137
 31
0.0
  0
LINE
  5
587
330
1D
100
AcDbEntity
  8
0
100
AcDbLine
 10
78.48432029393759
 20
1197.604698291137
 30
0.0
 11
80.18392029393758
 21
1199.599098291137
 31
0.0
  0
LINE
  5
588
330
1D
100
AcDbEntity
  8
0
100
AcDbLine
 10
100.9788202939376
 20
1192.835768291137
 30
0.0
 11
100.9788202939376
 21
1210.357398291137
 31
0.0
  0
LINE
  5
589
330
1D
100
AcDbEntity
  8
0
100
AcDbLine
 10
98.97932029393759
 20
1192.835768291137
 30
0.0
 11
98.97932029393759
 21
1195.263798291137
 31
0.0
  0
LINE
  5
58A
330
1D
100
AcDbEntity
  8
0
100
AcDbLine
 10
98.97932029393759
 20
1192.835768291137
 30
0.0
 11
98.97932029393759
 21
1190.408768291137
 31
0.0
  0
LINE
  5
58B
330
1D
100
AcDbEntity
  8
0
100
AcDbLine
 10
100.4788202939376
 20
1195.784398291137
 30
0.0
 11
100.9788202939376
 21
1192.835768291137
 31
0.0
  0
LINE
  5
58C
330
1D
100
AcDbEntity
  8
0
100
AcDbLine
 10
99.27922029393759
 20
1198.471698291137
 30
0.0
 11
100.4788202939376
 21
1195.784398291137
 31
0.0
  0
LINE
  5
58D
330
1D
100
AcDbEntity
  8
0
100
AcDbLine
 10
98.97932029393759
 20
1195.263798291137
 30
0.0
 11
98.97932029393759
 21
1192.835768291137
 31
0.0
  0
LINE
  5
58E
330
1D
100
AcDbEntity
  8
0
100
AcDbLine
 10
97.47972029393759
 20
1197.604698291137
 30
0.0
 11
98.97932029393759
 21
1195.263798291137
 31
0.0
  0
LINE
  5
58F
330
1D
100
AcDbEntity
  8
0
100
AcDbLine
 10
73.98552029393758
 20
1192.735648291137
 30
0.0
 11
75.00219991770568
 21
1192.735648291137
 31
0.0
  0
LINE
  5
590
330
1D
100
AcDbEntity
  8
0
100
AcDbLine
 10
55.44602029393758
 20
1199.255698291137
 30
0.0
 11
57.77752029393758
 21
1201.017898291137
 31
0.0
  0
LINE
  5
591
330
1D
100
AcDbEntity
  8
0
100
AcDbLine
 10
55.31412029393758
 20
1199.519998291137
 30
0.0
 11
57.55752029393758
 21
1201.238198291137
 31
0.0
  0
LINE
  5
592
330
1D
100
AcDbEntity
  8
0
100
AcDbLine
 10
55.44602029393758
 20
1199.255698291137
 30
0.0
 11
57.77752029393758
 21
1201.017898291137
 31
0.0
  0
LINE
  5
593
330
1D
100
AcDbEntity
  8
0
100
AcDbLine
 10
52.80672029393759
 20
1198.198398291137
 30
0.0
 11
55.44602029393758
 21
1199.255698291137
 31
0.0
  0
LINE
  5
594
330
1D
100
AcDbEntity
  8
0
100
AcDbLine
 10
80.18392029393758
 20
1199.599098291137
 30
0.0
 11
80.18392029393758
 21
1186.072398291137
 31
0.0
  0
LINE
  5
595
330
1D
100
AcDbEntity
  8
0
100
AcDbLine
 10
78.78432029393758
 20
1200.813598291137
 30
0.0
 11
81.48362029393759
 21
1202.634898291137
 31
0.0
  0
LINE
  5
596
330
1D
100
AcDbEntity
  8
0
100
AcDbLine
 10
85.18272029393759
 20
1202.374598291137
 30
0.0
 11
87.9820202939376
 21
1202.374598291137
 31
0.0
  0
LINE
  5
597
330
1D
100
AcDbEntity
  8
0
100
AcDbLine
 10
82.48342029393759
 20
1201.073998291137
 30
0.0
 11
85.18272029393759
 21
1202.374598291137
 31
0.0
  0
LINE
  5
598
330
1D
100
AcDbEntity
  8
0
100
AcDbLine
 10
80.18392029393758
 20
1199.599098291137
 30
0.0
 11
82.48342029393759
 21
1201.073998291137
 31
0.0
  0
LINE
  5
599
330
1D
100
AcDbEntity
  8
0
100
AcDbLine
 10
87.9820202939376
 20
1202.374598291137
 30
0.0
 11
90.78132029393758
 21
1202.374598291137
 31
0.0
  0
LINE
  5
59A
330
1D
100
AcDbEntity
  8
0
100
AcDbLine
 10
81.48362029393759
 20
1202.634898291137
 30
0.0
 11
84.58282029393759
 21
1203.675198291137
 31
0.0
  0
LINE
  5
59B
330
1D
100
AcDbEntity
  8
0
100
AcDbLine
 10
90.78132029393758
 20
1202.374598291137
 30
0.0
 11
93.48062029393759
 21
1201.073998291137
 31
0.0
  0
LINE
  5
59C
330
1D
100
AcDbEntity
  8
0
100
AcDbLine
 10
97.17972029393759
 20
1200.813598291137
 30
0.0
 11
99.27922029393759
 21
1198.471698291137
 31
0.0
  0
LINE
  5
59D
330
1D
100
AcDbEntity
  8
0
100
AcDbLine
 10
95.78012029393759
 20
1199.599098291137
 30
0.0
 11
97.47972029393759
 21
1197.604698291137
 31
0.0
  0
LINE
  5
59E
330
1D
100
AcDbEntity
  8
0
100
AcDbLine
 10
94.48042029393759
 20
1202.634898291137
 30
0.0
 11
97.17972029393759
 21
1200.813598291137
 31
0.0
  0
LINE
  5
59F
330
1D
100
AcDbEntity
  8
0
100
AcDbLine
 10
93.48062029393759
 20
1201.073998291137
 30
0.0
 11
95.78012029393759
 21
1199.599098291137
 31
0.0
  0
LINE
  5
5A0
330
1D
100
AcDbEntity
  8
0
100
AcDbLine
 10
59.27312029393759
 20
1203.484898291137
 30
0.0
 11
60.32882029393759
 21
1206.040098291137
 31
0.0
  0
LINE
  5
5A1
330
1D
100
AcDbEntity
  8
0
100
AcDbLine
 10
59.53702029393759
 20
1203.352798291137
 30
0.0
 11
60.59282029393759
 21
1205.996098291137
 31
0.0
  0
LINE
  5
5A2
330
1D
100
AcDbEntity
  8
0
100
AcDbLine
 10
57.77752029393758
 20
1201.017898291137
 30
0.0
 11
59.53702029393759
 21
1203.352798291137
 31
0.0
  0
LINE
  5
5A3
330
1D
100
AcDbEntity
  8
0
100
AcDbLine
 10
84.58282029393759
 20
1203.675198291137
 30
0.0
 11
87.9820202939376
 21
1204.108698291137
 31
0.0
  0
LINE
  5
5A4
330
1D
100
AcDbEntity
  8
0
100
AcDbLine
 10
87.9820202939376
 20
1204.108698291137
 30
0.0
 11
91.38122029393759
 21
1203.675198291137
 31
0.0
  0
LINE
  5
5A5
330
1D
100
AcDbEntity
  8
0
100
AcDbLine
 10
91.38122029393759
 20
1203.675198291137
 30
0.0
 11
94.48042029393759
 21
1202.634898291137
 31
0.0
  0
LINE
  5
5A6
330
1D
100
AcDbEntity
  8
0
100
AcDbLine
 10
74.98522029393758
 20
1224.851398291137
 30
0.0
 11
74.98522029393758
 21
1192.835768291137
 31
0.0
  0
LINE
  5
5A7
330
1D
100
AcDbEntity
  8
0
100
AcDbLine
 10
100.9788202939376
 20
1210.357398291137
 30
0.0
 11
100.9788202939376
 21
1192.835768291137
 31
0.0
  0
LINE
  5
5A8
330
1D
100
AcDbEntity
  8
0
100
AcDbLine
 10
60.59282029393759
 20
1205.996098291137
 30
0.0
 11
60.98872029393759
 21
1208.815498291137
 31
0.0
  0
LINE
  5
5A9
330
1D
100
AcDbEntity
  8
0
100
AcDbLine
 10
60.32882029393759
 20
1206.040098291137
 30
0.0
 11
60.72472029393758
 21
1208.815498291137
 31
0.0
  0
LINE
  5
5AA
330
1D
100
AcDbEntity
  8
0
100
AcDbLine
 10
59.27312029393759
 20
1203.484898291137
 30
0.0
 11
60.32882029393759
 21
1206.040098291137
 31
0.0
  0
LINE
  5
5AB
330
1D
100
AcDbEntity
  8
0
100
AcDbLine
 10
59.27312029393759
 20
1203.484898291137
 30
0.0
 11
60.32882029393759
 21
1206.040098291137
 31
0.0
  0
LINE
  5
5AC
330
1D
100
AcDbEntity
  8
0
100
AcDbLine
 10
57.55752029393758
 20
1201.238198291137
 30
0.0
 11
59.27312029393759
 21
1203.484898291137
 31
0.0
  0
LINE
  5
5AD
330
1D
100
AcDbEntity
  8
0
100
AcDbLine
 10
55.31412029393758
 20
1199.519998291137
 30
0.0
 11
57.55752029393758
 21
1201.238198291137
 31
0.0
  0
LINE
  5
5AE
330
1D
100
AcDbEntity
  8
0
100
AcDbLine
 10
52.76272029393759
 20
1198.462698291137
 30
0.0
 11
55.31412029393758
 21
1199.519998291137
 31
0.0
  0
LINE
  5
5AF
330
1D
100
AcDbEntity
  8
0
100
AcDbLine
 10
60.59282029393759
 20
1211.634998291137
 30
0.0
 11
60.98872029393759
 21
1208.815498291137
 31
0.0
  0
LINE
  5
5B0
330
1D
100
AcDbEntity
  8
0
100
AcDbLine
 10
60.32882029393759
 20
1211.590998291137
 30
0.0
 11
60.72472029393758
 21
1208.815498291137
 31
0.0
  0
LINE
  5
5B1
330
1D
100
AcDbEntity
  8
0
100
AcDbLine
 10
59.53702029393759
 20
1214.278298291137
 30
0.0
 11
60.59282029393759
 21
1211.634998291137
 31
0.0
  0
LINE
  5
5B2
330
1D
100
AcDbEntity
  8
0
100
AcDbLine
 10
57.77752029393758
 20
1216.613198291137
 30
0.0
 11
59.53702029393759
 21
1214.278298291137
 31
0.0
  0
LINE
  5
5B3
330
1D
100
AcDbEntity
  8
0
100
AcDbLine
 10
59.27312029393759
 20
1214.146098291137
 30
0.0
 11
60.32882029393759
 21
1211.590998291137
 31
0.0
  0
LINE
  5
5B4
330
1D
100
AcDbEntity
  8
0
100
AcDbLine
 10
57.55752029393758
 20
1216.392898291137
 30
0.0
 11
59.27312029393759
 21
1214.146098291137
 31
0.0
  0
LINE
  5
5B5
330
1D
100
AcDbEntity
  8
0
100
AcDbLine
 10
55.44602029393758
 20
1218.375398291137
 30
0.0
 11
57.77752029393758
 21
1216.613198291137
 31
0.0
  0
LINE
  5
5B6
330
1D
100
AcDbEntity
  8
0
100
AcDbLine
 10
52.80672029393759
 20
1219.432698291137
 30
0.0
 11
55.44602029393758
 21
1218.375398291137
 31
0.0
  0
LINE
  5
5B7
330
1D
100
AcDbEntity
  8
0
100
AcDbLine
 10
55.31412029393758
 20
1218.110998291137
 30
0.0
 11
57.55752029393758
 21
1216.392898291137
 31
0.0
  0
LINE
  5
5B8
330
1D
100
AcDbEntity
  8
0
100
AcDbLine
 10
52.76272029393759
 20
1219.168398291137
 30
0.0
 11
55.31412029393758
 21
1218.110998291137
 31
0.0
  0
LINE
  5
5B9
330
1D
100
AcDbEntity
  8
0
100
AcDbLine
 10
59.98892029393759
 20
1224.851398291137
 30
0.0
 11
73.98552029393758
 21
1224.851398291137
 31
0.0
  0
LINE
  5
5BA
330
1D
100
AcDbEntity
  8
0
100
AcDbLine
 10
49.99142029393759
 20
1219.829198291137
 30
0.0
 11
52.80672029393759
 21
1219.432698291137
 31
0.0
  0
LINE
  5
5BB
330
1D
100
AcDbEntity
  8
0
100
AcDbLine
 10
49.99142029393759
 20
1219.564798291137
 30
0.0
 11
52.76272029393759
 21
1219.168398291137
 31
0.0
  0
LINE
  5
5BC
330
1D
100
AcDbEntity
  8
0
100
AcDbLine
 10
76.68482029393759
 20
1215.993398291137
 30
0.0
 11
78.78432029393758
 21
1218.335298291137
 31
0.0
  0
LINE
  5
5BD
330
1D
100
AcDbEntity
  8
0
100
AcDbLine
 10
100.4788202939376
 20
1213.306098291137
 30
0.0
 11
100.9788202939376
 21
1210.357398291137
 31
0.0
  0
LINE
  5
5BE
330
1D
100
AcDbEntity
  8
0
100
AcDbLine
 10
99.27922029393759
 20
1215.993398291137
 30
0.0
 11
100.4788202939376
 21
1213.306098291137
 31
0.0
  0
LINE
  5
5BF
330
1D
100
AcDbEntity
  8
0
100
AcDbLine
 10
76.98472029393759
 20
1224.199598291137
 30
0.0
 11
76.98472029393759
 21
1222.667698291137
 31
0.0
  0
LINE
  5
5C0
330
1D
100
AcDbEntity
  8
0
100
AcDbLine
 10
76.98472029393759
 20
1224.851398291137
 30
0.0
 11
76.98472029393759
 21
1224.199598291137
 31
0.0
  0
LINE
  5
5C1
330
1D
100
AcDbEntity
  8
0
100
AcDbLine
 10
73.98552029393758
 20
1224.851398291137
 30
0.0
 11
76.98472029393759
 21
1224.851398291137
 31
0.0
  0
LINE
  5
5C2
330
1D
100
AcDbEntity
  8
0
100
AcDbLine
 10
76.98472029393759
 20
1222.667698291137
 30
0.0
 11
76.98472029393759
 21
1220.094498291137
 31
0.0
  0
LINE
  5
5C3
330
1D
100
AcDbEntity
  8
0
100
AcDbLine
 10
81.48362029393759
 20
1220.156598291137
 30
0.0
 11
84.58282029393759
 21
1221.196898291137
 31
0.0
  0
LINE
  5
5C4
330
1D
100
AcDbEntity
  8
0
100
AcDbLine
 10
78.78432029393758
 20
1218.335298291137
 30
0.0
 11
81.48362029393759
 21
1220.156598291137
 31
0.0
  0
LINE
  5
5C5
330
1D
100
AcDbEntity
  8
0
100
AcDbLine
 10
97.17972029393759
 20
1218.335298291137
 30
0.0
 11
99.27922029393759
 21
1215.993398291137
 31
0.0
  0
LINE
  5
5C6
330
1D
100
AcDbEntity
  8
0
100
AcDbLine
 10
84.58282029393759
 20
1221.196898291137
 30
0.0
 11
87.9820202939376
 21
1221.630398291137
 31
0.0
  0
LINE
  5
5C7
330
1D
100
AcDbEntity
  8
0
100
AcDbLine
 10
87.9820202939376
 20
1221.630398291137
 30
0.0
 11
91.38122029393759
 21
1221.196898291137
 31
0.0
  0
LINE
  5
5C8
330
1D
100
AcDbEntity
  8
0
100
AcDbLine
 10
91.38122029393759
 20
1221.196898291137
 30
0.0
 11
94.48042029393759
 21
1220.156598291137
 31
0.0
  0
LINE
  5
5C9
330
1D
100
AcDbEntity
  8
0
100
AcDbLine
 10
94.48042029393759
 20
1220.156598291137
 30
0.0
 11
97.17972029393759
 21
1218.335298291137
 31
0.0
  0
LINE
  5
5CA
330
1D
100
AcDbEntity
  8
0
100
AcDbLine
 10
76.98472029393759
 20
1220.094498291137
 30
0.0
 11
76.98472029393759
 21
1216.841498291137
 31
0.0
  0
LINE
  5
5CB
330
1D
100
AcDbEntity
  8
0
100
AcDbLine
 10
76.98472029393759
 20
1216.841498291137
 30
0.0
 11
76.98472029393759
 21
1216.327923563821
 31
0.0
  0
LINE
  5
5CC
330
1D
100
AcDbEntity
  8
0
100
AcDbLine
 10
59.98892029393759
 20
1243.858898291137
 30
0.0
 11
59.98892029393759
 21
1213.146921827791
 31
0.0
  0
LINE
  5
5CD
330
1D
100
AcDbEntity
  8
0
100
AcDbLine
 10
59.98892029393759
 20
1213.146921827791
 30
0.0
 11
59.98892029393759
 21
1243.858898291137
 31
0.0
  0
ENDSEC
  0
SECTION
  2
OBJECTS
  0
DICTIONARY
  5
C
330
0
100
AcDbDictionary
281
     1
  3
ACAD_CIP_PREVIOUS_PRODUCT_INFO
350
1C3
  3
ACAD_COLOR
350
1B9
  3
ACAD_DETAILVIEWSTYLE
350
1BF
  3
ACAD_FIELDLIST
350
233
  3
ACAD_GROUP
350
D
  3
ACAD_LAYOUT
350
1A
  3
ACAD_MATERIAL
350
187
  3
ACAD_MLEADERSTYLE
350
183
  3
ACAD_MLINESTYLE
350
17
  3
ACAD_PLOTSETTINGS
350
19
  3
ACAD_PLOTSTYLENAME
350
E
  3
ACAD_SCALELIST
350
15B
  3
ACAD_SECTIONVIEWSTYLE
350
1BD
  3
ACAD_TABLESTYLE
350
1BA
  3
ACAD_VISUALSTYLE
350
1A0
  3
ACDB_RECOMPOSE_DATA
350
5DC
  3
AcDbVariableDictionary
350
181
  3
AcmDictionary
350
1F0
  3
AMG
350
1D6
  3
AMGSNAPSETTINGS
350
245
  3
DWGPROPS
350
5DD
  0
DICTIONARY
  5
5CE
330
10
100
AcDbDictionary
280
     1
281
     1
  3
ADSK_XREC_LAYER_RECONCILED
360
5CF
  0
DICTIONARY
  5
5D0
330
24C
100
AcDbDictionary
280
     1
281
     1
  3
ADSK_XREC_LAYER_RECONCILED
360
5D1
  0
DICTIONARY
  5
24F
330
1D
100
AcDbDictionary
280
     1
281
     1
  3
ACAD_SORTENTS
360
250
  0
XRECORD
  5
1C3
102
{ACAD_REACTORS
330
C
102
}
330
C
100
AcDbXrecord
280
     1
300
AMECH_PP
300
2018
300

  0
DICTIONARY
  5
1B9
102
{ACAD_REACTORS
330
C
102
}
330
C
100
AcDbDictionary
281
     1
  0
DICTIONARY
  5
1BF
102
{ACAD_REACTORS
330
C
102
}
330
C
100
AcDbDictionary
281
     1
  3
Imperial24
350
1C0
  0
FIELDLIST
  5
233
102
{ACAD_REACTORS
330
C
102
}
330
C
100
AcDbIdSet
 90
        8
330
231
330
232
330
234
330
235
330
239
330
23A
330
23B
330
23C
100
AcDbFieldList
  0
DICTIONARY
  5
D
102
{ACAD_REACTORS
330
C
102
}
330
C
100
AcDbDictionary
281
     1
  0
DICTIONARY
  5
1A
102
{ACAD_REACTORS
330
C
102
}
330
C
100
AcDbDictionary
281
     1
  3
Layout1
350
1C
  3
Model
350
1E
  0
DICTIONARY
  5
187
102
{ACAD_REACTORS
330
C
102
}
330
C
100
AcDbDictionary
281
     1
  3
ByBlock
350
190
  3
ByLayer
350
188
  3
Global
350
198
  0
DICTIONARY
  5
183
102
{ACAD_REACTORS
330
C
102
}
330
C
100
AcDbDictionary
281
     1
  3
Standard
350
1BC
  0
DICTIONARY
  5
17
102
{ACAD_REACTORS
330
C
102
}
330
C
100
AcDbDictionary
281
     1
  3
Standard
350
18
  0
DICTIONARY
  5
19
102
{ACAD_REACTORS
330
C
102
}
330
C
100
AcDbDictionary
281
     1
  0
ACDBDICTIONARYWDFLT
  5
E
102
{ACAD_REACTORS
330
C
102
}
330
C
100
AcDbDictionary
281
     1
  3
Normal
350
F
100
AcDbDictionaryWithDefault
340
F
  0
DICTIONARY
  5
15B
102
{ACAD_REACTORS
330
C
102
}
330
C
100
AcDbDictionary
281
     1
  3
A0
350
15C
  3
A1
350
15D
  3
A2
350
15E
  3
A3
350
15F
  3
A4
350
160
  3
A5
350
161
  3
A6
350
162
  3
A7
350
163
  3
A8
350
164
  3
A9
350
165
  3
B0
350
166
  3
B1
350
167
  3
B2
350
168
  3
B3
350
169
  3
B4
350
16A
  3
B5
350
16B
  3
B6
350
16C
  3
B7
350
16D
  3
B8
350
16E
  3
B9
350
16F
  3
C0
350
170
  3
C1
350
171
  3
C2
350
172
  3
C3
350
173
  3
C4
350
174
  3
C5
350
175
  3
C6
350
176
  3
C7
350
177
  3
C8
350
178
  3
C9
350
179
  3
D0
350
17A
  3
D1
350
17B
  3
D2
350
17C
  0
DICTIONARY
  5
1BD
102
{ACAD_REACTORS
330
C
102
}
330
C
100
AcDbDictionary
281
     1
  3
Imperial24
350
1BE
  0
DICTIONARY
  5
1BA
102
{ACAD_REACTORS
330
C
102
}
330
C
100
AcDbDictionary
281
     1
  3
Standard
350
1BB
  0
DICTIONARY
  5
1A0
102
{ACAD_REACTORS
330
C
102
}
330
C
100
AcDbDictionary
281
     1
  3
2dWireframe
350
1A6
  3
Basic
350
1A5
  3
Brighten
350
1AC
  3
ColorChange
350
1B0
  3
Conceptual
350
1A9
  3
Dim
350
1AB
  3
EdgeColorOff
350
1B8
  3
Facepattern
350
1AF
  3
Flat
350
1A1
  3
FlatWithEdges
350
1A2
  3
Gouraud
350
1A3
  3
GouraudWithEdges
350
1A4
  3
Hidden
350
1A8
  3
JitterOff
350
1B6
  3
Linepattern
350
1AE
  3
OverhangOff
350
1B7
  3
Realistic
350
1AA
  3
Shaded
350
1B5
  3
Shaded with edges
350
1B4
  3
Shades of Gray
350
1B1
  3
Sketchy
350
1B2
  3
Thicken
350
1AD
  3
Wireframe
350
1A7
  3
X-Ray
350
1B3
  0
XRECORD
  5
5DC
102
{ACAD_REACTORS
330
C
102
}
330
C
100
AcDbXrecord
280
     1
 90
        1
330
1BB
  0
DICTIONARY
  5
181
102
{ACAD_REACTORS
330
C
102
}
330
C
100
AcDbDictionary
281
     1
  3
CANNOSCALE
350
184
  3
CMLEADERSTYLE
350
5D3
  3
CTABLESTYLE
350
5D2
  3
CVIEWDETAILSTYLE
350
5D4
  3
CVIEWSECTIONSTYLE
350
5D5
  3
DIMASSOC
350
5D8
  3
INDEXCTL
350
5D7
  3
SORTENTS
350
5D6
  3
XCLIPFRAME
350
5D9
  0
DICTIONARY
  5
1F0
102
{ACAD_REACTORS
330
C
102
}
330
C
100
AcDbDictionary
281
     1
  3
AcmStdDictionary
350
1F7
  0
DICTIONARY
  5
1D6
102
{ACAD_REACTORS
330
C
102
}
330
C
100
AcDbDictionary
281
     1
  0
DICTIONARY
  5
245
102
{ACAD_REACTORS
330
C
102
}
330
C
100
AcDbDictionary
281
     1
  0
XRECORD
  5
5DD
102
{ACAD_REACTORS
330
C
102
}
330
C
100
AcDbXrecord
280
     1
  1
DWGPROPS COOKIE
  2

  3

  4

  6

  7

  8
yamazaks
  9

300
=
301
=
302
=
303
=
304
=
305
=
306
=
307
=
308
=
309
=
 40
0.0078007523148148
 41
2456646.271342593
 42
2458093.751944445
  1

 90
        0
  0
XRECORD
  5
5CF
102
{ACAD_REACTORS
330
5CE
102
}
330
5CE
100
AcDbXrecord
280
     1
290
     1
  0
XRECORD
  5
5D1
102
{ACAD_REACTORS
330
5D0
102
}
330
5D0
100
AcDbXrecord
280
     1
290
     1
  0
SORTENTSTABLE
  5
250
102
{ACAD_REACTORS
330
24F
102
}
330
24F
100
AcDbSortentsTable
330
1D
331
35A
  5
35B
331
349
  5
34A
331
70
  5
73
331
36B
  5
36C
331
323
  5
324
331
F3
  5
F6
331
37C
  5
37D
331
334
  5
335
331
104
  5
107
331
7C
  5
7F
331
38D
  5
38E
331
345
  5
346
331
115
  5
118
331
8D
  5
90
331
39E
  5
39F
331
126
  5
129
331
9E
  5
A1
331
3AF
  5
3B0
331
137
  5
13A
331
3C9
  5
3CA
331
148
  5
14B
331
C0
  5
C3
331
E2
  5
E6
331
5F
  5
62
331
4E
  5
51
331
3D
  5
40
331
2C
  5
2F
331
D1
  5
D4
331
AF
  5
B2
331
359
  5
35A
331
348
  5
349
331
36A
  5
36B
331
322
  5
323
331
F2
  5
F5
331
37B
  5
37C
331
333
  5
334
331
103
  5
106
331
7B
  5
7E
331
38C
  5
38D
331
344
  5
345
331
114
  5
117
331
8C
  5
8F
331
39D
  5
39E
331
125
  5
128
331
9D
  5
A0
331
3AE
  5
3AF
331
136
  5
139
331
3C8
  5
3C9
331
3BF
  5
3C0
331
147
  5
14A
331
BF
  5
C2
331
E1
  5
E4
331
6F
  5
72
331
5E
  5
61
331
4D
  5
50
331
3C
  5
3F
331
2B
  5
2E
331
D0
  5
D3
331
AE
  5
B1
331
358
  5
359
331
369
  5
36A
331
321
  5
322
331
F1
  5
F4
331
37A
  5
37B
331
332
  5
333
331
102
  5
105
331
7A
  5
7D
331
38B
  5
38C
331
343
  5
344
331
113
  5
116
331
8B
  5
8E
331
39C
  5
39D
331
124
  5
127
331
9C
  5
9F
331
3AD
  5
3AE
331
135
  5
138
331
3C7
  5
3C8
331
3BE
  5
3BF
331
146
  5
149
331
BE
  5
C1
331
E0
  5
E3
331
6E
  5
71
331
5D
  5
60
331
4C
  5
4F
331
3B
  5
3E
331
2A
  5
2D
331
CF
  5
D2
331
AD
  5
B0
331
368
  5
369
331
320
  5
321
331
F0
  5
F3
331
379
  5
37A
331
331
  5
332
331
101
  5
104
331
79
  5
7C
331
38A
  5
38B
331
342
  5
343
331
112
  5
115
331
8A
  5
8D
331
39B
  5
39C
331
123
  5
126
331
9B
  5
9E
331
3AC
  5
3AD
331
134
  5
137
331
3C6
  5
3C7
331
3BD
  5
3BE
331
145
  5
148
331
BD
  5
C0
331
DF
  5
E2
331
357
  5
358
331
6D
  5
70
331
5C
  5
5F
331
4B
  5
4E
331
3A
  5
3D
331
29
  5
2C
331
CE
  5
D1
331
AC
  5
AF
331
378
  5
379
331
330
  5
331
331
100
  5
103
331
78
  5
7B
331
389
  5
38A
331
341
  5
342
331
111
  5
114
331
89
  5
8C
331
39A
  5
39B
331
122
  5
125
331
9A
  5
9D
331
3AB
  5
3AC
331
133
  5
136
331
AB
  5
AE
331
3C5
  5
3C6
331
3BC
  5
3BD
331
144
  5
147
331
155
  5
17F
331
CD
  5
D0
331
EF
  5
F2
331
356
  5
357
331
6C
  5
6F
331
5B
  5
5E
331
4A
  5
4D
331
39
  5
3C
331
28
  5
2B
331
367
  5
368
331
31F
  5
320
331
DE
  5
E1
331
BC
  5
BF
331
388
  5
389
331
340
  5
341
331
110
  5
113
331
88
  5
8B
331
399
  5
39A
331
121
  5
124
331
99
  5
9C
331
3AA
  5
3AB
331
132
  5
135
331
AA
  5
AD
331
3C4
  5
3C5
331
3BB
  5
3BC
331
143
  5
146
331
BB
  5
BE
331
154
  5
17E
331
EE
  5
F1
331
DD
  5
E0
331
355
  5
356
331
6B
  5
6E
331
5A
  5
5D
331
49
  5
4C
331
38
  5
3B
331
366
  5
367
331
377
  5
378
331
32F
  5
330
331
FF
  5
102
331
31E
  5
31F
331
27
  5
2A
331
CC
  5
CF
331
398
  5
399
331
120
  5
123
331
98
  5
9B
331
3A9
  5
3AA
331
131
  5
134
331
A9
  5
AC
331
3C3
  5
3C4
331
3BA
  5
3BB
331
142
  5
145
331
BA
  5
BD
331
153
  5
17D
331
CB
  5
CE
331
ED
  5
F0
331
354
  5
355
331
6A
  5
6D
331
59
  5
5C
331
48
  5
4B
331
37
  5
3A
331
26
  5
29
331
365
  5
366
331
376
  5
377
331
32E
  5
32F
331
FE
  5
101
331
387
  5
388
331
33F
  5
340
331
10F
  5
112
331
87
  5
8A
331
31D
  5
31E
331
DC
  5
DF
331
3A8
  5
3A9
331
130
  5
133
331
A8
  5
AB
331
3C2
  5
3C3
331
3B9
  5
3BA
331
141
  5
144
331
B9
  5
BC
331
152
  5
155
331
CA
  5
CD
331
EC
  5
EF
331
DB
  5
DE
331
353
  5
354
331
69
  5
6C
331
58
  5
5B
331
47
  5
4A
331
36
  5
39
331
364
  5
365
331
375
  5
376
331
32D
  5
32E
331
FD
  5
100
331
386
  5
387
331
33E
  5
33F
331
10E
  5
111
331
86
  5
89
331
31C
  5
31D
331
397
  5
398
331
11F
  5
122
331
97
  5
9A
331
25
  5
28
331
3C1
  5
3C2
331
3B8
  5
3B9
331
140
  5
143
331
B8
  5
BB
331
151
  5
154
331
C9
  5
CC
331
EB
  5
EE
331
DA
  5
DD
331
352
  5
353
331
68
  5
6B
331
57
  5
5A
331
46
  5
49
331
35
  5
38
331
24
  5
27
331
363
  5
364
331
374
  5
375
331
32C
  5
32D
331
FC
  5
FF
331
385
  5
386
331
33D
  5
33E
331
10D
  5
110
331
85
  5
88
331
396
  5
397
331
11E
  5
121
331
96
  5
99
331
31B
  5
31C
331
3A7
  5
3A8
331
12F
  5
132
331
A7
  5
AA
331
3C0
  5
3C1
331
3D1
  5
4D1
331
150
  5
153
331
C8
  5
CB
331
EA
  5
ED
331
D9
  5
DC
331
351
  5
352
331
67
  5
6A
331
56
  5
59
331
45
  5
48
331
34
  5
37
331
23
  5
26
331
362
  5
363
331
373
  5
374
331
32B
  5
32C
331
FB
  5
FE
331
384
  5
385
331
33C
  5
33D
331
10C
  5
10F
331
84
  5
87
331
31A
  5
31B
331
395
  5
396
331
11D
  5
120
331
95
  5
98
331
3A6
  5
3A7
331
12E
  5
131
331
3B7
  5
3B8
331
13F
  5
142
331
B7
  5
BA
331
A6
  5
A9
331
3D0
  5
3D1
331
E9
  5
EC
331
D8
  5
DB
331
350
  5
351
331
77
  5
7A
331
66
  5
69
331
55
  5
58
331
44
  5
47
331
33
  5
36
331
22
  5
25
331
361
  5
362
331
372
  5
373
331
32A
  5
32B
331
FA
  5
FD
331
383
  5
384
331
33B
  5
33C
331
10B
  5
10E
331
83
  5
86
331
319
  5
31A
331
394
  5
395
331
11C
  5
11F
331
94
  5
97
331
3A5
  5
3A6
331
12D
  5
130
331
3B6
  5
3B7
331
13E
  5
141
331
B6
  5
B9
331
14F
  5
152
331
C7
  5
CA
331
A5
  5
A8
331
E8
  5
EB
331
34F
  5
350
331
76
  5
79
331
65
  5
68
331
54
  5
57
331
43
  5
46
331
32
  5
35
331
21
  5
24
331
360
  5
361
331
371
  5
372
331
329
  5
32A
331
F9
  5
FC
331
382
  5
383
331
33A
  5
33B
331
10A
  5
10D
331
82
  5
85
331
318
  5
319
331
393
  5
394
331
11B
  5
11E
331
93
  5
96
331
3A4
  5
3A5
331
12C
  5
12F
331
3B5
  5
3B6
331
13D
  5
140
331
B5
  5
B8
331
14E
  5
151
331
3CF
  5
3D0
331
D7
  5
DA
331
C6
  5
C9
331
A4
  5
A7
331
34E
  5
34F
331
75
  5
78
331
64
  5
67
331
53
  5
56
331
42
  5
45
331
31
  5
34
331
35F
  5
360
331
370
  5
371
331
328
  5
329
331
180
  5
316
331
F8
  5
FB
331
381
  5
382
331
339
  5
33A
331
109
  5
10C
331
81
  5
84
331
317
  5
318
331
392
  5
393
331
11A
  5
11D
331
92
  5
95
331
3A3
  5
3A4
331
12B
  5
12E
331
3B4
  5
3B5
331
13C
  5
13F
331
B4
  5
B7
331
3CE
  5
3CF
331
14D
  5
150
331
C5
  5
C8
331
D6
  5
D9
331
A3
  5
A6
331
34D
  5
34E
331
74
  5
77
331
63
  5
66
331
52
  5
55
331
41
  5
44
331
30
  5
33
331
35E
  5
35F
331
36F
  5
370
331
327
  5
328
331
17F
  5
251
331
F7
  5
FA
331
380
  5
381
331
338
  5
339
331
108
  5
10B
331
80
  5
83
331
316
  5
317
331
391
  5
392
331
119
  5
11C
331
91
  5
94
331
3A2
  5
3A3
331
12A
  5
12D
331
3B3
  5
3B4
331
13B
  5
13E
331
B3
  5
B6
331
3CD
  5
3CE
331
14C
  5
14F
331
C4
  5
C7
331
E6
  5
EA
331
D5
  5
D8
331
A2
  5
A5
331
35D
  5
35E
331
34C
  5
34D
331
73
  5
76
331
62
  5
65
331
51
  5
54
331
40
  5
43
331
36E
  5
36F
331
326
  5
327
331
17E
  5
24E
331
37F
  5
380
331
337
  5
338
331
107
  5
10A
331
7F
  5
82
331
F6
  5
F9
331
390
  5
391
331
118
  5
11B
331
90
  5
93
331
3A1
  5
3A2
331
129
  5
12C
331
3B2
  5
3B3
331
13A
  5
13D
331
B2
  5
B5
331
3CC
  5
3CD
331
14B
  5
14E
331
C3
  5
C6
331
2F
  5
32
331
D4
  5
D7
331
A1
  5
A4
331
35C
  5
35D
331
34B
  5
34C
331
72
  5
75
331
61
  5
64
331
50
  5
53
331
36D
  5
36E
331
325
  5
326
331
17D
  5
180
331
37E
  5
37F
331
336
  5
337
331
106
  5
109
331
7E
  5
81
331
F5
  5
F8
331
38F
  5
390
331
347
  5
348
331
117
  5
11A
331
8F
  5
92
331
3A0
  5
3A1
331
128
  5
12B
331
3B1
  5
3B2
331
139
  5
13C
331
B1
  5
B4
331
3CB
  5
3CC
331
14A
  5
14D
331
C2
  5
C5
331
E4
  5
E9
331
3F
  5
42
331
2E
  5
31
331
D3
  5
D6
331
A0
  5
A3
331
35B
  5
35C
331
34A
  5
34B
331
71
  5
74
331
60
  5
63
331
36C
  5
36D
331
324
  5
325
331
37D
  5
37E
331
335
  5
336
331
105
  5
108
331
7D
  5
80
331
F4
  5
F7
331
38E
  5
38F
331
346
  5
347
331
116
  5
119
331
8E
  5
91
331
39F
  5
3A0
331
127
  5
12A
331
3B0
  5
3B1
331
138
  5
13B
331
B0
  5
B3
331
3CA
  5
3CB
331
149
  5
14C
331
E3
  5
E8
331
D2
  5
D5
331
4F
  5
52
331
3E
  5
41
331
2D
  5
30
331
C1
  5
C4
331
9F
  5
A2
  0
ACDBDETAILVIEWSTYLE
  5
1C0
102
{ACAD_XDICTIONARY
360
61B
102
}
102
{ACAD_REACTORS
330
1BF
330
224
102
}
330
1BF
100
AcDbModelDocViewStyle
 70
     0
  3
Imperial24
290
     0
100
AcDbDetailViewStyle
 70
     0
 71
     0
 90
        3
 71
     1
340
11
 40
0.24
340
0
 40
0.24
300

 40
0.36
280
     3
 71
     2
340
16
 90
       25
 71
     3
340
11
 40
0.24
 90
        1
 40
0.75
 90
        1
300
%<\AcVar ViewType \f "%tc1">% %<\AcVar ViewDetailId>%\PSCALE %<\AcVar ViewScale \f "%sn">%
 71
     4
340
16
 90
       25
340
16
 90
       25
280
     0
  0
LAYOUT
  5
1C
102
{ACAD_XDICTIONARY
360
5DE
102
}
102
{ACAD_REACTORS
330
1A
102
}
330
1A
100
AcDbPlotSettings
  1

  2
none_device
  4

  6

 40
0.0
 41
0.0
 42
0.0
 43
0.0
 44
0.0
 45
0.0
 46
0.0
 47
0.0
 48
0.0
 49
0.0
140
0.0
141
0.0
142
1.0
143
1.0
 70
   688
 72
     0
 73
     0
 74
     5
  7

 75
    16
147
1.0
148
0.0
149
0.0
100
AcDbLayout
  1
Layout1
 70
     1
 71
     1
 10
0.0
 20
0.0
 11
12.0
 21
9.0
 12
0.0
 22
0.0
 32
0.0
 14
1.000000000000000E+20
 24
1.000000000000000E+20
 34
1.000000000000000E+20
 15
-1.000000000000000E+20
 25
-1.000000000000000E+20
 35
-1.000000000000000E+20
146
0.0
 13
0.0
 23
0.0
 33
0.0
 16
1.0
 26
0.0
 36
0.0
 17
0.0
 27
1.0
 37
0.0
 76
     0
330
1B
  0
LAYOUT
  5
1E
102
{ACAD_XDICTIONARY
360
5E0
102
}
102
{ACAD_REACTORS
330
1A
102
}
330
1A
100
AcDbPlotSettings
  1

  2
none_device
  4

  6

 40
0.0
 41
0.0
 42
0.0
 43
0.0
 44
0.0
 45
0.0
 46
0.0
 47
0.0
 48
0.0
 49
0.0
140
0.0
141
0.0
142
1.0
143
1.0
 70
  1712
 72
     0
 73
     0
 74
     0
  7

 75
     0
147
1.0
148
0.0
149
0.0
100
AcDbLayout
  1
Model
 70
     1
 71
     0
 10
0.0
 20
0.0
 11
12.0
 21
9.0
 12
0.0
 22
0.0
 32
0.0
 14
0.0
 24
-0.0000000000000021
 34
0.0
 15
101.0
 25
1050.0
 35
0.0
146
0.0
 13
0.0
 23
0.0
 33
0.0
 16
1.0
 26
0.0
 36
0.0
 17
0.0
 27
1.0
 37
0.0
 76
     0
330
1D
331
156
  0
MATERIAL
  5
190
102
{ACAD_XDICTIONARY
360
191
102
}
102
{ACAD_REACTORS
330
187
102
}
330
187
100
AcDbMaterial
  1
ByBlock
 72
     0
 43
0.0208333333333333
 43
0.0
 43
0.0
 43
0.0
 43
0.0
 43
0.0208333333333333
 43
0.0
 43
0.0
 43
0.0
 43
0.0
 43
1.0
 43
0.0
 43
0.0
 43
0.0
 43
0.0
 43
1.0
 77
     0
 47
0.0208333333333333
 47
0.0
 47
0.0
 47
0.0
 47
0.0
 47
0.0208333333333333
 47
0.0
 47
0.0
 47
0.0
 47
0.0
 47
1.0
 47
0.0
 47
0.0
 47
0.0
 47
0.0
 47
1.0
171
     0
 49
0.0208333333333333
 49
0.0
 49
0.0
 49
0.0
 49
0.0
 49
0.0208333333333333
 49
0.0
 49
0.0
 49
0.0
 49
0.0
 49
1.0
 49
0.0
 49
0.0
 49
0.0
 49
0.0
 49
1.0
175
     0
142
0.0208333333333333
142
0.0
142
0.0
142
0.0
142
0.0
142
0.0208333333333333
142
0.0
142
0.0
142
0.0
142
0.0
142
1.0
142
0.0
142
0.0
142
0.0
142
0.0
142
1.0
179
     0
144
0.0208333333333333
144
0.0
144
0.0
144
0.0
144
0.0
144
0.0208333333333333
144
0.0
144
0.0
144
0.0
144
0.0
144
1.0
144
0.0
144
0.0
144
0.0
144
0.0
144
1.0
147
0.0208333333333333
147
0.0
147
0.0
147
0.0
147
0.0
147
0.0208333333333333
147
0.0
147
0.0
147
0.0
147
0.0
147
1.0
147
0.0
147
0.0
147
0.0
147
0.0
147
1.0
  0
MATERIAL
  5
188
102
{ACAD_XDICTIONARY
360
189
102
}
102
{ACAD_REACTORS
330
187
102
}
330
187
100
AcDbMaterial
  1
ByLayer
 72
     0
 43
0.0208333333333333
 43
0.0
 43
0.0
 43
0.0
 43
0.0
 43
0.0208333333333333
 43
0.0
 43
0.0
 43
0.0
 43
0.0
 43
1.0
 43
0.0
 43
0.0
 43
0.0
 43
0.0
 43
1.0
 77
     0
 47
0.0208333333333333
 47
0.0
 47
0.0
 47
0.0
 47
0.0
 47
0.0208333333333333
 47
0.0
 47
0.0
 47
0.0
 47
0.0
 47
1.0
 47
0.0
 47
0.0
 47
0.0
 47
0.0
 47
1.0
171
     0
 49
0.0208333333333333
 49
0.0
 49
0.0
 49
0.0
 49
0.0
 49
0.0208333333333333
 49
0.0
 49
0.0
 49
0.0
 49
0.0
 49
1.0
 49
0.0
 49
0.0
 49
0.0
 49
0.0
 49
1.0
175
     0
142
0.0208333333333333
142
0.0
142
0.0
142
0.0
142
0.0
142
0.0208333333333333
142
0.0
142
0.0
142
0.0
142
0.0
142
1.0
142
0.0
142
0.0
142
0.0
142
0.0
142
1.0
179
     0
144
0.0208333333333333
144
0.0
144
0.0
144
0.0
144
0.0
144
0.0208333333333333
144
0.0
144
0.0
144
0.0
144
0.0
144
1.0
144
0.0
144
0.0
144
0.0
144
0.0
144
1.0
147
0.0208333333333333
147
0.0
147
0.0
147
0.0
147
0.0
147
0.0208333333333333
147
0.0
147
0.0
147
0.0
147
0.0
147
1.0
147
0.0
147
0.0
147
0.0
147
0.0
147
1.0
  0
MATERIAL
  5
198
102
{ACAD_XDICTIONARY
360
199
102
}
102
{ACAD_REACTORS
330
187
102
}
330
187
100
AcDbMaterial
  1
Global
 72
     0
 43
0.0208333333333333
 43
0.0
 43
0.0
 43
0.0
 43
0.0
 43
0.0208333333333333
 43
0.0
 43
0.0
 43
0.0
 43
0.0
 43
1.0
 43
0.0
 43
0.0
 43
0.0
 43
0.0
 43
1.0
 77
     0
 47
0.0208333333333333
 47
0.0
 47
0.0
 47
0.0
 47
0.0
 47
0.0208333333333333
 47
0.0
 47
0.0
 47
0.0
 47
0.0
 47
1.0
 47
0.0
 47
0.0
 47
0.0
 47
0.0
 47
1.0
171
     0
 49
0.0208333333333333
 49
0.0
 49
0.0
 49
0.0
 49
0.0
 49
0.0208333333333333
 49
0.0
 49
0.0
 49
0.0
 49
0.0
 49
1.0
 49
0.0
 49
0.0
 49
0.0
 49
0.0
 49
1.0
175
     0
142
0.0208333333333333
142
0.0
142
0.0
142
0.0
142
0.0
142
0.0208333333333333
142
0.0
142
0.0
142
0.0
142
0.0
142
1.0
142
0.0
142
0.0
142
0.0
142
0.0
142
1.0
179
     0
144
0.0208333333333333
144
0.0
144
0.0
144
0.0
144
0.0
144
0.0208333333333333
144
0.0
144
0.0
144
0.0
144
0.0
144
1.0
144
0.0
144
0.0
144
0.0
144
0.0
144
1.0
147
0.0208333333333333
147
0.0
147
0.0
147
0.0
147
0.0
147
0.0208333333333333
147
0.0
147
0.0
147
0.0
147
0.0
147
1.0
147
0.0
147
0.0
147
0.0
147
0.0
147
1.0
  0
MLEADERSTYLE
  5
1BC
102
{ACAD_XDICTIONARY
360
617
102
}
102
{ACAD_REACTORS
330
183
102
}
330
183
100
AcDbMLeaderStyle
170
     2
171
     1
172
     0
 90
        2
 40
0.0
 41
0.0
173
     1
 91
-1056964608
340
14
 92
       -2
290
     1
 42
0.09
291
     1
 43
0.36
  3
Standard
 44
0.18
300

342
11
174
     1
178
     6
175
     1
176
     0
 93
-1056964608
 45
0.18
292
     0
297
     0
 46
0.18
 94
-1056964608
 47
1.0
 49
1.0
140
1.0
293
     1
141
0.0
294
     1
177
     0
142
1.0
295
     0
296
     0
143
0.125
1001
ACAD_MLEADERVER
1070
     2
  0
MLINESTYLE
  5
18
102
{ACAD_REACTORS
330
17
102
}
330
17
100
AcDbMlineStyle
  2
STANDARD
 70
     0
  3

 62
   256
 51
90.0
 52
90.0
 71
     2
 49
0.5
 62
   256
  6
BYLAYER
 49
-0.5
 62
   256
  6
BYLAYER
  0
ACDBPLACEHOLDER
  5
F
102
{ACAD_REACTORS
330
E
102
}
330
E
  0
SCALE
  5
15C
102
{ACAD_REACTORS
330
15B
102
}
330
15B
100
AcDbScale
 70
     0
300
1:1
140
1.0
141
1.0
290
     1
  0
SCALE
  5
15D
102
{ACAD_REACTORS
330
15B
102
}
330
15B
100
AcDbScale
 70
     0
300
1:2
140
1.0
141
2.0
290
     0
  0
SCALE
  5
15E
102
{ACAD_REACTORS
330
15B
102
}
330
15B
100
AcDbScale
 70
     0
300
1:4
140
1.0
141
4.0
290
     0
  0
SCALE
  5
15F
102
{ACAD_REACTORS
330
15B
102
}
330
15B
100
AcDbScale
 70
     0
300
1:5
140
1.0
141
5.0
290
     0
  0
SCALE
  5
160
102
{ACAD_REACTORS
330
15B
102
}
330
15B
100
AcDbScale
 70
     0
300
1:8
140
1.0
141
8.0
290
     0
  0
SCALE
  5
161
102
{ACAD_REACTORS
330
15B
102
}
330
15B
100
AcDbScale
 70
     0
300
1:10
140
1.0
141
10.0
290
     0
  0
SCALE
  5
162
102
{ACAD_REACTORS
330
15B
102
}
330
15B
100
AcDbScale
 70
     0
300
1:16
140
1.0
141
16.0
290
     0
  0
SCALE
  5
163
102
{ACAD_REACTORS
330
15B
102
}
330
15B
100
AcDbScale
 70
     0
300
1:20
140
1.0
141
20.0
290
     0
  0
SCALE
  5
164
102
{ACAD_REACTORS
330
15B
102
}
330
15B
100
AcDbScale
 70
     0
300
1:30
140
1.0
141
30.0
290
     0
  0
SCALE
  5
165
102
{ACAD_REACTORS
330
15B
102
}
330
15B
100
AcDbScale
 70
     0
300
1:40
140
1.0
141
40.0
290
     0
  0
SCALE
  5
166
102
{ACAD_REACTORS
330
15B
102
}
330
15B
100
AcDbScale
 70
     0
300
1:50
140
1.0
141
50.0
290
     0
  0
SCALE
  5
167
102
{ACAD_REACTORS
330
15B
102
}
330
15B
100
AcDbScale
 70
     0
300
1:100
140
1.0
141
100.0
290
     0
  0
SCALE
  5
168
102
{ACAD_REACTORS
330
15B
102
}
330
15B
100
AcDbScale
 70
     0
300
2:1
140
2.0
141
1.0
290
     0
  0
SCALE
  5
169
102
{ACAD_REACTORS
330
15B
102
}
330
15B
100
AcDbScale
 70
     0
300
4:1
140
4.0
141
1.0
290
     0
  0
SCALE
  5
16A
102
{ACAD_REACTORS
330
15B
102
}
330
15B
100
AcDbScale
 70
     0
300
8:1
140
8.0
141
1.0
290
     0
  0
SCALE
  5
16B
102
{ACAD_REACTORS
330
15B
102
}
330
15B
100
AcDbScale
 70
     0
300
10:1
140
10.0
141
1.0
290
     0
  0
SCALE
  5
16C
102
{ACAD_REACTORS
330
15B
102
}
330
15B
100
AcDbScale
 70
     0
300
100:1
140
100.0
141
1.0
290
     0
  0
SCALE
  5
16D
102
{ACAD_REACTORS
330
15B
102
}
330
15B
100
AcDbScale
 70
     0
300
1/128" = 1'-0"
140
0.0078125
141
12.0
290
     0
  0
SCALE
  5
16E
102
{ACAD_REACTORS
330
15B
102
}
330
15B
100
AcDbScale
 70
     0
300
1/64" = 1'-0"
140
0.015625
141
12.0
290
     0
  0
SCALE
  5
16F
102
{ACAD_REACTORS
330
15B
102
}
330
15B
100
AcDbScale
 70
     0
300
1/32" = 1'-0"
140
0.03125
141
12.0
290
     0
  0
SCALE
  5
170
102
{ACAD_REACTORS
330
15B
102
}
330
15B
100
AcDbScale
 70
     0
300
1/16" = 1'-0"
140
0.0625
141
12.0
290
     0
  0
SCALE
  5
171
102
{ACAD_REACTORS
330
15B
102
}
330
15B
100
AcDbScale
 70
     0
300
3/32" = 1'-0"
140
0.09375
141
12.0
290
     0
  0
SCALE
  5
172
102
{ACAD_REACTORS
330
15B
102
}
330
15B
100
AcDbScale
 70
     0
300
1/8" = 1'-0"
140
0.125
141
12.0
290
     0
  0
SCALE
  5
173
102
{ACAD_REACTORS
330
15B
102
}
330
15B
100
AcDbScale
 70
     0
300
3/16" = 1'-0"
140
0.1875
141
12.0
290
     0
  0
SCALE
  5
174
102
{ACAD_REACTORS
330
15B
102
}
330
15B
100
AcDbScale
 70
     0
300
1/4" = 1'-0"
140
0.25
141
12.0
290
     0
  0
SCALE
  5
175
102
{ACAD_REACTORS
330
15B
102
}
330
15B
100
AcDbScale
 70
     0
300
3/8" = 1'-0"
140
0.375
141
12.0
290
     0
  0
SCALE
  5
176
102
{ACAD_REACTORS
330
15B
102
}
330
15B
100
AcDbScale
 70
     0
300
1/2" = 1'-0"
140
0.5
141
12.0
290
     0
  0
SCALE
  5
177
102
{ACAD_REACTORS
330
15B
102
}
330
15B
100
AcDbScale
 70
     0
300
3/4" = 1'-0"
140
0.75
141
12.0
290
     0
  0
SCALE
  5
178
102
{ACAD_REACTORS
330
15B
102
}
330
15B
100
AcDbScale
 70
     0
300
1" = 1'-0"
140
1.0
141
12.0
290
     0
  0
SCALE
  5
179
102
{ACAD_REACTORS
330
15B
102
}
330
15B
100
AcDbScale
 70
     0
300
1-1/2" = 1'-0"
140
1.5
141
12.0
290
     0
  0
SCALE
  5
17A
102
{ACAD_REACTORS
330
15B
102
}
330
15B
100
AcDbScale
 70
     0
300
3" = 1'-0"
140
3.0
141
12.0
290
     0
  0
SCALE
  5
17B
102
{ACAD_REACTORS
330
15B
102
}
330
15B
100
AcDbScale
 70
     0
300
6" = 1'-0"
140
6.0
141
12.0
290
     0
  0
SCALE
  5
17C
102
{ACAD_REACTORS
330
15B
102
}
330
15B
100
AcDbScale
 70
     0
300
1'-0" = 1'-0"
140
12.0
141
12.0
290
     0
  0
ACDBSECTIONVIEWSTYLE
  5
1BE
102
{ACAD_XDICTIONARY
360
619
102
}
102
{ACAD_REACTORS
330
1BD
330
223
102
}
330
1BD
100
AcDbModelDocViewStyle
 70
     0
  3
Imperial24
290
     0
100
AcDbSectionViewStyle
 70
     0
 71
     0
 90
       78
 71
     1
340
11
 40
0.24
340
0
340
0
 40
0.24
300
I, O, Q, S, X, Z
 40
0.48
 90
        3
 40
0.18
 90
        1
 71
     2
340
16
 90
       25
340
16
 90
       50
 40
0.24
 40
0.0
 40
0.24
 71
     3
340
11
 40
0.24
 90
        1
 40
0.75
 90
        1
300
%<\AcVar ViewType \f "%tc1">% %<\AcVar ViewSectionStartId>%-%<\AcVar ViewSectionEndId>%\PSCALE %<\AcVar ViewScale \f "%sn">%
 71
     4
300
ANSI31
 40
1.0
 90
        0
290
     0
290
     0
 90
        6
 40
0.0
 40
1.570796326794896
 40
0.2617993877991494
 40
1.308996938995747
 40
-0.2617993877991494
 40
1.832595714594046
  0
TABLESTYLE
  5
1BB
102
{ACAD_XDICTIONARY
360
5DA
102
}
102
{ACAD_REACTORS
330
1BA
102
}
330
1BA
100
AcDbTableStyle
  3
Standard
 70
     0
 71
     0
 40
0.06
 41
0.06
280
     0
281
     0
  7
Standard
140
0.18
170
     2
 62
     0
 63
     7
283
     0
274
    -2
284
     1
 64
     0
275
    -2
285
     1
 65
     0
276
    -2
286
     1
 66
     0
277
    -2
287
     1
 67
     0
278
    -2
288
     1
 68
     0
279
    -2
289
     1
 69
     0
  7
Standard
140
0.25
170
     5
 62
     0
 63
     7
283
     0
274
    -2
284
     1
 64
     0
275
    -2
285
     1
 65
     0
276
    -2
286
     1
 66
     0
277
    -2
287
     1
 67
     0
278
    -2
288
     1
 68
     0
279
    -2
289
     1
 69
     0
  7
Standard
140
0.18
170
     5
 62
     0
 63
     7
283
     0
274
    -2
284
     1
 64
     0
275
    -2
285
     1
 65
     0
276
    -2
286
     1
 66
     0
277
    -2
287
     1
 67
     0
278
    -2
288
     1
 68
     0
279
    -2
289
     1
 69
     0
  0
VISUALSTYLE
  5
1A6
102
{ACAD_XDICTIONARY
360
5EF
102
}
102
{ACAD_REACTORS
330
1A0
102
}
330
1A0
100
AcDbVisualStyle
  2
2dWireframe
 70
     4
 71
     0
 72
     2
 73
     0
 90
        0
 40
-0.6
 41
-30.0
 62
     5
 63
     7
 74
     1
 91
        4
 64
     7
 65
   257
 75
     1
175
     1
 42
1.0
 92
        0
 66
   257
 43
1.0
 76
     1
 77
     6
 78
     2
 67
     7
 79
     5
170
     0
171
     0
290
     0
174
     0
 93
        1
 44
0.0
173
     0
291
     0
 45
0.0
1001
ACAD
1000
AcDbSavedByObjectVersion
1070
     0
  0
VISUALSTYLE
  5
1A5
102
{ACAD_XDICTIONARY
360
5ED
102
}
102
{ACAD_REACTORS
330
1A0
102
}
330
1A0
100
AcDbVisualStyle
  2
Basic
 70
     7
 71
     1
 72
     0
 73
     1
 90
        0
 40
-0.6
 41
-30.0
 62
     5
 63
     7
 74
     0
 91
        4
 64
     7
 65
   257
 75
     1
175
     1
 42
1.0
 92
        8
 66
     7
 43
1.0
 76
     1
 77
     6
 78
     2
 67
     7
 79
     5
170
     0
171
     0
290
     0
174
     0
 93
        1
 44
0.0
173
     0
291
     1
 45
0.0
1001
ACAD
1000
AcDbSavedByObjectVersion
1070
     0
  0
VISUALSTYLE
  5
1AC
102
{ACAD_XDICTIONARY
360
5FB
102
}
102
{ACAD_REACTORS
330
1A0
102
}
330
1A0
100
AcDbVisualStyle
  2
Brighten
 70
    12
 71
     2
 72
     2
 73
     0
 90
        0
 40
-0.6
 41
-30.0
 62
     5
 63
     7
 74
     1
 91
        4
 64
     7
 65
   257
 75
     1
175
     1
 42
1.0
 92
        8
 66
     7
 43
1.0
 76
     1
 77
     6
 78
     2
 67
     7
 79
     5
170
     0
171
     0
290
     0
174
     0
 93
        1
 44
50.0
173
     0
291
     1
 45
0.0
1001
ACAD
1000
AcDbSavedByObjectVersion
1070
     0
  0
VISUALSTYLE
  5
1B0
102
{ACAD_XDICTIONARY
360
603
102
}
102
{ACAD_REACTORS
330
1A0
102
}
330
1A0
100
AcDbVisualStyle
  2
ColorChange
 70
    16
 71
     2
 72
     2
 73
     3
 90
        0
 40
-0.6
 41
-30.0
 62
     5
 63
     8
 74
     1
 91
        4
 64
     7
 65
   257
 75
     1
175
     1
 42
1.0
 92
        8
 66
     8
 43
1.0
 76
     1
 77
     6
 78
     2
 67
     7
 79
     5
170
     0
171
     0
290
     0
174
     0
 93
        1
 44
0.0
173
     0
291
     1
 45
0.0
1001
ACAD
1000
AcDbSavedByObjectVersion
1070
     0
  0
VISUALSTYLE
  5
1A9
102
{ACAD_XDICTIONARY
360
5F5
102
}
102
{ACAD_REACTORS
330
1A0
102
}
330
1A0
100
AcDbVisualStyle
  2
Conceptual
 70
     9
 71
     3
 72
     2
 73
     0
 90
        0
 40
-0.6
 41
-30.0
 62
     5
 63
     7
 74
     2
 91
        2
 64
     7
 65
   257
 75
     1
175
     1
 42
179.0
 92
        8
 66
     7
 43
1.0
 76
     1
 77
     6
 78
     2
 67
     7
 79
     3
170
     0
171
     0
290
     0
174
     0
 93
        1
 44
0.0
173
     0
291
     0
 45
0.0
1001
ACAD
1000
AcDbSavedByObjectVersion
1070
     0
  0
VISUALSTYLE
  5
1AB
102
{ACAD_XDICTIONARY
360
5F9
102
}
102
{ACAD_REACTORS
330
1A0
102
}
330
1A0
100
AcDbVisualStyle
  2
Dim
 70
    11
 71
     2
 72
     2
 73
     0
 90
        0
 40
-0.6
 41
-30.0
 62
     5
 63
     7
 74
     1
 91
        4
 64
     7
 65
   257
 75
     1
175
     1
 42
1.0
 92
        8
 66
     7
 43
1.0
 76
     1
 77
     6
 78
     2
 67
     7
 79
     5
170
     0
171
     0
290
     0
174
     0
 93
        1
 44
-50.0
173
     0
291
     1
 45
0.0
1001
ACAD
1000
AcDbSavedByObjectVersion
1070
     0
  0
VISUALSTYLE
  5
1B8
102
{ACAD_XDICTIONARY
360
613
102
}
102
{ACAD_REACTORS
330
1A0
102
}
330
1A0
100
AcDbVisualStyle
  2
EdgeColorOff
 70
    22
 71
     2
 72
     2
 73
     0
 90
        0
 40
-0.6
 41
-30.0
 62
     5
 63
     7
 74
     1
 91
        4
 64
     7
 65
   257
 75
     1
175
     1
 42
1.0
 92
        8
 66
     7
 43
1.0
 76
     1
 77
     6
 78
     2
 67
     7
 79
     5
170
     0
171
     0
290
     0
174
     0
 93
        1
 44
0.0
173
     0
291
     1
 45
0.0
1001
ACAD
1000
AcDbSavedByObjectVersion
1070
     0
  0
VISUALSTYLE
  5
1AF
102
{ACAD_XDICTIONARY
360
601
102
}
102
{ACAD_REACTORS
330
1A0
102
}
330
1A0
100
AcDbVisualStyle
  2
Facepattern
 70
    15
 71
     2
 72
     2
 73
     0
 90
        0
 40
-0.6
 41
-30.0
 62
     5
 63
     7
 74
     1
 91
        4
 64
     7
 65
   257
 75
     1
175
     1
 42
1.0
 92
        8
 66
     7
 43
1.0
 76
     1
 77
     6
 78
     2
 67
     7
 79
     5
170
     0
171
     0
290
     0
174
     0
 93
        1
 44
0.0
173
     0
291
     1
 45
0.0
1001
ACAD
1000
AcDbSavedByObjectVersion
1070
     0
  0
VISUALSTYLE
  5
1A1
102
{ACAD_XDICTIONARY
360
5E5
102
}
102
{ACAD_REACTORS
330
1A0
102
}
330
1A0
100
AcDbVisualStyle
  2
Flat
 70
     0
 71
     2
 72
     1
 73
     1
 90
        2
 40
-0.6
 41
30.0
 62
     5
 63
     7
 74
     0
 91
        0
 64
     7
 65
   257
 75
     1
175
     1
 42
1.0
 92
        8
 66
     7
 43
1.0
 76
     1
 77
     6
 78
     2
 67
     7
 79
     5
170
     0
171
     0
290
     0
174
     0
 93
       13
 44
0.0
173
     0
291
     1
 45
0.0
1001
ACAD
1000
AcDbSavedByObjectVersion
1070
     0
  0
VISUALSTYLE
  5
1A2
102
{ACAD_XDICTIONARY
360
5E7
102
}
102
{ACAD_REACTORS
330
1A0
102
}
330
1A0
100
AcDbVisualStyle
  2
FlatWithEdges
 70
     1
 71
     2
 72
     1
 73
     1
 90
        2
 40
-0.6
 41
30.0
 62
     5
 63
     7
 74
     1
 91
        0
 64
     7
 65
   257
 75
     1
175
     1
 42
1.0
 92
        0
 66
   257
 43
1.0
 76
     1
 77
     6
 78
     2
 67
     7
 79
     5
170
     0
171
     0
290
     0
174
     0
 93
       13
 44
0.0
173
     0
291
     1
 45
0.0
1001
ACAD
1000
AcDbSavedByObjectVersion
1070
     0
  0
VISUALSTYLE
  5
1A3
102
{ACAD_XDICTIONARY
360
5E9
102
}
102
{ACAD_REACTORS
330
1A0
102
}
330
1A0
100
AcDbVisualStyle
  2
Gouraud
 70
     2
 71
     2
 72
     2
 73
     1
 90
        2
 40
-0.6
 41
30.0
 62
     5
 63
     7
 74
     0
 91
        0
 64
     7
 65
   257
 75
     1
175
     1
 42
1.0
 92
        0
 66
     7
 43
1.0
 76
     1
 77
     6
 78
     2
 67
     7
 79
     5
170
     0
171
     0
290
     0
174
     0
 93
       13
 44
0.0
173
     0
291
     1
 45
0.0
1001
ACAD
1000
AcDbSavedByObjectVersion
1070
     0
  0
VISUALSTYLE
  5
1A4
102
{ACAD_XDICTIONARY
360
5EB
102
}
102
{ACAD_REACTORS
330
1A0
102
}
330
1A0
100
AcDbVisualStyle
  2
GouraudWithEdges
 70
     3
 71
     2
 72
     2
 73
     1
 90
        2
 40
-0.6
 41
30.0
 62
     5
 63
     7
 74
     1
 91
        0
 64
     7
 65
   257
 75
     1
175
     1
 42
1.0
 92
        0
 66
   257
 43
1.0
 76
     1
 77
     6
 78
     2
 67
     7
 79
     5
170
     0
171
     0
290
     0
174
     0
 93
       13
 44
0.0
173
     0
291
     1
 45
0.0
1001
ACAD
1000
AcDbSavedByObjectVersion
1070
     0
  0
VISUALSTYLE
  5
1A8
102
{ACAD_XDICTIONARY
360
5F3
102
}
102
{ACAD_REACTORS
330
1A0
102
}
330
1A0
100
AcDbVisualStyle
  2
Hidden
 70
     6
 71
     1
 72
     2
 73
     2
 90
        0
 40
-0.6
 41
-30.0
 62
     5
 63
     7
 74
     2
 91
        2
 64
     7
 65
   257
 75
     2
175
     1
 42
40.0
 92
        0
 66
   257
 43
1.0
 76
     1
 77
     6
 78
     2
 67
     7
 79
     3
170
     0
171
     0
290
     0
174
     0
 93
        1
 44
0.0
173
     0
291
     0
 45
0.0
1001
ACAD
1000
AcDbSavedByObjectVersion
1070
     0
  0
VISUALSTYLE
  5
1B6
102
{ACAD_XDICTIONARY
360
60F
102
}
102
{ACAD_REACTORS
330
1A0
102
}
330
1A0
100
AcDbVisualStyle
  2
JitterOff
 70
    20
 71
     2
 72
     2
 73
     0
 90
        0
 40
-0.6
 41
-30.0
 62
     5
 63
     7
 74
     1
 91
        4
 64
     7
 65
   257
 75
     1
175
     1
 42
1.0
 92
       10
 66
     7
 43
1.0
 76
     1
 77
     6
 78
     2
 67
     7
 79
     5
170
     0
171
     0
290
     0
174
     0
 93
        1
 44
0.0
173
     0
291
     1
 45
0.0
1001
ACAD
1000
AcDbSavedByObjectVersion
1070
     0
  0
VISUALSTYLE
  5
1AE
102
{ACAD_XDICTIONARY
360
5FF
102
}
102
{ACAD_REACTORS
330
1A0
102
}
330
1A0
100
AcDbVisualStyle
  2
Linepattern
 70
    14
 71
     2
 72
     2
 73
     0
 90
        0
 40
-0.6
 41
-30.0
 62
     5
 63
     7
 74
     1
 91
        4
 64
     7
 65
   257
 75
     7
175
     7
 42
1.0
 92
        8
 66
     7
 43
1.0
 76
     1
 77
     6
 78
     2
 67
     7
 79
     5
170
     0
171
     0
290
     0
174
     0
 93
        1
 44
0.0
173
     0
291
     1
 45
0.0
1001
ACAD
1000
AcDbSavedByObjectVersion
1070
     0
  0
VISUALSTYLE
  5
1B7
102
{ACAD_XDICTIONARY
360
611
102
}
102
{ACAD_REACTORS
330
1A0
102
}
330
1A0
100
AcDbVisualStyle
  2
OverhangOff
 70
    21
 71
     2
 72
     2
 73
     0
 90
        0
 40
-0.6
 41
-30.0
 62
     5
 63
     7
 74
     1
 91
        4
 64
     7
 65
   257
 75
     1
175
     1
 42
1.0
 92
        9
 66
     7
 43
1.0
 76
     1
 77
     6
 78
     2
 67
     7
 79
     5
170
     0
171
     0
290
     0
174
     0
 93
        1
 44
0.0
173
     0
291
     1
 45
0.0
1001
ACAD
1000
AcDbSavedByObjectVersion
1070
     0
  0
VISUALSTYLE
  5
1AA
102
{ACAD_XDICTIONARY
360
5F7
102
}
102
{ACAD_REACTORS
330
1A0
102
}
330
1A0
100
AcDbVisualStyle
  2
Realistic
 70
     8
 71
     2
 72
     3
 73
     0
 90
        2
 40
-0.6
 41
30.0
 62
     5
 63
     7
 74
     0
 91
        0
 64
     7
 65
   257
 75
     1
175
     1
 42
1.0
 92
        8
 66
   257
 43
1.0
 76
     1
 77
     6
 78
     2
 67
     7
 79
     3
170
     0
171
     0
290
     0
174
     0
 93
       13
 44
0.0
173
     0
291
     0
 45
0.0
1001
ACAD
1000
AcDbSavedByObjectVersion
1070
     0
  0
VISUALSTYLE
  5
1B5
102
{ACAD_XDICTIONARY
360
60D
102
}
102
{ACAD_REACTORS
330
1A0
102
}
330
1A0
100
AcDbVisualStyle
  2
Shaded
 70
    27
 71
     2
 72
     2
 73
     1
 90
        2
 40
-0.6
 41
30.0
 62
     5
 63
     7
 74
     0
 91
        4
 64
     7
 65
   257
 75
     1
175
     1
 42
1.0
 92
        8
 66
   257
 43
1.0
 76
     1
 77
     6
 78
     2
 67
     8
 79
     3
170
     0
171
     0
290
     0
174
     0
 93
        5
 44
0.0
173
     0
291
     0
 45
0.0
1001
ACAD
1000
AcDbSavedByObjectVersion
1070
     0
  0
VISUALSTYLE
  5
1B4
102
{ACAD_XDICTIONARY
360
60B
102
}
102
{ACAD_REACTORS
330
1A0
102
}
330
1A0
100
AcDbVisualStyle
  2
Shaded with edges
 70
    26
 71
     2
 72
     2
 73
     1
 90
        2
 40
-0.6
 41
30.0
 62
     5
 63
     7
 74
     1
 91
        2
 64
     7
 65
   257
 75
     2
175
     1
 42
1.0
 92
        8
 66
   257
 43
1.0
 76
     1
 77
     6
 78
     2
 67
     7
 79
     3
170
     0
171
     0
290
     0
174
     0
 93
        5
 44
0.0
173
     0
291
     0
 45
0.0
1001
ACAD
1000
AcDbSavedByObjectVersion
1070
     0
  0
VISUALSTYLE
  5
1B1
102
{ACAD_XDICTIONARY
360
605
102
}
102
{ACAD_REACTORS
330
1A0
102
}
330
1A0
100
AcDbVisualStyle
  2
Shades of Gray
 70
    23
 71
     2
 72
     2
 73
     3
 90
        0
 40
-0.6
 41
-30.0
 62
     5
 63
     7
 74
     2
 91
        2
 64
     7
 65
     7
 75
     1
175
     1
 42
40.0
 92
        8
 66
     7
 43
1.0
 76
     1
 77
     6
 78
     2
 67
     7
 79
     3
170
     0
171
     0
290
     0
174
     0
 93
        1
 44
0.0
173
     0
291
     0
 45
0.0
1001
ACAD
1000
AcDbSavedByObjectVersion
1070
     0
  0
VISUALSTYLE
  5
1B2
102
{ACAD_XDICTIONARY
360
607
102
}
102
{ACAD_REACTORS
330
1A0
102
}
330
1A0
100
AcDbVisualStyle
  2
Sketchy
 70
    24
 71
     1
 72
     2
 73
     2
 90
        0
 40
-0.6
 41
-30.0
 62
     5
 63
     7
 74
     2
 91
        2
 64
     7
 65
     7
 75
     1
175
     1
 42
40.0
 92
       11
 66
     7
 43
1.0
 76
     1
 77
     6
 78
     2
 67
     7
 79
     6
170
     0
171
     0
290
     0
174
     0
 93
        1
 44
0.0
173
     0
291
     0
 45
0.0
1001
ACAD
1000
AcDbSavedByObjectVersion
1070
     0
  0
VISUALSTYLE
  5
1AD
102
{ACAD_XDICTIONARY
360
5FD
102
}
102
{ACAD_REACTORS
330
1A0
102
}
330
1A0
100
AcDbVisualStyle
  2
Thicken
 70
    13
 71
     2
 72
     2
 73
     0
 90
        0
 40
-0.6
 41
-30.0
 62
     5
 63
     7
 74
     1
 91
        4
 64
     7
 65
   257
 75
     1
175
     1
 42
1.0
 92
       12
 66
     7
 43
1.0
 76
     1
 77
     6
 78
     2
 67
     7
 79
     5
170
     0
171
     0
290
     0
174
     0
 93
        1
 44
0.0
173
     0
291
     1
 45
0.0
1001
ACAD
1000
AcDbSavedByObjectVersion
1070
     0
  0
VISUALSTYLE
  5
1A7
102
{ACAD_XDICTIONARY
360
5F1
102
}
102
{ACAD_REACTORS
330
1A0
102
}
330
1A0
100
AcDbVisualStyle
  2
Wireframe
 70
     5
 71
     0
 72
     2
 73
     0
 90
        0
 40
-0.6
 41
-30.0
 62
     5
 63
     7
 74
     1
 91
        4
 64
     7
 65
   257
 75
     1
175
     1
 42
1.0
 92
        0
 66
   257
 43
1.0
 76
     1
 77
     6
 78
     2
 67
     7
 79
     3
170
     0
171
     0
290
     0
174
     0
 93
        1
 44
0.0
173
     0
291
     0
 45
0.0
1001
ACAD
1000
AcDbSavedByObjectVersion
1070
     0
  0
VISUALSTYLE
  5
1B3
102
{ACAD_XDICTIONARY
360
609
102
}
102
{ACAD_REACTORS
330
1A0
102
}
330
1A0
100
AcDbVisualStyle
  2
X-Ray
 70
    25
 71
     2
 72
     2
 73
     1
 90
        1
 40
0.5
 41
-30.0
 62
     5
 63
     7
 74
     1
 91
        0
 64
     7
 65
   257
 75
     1
175
     1
 42
1.0
 92
        8
 66
     7
 43
1.0
 76
     1
 77
     6
 78
     2
 67
     7
 79
     3
170
     0
171
     0
290
     0
174
     0
 93
       13
 44
0.0
173
     0
291
     0
 45
0.0
1001
ACAD
1000
AcDbSavedByObjectVersion
1070
     0
  0
DICTIONARYVAR
  5
184
102
{ACAD_REACTORS
330
181
102
}
330
181
100
DictionaryVariables
280
     0
  1
1:1
  0
DICTIONARYVAR
  5
5D3
102
{ACAD_REACTORS
330
181
102
}
330
181
100
DictionaryVariables
280
     0
  1
STANDARD
  0
DICTIONARYVAR
  5
5D2
102
{ACAD_REACTORS
330
181
102
}
330
181
100
DictionaryVariables
280
     0
  1
STANDARD
  0
DICTIONARYVAR
  5
5D4
102
{ACAD_REACTORS
330
181
102
}
330
181
100
DictionaryVariables
280
     0
  1
Imperial24
  0
DICTIONARYVAR
  5
5D5
102
{ACAD_REACTORS
330
181
102
}
330
181
100
DictionaryVariables
280
     0
  1
Imperial24
  0
DICTIONARYVAR
  5
5D8
102
{ACAD_REACTORS
330
181
102
}
330
181
100
DictionaryVariables
280
     0
  1
1
  0
DICTIONARYVAR
  5
5D7
102
{ACAD_REACTORS
330
181
102
}
330
181
100
DictionaryVariables
280
     0
  1
0
  0
DICTIONARYVAR
  5
5D6
102
{ACAD_REACTORS
330
181
102
}
330
181
100
DictionaryVariables
280
     0
  1
127
  0
DICTIONARYVAR
  5
5D9
102
{ACAD_REACTORS
330
181
102
}
330
181
100
DictionaryVariables
280
     0
  1
2
  0
DICTIONARY
  5
1F7
102
{ACAD_REACTORS
330
1F0
102
}
330
1F0
100
AcDbDictionary
281
     1
  0
DICTIONARY
  5
61B
330
1C0
100
AcDbDictionary
280
     1
281
     1
  3
ACAD_XREC_ROUNDTRIP
360
61C
  0
DICTIONARY
  5
5DE
330
1C
100
AcDbDictionary
280
     1
281
     1
  3
ACAD_XREC_ROUNDTRIP
360
5DF
  0
DICTIONARY
  5
5E0
330
1E
100
AcDbDictionary
280
     1
281
     1
  3
ACAD_XREC_ROUNDTRIP
360
5E1
  0
DICTIONARY
  5
191
330
190
100
AcDbDictionary
280
     1
281
     1
  3
ACAD_XREC_ROUNDTRIP
360
5E3
  3
BUMPTILE
360
193
  3
DIFFUSETILE
360
192
  3
OPACITYTILE
360
196
  3
REFLECTIONTILE
360
195
  3
REFRACTIONTILE
360
197
  3
SPECULARTILE
360
194
  0
DICTIONARY
  5
189
330
188
100
AcDbDictionary
280
     1
281
     1
  3
ACAD_XREC_ROUNDTRIP
360
5E2
  3
BUMPTILE
360
18B
  3
DIFFUSETILE
360
18A
  3
OPACITYTILE
360
18E
  3
REFLECTIONTILE
360
18D
  3
REFRACTIONTILE
360
18F
  3
SPECULARTILE
360
18C
  0
DICTIONARY
  5
199
330
198
100
AcDbDictionary
280
     1
281
     1
  3
ACAD_XREC_ROUNDTRIP
360
5E4
  3
BUMPTILE
360
19B
  3
DIFFUSETILE
360
19A
  3
OPACITYTILE
360
19E
  3
REFLECTIONTILE
360
19D
  3
REFRACTIONTILE
360
19F
  3
SPECULARTILE
360
19C
  0
DICTIONARY
  5
617
330
1BC
100
AcDbDictionary
280
     1
281
     1
  3
ACAD_XREC_ROUNDTRIP
360
618
  0
DICTIONARY
  5
619
330
1BE
100
AcDbDictionary
280
     1
281
     1
  3
ACAD_XREC_ROUNDTRIP
360
61A
  0
DICTIONARY
  5
5DA
330
1BB
100
AcDbDictionary
280
     1
281
     1
  3
ACAD_ROUNDTRIP_2008_TABLESTYLE_CELLSTYLEMAP
360
5DB
  3
ACAD_XREC_ROUNDTRIP
360
615
  0
DICTIONARY
  5
5EF
330
1A6
100
AcDbDictionary
280
     1
281
     1
  3
ACAD_XREC_ROUNDTRIP
360
5F0
  0
DICTIONARY
  5
5ED
330
1A5
100
AcDbDictionary
280
     1
281
     1
  3
ACAD_XREC_ROUNDTRIP
360
5EE
  0
DICTIONARY
  5
5FB
330
1AC
100
AcDbDictionary
280
     1
281
     1
  3
ACAD_XREC_ROUNDTRIP
360
5FC
  0
DICTIONARY
  5
603
330
1B0
100
AcDbDictionary
280
     1
281
     1
  3
ACAD_XREC_ROUNDTRIP
360
604
  0
DICTIONARY
  5
5F5
330
1A9
100
AcDbDictionary
280
     1
281
     1
  3
ACAD_XREC_ROUNDTRIP
360
5F6
  0
DICTIONARY
  5
5F9
330
1AB
100
AcDbDictionary
280
     1
281
     1
  3
ACAD_XREC_ROUNDTRIP
360
5FA
  0
DICTIONARY
  5
613
330
1B8
100
AcDbDictionary
280
     1
281
     1
  3
ACAD_XREC_ROUNDTRIP
360
614
  0
DICTIONARY
  5
601
330
1AF
100
AcDbDictionary
280
     1
281
     1
  3
ACAD_XREC_ROUNDTRIP
360
602
  0
DICTIONARY
  5
5E5
330
1A1
100
AcDbDictionary
280
     1
281
     1
  3
ACAD_XREC_ROUNDTRIP
360
5E6
  0
DICTIONARY
  5
5E7
330
1A2
100
AcDbDictionary
280
     1
281
     1
  3
ACAD_XREC_ROUNDTRIP
360
5E8
  0
DICTIONARY
  5
5E9
330
1A3
100
AcDbDictionary
280
     1
281
     1
  3
ACAD_XREC_ROUNDTRIP
360
5EA
  0
DICTIONARY
  5
5EB
330
1A4
100
AcDbDictionary
280
     1
281
     1
  3
ACAD_XREC_ROUNDTRIP
360
5EC
  0
DICTIONARY
  5
5F3
330
1A8
100
AcDbDictionary
280
     1
281
     1
  3
ACAD_XREC_ROUNDTRIP
360
5F4
  0
DICTIONARY
  5
60F
330
1B6
100
AcDbDictionary
280
     1
281
     1
  3
ACAD_XREC_ROUNDTRIP
360
610
  0
DICTIONARY
  5
5FF
330
1AE
100
AcDbDictionary
280
     1
281
     1
  3
ACAD_XREC_ROUNDTRIP
360
600
  0
DICTIONARY
  5
611
330
1B7
100
AcDbDictionary
280
     1
281
     1
  3
ACAD_XREC_ROUNDTRIP
360
612
  0
DICTIONARY
  5
5F7
330
1AA
100
AcDbDictionary
280
     1
281
     1
  3
ACAD_XREC_ROUNDTRIP
360
5F8
  0
DICTIONARY
  5
60D
330
1B5
100
AcDbDictionary
280
     1
281
     1
  3
ACAD_XREC_ROUNDTRIP
360
60E
  0
DICTIONARY
  5
60B
330
1B4
100
AcDbDictionary
280
     1
281
     1
  3
ACAD_XREC_ROUNDTRIP
360
60C
  0
DICTIONARY
  5
605
330
1B1
100
AcDbDictionary
280
     1
281
     1
  3
ACAD_XREC_ROUNDTRIP
360
606
  0
DICTIONARY
  5
607
330
1B2
100
AcDbDictionary
280
     1
281
     1
  3
ACAD_XREC_ROUNDTRIP
360
608
  0
DICTIONARY
  5
5FD
330
1AD
100
AcDbDictionary
280
     1
281
     1
  3
ACAD_XREC_ROUNDTRIP
360
5FE
  0
DICTIONARY
  5
5F1
330
1A7
100
AcDbDictionary
280
     1
281
     1
  3
ACAD_XREC_ROUNDTRIP
360
5F2
  0
DICTIONARY
  5
609
330
1B3
100
AcDbDictionary
280
     1
281
     1
  3
ACAD_XREC_ROUNDTRIP
360
60A
  0
XRECORD
  5
61C
102
{ACAD_REACTORS
330
61B
102
}
330
61B
100
AcDbXrecord
280
     1
102
DISPLAYNAME
  1
Imperial24
102
FLAGS
 90
        0
  0
XRECORD
  5
5DF
102
{ACAD_REACTORS
330
5DE
102
}
330
5DE
100
AcDbXrecord
280
     1
102
SHADEPLOT
 70
     0
102
SHADEPLOTRESLEVEL
 70
     2
102
SHADEPLOTCUSTOMDPI
 70
   300
  0
XRECORD
  5
5E1
102
{ACAD_REACTORS
330
5E0
102
}
330
5E0
100
AcDbXrecord
280
     1
102
SHADEPLOT
 70
     0
102
SHADEPLOTRESLEVEL
 70
     2
102
SHADEPLOTCUSTOMDPI
 70
   300
  0
XRECORD
  5
5E3
102
{ACAD_REACTORS
330
191
102
}
330
191
100
AcDbXrecord
280
     1
102
MATERIAL
148
0.0
149
0.0
149
0.0
 93
        0
 94
      127
282
     0
 72
     0
 77
     0
171
     0
175
     0
179
     0
273
     0
  0
XRECORD
  5
193
102
{ACAD_REACTORS
330
191
102
}
330
191
100
AcDbXrecord
280
     1
270
     1
271
     1
  0
XRECORD
  5
192
102
{ACAD_REACTORS
330
191
102
}
330
191
100
AcDbXrecord
280
     1
270
     1
271
     1
  0
XRECORD
  5
196
102
{ACAD_REACTORS
330
191
102
}
330
191
100
AcDbXrecord
280
     1
270
     1
271
     1
  0
XRECORD
  5
195
102
{ACAD_REACTORS
330
191
102
}
330
191
100
AcDbXrecord
280
     1
270
     1
271
     1
  0
XRECORD
  5
197
102
{ACAD_REACTORS
330
191
102
}
330
191
100
AcDbXrecord
280
     1
270
     1
271
     1
  0
XRECORD
  5
194
102
{ACAD_REACTORS
330
191
102
}
330
191
100
AcDbXrecord
280
     1
270
     1
271
     1
  0
XRECORD
  5
5E2
102
{ACAD_REACTORS
330
189
102
}
330
189
100
AcDbXrecord
280
     1
102
MATERIAL
148
0.0
149
0.0
149
0.0
 93
        0
 94
      127
282
     0
 72
     0
 77
     0
171
     0
175
     0
179
     0
273
     0
  0
XRECORD
  5
18B
102
{ACAD_REACTORS
330
189
102
}
330
189
100
AcDbXrecord
280
     1
270
     1
271
     1
  0
XRECORD
  5
18A
102
{ACAD_REACTORS
330
189
102
}
330
189
100
AcDbXrecord
280
     1
270
     1
271
     1
  0
XRECORD
  5
18E
102
{ACAD_REACTORS
330
189
102
}
330
189
100
AcDbXrecord
280
     1
270
     1
271
     1
  0
XRECORD
  5
18D
102
{ACAD_REACTORS
330
189
102
}
330
189
100
AcDbXrecord
280
     1
270
     1
271
     1
  0
XRECORD
  5
18F
102
{ACAD_REACTORS
330
189
102
}
330
189
100
AcDbXrecord
280
     1
270
     1
271
     1
  0
XRECORD
  5
18C
102
{ACAD_REACTORS
330
189
102
}
330
189
100
AcDbXrecord
280
     1
270
     1
271
     1
  0
XRECORD
  5
5E4
102
{ACAD_REACTORS
330
199
102
}
330
199
100
AcDbXrecord
280
     1
102
MATERIAL
148
0.0
149
0.0
149
0.0
 93
        0
 94
      127
282
     0
 72
     0
 77
     0
171
     0
175
     0
179
     0
273
     0
  0
XRECORD
  5
19B
102
{ACAD_REACTORS
330
199
102
}
330
199
100
AcDbXrecord
280
     1
270
     1
271
     1
  0
XRECORD
  5
19A
102
{ACAD_REACTORS
330
199
102
}
330
199
100
AcDbXrecord
280
     1
270
     1
271
     1
  0
XRECORD
  5
19E
102
{ACAD_REACTORS
330
199
102
}
330
199
100
AcDbXrecord
280
     1
270
     1
271
     1
  0
XRECORD
  5
19D
102
{ACAD_REACTORS
330
199
102
}
330
199
100
AcDbXrecord
280
     1
270
     1
271
     1
  0
XRECORD
  5
19F
102
{ACAD_REACTORS
330
199
102
}
330
199
100
AcDbXrecord
280
     1
270
     1
271
     1
  0
XRECORD
  5
19C
102
{ACAD_REACTORS
330
199
102
}
330
199
100
AcDbXrecord
280
     1
270
     1
271
     1
  0
XRECORD
  5
618
102
{ACAD_REACTORS
330
617
102
}
330
617
100
AcDbXrecord
280
     1
102
ACAD_ROUNDTRIP_2012_MLEADER_STYLE
298
     1
  0
XRECORD
  5
61A
102
{ACAD_REACTORS
330
619
102
}
330
619
100
AcDbXrecord
280
     1
102
DISPLAYNAME
  1
Imperial24
102
FLAGS
 90
        0
  0
CELLSTYLEMAP
  5
5DB
102
{ACAD_REACTORS
330
5DA
102
}
330
5DA
100
AcDbCellStyleMap
 90
        3
300
CELLSTYLE
  1
TABLEFORMAT_BEGIN
 90
        5
170
     1
 91
        0
 92
    32768
 62
   257
 93
        1
300
CONTENTFORMAT
  1
CONTENTFORMAT_BEGIN
 90
        0
 91
        0
 92
      512
 93
        0
300

 40
0.0
140
1.0
 94
        5
 62
     0
340
11
144
0.25
309
CONTENTFORMAT_END
171
     0
 94
        0
309
TABLEFORMAT_END
  1
CELLSTYLE_BEGIN
 90
        1
 91
        1
300
_TITLE
309
CELLSTYLE_END
300
CELLSTYLE
  1
TABLEFORMAT_BEGIN
 90
        5
170
     1
 91
        0
 92
        0
 62
   257
 93
        1
300
CONTENTFORMAT
  1
CONTENTFORMAT_BEGIN
 90
        0
 91
        0
 92
      512
 93
        0
300

 40
0.0
140
1.0
 94
        5
 62
     0
340
11
144
0.18
309
CONTENTFORMAT_END
171
     0
 94
        0
309
TABLEFORMAT_END
  1
CELLSTYLE_BEGIN
 90
        2
 91
        1
300
_HEADER
309
CELLSTYLE_END
300
CELLSTYLE
  1
TABLEFORMAT_BEGIN
 90
        5
170
     1
 91
        0
 92
        0
 62
   257
 93
        1
300
CONTENTFORMAT
  1
CONTENTFORMAT_BEGIN
 90
        0
 91
        0
 92
      512
 93
        0
300

 40
0.0
140
1.0
 94
        2
 62
     0
340
11
144
0.18
309
CONTENTFORMAT_END
171
     0
 94
        0
309
TABLEFORMAT_END
  1
CELLSTYLE_BEGIN
 90
        3
 91
        2
300
_DATA
309
CELLSTYLE_END
  0
XRECORD
  5
615
102
{ACAD_REACTORS
330
5DA
102
}
330
5DA
100
AcDbXrecord
280
     1
102
ACAD_ROUNDTRIP_PRE2007_TABLESTYLE
 90
      512
 91
        0
  1

 92
      512
 93
        0
  2

 94
      512
 95
        0
  3

  0
XRECORD
  5
5F0
102
{ACAD_REACTORS
330
5EF
102
}
330
5EF
100
AcDbXrecord
280
     1
102
RTVSPost2010Prop28
280
     1
102
RTVSPost2010PropOp28
 70
     1
102
RTVSPost2010Prop29
280
     1
102
RTVSPost2010PropOp29
 70
     1
102
RTVSPost2010Prop30
280
     0
102
RTVSPost2010PropOp30
 70
     1
102
RTVSPost2010Prop31
280
     0
102
RTVSPost2010PropOp31
 70
     1
102
RTVSPost2010Prop32
280
     0
102
RTVSPost2010PropOp32
 70
     1
102
RTVSPost2010Prop33
280
     0
102
RTVSPost2010PropOp33
 70
     1
102
RTVSPost2010Prop34
280
     0
102
RTVSPost2010PropOp34
 70
     1
102
RTVSPost2010Prop35
280
     0
102
RTVSPost2010PropOp35
 70
     1
102
RTVSPost2010Prop36
280
     0
102
RTVSPost2010PropOp36
 70
     1
102
RTVSPost2010Prop37
 90
       50
102
RTVSPost2010PropOp37
 70
     1
102
RTVSPost2010Prop38
140
0.0
102
RTVSPost2010PropOp38
 70
     1
102
RTVSPost2010Prop39
140
1.0
102
RTVSPost2010PropOp39
 70
     1
102
RTVSPost2010Prop40
 90
        0
102
RTVSPost2010PropOp40
 70
     1
102
RTVSPost2010Prop41ColorIndex
 90
       18
102
RTVSPost2010Prop41ColorRGB
 90
        0
102
RTVSPost2010PropOp41
 70
     1
102
RTVSPost2010Prop42
 90
       50
102
RTVSPost2010PropOp42
 70
     1
102
RTVSPost2010Prop43
 90
        3
102
RTVSPost2010PropOp43
 70
     1
102
RTVSPost2010Prop44ColorIndex
 90
        5
102
RTVSPost2010Prop44ColorRGB
 90
      255
102
RTVSPost2010PropOp44
 70
     1
102
RTVSPost2010Prop45
280
     0
102
RTVSPost2010PropOp45
 70
     1
102
RTVSPost2010Prop46
 90
       50
102
RTVSPost2010PropOp46
 70
     1
102
RTVSPost2010Prop47
 90
       50
102
RTVSPost2010PropOp47
 70
     1
102
RTVSPost2010Prop48
 90
       50
102
RTVSPost2010PropOp48
 70
     1
102
RTVSPost2010Prop49
280
     0
102
RTVSPost2010PropOp49
 70
     1
102
RTVSPost2010Prop50
 90
       50
102
RTVSPost2010PropOp50
 70
     1
102
RTVSPost2010Prop51ColorIndex
 90
      256
102
RTVSPost2010Prop51ColorRGB
 90
-16777216
102
RTVSPost2010PropOp51
 70
     0
102
RTVSPost2010Prop52
140
1.0
102
RTVSPost2010PropOp52
 70
     0
102
RTVSPost2010Prop53
 90
        2
102
RTVSPost2010PropOp53
 70
     1
102
RTVSPost2010Prop54
  1
strokes_ogs.tif
102
RTVSPost2010PropOp54
 70
     1
102
RTVSPost2010Prop55
280
     0
102
RTVSPost2010PropOp55
 70
     1
102
RTVSPost2010Prop56
140
1.0
102
RTVSPost2010PropOp56
 70
     1
102
RTVSPost2010Prop57
140
1.0
102
RTVSPost2010PropOp57
 70
     1
102
RTVSPropertyOp0
 70
     1
102
RTVSPropertyOp1
 70
     1
102
RTVSPropertyOp2
 70
     1
102
RTVSPropertyOp3
 70
     1
102
RTVSPropertyOp4
 70
     1
102
RTVSPropertyOp5
 70
     1
102
RTVSPropertyOp6
 70
     1
102
RTVSPropertyOp7
 70
     1
102
RTVSPropertyOp8
 70
     1
102
RTVSPropertyOp9
 70
     1
102
RTVSPropertyOp10
 70
     1
102
RTVSPropertyOp11
 70
     1
102
RTVSPropertyOp12
 70
     1
102
RTVSPropertyOp13
 70
     1
102
RTVSPropertyOp14
 70
     1
102
RTVSPropertyOp15
 70
     1
102
RTVSPropertyOp16
 70
     1
102
RTVSPropertyOp17
 70
     1
102
RTVSPropertyOp18
 70
     1
102
RTVSPropertyOp19
 70
     1
102
RTVSPropertyOp20
 70
     1
102
RTVSPropertyOp21
 70
     1
102
RTVSPropertyOp22
 70
     1
102
RTVSPropertyOp23
 70
     1
102
RTVSPropertyOp24
 70
     1
102
RTVSPropertyOp25
 70
     1
102
RTVSPropertyOp26
 70
     1
102
RTVSPropertyOp27
 70
     1
102
RTVSPropertyOp28
 70
     1
102
RTVSPropertyOp29
 70
     1
102
RTVSPropertyOp30
 70
     1
102
RTVSPropertyOp31
 70
     1
102
RTVSPropertyOp32
 70
     1
102
RTVSPropertyOp33
 70
     1
102
RTVSPropertyOp34
 70
     1
102
RTVSPropertyOp35
 70
     1
102
RTVSPropertyOp36
 70
     1
102
RTVSPropertyOp37
 70
     1
102
RTVSPropertyOp38
 70
     1
102
RTVSPropertyOp39
 70
     1
102
RTVSPropertyOp40
 70
     1
102
RTVSPropertyOp41
 70
     1
102
RTVSPropertyOp42
 70
     1
102
RTVSPropertyOp43
 70
     1
102
RTVSPropertyOp44
 70
     1
102
RTVSPropertyOp45
 70
     1
102
RTVSPropertyOp46
 70
     1
102
RTVSPropertyOp47
 70
     1
102
RTVSPropertyOp48
 70
     1
102
RTVSPropertyOp49
 70
     1
102
RTVSPropertyOp50
 70
     1
102
RTVSPropertyOp51
 70
     0
102
RTVSPropertyOp52
 70
     0
102
RTVSPropertyOp53
 70
     1
102
RTVSPropertyOp54
 70
     1
102
RTVSPropertyOp55
 70
     1
102
RTVSPropertyOp56
 70
     1
102
RTVSPropertyOp57
 70
     1
102
RTVSPropertyOp58
 70
     1
102
RTVSPropertyOp59
 70
     1
102
RTVSPropertyOp60
 70
     1
102
RTVSPropertyOp61
 70
     1
102
RTVSPropertyOp62
 70
     1
  0
XRECORD
  5
5EE
102
{ACAD_REACTORS
330
5ED
102
}
330
5ED
100
AcDbXrecord
280
     1
102
RTVSPost2010Prop28
280
     0
102
RTVSPost2010PropOp28
 70
     1
102
RTVSPost2010Prop29
280
     1
102
RTVSPost2010PropOp29
 70
     1
102
RTVSPost2010Prop30
280
     1
102
RTVSPost2010PropOp30
 70
     1
102
RTVSPost2010Prop31
280
     0
102
RTVSPost2010PropOp31
 70
     1
102
RTVSPost2010Prop32
280
     0
102
RTVSPost2010PropOp32
 70
     1
102
RTVSPost2010Prop33
280
     0
102
RTVSPost2010PropOp33
 70
     1
102
RTVSPost2010Prop34
280
     0
102
RTVSPost2010PropOp34
 70
     1
102
RTVSPost2010Prop35
280
     0
102
RTVSPost2010PropOp35
 70
     1
102
RTVSPost2010Prop36
280
     0
102
RTVSPost2010PropOp36
 70
     1
102
RTVSPost2010Prop37
 90
       50
102
RTVSPost2010PropOp37
 70
     1
102
RTVSPost2010Prop38
140
0.0
102
RTVSPost2010PropOp38
 70
     1
102
RTVSPost2010Prop39
140
1.0
102
RTVSPost2010PropOp39
 70
     1
102
RTVSPost2010Prop40
 90
        0
102
RTVSPost2010PropOp40
 70
     1
102
RTVSPost2010Prop41ColorIndex
 90
       18
102
RTVSPost2010Prop41ColorRGB
 90
        0
102
RTVSPost2010PropOp41
 70
     1
102
RTVSPost2010Prop42
 90
       50
102
RTVSPost2010PropOp42
 70
     1
102
RTVSPost2010Prop43
 90
        3
102
RTVSPost2010PropOp43
 70
     1
102
RTVSPost2010Prop44ColorIndex
 90
        5
102
RTVSPost2010Prop44ColorRGB
 90
      255
102
RTVSPost2010PropOp44
 70
     1
102
RTVSPost2010Prop45
280
     0
102
RTVSPost2010PropOp45
 70
     1
102
RTVSPost2010Prop46
 90
       50
102
RTVSPost2010PropOp46
 70
     1
102
RTVSPost2010Prop47
 90
       50
102
RTVSPost2010PropOp47
 70
     1
102
RTVSPost2010Prop48
 90
       50
102
RTVSPost2010PropOp48
 70
     1
102
RTVSPost2010Prop49
280
     0
102
RTVSPost2010PropOp49
 70
     1
102
RTVSPost2010Prop50
 90
       50
102
RTVSPost2010PropOp50
 70
     1
102
RTVSPost2010Prop51ColorIndex
 90
      256
102
RTVSPost2010Prop51ColorRGB
 90
-16777216
102
RTVSPost2010PropOp51
 70
     0
102
RTVSPost2010Prop52
140
1.0
102
RTVSPost2010PropOp52
 70
     0
102
RTVSPost2010Prop53
 90
        2
102
RTVSPost2010PropOp53
 70
     1
102
RTVSPost2010Prop54
  1
strokes_ogs.tif
102
RTVSPost2010PropOp54
 70
     1
102
RTVSPost2010Prop55
280
     0
102
RTVSPost2010PropOp55
 70
     1
102
RTVSPost2010Prop56
140
1.0
102
RTVSPost2010PropOp56
 70
     1
102
RTVSPost2010Prop57
140
1.0
102
RTVSPost2010PropOp57
 70
     1
102
RTVSPropertyOp0
 70
     1
102
RTVSPropertyOp1
 70
     1
102
RTVSPropertyOp2
 70
     1
102
RTVSPropertyOp3
 70
     1
102
RTVSPropertyOp4
 70
     1
102
RTVSPropertyOp5
 70
     1
102
RTVSPropertyOp6
 70
     1
102
RTVSPropertyOp7
 70
     1
102
RTVSPropertyOp8
 70
     1
102
RTVSPropertyOp9
 70
     1
102
RTVSPropertyOp10
 70
     1
102
RTVSPropertyOp11
 70
     1
102
RTVSPropertyOp12
 70
     1
102
RTVSPropertyOp13
 70
     1
102
RTVSPropertyOp14
 70
     1
102
RTVSPropertyOp15
 70
     1
102
RTVSPropertyOp16
 70
     1
102
RTVSPropertyOp17
 70
     1
102
RTVSPropertyOp18
 70
     1
102
RTVSPropertyOp19
 70
     1
102
RTVSPropertyOp20
 70
     1
102
RTVSPropertyOp21
 70
     1
102
RTVSPropertyOp22
 70
     1
102
RTVSPropertyOp23
 70
     1
102
RTVSPropertyOp24
 70
     1
102
RTVSPropertyOp25
 70
     1
102
RTVSPropertyOp26
 70
     1
102
RTVSPropertyOp27
 70
     1
102
RTVSPropertyOp28
 70
     1
102
RTVSPropertyOp29
 70
     1
102
RTVSPropertyOp30
 70
     1
102
RTVSPropertyOp31
 70
     1
102
RTVSPropertyOp32
 70
     1
102
RTVSPropertyOp33
 70
     1
102
RTVSPropertyOp34
 70
     1
102
RTVSPropertyOp35
 70
     1
102
RTVSPropertyOp36
 70
     1
102
RTVSPropertyOp37
 70
     1
102
RTVSPropertyOp38
 70
     1
102
RTVSPropertyOp39
 70
     1
102
RTVSPropertyOp40
 70
     1
102
RTVSPropertyOp41
 70
     1
102
RTVSPropertyOp42
 70
     1
102
RTVSPropertyOp43
 70
     1
102
RTVSPropertyOp44
 70
     1
102
RTVSPropertyOp45
 70
     1
102
RTVSPropertyOp46
 70
     1
102
RTVSPropertyOp47
 70
     1
102
RTVSPropertyOp48
 70
     1
102
RTVSPropertyOp49
 70
     1
102
RTVSPropertyOp50
 70
     1
102
RTVSPropertyOp51
 70
     0
102
RTVSPropertyOp52
 70
     0
102
RTVSPropertyOp53
 70
     1
102
RTVSPropertyOp54
 70
     1
102
RTVSPropertyOp55
 70
     1
102
RTVSPropertyOp56
 70
     1
102
RTVSPropertyOp57
 70
     1
102
RTVSPropertyOp58
 70
     1
102
RTVSPropertyOp59
 70
     1
102
RTVSPropertyOp60
 70
     1
102
RTVSPropertyOp61
 70
     1
102
RTVSPropertyOp62
 70
     1
  0
XRECORD
  5
5FC
102
{ACAD_REACTORS
330
5FB
102
}
330
5FB
100
AcDbXrecord
280
     1
102
RTVSPost2010Prop28
280
     0
102
RTVSPost2010PropOp28
 70
     1
102
RTVSPost2010Prop29
280
     1
102
RTVSPost2010PropOp29
 70
     1
102
RTVSPost2010Prop30
280
     1
102
RTVSPost2010PropOp30
 70
     1
102
RTVSPost2010Prop31
280
     0
102
RTVSPost2010PropOp31
 70
     1
102
RTVSPost2010Prop32
280
     0
102
RTVSPost2010PropOp32
 70
     1
102
RTVSPost2010Prop33
280
     0
102
RTVSPost2010PropOp33
 70
     1
102
RTVSPost2010Prop34
280
     0
102
RTVSPost2010PropOp34
 70
     1
102
RTVSPost2010Prop35
280
     0
102
RTVSPost2010PropOp35
 70
     1
102
RTVSPost2010Prop36
280
     0
102
RTVSPost2010PropOp36
 70
     1
102
RTVSPost2010Prop37
 90
       50
102
RTVSPost2010PropOp37
 70
     1
102
RTVSPost2010Prop38
140
0.0
102
RTVSPost2010PropOp38
 70
     1
102
RTVSPost2010Prop39
140
1.0
102
RTVSPost2010PropOp39
 70
     1
102
RTVSPost2010Prop40
 90
        0
102
RTVSPost2010PropOp40
 70
     1
102
RTVSPost2010Prop41ColorIndex
 90
       18
102
RTVSPost2010Prop41ColorRGB
 90
        0
102
RTVSPost2010PropOp41
 70
     1
102
RTVSPost2010Prop42
 90
       50
102
RTVSPost2010PropOp42
 70
     1
102
RTVSPost2010Prop43
 90
        3
102
RTVSPost2010PropOp43
 70
     1
102
RTVSPost2010Prop44ColorIndex
 90
        5
102
RTVSPost2010Prop44ColorRGB
 90
      255
102
RTVSPost2010PropOp44
 70
     1
102
RTVSPost2010Prop45
280
     0
102
RTVSPost2010PropOp45
 70
     1
102
RTVSPost2010Prop46
 90
       50
102
RTVSPost2010PropOp46
 70
     1
102
RTVSPost2010Prop47
 90
       50
102
RTVSPost2010PropOp47
 70
     1
102
RTVSPost2010Prop48
 90
       50
102
RTVSPost2010PropOp48
 70
     1
102
RTVSPost2010Prop49
280
     0
102
RTVSPost2010PropOp49
 70
     1
102
RTVSPost2010Prop50
 90
       50
102
RTVSPost2010PropOp50
 70
     1
102
RTVSPost2010Prop51ColorIndex
 90
      256
102
RTVSPost2010Prop51ColorRGB
 90
-16777216
102
RTVSPost2010PropOp51
 70
     0
102
RTVSPost2010Prop52
140
1.0
102
RTVSPost2010PropOp52
 70
     0
102
RTVSPost2010Prop53
 90
        2
102
RTVSPost2010PropOp53
 70
     1
102
RTVSPost2010Prop54
  1
strokes_ogs.tif
102
RTVSPost2010PropOp54
 70
     1
102
RTVSPost2010Prop55
280
     0
102
RTVSPost2010PropOp55
 70
     1
102
RTVSPost2010Prop56
140
1.0
102
RTVSPost2010PropOp56
 70
     1
102
RTVSPost2010Prop57
140
1.0
102
RTVSPost2010PropOp57
 70
     1
102
RTVSPropertyOp0
 70
     1
102
RTVSPropertyOp1
 70
     1
102
RTVSPropertyOp2
 70
     1
102
RTVSPropertyOp3
 70
     1
102
RTVSPropertyOp4
 70
     1
102
RTVSPropertyOp5
 70
     1
102
RTVSPropertyOp6
 70
     1
102
RTVSPropertyOp7
 70
     1
102
RTVSPropertyOp8
 70
     1
102
RTVSPropertyOp9
 70
     1
102
RTVSPropertyOp10
 70
     1
102
RTVSPropertyOp11
 70
     1
102
RTVSPropertyOp12
 70
     1
102
RTVSPropertyOp13
 70
     1
102
RTVSPropertyOp14
 70
     1
102
RTVSPropertyOp15
 70
     1
102
RTVSPropertyOp16
 70
     1
102
RTVSPropertyOp17
 70
     1
102
RTVSPropertyOp18
 70
     1
102
RTVSPropertyOp19
 70
     1
102
RTVSPropertyOp20
 70
     1
102
RTVSPropertyOp21
 70
     1
102
RTVSPropertyOp22
 70
     1
102
RTVSPropertyOp23
 70
     1
102
RTVSPropertyOp24
 70
     1
102
RTVSPropertyOp25
 70
     1
102
RTVSPropertyOp26
 70
     1
102
RTVSPropertyOp27
 70
     1
102
RTVSPropertyOp28
 70
     1
102
RTVSPropertyOp29
 70
     1
102
RTVSPropertyOp30
 70
     1
102
RTVSPropertyOp31
 70
     1
102
RTVSPropertyOp32
 70
     1
102
RTVSPropertyOp33
 70
     1
102
RTVSPropertyOp34
 70
     1
102
RTVSPropertyOp35
 70
     1
102
RTVSPropertyOp36
 70
     1
102
RTVSPropertyOp37
 70
     1
102
RTVSPropertyOp38
 70
     1
102
RTVSPropertyOp39
 70
     1
102
RTVSPropertyOp40
 70
     1
102
RTVSPropertyOp41
 70
     1
102
RTVSPropertyOp42
 70
     1
102
RTVSPropertyOp43
 70
     1
102
RTVSPropertyOp44
 70
     1
102
RTVSPropertyOp45
 70
     1
102
RTVSPropertyOp46
 70
     1
102
RTVSPropertyOp47
 70
     1
102
RTVSPropertyOp48
 70
     1
102
RTVSPropertyOp49
 70
     1
102
RTVSPropertyOp50
 70
     1
102
RTVSPropertyOp51
 70
     0
102
RTVSPropertyOp52
 70
     0
102
RTVSPropertyOp53
 70
     1
102
RTVSPropertyOp54
 70
     1
102
RTVSPropertyOp55
 70
     1
102
RTVSPropertyOp56
 70
     1
102
RTVSPropertyOp57
 70
     1
102
RTVSPropertyOp58
 70
     1
102
RTVSPropertyOp59
 70
     1
102
RTVSPropertyOp60
 70
     1
102
RTVSPropertyOp61
 70
     1
102
RTVSPropertyOp62
 70
     1
  0
XRECORD
  5
604
102
{ACAD_REACTORS
330
603
102
}
330
603
100
AcDbXrecord
280
     1
102
RTVSPost2010Prop28
280
     0
102
RTVSPost2010PropOp28
 70
     1
102
RTVSPost2010Prop29
280
     1
102
RTVSPost2010PropOp29
 70
     1
102
RTVSPost2010Prop30
280
     1
102
RTVSPost2010PropOp30
 70
     1
102
RTVSPost2010Prop31
280
     0
102
RTVSPost2010PropOp31
 70
     1
102
RTVSPost2010Prop32
280
     0
102
RTVSPost2010PropOp32
 70
     1
102
RTVSPost2010Prop33
280
     0
102
RTVSPost2010PropOp33
 70
     1
102
RTVSPost2010Prop34
280
     0
102
RTVSPost2010PropOp34
 70
     1
102
RTVSPost2010Prop35
280
     0
102
RTVSPost2010PropOp35
 70
     1
102
RTVSPost2010Prop36
280
     0
102
RTVSPost2010PropOp36
 70
     1
102
RTVSPost2010Prop37
 90
       50
102
RTVSPost2010PropOp37
 70
     1
102
RTVSPost2010Prop38
140
0.0
102
RTVSPost2010PropOp38
 70
     1
102
RTVSPost2010Prop39
140
1.0
102
RTVSPost2010PropOp39
 70
     1
102
RTVSPost2010Prop40
 90
        0
102
RTVSPost2010PropOp40
 70
     1
102
RTVSPost2010Prop41ColorIndex
 90
       18
102
RTVSPost2010Prop41ColorRGB
 90
        0
102
RTVSPost2010PropOp41
 70
     1
102
RTVSPost2010Prop42
 90
       50
102
RTVSPost2010PropOp42
 70
     1
102
RTVSPost2010Prop43
 90
        3
102
RTVSPost2010PropOp43
 70
     1
102
RTVSPost2010Prop44ColorIndex
 90
        5
102
RTVSPost2010Prop44ColorRGB
 90
      255
102
RTVSPost2010PropOp44
 70
     1
102
RTVSPost2010Prop45
280
     0
102
RTVSPost2010PropOp45
 70
     1
102
RTVSPost2010Prop46
 90
       50
102
RTVSPost2010PropOp46
 70
     1
102
RTVSPost2010Prop47
 90
       50
102
RTVSPost2010PropOp47
 70
     1
102
RTVSPost2010Prop48
 90
       50
102
RTVSPost2010PropOp48
 70
     1
102
RTVSPost2010Prop49
280
     0
102
RTVSPost2010PropOp49
 70
     1
102
RTVSPost2010Prop50
 90
       50
102
RTVSPost2010PropOp50
 70
     1
102
RTVSPost2010Prop51ColorIndex
 90
      256
102
RTVSPost2010Prop51ColorRGB
 90
-16777216
102
RTVSPost2010PropOp51
 70
     0
102
RTVSPost2010Prop52
140
1.0
102
RTVSPost2010PropOp52
 70
     0
102
RTVSPost2010Prop53
 90
        2
102
RTVSPost2010PropOp53
 70
     1
102
RTVSPost2010Prop54
  1
strokes_ogs.tif
102
RTVSPost2010PropOp54
 70
     1
102
RTVSPost2010Prop55
280
     0
102
RTVSPost2010PropOp55
 70
     1
102
RTVSPost2010Prop56
140
1.0
102
RTVSPost2010PropOp56
 70
     1
102
RTVSPost2010Prop57
140
1.0
102
RTVSPost2010PropOp57
 70
     1
102
RTVSPropertyOp0
 70
     1
102
RTVSPropertyOp1
 70
     1
102
RTVSPropertyOp2
 70
     1
102
RTVSPropertyOp3
 70
     1
102
RTVSPropertyOp4
 70
     1
102
RTVSPropertyOp5
 70
     1
102
RTVSPropertyOp6
 70
     1
102
RTVSPropertyOp7
 70
     1
102
RTVSPropertyOp8
 70
     1
102
RTVSPropertyOp9
 70
     1
102
RTVSPropertyOp10
 70
     1
102
RTVSPropertyOp11
 70
     1
102
RTVSPropertyOp12
 70
     1
102
RTVSPropertyOp13
 70
     1
102
RTVSPropertyOp14
 70
     1
102
RTVSPropertyOp15
 70
     1
102
RTVSPropertyOp16
 70
     1
102
RTVSPropertyOp17
 70
     1
102
RTVSPropertyOp18
 70
     1
102
RTVSPropertyOp19
 70
     1
102
RTVSPropertyOp20
 70
     1
102
RTVSPropertyOp21
 70
     1
102
RTVSPropertyOp22
 70
     1
102
RTVSPropertyOp23
 70
     1
102
RTVSPropertyOp24
 70
     1
102
RTVSPropertyOp25
 70
     1
102
RTVSPropertyOp26
 70
     1
102
RTVSPropertyOp27
 70
     1
102
RTVSPropertyOp28
 70
     1
102
RTVSPropertyOp29
 70
     1
102
RTVSPropertyOp30
 70
     1
102
RTVSPropertyOp31
 70
     1
102
RTVSPropertyOp32
 70
     1
102
RTVSPropertyOp33
 70
     1
102
RTVSPropertyOp34
 70
     1
102
RTVSPropertyOp35
 70
     1
102
RTVSPropertyOp36
 70
     1
102
RTVSPropertyOp37
 70
     1
102
RTVSPropertyOp38
 70
     1
102
RTVSPropertyOp39
 70
     1
102
RTVSPropertyOp40
 70
     1
102
RTVSPropertyOp41
 70
     1
102
RTVSPropertyOp42
 70
     1
102
RTVSPropertyOp43
 70
     1
102
RTVSPropertyOp44
 70
     1
102
RTVSPropertyOp45
 70
     1
102
RTVSPropertyOp46
 70
     1
102
RTVSPropertyOp47
 70
     1
102
RTVSPropertyOp48
 70
     1
102
RTVSPropertyOp49
 70
     1
102
RTVSPropertyOp50
 70
     1
102
RTVSPropertyOp51
 70
     0
102
RTVSPropertyOp52
 70
     0
102
RTVSPropertyOp53
 70
     1
102
RTVSPropertyOp54
 70
     1
102
RTVSPropertyOp55
 70
     1
102
RTVSPropertyOp56
 70
     1
102
RTVSPropertyOp57
 70
     1
102
RTVSPropertyOp58
 70
     1
102
RTVSPropertyOp59
 70
     1
102
RTVSPropertyOp60
 70
     1
102
RTVSPropertyOp61
 70
     1
102
RTVSPropertyOp62
 70
     1
  0
XRECORD
  5
5F6
102
{ACAD_REACTORS
330
5F5
102
}
330
5F5
100
AcDbXrecord
280
     1
102
RTVSPost2010Prop28
280
     0
102
RTVSPost2010PropOp28
 70
     1
102
RTVSPost2010Prop29
280
     1
102
RTVSPost2010PropOp29
 70
     1
102
RTVSPost2010Prop30
280
     1
102
RTVSPost2010PropOp30
 70
     1
102
RTVSPost2010Prop31
280
     0
102
RTVSPost2010PropOp31
 70
     1
102
RTVSPost2010Prop32
280
     0
102
RTVSPost2010PropOp32
 70
     1
102
RTVSPost2010Prop33
280
     0
102
RTVSPost2010PropOp33
 70
     1
102
RTVSPost2010Prop34
280
     0
102
RTVSPost2010PropOp34
 70
     1
102
RTVSPost2010Prop35
280
     0
102
RTVSPost2010PropOp35
 70
     1
102
RTVSPost2010Prop36
280
     0
102
RTVSPost2010PropOp36
 70
     1
102
RTVSPost2010Prop37
 90
       50
102
RTVSPost2010PropOp37
 70
     1
102
RTVSPost2010Prop38
140
0.0
102
RTVSPost2010PropOp38
 70
     1
102
RTVSPost2010Prop39
140
1.0
102
RTVSPost2010PropOp39
 70
     1
102
RTVSPost2010Prop40
 90
        0
102
RTVSPost2010PropOp40
 70
     1
102
RTVSPost2010Prop41ColorIndex
 90
       18
102
RTVSPost2010Prop41ColorRGB
 90
        0
102
RTVSPost2010PropOp41
 70
     1
102
RTVSPost2010Prop42
 90
       50
102
RTVSPost2010PropOp42
 70
     1
102
RTVSPost2010Prop43
 90
        3
102
RTVSPost2010PropOp43
 70
     1
102
RTVSPost2010Prop44ColorIndex
 90
        5
102
RTVSPost2010Prop44ColorRGB
 90
      255
102
RTVSPost2010PropOp44
 70
     1
102
RTVSPost2010Prop45
280
     0
102
RTVSPost2010PropOp45
 70
     1
102
RTVSPost2010Prop46
 90
       50
102
RTVSPost2010PropOp46
 70
     1
102
RTVSPost2010Prop47
 90
       50
102
RTVSPost2010PropOp47
 70
     1
102
RTVSPost2010Prop48
 90
       50
102
RTVSPost2010PropOp48
 70
     1
102
RTVSPost2010Prop49
280
     0
102
RTVSPost2010PropOp49
 70
     1
102
RTVSPost2010Prop50
 90
       50
102
RTVSPost2010PropOp50
 70
     1
102
RTVSPost2010Prop51ColorIndex
 90
      256
102
RTVSPost2010Prop51ColorRGB
 90
-16777216
102
RTVSPost2010PropOp51
 70
     0
102
RTVSPost2010Prop52
140
1.0
102
RTVSPost2010PropOp52
 70
     0
102
RTVSPost2010Prop53
 90
        2
102
RTVSPost2010PropOp53
 70
     1
102
RTVSPost2010Prop54
  1
strokes_ogs.tif
102
RTVSPost2010PropOp54
 70
     1
102
RTVSPost2010Prop55
280
     0
102
RTVSPost2010PropOp55
 70
     1
102
RTVSPost2010Prop56
140
1.0
102
RTVSPost2010PropOp56
 70
     1
102
RTVSPost2010Prop57
140
1.0
102
RTVSPost2010PropOp57
 70
     1
102
RTVSPropertyOp0
 70
     1
102
RTVSPropertyOp1
 70
     1
102
RTVSPropertyOp2
 70
     1
102
RTVSPropertyOp3
 70
     1
102
RTVSPropertyOp4
 70
     1
102
RTVSPropertyOp5
 70
     1
102
RTVSPropertyOp6
 70
     1
102
RTVSPropertyOp7
 70
     1
102
RTVSPropertyOp8
 70
     1
102
RTVSPropertyOp9
 70
     1
102
RTVSPropertyOp10
 70
     1
102
RTVSPropertyOp11
 70
     1
102
RTVSPropertyOp12
 70
     1
102
RTVSPropertyOp13
 70
     1
102
RTVSPropertyOp14
 70
     1
102
RTVSPropertyOp15
 70
     1
102
RTVSPropertyOp16
 70
     1
102
RTVSPropertyOp17
 70
     1
102
RTVSPropertyOp18
 70
     1
102
RTVSPropertyOp19
 70
     1
102
RTVSPropertyOp20
 70
     1
102
RTVSPropertyOp21
 70
     1
102
RTVSPropertyOp22
 70
     1
102
RTVSPropertyOp23
 70
     1
102
RTVSPropertyOp24
 70
     1
102
RTVSPropertyOp25
 70
     1
102
RTVSPropertyOp26
 70
     1
102
RTVSPropertyOp27
 70
     1
102
RTVSPropertyOp28
 70
     1
102
RTVSPropertyOp29
 70
     1
102
RTVSPropertyOp30
 70
     1
102
RTVSPropertyOp31
 70
     1
102
RTVSPropertyOp32
 70
     1
102
RTVSPropertyOp33
 70
     1
102
RTVSPropertyOp34
 70
     1
102
RTVSPropertyOp35
 70
     1
102
RTVSPropertyOp36
 70
     1
102
RTVSPropertyOp37
 70
     1
102
RTVSPropertyOp38
 70
     1
102
RTVSPropertyOp39
 70
     1
102
RTVSPropertyOp40
 70
     1
102
RTVSPropertyOp41
 70
     1
102
RTVSPropertyOp42
 70
     1
102
RTVSPropertyOp43
 70
     1
102
RTVSPropertyOp44
 70
     1
102
RTVSPropertyOp45
 70
     1
102
RTVSPropertyOp46
 70
     1
102
RTVSPropertyOp47
 70
     1
102
RTVSPropertyOp48
 70
     1
102
RTVSPropertyOp49
 70
     1
102
RTVSPropertyOp50
 70
     1
102
RTVSPropertyOp51
 70
     0
102
RTVSPropertyOp52
 70
     0
102
RTVSPropertyOp53
 70
     1
102
RTVSPropertyOp54
 70
     1
102
RTVSPropertyOp55
 70
     1
102
RTVSPropertyOp56
 70
     1
102
RTVSPropertyOp57
 70
     1
102
RTVSPropertyOp58
 70
     1
102
RTVSPropertyOp59
 70
     1
102
RTVSPropertyOp60
 70
     1
102
RTVSPropertyOp61
 70
     1
102
RTVSPropertyOp62
 70
     1
  0
XRECORD
  5
5FA
102
{ACAD_REACTORS
330
5F9
102
}
330
5F9
100
AcDbXrecord
280
     1
102
RTVSPost2010Prop28
280
     0
102
RTVSPost2010PropOp28
 70
     1
102
RTVSPost2010Prop29
280
     1
102
RTVSPost2010PropOp29
 70
     1
102
RTVSPost2010Prop30
280
     1
102
RTVSPost2010PropOp30
 70
     1
102
RTVSPost2010Prop31
280
     0
102
RTVSPost2010PropOp31
 70
     1
102
RTVSPost2010Prop32
280
     0
102
RTVSPost2010PropOp32
 70
     1
102
RTVSPost2010Prop33
280
     0
102
RTVSPost2010PropOp33
 70
     1
102
RTVSPost2010Prop34
280
     0
102
RTVSPost2010PropOp34
 70
     1
102
RTVSPost2010Prop35
280
     0
102
RTVSPost2010PropOp35
 70
     1
102
RTVSPost2010Prop36
280
     0
102
RTVSPost2010PropOp36
 70
     1
102
RTVSPost2010Prop37
 90
       50
102
RTVSPost2010PropOp37
 70
     1
102
RTVSPost2010Prop38
140
0.0
102
RTVSPost2010PropOp38
 70
     1
102
RTVSPost2010Prop39
140
1.0
102
RTVSPost2010PropOp39
 70
     1
102
RTVSPost2010Prop40
 90
        0
102
RTVSPost2010PropOp40
 70
     1
102
RTVSPost2010Prop41ColorIndex
 90
       18
102
RTVSPost2010Prop41ColorRGB
 90
        0
102
RTVSPost2010PropOp41
 70
     1
102
RTVSPost2010Prop42
 90
       50
102
RTVSPost2010PropOp42
 70
     1
102
RTVSPost2010Prop43
 90
        3
102
RTVSPost2010PropOp43
 70
     1
102
RTVSPost2010Prop44ColorIndex
 90
        5
102
RTVSPost2010Prop44ColorRGB
 90
      255
102
RTVSPost2010PropOp44
 70
     1
102
RTVSPost2010Prop45
280
     0
102
RTVSPost2010PropOp45
 70
     1
102
RTVSPost2010Prop46
 90
       50
102
RTVSPost2010PropOp46
 70
     1
102
RTVSPost2010Prop47
 90
       50
102
RTVSPost2010PropOp47
 70
     1
102
RTVSPost2010Prop48
 90
       50
102
RTVSPost2010PropOp48
 70
     1
102
RTVSPost2010Prop49
280
     0
102
RTVSPost2010PropOp49
 70
     1
102
RTVSPost2010Prop50
 90
       50
102
RTVSPost2010PropOp50
 70
     1
102
RTVSPost2010Prop51ColorIndex
 90
      256
102
RTVSPost2010Prop51ColorRGB
 90
-16777216
102
RTVSPost2010PropOp51
 70
     0
102
RTVSPost2010Prop52
140
1.0
102
RTVSPost2010PropOp52
 70
     0
102
RTVSPost2010Prop53
 90
        2
102
RTVSPost2010PropOp53
 70
     1
102
RTVSPost2010Prop54
  1
strokes_ogs.tif
102
RTVSPost2010PropOp54
 70
     1
102
RTVSPost2010Prop55
280
     0
102
RTVSPost2010PropOp55
 70
     1
102
RTVSPost2010Prop56
140
1.0
102
RTVSPost2010PropOp56
 70
     1
102
RTVSPost2010Prop57
140
1.0
102
RTVSPost2010PropOp57
 70
     1
102
RTVSPropertyOp0
 70
     1
102
RTVSPropertyOp1
 70
     1
102
RTVSPropertyOp2
 70
     1
102
RTVSPropertyOp3
 70
     1
102
RTVSPropertyOp4
 70
     1
102
RTVSPropertyOp5
 70
     1
102
RTVSPropertyOp6
 70
     1
102
RTVSPropertyOp7
 70
     1
102
RTVSPropertyOp8
 70
     1
102
RTVSPropertyOp9
 70
     1
102
RTVSPropertyOp10
 70
     1
102
RTVSPropertyOp11
 70
     1
102
RTVSPropertyOp12
 70
     1
102
RTVSPropertyOp13
 70
     1
102
RTVSPropertyOp14
 70
     1
102
RTVSPropertyOp15
 70
     1
102
RTVSPropertyOp16
 70
     1
102
RTVSPropertyOp17
 70
     1
102
RTVSPropertyOp18
 70
     1
102
RTVSPropertyOp19
 70
     1
102
RTVSPropertyOp20
 70
     1
102
RTVSPropertyOp21
 70
     1
102
RTVSPropertyOp22
 70
     1
102
RTVSPropertyOp23
 70
     1
102
RTVSPropertyOp24
 70
     1
102
RTVSPropertyOp25
 70
     1
102
RTVSPropertyOp26
 70
     1
102
RTVSPropertyOp27
 70
     1
102
RTVSPropertyOp28
 70
     1
102
RTVSPropertyOp29
 70
     1
102
RTVSPropertyOp30
 70
     1
102
RTVSPropertyOp31
 70
     1
102
RTVSPropertyOp32
 70
     1
102
RTVSPropertyOp33
 70
     1
102
RTVSPropertyOp34
 70
     1
102
RTVSPropertyOp35
 70
     1
102
RTVSPropertyOp36
 70
     1
102
RTVSPropertyOp37
 70
     1
102
RTVSPropertyOp38
 70
     1
102
RTVSPropertyOp39
 70
     1
102
RTVSPropertyOp40
 70
     1
102
RTVSPropertyOp41
 70
     1
102
RTVSPropertyOp42
 70
     1
102
RTVSPropertyOp43
 70
     1
102
RTVSPropertyOp44
 70
     1
102
RTVSPropertyOp45
 70
     1
102
RTVSPropertyOp46
 70
     1
102
RTVSPropertyOp47
 70
     1
102
RTVSPropertyOp48
 70
     1
102
RTVSPropertyOp49
 70
     1
102
RTVSPropertyOp50
 70
     1
102
RTVSPropertyOp51
 70
     0
102
RTVSPropertyOp52
 70
     0
102
RTVSPropertyOp53
 70
     1
102
RTVSPropertyOp54
 70
     1
102
RTVSPropertyOp55
 70
     1
102
RTVSPropertyOp56
 70
     1
102
RTVSPropertyOp57
 70
     1
102
RTVSPropertyOp58
 70
     1
102
RTVSPropertyOp59
 70
     1
102
RTVSPropertyOp60
 70
     1
102
RTVSPropertyOp61
 70
     1
102
RTVSPropertyOp62
 70
     1
  0
XRECORD
  5
614
102
{ACAD_REACTORS
330
613
102
}
330
613
100
AcDbXrecord
280
     1
102
RTVSPost2010Prop28
280
     0
102
RTVSPost2010PropOp28
 70
     0
102
RTVSPost2010Prop29
280
     1
102
RTVSPost2010PropOp29
 70
     0
102
RTVSPost2010Prop30
280
     1
102
RTVSPost2010PropOp30
 70
     0
102
RTVSPost2010Prop31
280
     0
102
RTVSPost2010PropOp31
 70
     0
102
RTVSPost2010Prop32
280
     0
102
RTVSPost2010PropOp32
 70
     0
102
RTVSPost2010Prop33
280
     0
102
RTVSPost2010PropOp33
 70
     0
102
RTVSPost2010Prop34
280
     0
102
RTVSPost2010PropOp34
 70
     0
102
RTVSPost2010Prop35
280
     0
102
RTVSPost2010PropOp35
 70
     0
102
RTVSPost2010Prop36
280
     0
102
RTVSPost2010PropOp36
 70
     0
102
RTVSPost2010Prop37
 90
       50
102
RTVSPost2010PropOp37
 70
     0
102
RTVSPost2010Prop38
140
0.0
102
RTVSPost2010PropOp38
 70
     0
102
RTVSPost2010Prop39
140
1.0
102
RTVSPost2010PropOp39
 70
     0
102
RTVSPost2010Prop40
 90
        0
102
RTVSPost2010PropOp40
 70
     0
102
RTVSPost2010Prop41ColorIndex
 90
       18
102
RTVSPost2010Prop41ColorRGB
 90
        0
102
RTVSPost2010PropOp41
 70
     0
102
RTVSPost2010Prop42
 90
       50
102
RTVSPost2010PropOp42
 70
     0
102
RTVSPost2010Prop43
 90
        3
102
RTVSPost2010PropOp43
 70
     0
102
RTVSPost2010Prop44ColorIndex
 90
        5
102
RTVSPost2010Prop44ColorRGB
 90
      255
102
RTVSPost2010PropOp44
 70
     0
102
RTVSPost2010Prop45
280
     0
102
RTVSPost2010PropOp45
 70
     0
102
RTVSPost2010Prop46
 90
       50
102
RTVSPost2010PropOp46
 70
     0
102
RTVSPost2010Prop47
 90
       50
102
RTVSPost2010PropOp47
 70
     0
102
RTVSPost2010Prop48
 90
       50
102
RTVSPost2010PropOp48
 70
     0
102
RTVSPost2010Prop49
280
     0
102
RTVSPost2010PropOp49
 70
     0
102
RTVSPost2010Prop50
 90
       50
102
RTVSPost2010PropOp50
 70
     0
102
RTVSPost2010Prop51ColorIndex
 90
      256
102
RTVSPost2010Prop51ColorRGB
 90
-16777216
102
RTVSPost2010PropOp51
 70
     0
102
RTVSPost2010Prop52
140
1.0
102
RTVSPost2010PropOp52
 70
     0
102
RTVSPost2010Prop53
 90
        2
102
RTVSPost2010PropOp53
 70
     0
102
RTVSPost2010Prop54
  1
strokes_ogs.tif
102
RTVSPost2010PropOp54
 70
     0
102
RTVSPost2010Prop55
280
     0
102
RTVSPost2010PropOp55
 70
     0
102
RTVSPost2010Prop56
140
1.0
102
RTVSPost2010PropOp56
 70
     0
102
RTVSPost2010Prop57
140
1.0
102
RTVSPost2010PropOp57
 70
     0
102
RTVSPropertyOp0
 70
     0
102
RTVSPropertyOp1
 70
     0
102
RTVSPropertyOp2
 70
     0
102
RTVSPropertyOp3
 70
     0
102
RTVSPropertyOp4
 70
     0
102
RTVSPropertyOp5
 70
     0
102
RTVSPropertyOp6
 70
     0
102
RTVSPropertyOp7
 70
     0
102
RTVSPropertyOp8
 70
     0
102
RTVSPropertyOp9
 70
     0
102
RTVSPropertyOp10
 70
     0
102
RTVSPropertyOp11
 70
     0
102
RTVSPropertyOp12
 70
     0
102
RTVSPropertyOp13
 70
     0
102
RTVSPropertyOp14
 70
     2
102
RTVSPropertyOp15
 70
     0
102
RTVSPropertyOp16
 70
     0
102
RTVSPropertyOp17
 70
     0
102
RTVSPropertyOp18
 70
     0
102
RTVSPropertyOp19
 70
     0
102
RTVSPropertyOp20
 70
     0
102
RTVSPropertyOp21
 70
     0
102
RTVSPropertyOp22
 70
     0
102
RTVSPropertyOp23
 70
     0
102
RTVSPropertyOp24
 70
     0
102
RTVSPropertyOp25
 70
     0
102
RTVSPropertyOp26
 70
     0
102
RTVSPropertyOp27
 70
     0
102
RTVSPropertyOp28
 70
     0
102
RTVSPropertyOp29
 70
     0
102
RTVSPropertyOp30
 70
     0
102
RTVSPropertyOp31
 70
     0
102
RTVSPropertyOp32
 70
     0
102
RTVSPropertyOp33
 70
     0
102
RTVSPropertyOp34
 70
     0
102
RTVSPropertyOp35
 70
     0
102
RTVSPropertyOp36
 70
     0
102
RTVSPropertyOp37
 70
     0
102
RTVSPropertyOp38
 70
     0
102
RTVSPropertyOp39
 70
     0
102
RTVSPropertyOp40
 70
     0
102
RTVSPropertyOp41
 70
     0
102
RTVSPropertyOp42
 70
     0
102
RTVSPropertyOp43
 70
     0
102
RTVSPropertyOp44
 70
     0
102
RTVSPropertyOp45
 70
     0
102
RTVSPropertyOp46
 70
     0
102
RTVSPropertyOp47
 70
     0
102
RTVSPropertyOp48
 70
     0
102
RTVSPropertyOp49
 70
     0
102
RTVSPropertyOp50
 70
     0
102
RTVSPropertyOp51
 70
     0
102
RTVSPropertyOp52
 70
     0
102
RTVSPropertyOp53
 70
     0
102
RTVSPropertyOp54
 70
     0
102
RTVSPropertyOp55
 70
     0
102
RTVSPropertyOp56
 70
     0
102
RTVSPropertyOp57
 70
     0
102
RTVSPropertyOp58
 70
     0
102
RTVSPropertyOp59
 70
     0
102
RTVSPropertyOp60
 70
     0
102
RTVSPropertyOp61
 70
     0
102
RTVSPropertyOp62
 70
     0
  0
XRECORD
  5
602
102
{ACAD_REACTORS
330
601
102
}
330
601
100
AcDbXrecord
280
     1
102
RTVSPost2010Prop28
280
     0
102
RTVSPost2010PropOp28
 70
     1
102
RTVSPost2010Prop29
280
     1
102
RTVSPost2010PropOp29
 70
     1
102
RTVSPost2010Prop30
280
     1
102
RTVSPost2010PropOp30
 70
     1
102
RTVSPost2010Prop31
280
     0
102
RTVSPost2010PropOp31
 70
     1
102
RTVSPost2010Prop32
280
     0
102
RTVSPost2010PropOp32
 70
     1
102
RTVSPost2010Prop33
280
     0
102
RTVSPost2010PropOp33
 70
     1
102
RTVSPost2010Prop34
280
     0
102
RTVSPost2010PropOp34
 70
     1
102
RTVSPost2010Prop35
280
     0
102
RTVSPost2010PropOp35
 70
     1
102
RTVSPost2010Prop36
280
     0
102
RTVSPost2010PropOp36
 70
     1
102
RTVSPost2010Prop37
 90
       50
102
RTVSPost2010PropOp37
 70
     1
102
RTVSPost2010Prop38
140
0.0
102
RTVSPost2010PropOp38
 70
     1
102
RTVSPost2010Prop39
140
1.0
102
RTVSPost2010PropOp39
 70
     1
102
RTVSPost2010Prop40
 90
        0
102
RTVSPost2010PropOp40
 70
     1
102
RTVSPost2010Prop41ColorIndex
 90
       18
102
RTVSPost2010Prop41ColorRGB
 90
        0
102
RTVSPost2010PropOp41
 70
     1
102
RTVSPost2010Prop42
 90
       50
102
RTVSPost2010PropOp42
 70
     1
102
RTVSPost2010Prop43
 90
        3
102
RTVSPost2010PropOp43
 70
     1
102
RTVSPost2010Prop44ColorIndex
 90
        5
102
RTVSPost2010Prop44ColorRGB
 90
      255
102
RTVSPost2010PropOp44
 70
     1
102
RTVSPost2010Prop45
280
     0
102
RTVSPost2010PropOp45
 70
     1
102
RTVSPost2010Prop46
 90
       50
102
RTVSPost2010PropOp46
 70
     1
102
RTVSPost2010Prop47
 90
       50
102
RTVSPost2010PropOp47
 70
     1
102
RTVSPost2010Prop48
 90
       50
102
RTVSPost2010PropOp48
 70
     1
102
RTVSPost2010Prop49
280
     0
102
RTVSPost2010PropOp49
 70
     1
102
RTVSPost2010Prop50
 90
       50
102
RTVSPost2010PropOp50
 70
     1
102
RTVSPost2010Prop51ColorIndex
 90
      256
102
RTVSPost2010Prop51ColorRGB
 90
-16777216
102
RTVSPost2010PropOp51
 70
     0
102
RTVSPost2010Prop52
140
1.0
102
RTVSPost2010PropOp52
 70
     0
102
RTVSPost2010Prop53
 90
        2
102
RTVSPost2010PropOp53
 70
     1
102
RTVSPost2010Prop54
  1
strokes_ogs.tif
102
RTVSPost2010PropOp54
 70
     1
102
RTVSPost2010Prop55
280
     0
102
RTVSPost2010PropOp55
 70
     1
102
RTVSPost2010Prop56
140
1.0
102
RTVSPost2010PropOp56
 70
     1
102
RTVSPost2010Prop57
140
1.0
102
RTVSPost2010PropOp57
 70
     1
102
RTVSPropertyOp0
 70
     1
102
RTVSPropertyOp1
 70
     1
102
RTVSPropertyOp2
 70
     1
102
RTVSPropertyOp3
 70
     1
102
RTVSPropertyOp4
 70
     1
102
RTVSPropertyOp5
 70
     1
102
RTVSPropertyOp6
 70
     1
102
RTVSPropertyOp7
 70
     1
102
RTVSPropertyOp8
 70
     1
102
RTVSPropertyOp9
 70
     1
102
RTVSPropertyOp10
 70
     1
102
RTVSPropertyOp11
 70
     1
102
RTVSPropertyOp12
 70
     1
102
RTVSPropertyOp13
 70
     1
102
RTVSPropertyOp14
 70
     1
102
RTVSPropertyOp15
 70
     1
102
RTVSPropertyOp16
 70
     1
102
RTVSPropertyOp17
 70
     1
102
RTVSPropertyOp18
 70
     1
102
RTVSPropertyOp19
 70
     1
102
RTVSPropertyOp20
 70
     1
102
RTVSPropertyOp21
 70
     1
102
RTVSPropertyOp22
 70
     1
102
RTVSPropertyOp23
 70
     1
102
RTVSPropertyOp24
 70
     1
102
RTVSPropertyOp25
 70
     1
102
RTVSPropertyOp26
 70
     1
102
RTVSPropertyOp27
 70
     1
102
RTVSPropertyOp28
 70
     1
102
RTVSPropertyOp29
 70
     1
102
RTVSPropertyOp30
 70
     1
102
RTVSPropertyOp31
 70
     1
102
RTVSPropertyOp32
 70
     1
102
RTVSPropertyOp33
 70
     1
102
RTVSPropertyOp34
 70
     1
102
RTVSPropertyOp35
 70
     1
102
RTVSPropertyOp36
 70
     1
102
RTVSPropertyOp37
 70
     1
102
RTVSPropertyOp38
 70
     1
102
RTVSPropertyOp39
 70
     1
102
RTVSPropertyOp40
 70
     1
102
RTVSPropertyOp41
 70
     1
102
RTVSPropertyOp42
 70
     1
102
RTVSPropertyOp43
 70
     1
102
RTVSPropertyOp44
 70
     1
102
RTVSPropertyOp45
 70
     1
102
RTVSPropertyOp46
 70
     1
102
RTVSPropertyOp47
 70
     1
102
RTVSPropertyOp48
 70
     1
102
RTVSPropertyOp49
 70
     1
102
RTVSPropertyOp50
 70
     1
102
RTVSPropertyOp51
 70
     0
102
RTVSPropertyOp52
 70
     0
102
RTVSPropertyOp53
 70
     1
102
RTVSPropertyOp54
 70
     1
102
RTVSPropertyOp55
 70
     1
102
RTVSPropertyOp56
 70
     1
102
RTVSPropertyOp57
 70
     1
102
RTVSPropertyOp58
 70
     1
102
RTVSPropertyOp59
 70
     1
102
RTVSPropertyOp60
 70
     1
102
RTVSPropertyOp61
 70
     1
102
RTVSPropertyOp62
 70
     1
  0
XRECORD
  5
5E6
102
{ACAD_REACTORS
330
5E5
102
}
330
5E5
100
AcDbXrecord
280
     1
102
RTVSPost2010Prop28
280
     0
102
RTVSPost2010PropOp28
 70
     1
102
RTVSPost2010Prop29
280
     1
102
RTVSPost2010PropOp29
 70
     1
102
RTVSPost2010Prop30
280
     1
102
RTVSPost2010PropOp30
 70
     1
102
RTVSPost2010Prop31
280
     0
102
RTVSPost2010PropOp31
 70
     1
102
RTVSPost2010Prop32
280
     0
102
RTVSPost2010PropOp32
 70
     1
102
RTVSPost2010Prop33
280
     0
102
RTVSPost2010PropOp33
 70
     1
102
RTVSPost2010Prop34
280
     0
102
RTVSPost2010PropOp34
 70
     1
102
RTVSPost2010Prop35
280
     0
102
RTVSPost2010PropOp35
 70
     1
102
RTVSPost2010Prop36
280
     0
102
RTVSPost2010PropOp36
 70
     1
102
RTVSPost2010Prop37
 90
       50
102
RTVSPost2010PropOp37
 70
     1
102
RTVSPost2010Prop38
140
0.0
102
RTVSPost2010PropOp38
 70
     1
102
RTVSPost2010Prop39
140
1.0
102
RTVSPost2010PropOp39
 70
     1
102
RTVSPost2010Prop40
 90
        0
102
RTVSPost2010PropOp40
 70
     1
102
RTVSPost2010Prop41ColorIndex
 90
       18
102
RTVSPost2010Prop41ColorRGB
 90
        0
102
RTVSPost2010PropOp41
 70
     1
102
RTVSPost2010Prop42
 90
       50
102
RTVSPost2010PropOp42
 70
     1
102
RTVSPost2010Prop43
 90
        3
102
RTVSPost2010PropOp43
 70
     1
102
RTVSPost2010Prop44ColorIndex
 90
        5
102
RTVSPost2010Prop44ColorRGB
 90
      255
102
RTVSPost2010PropOp44
 70
     1
102
RTVSPost2010Prop45
280
     0
102
RTVSPost2010PropOp45
 70
     1
102
RTVSPost2010Prop46
 90
       50
102
RTVSPost2010PropOp46
 70
     1
102
RTVSPost2010Prop47
 90
       50
102
RTVSPost2010PropOp47
 70
     1
102
RTVSPost2010Prop48
 90
       50
102
RTVSPost2010PropOp48
 70
     1
102
RTVSPost2010Prop49
280
     0
102
RTVSPost2010PropOp49
 70
     1
102
RTVSPost2010Prop50
 90
       50
102
RTVSPost2010PropOp50
 70
     1
102
RTVSPost2010Prop51ColorIndex
 90
      256
102
RTVSPost2010Prop51ColorRGB
 90
-16777216
102
RTVSPost2010PropOp51
 70
     0
102
RTVSPost2010Prop52
140
1.0
102
RTVSPost2010PropOp52
 70
     0
102
RTVSPost2010Prop53
 90
        2
102
RTVSPost2010PropOp53
 70
     1
102
RTVSPost2010Prop54
  1
strokes_ogs.tif
102
RTVSPost2010PropOp54
 70
     1
102
RTVSPost2010Prop55
280
     0
102
RTVSPost2010PropOp55
 70
     1
102
RTVSPost2010Prop56
140
1.0
102
RTVSPost2010PropOp56
 70
     1
102
RTVSPost2010Prop57
140
1.0
102
RTVSPost2010PropOp57
 70
     1
102
RTVSPropertyOp0
 70
     1
102
RTVSPropertyOp1
 70
     1
102
RTVSPropertyOp2
 70
     1
102
RTVSPropertyOp3
 70
     1
102
RTVSPropertyOp4
 70
     1
102
RTVSPropertyOp5
 70
     1
102
RTVSPropertyOp6
 70
     1
102
RTVSPropertyOp7
 70
     1
102
RTVSPropertyOp8
 70
     1
102
RTVSPropertyOp9
 70
     1
102
RTVSPropertyOp10
 70
     1
102
RTVSPropertyOp11
 70
     1
102
RTVSPropertyOp12
 70
     1
102
RTVSPropertyOp13
 70
     1
102
RTVSPropertyOp14
 70
     1
102
RTVSPropertyOp15
 70
     1
102
RTVSPropertyOp16
 70
     1
102
RTVSPropertyOp17
 70
     1
102
RTVSPropertyOp18
 70
     1
102
RTVSPropertyOp19
 70
     1
102
RTVSPropertyOp20
 70
     1
102
RTVSPropertyOp21
 70
     1
102
RTVSPropertyOp22
 70
     1
102
RTVSPropertyOp23
 70
     1
102
RTVSPropertyOp24
 70
     1
102
RTVSPropertyOp25
 70
     1
102
RTVSPropertyOp26
 70
     1
102
RTVSPropertyOp27
 70
     1
102
RTVSPropertyOp28
 70
     1
102
RTVSPropertyOp29
 70
     1
102
RTVSPropertyOp30
 70
     1
102
RTVSPropertyOp31
 70
     1
102
RTVSPropertyOp32
 70
     1
102
RTVSPropertyOp33
 70
     1
102
RTVSPropertyOp34
 70
     1
102
RTVSPropertyOp35
 70
     1
102
RTVSPropertyOp36
 70
     1
102
RTVSPropertyOp37
 70
     1
102
RTVSPropertyOp38
 70
     1
102
RTVSPropertyOp39
 70
     1
102
RTVSPropertyOp40
 70
     1
102
RTVSPropertyOp41
 70
     1
102
RTVSPropertyOp42
 70
     1
102
RTVSPropertyOp43
 70
     1
102
RTVSPropertyOp44
 70
     1
102
RTVSPropertyOp45
 70
     1
102
RTVSPropertyOp46
 70
     1
102
RTVSPropertyOp47
 70
     1
102
RTVSPropertyOp48
 70
     1
102
RTVSPropertyOp49
 70
     1
102
RTVSPropertyOp50
 70
     1
102
RTVSPropertyOp51
 70
     0
102
RTVSPropertyOp52
 70
     0
102
RTVSPropertyOp53
 70
     1
102
RTVSPropertyOp54
 70
     1
102
RTVSPropertyOp55
 70
     1
102
RTVSPropertyOp56
 70
     1
102
RTVSPropertyOp57
 70
     1
102
RTVSPropertyOp58
 70
     1
102
RTVSPropertyOp59
 70
     1
102
RTVSPropertyOp60
 70
     1
102
RTVSPropertyOp61
 70
     1
102
RTVSPropertyOp62
 70
     1
  0
XRECORD
  5
5E8
102
{ACAD_REACTORS
330
5E7
102
}
330
5E7
100
AcDbXrecord
280
     1
102
RTVSPost2010Prop28
280
     0
102
RTVSPost2010PropOp28
 70
     1
102
RTVSPost2010Prop29
280
     1
102
RTVSPost2010PropOp29
 70
     1
102
RTVSPost2010Prop30
280
     1
102
RTVSPost2010PropOp30
 70
     1
102
RTVSPost2010Prop31
280
     0
102
RTVSPost2010PropOp31
 70
     1
102
RTVSPost2010Prop32
280
     0
102
RTVSPost2010PropOp32
 70
     1
102
RTVSPost2010Prop33
280
     0
102
RTVSPost2010PropOp33
 70
     1
102
RTVSPost2010Prop34
280
     0
102
RTVSPost2010PropOp34
 70
     1
102
RTVSPost2010Prop35
280
     0
102
RTVSPost2010PropOp35
 70
     1
102
RTVSPost2010Prop36
280
     0
102
RTVSPost2010PropOp36
 70
     1
102
RTVSPost2010Prop37
 90
       50
102
RTVSPost2010PropOp37
 70
     1
102
RTVSPost2010Prop38
140
0.0
102
RTVSPost2010PropOp38
 70
     1
102
RTVSPost2010Prop39
140
1.0
102
RTVSPost2010PropOp39
 70
     1
102
RTVSPost2010Prop40
 90
        0
102
RTVSPost2010PropOp40
 70
     1
102
RTVSPost2010Prop41ColorIndex
 90
       18
102
RTVSPost2010Prop41ColorRGB
 90
        0
102
RTVSPost2010PropOp41
 70
     1
102
RTVSPost2010Prop42
 90
       50
102
RTVSPost2010PropOp42
 70
     1
102
RTVSPost2010Prop43
 90
        3
102
RTVSPost2010PropOp43
 70
     1
102
RTVSPost2010Prop44ColorIndex
 90
        5
102
RTVSPost2010Prop44ColorRGB
 90
      255
102
RTVSPost2010PropOp44
 70
     1
102
RTVSPost2010Prop45
280
     0
102
RTVSPost2010PropOp45
 70
     1
102
RTVSPost2010Prop46
 90
       50
102
RTVSPost2010PropOp46
 70
     1
102
RTVSPost2010Prop47
 90
       50
102
RTVSPost2010PropOp47
 70
     1
102
RTVSPost2010Prop48
 90
       50
102
RTVSPost2010PropOp48
 70
     1
102
RTVSPost2010Prop49
280
     0
102
RTVSPost2010PropOp49
 70
     1
102
RTVSPost2010Prop50
 90
       50
102
RTVSPost2010PropOp50
 70
     1
102
RTVSPost2010Prop51ColorIndex
 90
      256
102
RTVSPost2010Prop51ColorRGB
 90
-16777216
102
RTVSPost2010PropOp51
 70
     0
102
RTVSPost2010Prop52
140
1.0
102
RTVSPost2010PropOp52
 70
     0
102
RTVSPost2010Prop53
 90
        2
102
RTVSPost2010PropOp53
 70
     1
102
RTVSPost2010Prop54
  1
strokes_ogs.tif
102
RTVSPost2010PropOp54
 70
     1
102
RTVSPost2010Prop55
280
     0
102
RTVSPost2010PropOp55
 70
     1
102
RTVSPost2010Prop56
140
1.0
102
RTVSPost2010PropOp56
 70
     1
102
RTVSPost2010Prop57
140
1.0
102
RTVSPost2010PropOp57
 70
     1
102
RTVSPropertyOp0
 70
     1
102
RTVSPropertyOp1
 70
     1
102
RTVSPropertyOp2
 70
     1
102
RTVSPropertyOp3
 70
     1
102
RTVSPropertyOp4
 70
     1
102
RTVSPropertyOp5
 70
     1
102
RTVSPropertyOp6
 70
     1
102
RTVSPropertyOp7
 70
     1
102
RTVSPropertyOp8
 70
     1
102
RTVSPropertyOp9
 70
     1
102
RTVSPropertyOp10
 70
     1
102
RTVSPropertyOp11
 70
     1
102
RTVSPropertyOp12
 70
     1
102
RTVSPropertyOp13
 70
     1
102
RTVSPropertyOp14
 70
     1
102
RTVSPropertyOp15
 70
     1
102
RTVSPropertyOp16
 70
     1
102
RTVSPropertyOp17
 70
     1
102
RTVSPropertyOp18
 70
     1
102
RTVSPropertyOp19
 70
     1
102
RTVSPropertyOp20
 70
     1
102
RTVSPropertyOp21
 70
     1
102
RTVSPropertyOp22
 70
     1
102
RTVSPropertyOp23
 70
     1
102
RTVSPropertyOp24
 70
     1
102
RTVSPropertyOp25
 70
     1
102
RTVSPropertyOp26
 70
     1
102
RTVSPropertyOp27
 70
     1
102
RTVSPropertyOp28
 70
     1
102
RTVSPropertyOp29
 70
     1
102
RTVSPropertyOp30
 70
     1
102
RTVSPropertyOp31
 70
     1
102
RTVSPropertyOp32
 70
     1
102
RTVSPropertyOp33
 70
     1
102
RTVSPropertyOp34
 70
     1
102
RTVSPropertyOp35
 70
     1
102
RTVSPropertyOp36
 70
     1
102
RTVSPropertyOp37
 70
     1
102
RTVSPropertyOp38
 70
     1
102
RTVSPropertyOp39
 70
     1
102
RTVSPropertyOp40
 70
     1
102
RTVSPropertyOp41
 70
     1
102
RTVSPropertyOp42
 70
     1
102
RTVSPropertyOp43
 70
     1
102
RTVSPropertyOp44
 70
     1
102
RTVSPropertyOp45
 70
     1
102
RTVSPropertyOp46
 70
     1
102
RTVSPropertyOp47
 70
     1
102
RTVSPropertyOp48
 70
     1
102
RTVSPropertyOp49
 70
     1
102
RTVSPropertyOp50
 70
     1
102
RTVSPropertyOp51
 70
     0
102
RTVSPropertyOp52
 70
     0
102
RTVSPropertyOp53
 70
     1
102
RTVSPropertyOp54
 70
     1
102
RTVSPropertyOp55
 70
     1
102
RTVSPropertyOp56
 70
     1
102
RTVSPropertyOp57
 70
     1
102
RTVSPropertyOp58
 70
     1
102
RTVSPropertyOp59
 70
     1
102
RTVSPropertyOp60
 70
     1
102
RTVSPropertyOp61
 70
     1
102
RTVSPropertyOp62
 70
     1
  0
XRECORD
  5
5EA
102
{ACAD_REACTORS
330
5E9
102
}
330
5E9
100
AcDbXrecord
280
     1
102
RTVSPost2010Prop28
280
     0
102
RTVSPost2010PropOp28
 70
     1
102
RTVSPost2010Prop29
280
     1
102
RTVSPost2010PropOp29
 70
     1
102
RTVSPost2010Prop30
280
     1
102
RTVSPost2010PropOp30
 70
     1
102
RTVSPost2010Prop31
280
     0
102
RTVSPost2010PropOp31
 70
     1
102
RTVSPost2010Prop32
280
     0
102
RTVSPost2010PropOp32
 70
     1
102
RTVSPost2010Prop33
280
     0
102
RTVSPost2010PropOp33
 70
     1
102
RTVSPost2010Prop34
280
     0
102
RTVSPost2010PropOp34
 70
     1
102
RTVSPost2010Prop35
280
     0
102
RTVSPost2010PropOp35
 70
     1
102
RTVSPost2010Prop36
280
     0
102
RTVSPost2010PropOp36
 70
     1
102
RTVSPost2010Prop37
 90
       50
102
RTVSPost2010PropOp37
 70
     1
102
RTVSPost2010Prop38
140
0.0
102
RTVSPost2010PropOp38
 70
     1
102
RTVSPost2010Prop39
140
1.0
102
RTVSPost2010PropOp39
 70
     1
102
RTVSPost2010Prop40
 90
        0
102
RTVSPost2010PropOp40
 70
     1
102
RTVSPost2010Prop41ColorIndex
 90
       18
102
RTVSPost2010Prop41ColorRGB
 90
        0
102
RTVSPost2010PropOp41
 70
     1
102
RTVSPost2010Prop42
 90
       50
102
RTVSPost2010PropOp42
 70
     1
102
RTVSPost2010Prop43
 90
        3
102
RTVSPost2010PropOp43
 70
     1
102
RTVSPost2010Prop44ColorIndex
 90
        5
102
RTVSPost2010Prop44ColorRGB
 90
      255
102
RTVSPost2010PropOp44
 70
     1
102
RTVSPost2010Prop45
280
     0
102
RTVSPost2010PropOp45
 70
     1
102
RTVSPost2010Prop46
 90
       50
102
RTVSPost2010PropOp46
 70
     1
102
RTVSPost2010Prop47
 90
       50
102
RTVSPost2010PropOp47
 70
     1
102
RTVSPost2010Prop48
 90
       50
102
RTVSPost2010PropOp48
 70
     1
102
RTVSPost2010Prop49
280
     0
102
RTVSPost2010PropOp49
 70
     1
102
RTVSPost2010Prop50
 90
       50
102
RTVSPost2010PropOp50
 70
     1
102
RTVSPost2010Prop51ColorIndex
 90
      256
102
RTVSPost2010Prop51ColorRGB
 90
-16777216
102
RTVSPost2010PropOp51
 70
     0
102
RTVSPost2010Prop52
140
1.0
102
RTVSPost2010PropOp52
 70
     0
102
RTVSPost2010Prop53
 90
        2
102
RTVSPost2010PropOp53
 70
     1
102
RTVSPost2010Prop54
  1
strokes_ogs.tif
102
RTVSPost2010PropOp54
 70
     1
102
RTVSPost2010Prop55
280
     0
102
RTVSPost2010PropOp55
 70
     1
102
RTVSPost2010Prop56
140
1.0
102
RTVSPost2010PropOp56
 70
     1
102
RTVSPost2010Prop57
140
1.0
102
RTVSPost2010PropOp57
 70
     1
102
RTVSPropertyOp0
 70
     1
102
RTVSPropertyOp1
 70
     1
102
RTVSPropertyOp2
 70
     1
102
RTVSPropertyOp3
 70
     1
102
RTVSPropertyOp4
 70
     1
102
RTVSPropertyOp5
 70
     1
102
RTVSPropertyOp6
 70
     1
102
RTVSPropertyOp7
 70
     1
102
RTVSPropertyOp8
 70
     1
102
RTVSPropertyOp9
 70
     1
102
RTVSPropertyOp10
 70
     1
102
RTVSPropertyOp11
 70
     1
102
RTVSPropertyOp12
 70
     1
102
RTVSPropertyOp13
 70
     1
102
RTVSPropertyOp14
 70
     1
102
RTVSPropertyOp15
 70
     1
102
RTVSPropertyOp16
 70
     1
102
RTVSPropertyOp17
 70
     1
102
RTVSPropertyOp18
 70
     1
102
RTVSPropertyOp19
 70
     1
102
RTVSPropertyOp20
 70
     1
102
RTVSPropertyOp21
 70
     1
102
RTVSPropertyOp22
 70
     1
102
RTVSPropertyOp23
 70
     1
102
RTVSPropertyOp24
 70
     1
102
RTVSPropertyOp25
 70
     1
102
RTVSPropertyOp26
 70
     1
102
RTVSPropertyOp27
 70
     1
102
RTVSPropertyOp28
 70
     1
102
RTVSPropertyOp29
 70
     1
102
RTVSPropertyOp30
 70
     1
102
RTVSPropertyOp31
 70
     1
102
RTVSPropertyOp32
 70
     1
102
RTVSPropertyOp33
 70
     1
102
RTVSPropertyOp34
 70
     1
102
RTVSPropertyOp35
 70
     1
102
RTVSPropertyOp36
 70
     1
102
RTVSPropertyOp37
 70
     1
102
RTVSPropertyOp38
 70
     1
102
RTVSPropertyOp39
 70
     1
102
RTVSPropertyOp40
 70
     1
102
RTVSPropertyOp41
 70
     1
102
RTVSPropertyOp42
 70
     1
102
RTVSPropertyOp43
 70
     1
102
RTVSPropertyOp44
 70
     1
102
RTVSPropertyOp45
 70
     1
102
RTVSPropertyOp46
 70
     1
102
RTVSPropertyOp47
 70
     1
102
RTVSPropertyOp48
 70
     1
102
RTVSPropertyOp49
 70
     1
102
RTVSPropertyOp50
 70
     1
102
RTVSPropertyOp51
 70
     0
102
RTVSPropertyOp52
 70
     0
102
RTVSPropertyOp53
 70
     1
102
RTVSPropertyOp54
 70
     1
102
RTVSPropertyOp55
 70
     1
102
RTVSPropertyOp56
 70
     1
102
RTVSPropertyOp57
 70
     1
102
RTVSPropertyOp58
 70
     1
102
RTVSPropertyOp59
 70
     1
102
RTVSPropertyOp60
 70
     1
102
RTVSPropertyOp61
 70
     1
102
RTVSPropertyOp62
 70
     1
  0
XRECORD
  5
5EC
102
{ACAD_REACTORS
330
5EB
102
}
330
5EB
100
AcDbXrecord
280
     1
102
RTVSPost2010Prop28
280
     0
102
RTVSPost2010PropOp28
 70
     1
102
RTVSPost2010Prop29
280
     1
102
RTVSPost2010PropOp29
 70
     1
102
RTVSPost2010Prop30
280
     1
102
RTVSPost2010PropOp30
 70
     1
102
RTVSPost2010Prop31
280
     0
102
RTVSPost2010PropOp31
 70
     1
102
RTVSPost2010Prop32
280
     0
102
RTVSPost2010PropOp32
 70
     1
102
RTVSPost2010Prop33
280
     0
102
RTVSPost2010PropOp33
 70
     1
102
RTVSPost2010Prop34
280
     0
102
RTVSPost2010PropOp34
 70
     1
102
RTVSPost2010Prop35
280
     0
102
RTVSPost2010PropOp35
 70
     1
102
RTVSPost2010Prop36
280
     0
102
RTVSPost2010PropOp36
 70
     1
102
RTVSPost2010Prop37
 90
       50
102
RTVSPost2010PropOp37
 70
     1
102
RTVSPost2010Prop38
140
0.0
102
RTVSPost2010PropOp38
 70
     1
102
RTVSPost2010Prop39
140
1.0
102
RTVSPost2010PropOp39
 70
     1
102
RTVSPost2010Prop40
 90
        0
102
RTVSPost2010PropOp40
 70
     1
102
RTVSPost2010Prop41ColorIndex
 90
       18
102
RTVSPost2010Prop41ColorRGB
 90
        0
102
RTVSPost2010PropOp41
 70
     1
102
RTVSPost2010Prop42
 90
       50
102
RTVSPost2010PropOp42
 70
     1
102
RTVSPost2010Prop43
 90
        3
102
RTVSPost2010PropOp43
 70
     1
102
RTVSPost2010Prop44ColorIndex
 90
        5
102
RTVSPost2010Prop44ColorRGB
 90
      255
102
RTVSPost2010PropOp44
 70
     1
102
RTVSPost2010Prop45
280
     0
102
RTVSPost2010PropOp45
 70
     1
102
RTVSPost2010Prop46
 90
       50
102
RTVSPost2010PropOp46
 70
     1
102
RTVSPost2010Prop47
 90
       50
102
RTVSPost2010PropOp47
 70
     1
102
RTVSPost2010Prop48
 90
       50
102
RTVSPost2010PropOp48
 70
     1
102
RTVSPost2010Prop49
280
     0
102
RTVSPost2010PropOp49
 70
     1
102
RTVSPost2010Prop50
 90
       50
102
RTVSPost2010PropOp50
 70
     1
102
RTVSPost2010Prop51ColorIndex
 90
      256
102
RTVSPost2010Prop51ColorRGB
 90
-16777216
102
RTVSPost2010PropOp51
 70
     0
102
RTVSPost2010Prop52
140
1.0
102
RTVSPost2010PropOp52
 70
     0
102
RTVSPost2010Prop53
 90
        2
102
RTVSPost2010PropOp53
 70
     1
102
RTVSPost2010Prop54
  1
strokes_ogs.tif
102
RTVSPost2010PropOp54
 70
     1
102
RTVSPost2010Prop55
280
     0
102
RTVSPost2010PropOp55
 70
     1
102
RTVSPost2010Prop56
140
1.0
102
RTVSPost2010PropOp56
 70
     1
102
RTVSPost2010Prop57
140
1.0
102
RTVSPost2010PropOp57
 70
     1
102
RTVSPropertyOp0
 70
     1
102
RTVSPropertyOp1
 70
     1
102
RTVSPropertyOp2
 70
     1
102
RTVSPropertyOp3
 70
     1
102
RTVSPropertyOp4
 70
     1
102
RTVSPropertyOp5
 70
     1
102
RTVSPropertyOp6
 70
     1
102
RTVSPropertyOp7
 70
     1
102
RTVSPropertyOp8
 70
     1
102
RTVSPropertyOp9
 70
     1
102
RTVSPropertyOp10
 70
     1
102
RTVSPropertyOp11
 70
     1
102
RTVSPropertyOp12
 70
     1
102
RTVSPropertyOp13
 70
     1
102
RTVSPropertyOp14
 70
     1
102
RTVSPropertyOp15
 70
     1
102
RTVSPropertyOp16
 70
     1
102
RTVSPropertyOp17
 70
     1
102
RTVSPropertyOp18
 70
     1
102
RTVSPropertyOp19
 70
     1
102
RTVSPropertyOp20
 70
     1
102
RTVSPropertyOp21
 70
     1
102
RTVSPropertyOp22
 70
     1
102
RTVSPropertyOp23
 70
     1
102
RTVSPropertyOp24
 70
     1
102
RTVSPropertyOp25
 70
     1
102
RTVSPropertyOp26
 70
     1
102
RTVSPropertyOp27
 70
     1
102
RTVSPropertyOp28
 70
     1
102
RTVSPropertyOp29
 70
     1
102
RTVSPropertyOp30
 70
     1
102
RTVSPropertyOp31
 70
     1
102
RTVSPropertyOp32
 70
     1
102
RTVSPropertyOp33
 70
     1
102
RTVSPropertyOp34
 70
     1
102
RTVSPropertyOp35
 70
     1
102
RTVSPropertyOp36
 70
     1
102
RTVSPropertyOp37
 70
     1
102
RTVSPropertyOp38
 70
     1
102
RTVSPropertyOp39
 70
     1
102
RTVSPropertyOp40
 70
     1
102
RTVSPropertyOp41
 70
     1
102
RTVSPropertyOp42
 70
     1
102
RTVSPropertyOp43
 70
     1
102
RTVSPropertyOp44
 70
     1
102
RTVSPropertyOp45
 70
     1
102
RTVSPropertyOp46
 70
     1
102
RTVSPropertyOp47
 70
     1
102
RTVSPropertyOp48
 70
     1
102
RTVSPropertyOp49
 70
     1
102
RTVSPropertyOp50
 70
     1
102
RTVSPropertyOp51
 70
     0
102
RTVSPropertyOp52
 70
     0
102
RTVSPropertyOp53
 70
     1
102
RTVSPropertyOp54
 70
     1
102
RTVSPropertyOp55
 70
     1
102
RTVSPropertyOp56
 70
     1
102
RTVSPropertyOp57
 70
     1
102
RTVSPropertyOp58
 70
     1
102
RTVSPropertyOp59
 70
     1
102
RTVSPropertyOp60
 70
     1
102
RTVSPropertyOp61
 70
     1
102
RTVSPropertyOp62
 70
     1
  0
XRECORD
  5
5F4
102
{ACAD_REACTORS
330
5F3
102
}
330
5F3
100
AcDbXrecord
280
     1
102
RTVSPost2010Prop28
280
     0
102
RTVSPost2010PropOp28
 70
     1
102
RTVSPost2010Prop29
280
     1
102
RTVSPost2010PropOp29
 70
     1
102
RTVSPost2010Prop30
280
     1
102
RTVSPost2010PropOp30
 70
     1
102
RTVSPost2010Prop31
280
     0
102
RTVSPost2010PropOp31
 70
     1
102
RTVSPost2010Prop32
280
     0
102
RTVSPost2010PropOp32
 70
     1
102
RTVSPost2010Prop33
280
     0
102
RTVSPost2010PropOp33
 70
     1
102
RTVSPost2010Prop34
280
     0
102
RTVSPost2010PropOp34
 70
     1
102
RTVSPost2010Prop35
280
     0
102
RTVSPost2010PropOp35
 70
     1
102
RTVSPost2010Prop36
280
     0
102
RTVSPost2010PropOp36
 70
     1
102
RTVSPost2010Prop37
 90
       50
102
RTVSPost2010PropOp37
 70
     1
102
RTVSPost2010Prop38
140
0.0
102
RTVSPost2010PropOp38
 70
     1
102
RTVSPost2010Prop39
140
1.0
102
RTVSPost2010PropOp39
 70
     1
102
RTVSPost2010Prop40
 90
        0
102
RTVSPost2010PropOp40
 70
     1
102
RTVSPost2010Prop41ColorIndex
 90
       18
102
RTVSPost2010Prop41ColorRGB
 90
        0
102
RTVSPost2010PropOp41
 70
     1
102
RTVSPost2010Prop42
 90
       50
102
RTVSPost2010PropOp42
 70
     1
102
RTVSPost2010Prop43
 90
        3
102
RTVSPost2010PropOp43
 70
     1
102
RTVSPost2010Prop44ColorIndex
 90
        5
102
RTVSPost2010Prop44ColorRGB
 90
      255
102
RTVSPost2010PropOp44
 70
     1
102
RTVSPost2010Prop45
280
     0
102
RTVSPost2010PropOp45
 70
     1
102
RTVSPost2010Prop46
 90
       50
102
RTVSPost2010PropOp46
 70
     1
102
RTVSPost2010Prop47
 90
       50
102
RTVSPost2010PropOp47
 70
     1
102
RTVSPost2010Prop48
 90
       50
102
RTVSPost2010PropOp48
 70
     1
102
RTVSPost2010Prop49
280
     0
102
RTVSPost2010PropOp49
 70
     1
102
RTVSPost2010Prop50
 90
       50
102
RTVSPost2010PropOp50
 70
     1
102
RTVSPost2010Prop51ColorIndex
 90
      256
102
RTVSPost2010Prop51ColorRGB
 90
-16777216
102
RTVSPost2010PropOp51
 70
     0
102
RTVSPost2010Prop52
140
1.0
102
RTVSPost2010PropOp52
 70
     0
102
RTVSPost2010Prop53
 90
        2
102
RTVSPost2010PropOp53
 70
     1
102
RTVSPost2010Prop54
  1
strokes_ogs.tif
102
RTVSPost2010PropOp54
 70
     1
102
RTVSPost2010Prop55
280
     0
102
RTVSPost2010PropOp55
 70
     1
102
RTVSPost2010Prop56
140
1.0
102
RTVSPost2010PropOp56
 70
     1
102
RTVSPost2010Prop57
140
1.0
102
RTVSPost2010PropOp57
 70
     1
102
RTVSPropertyOp0
 70
     1
102
RTVSPropertyOp1
 70
     1
102
RTVSPropertyOp2
 70
     1
102
RTVSPropertyOp3
 70
     1
102
RTVSPropertyOp4
 70
     1
102
RTVSPropertyOp5
 70
     1
102
RTVSPropertyOp6
 70
     1
102
RTVSPropertyOp7
 70
     1
102
RTVSPropertyOp8
 70
     1
102
RTVSPropertyOp9
 70
     1
102
RTVSPropertyOp10
 70
     1
102
RTVSPropertyOp11
 70
     1
102
RTVSPropertyOp12
 70
     1
102
RTVSPropertyOp13
 70
     1
102
RTVSPropertyOp14
 70
     1
102
RTVSPropertyOp15
 70
     1
102
RTVSPropertyOp16
 70
     1
102
RTVSPropertyOp17
 70
     1
102
RTVSPropertyOp18
 70
     1
102
RTVSPropertyOp19
 70
     1
102
RTVSPropertyOp20
 70
     1
102
RTVSPropertyOp21
 70
     1
102
RTVSPropertyOp22
 70
     1
102
RTVSPropertyOp23
 70
     1
102
RTVSPropertyOp24
 70
     1
102
RTVSPropertyOp25
 70
     1
102
RTVSPropertyOp26
 70
     1
102
RTVSPropertyOp27
 70
     1
102
RTVSPropertyOp28
 70
     1
102
RTVSPropertyOp29
 70
     1
102
RTVSPropertyOp30
 70
     1
102
RTVSPropertyOp31
 70
     1
102
RTVSPropertyOp32
 70
     1
102
RTVSPropertyOp33
 70
     1
102
RTVSPropertyOp34
 70
     1
102
RTVSPropertyOp35
 70
     1
102
RTVSPropertyOp36
 70
     1
102
RTVSPropertyOp37
 70
     1
102
RTVSPropertyOp38
 70
     1
102
RTVSPropertyOp39
 70
     1
102
RTVSPropertyOp40
 70
     1
102
RTVSPropertyOp41
 70
     1
102
RTVSPropertyOp42
 70
     1
102
RTVSPropertyOp43
 70
     1
102
RTVSPropertyOp44
 70
     1
102
RTVSPropertyOp45
 70
     1
102
RTVSPropertyOp46
 70
     1
102
RTVSPropertyOp47
 70
     1
102
RTVSPropertyOp48
 70
     1
102
RTVSPropertyOp49
 70
     1
102
RTVSPropertyOp50
 70
     1
102
RTVSPropertyOp51
 70
     0
102
RTVSPropertyOp52
 70
     0
102
RTVSPropertyOp53
 70
     1
102
RTVSPropertyOp54
 70
     1
102
RTVSPropertyOp55
 70
     1
102
RTVSPropertyOp56
 70
     1
102
RTVSPropertyOp57
 70
     1
102
RTVSPropertyOp58
 70
     1
102
RTVSPropertyOp59
 70
     1
102
RTVSPropertyOp60
 70
     1
102
RTVSPropertyOp61
 70
     1
102
RTVSPropertyOp62
 70
     1
  0
XRECORD
  5
610
102
{ACAD_REACTORS
330
60F
102
}
330
60F
100
AcDbXrecord
280
     1
102
RTVSPost2010Prop28
280
     0
102
RTVSPost2010PropOp28
 70
     0
102
RTVSPost2010Prop29
280
     1
102
RTVSPost2010PropOp29
 70
     0
102
RTVSPost2010Prop30
280
     1
102
RTVSPost2010PropOp30
 70
     0
102
RTVSPost2010Prop31
280
     0
102
RTVSPost2010PropOp31
 70
     0
102
RTVSPost2010Prop32
280
     0
102
RTVSPost2010PropOp32
 70
     0
102
RTVSPost2010Prop33
280
     0
102
RTVSPost2010PropOp33
 70
     0
102
RTVSPost2010Prop34
280
     0
102
RTVSPost2010PropOp34
 70
     0
102
RTVSPost2010Prop35
280
     0
102
RTVSPost2010PropOp35
 70
     0
102
RTVSPost2010Prop36
280
     0
102
RTVSPost2010PropOp36
 70
     0
102
RTVSPost2010Prop37
 90
       50
102
RTVSPost2010PropOp37
 70
     0
102
RTVSPost2010Prop38
140
0.0
102
RTVSPost2010PropOp38
 70
     0
102
RTVSPost2010Prop39
140
1.0
102
RTVSPost2010PropOp39
 70
     0
102
RTVSPost2010Prop40
 90
        0
102
RTVSPost2010PropOp40
 70
     0
102
RTVSPost2010Prop41ColorIndex
 90
       18
102
RTVSPost2010Prop41ColorRGB
 90
        0
102
RTVSPost2010PropOp41
 70
     0
102
RTVSPost2010Prop42
 90
       50
102
RTVSPost2010PropOp42
 70
     0
102
RTVSPost2010Prop43
 90
        3
102
RTVSPost2010PropOp43
 70
     0
102
RTVSPost2010Prop44ColorIndex
 90
        5
102
RTVSPost2010Prop44ColorRGB
 90
      255
102
RTVSPost2010PropOp44
 70
     0
102
RTVSPost2010Prop45
280
     0
102
RTVSPost2010PropOp45
 70
     0
102
RTVSPost2010Prop46
 90
       50
102
RTVSPost2010PropOp46
 70
     0
102
RTVSPost2010Prop47
 90
       50
102
RTVSPost2010PropOp47
 70
     0
102
RTVSPost2010Prop48
 90
       50
102
RTVSPost2010PropOp48
 70
     0
102
RTVSPost2010Prop49
280
     0
102
RTVSPost2010PropOp49
 70
     0
102
RTVSPost2010Prop50
 90
       50
102
RTVSPost2010PropOp50
 70
     0
102
RTVSPost2010Prop51ColorIndex
 90
      256
102
RTVSPost2010Prop51ColorRGB
 90
-16777216
102
RTVSPost2010PropOp51
 70
     0
102
RTVSPost2010Prop52
140
1.0
102
RTVSPost2010PropOp52
 70
     0
102
RTVSPost2010Prop53
 90
        2
102
RTVSPost2010PropOp53
 70
     0
102
RTVSPost2010Prop54
  1
strokes_ogs.tif
102
RTVSPost2010PropOp54
 70
     0
102
RTVSPost2010Prop55
280
     0
102
RTVSPost2010PropOp55
 70
     0
102
RTVSPost2010Prop56
140
1.0
102
RTVSPost2010PropOp56
 70
     0
102
RTVSPost2010Prop57
140
1.0
102
RTVSPost2010PropOp57
 70
     0
102
RTVSPropertyOp0
 70
     0
102
RTVSPropertyOp1
 70
     0
102
RTVSPropertyOp2
 70
     0
102
RTVSPropertyOp3
 70
     0
102
RTVSPropertyOp4
 70
     0
102
RTVSPropertyOp5
 70
     0
102
RTVSPropertyOp6
 70
     0
102
RTVSPropertyOp7
 70
     0
102
RTVSPropertyOp8
 70
     0
102
RTVSPropertyOp9
 70
     0
102
RTVSPropertyOp10
 70
     0
102
RTVSPropertyOp11
 70
     0
102
RTVSPropertyOp12
 70
     0
102
RTVSPropertyOp13
 70
     0
102
RTVSPropertyOp14
 70
     2
102
RTVSPropertyOp15
 70
     0
102
RTVSPropertyOp16
 70
     0
102
RTVSPropertyOp17
 70
     0
102
RTVSPropertyOp18
 70
     0
102
RTVSPropertyOp19
 70
     0
102
RTVSPropertyOp20
 70
     0
102
RTVSPropertyOp21
 70
     0
102
RTVSPropertyOp22
 70
     0
102
RTVSPropertyOp23
 70
     0
102
RTVSPropertyOp24
 70
     0
102
RTVSPropertyOp25
 70
     0
102
RTVSPropertyOp26
 70
     0
102
RTVSPropertyOp27
 70
     0
102
RTVSPropertyOp28
 70
     0
102
RTVSPropertyOp29
 70
     0
102
RTVSPropertyOp30
 70
     0
102
RTVSPropertyOp31
 70
     0
102
RTVSPropertyOp32
 70
     0
102
RTVSPropertyOp33
 70
     0
102
RTVSPropertyOp34
 70
     0
102
RTVSPropertyOp35
 70
     0
102
RTVSPropertyOp36
 70
     0
102
RTVSPropertyOp37
 70
     0
102
RTVSPropertyOp38
 70
     0
102
RTVSPropertyOp39
 70
     0
102
RTVSPropertyOp40
 70
     0
102
RTVSPropertyOp41
 70
     0
102
RTVSPropertyOp42
 70
     0
102
RTVSPropertyOp43
 70
     0
102
RTVSPropertyOp44
 70
     0
102
RTVSPropertyOp45
 70
     0
102
RTVSPropertyOp46
 70
     0
102
RTVSPropertyOp47
 70
     0
102
RTVSPropertyOp48
 70
     0
102
RTVSPropertyOp49
 70
     0
102
RTVSPropertyOp50
 70
     0
102
RTVSPropertyOp51
 70
     0
102
RTVSPropertyOp52
 70
     0
102
RTVSPropertyOp53
 70
     0
102
RTVSPropertyOp54
 70
     0
102
RTVSPropertyOp55
 70
     0
102
RTVSPropertyOp56
 70
     0
102
RTVSPropertyOp57
 70
     0
102
RTVSPropertyOp58
 70
     0
102
RTVSPropertyOp59
 70
     0
102
RTVSPropertyOp60
 70
     0
102
RTVSPropertyOp61
 70
     0
102
RTVSPropertyOp62
 70
     0
  0
XRECORD
  5
600
102
{ACAD_REACTORS
330
5FF
102
}
330
5FF
100
AcDbXrecord
280
     1
102
RTVSPost2010Prop28
280
     0
102
RTVSPost2010PropOp28
 70
     1
102
RTVSPost2010Prop29
280
     1
102
RTVSPost2010PropOp29
 70
     1
102
RTVSPost2010Prop30
280
     1
102
RTVSPost2010PropOp30
 70
     1
102
RTVSPost2010Prop31
280
     0
102
RTVSPost2010PropOp31
 70
     1
102
RTVSPost2010Prop32
280
     0
102
RTVSPost2010PropOp32
 70
     1
102
RTVSPost2010Prop33
280
     0
102
RTVSPost2010PropOp33
 70
     1
102
RTVSPost2010Prop34
280
     0
102
RTVSPost2010PropOp34
 70
     1
102
RTVSPost2010Prop35
280
     0
102
RTVSPost2010PropOp35
 70
     1
102
RTVSPost2010Prop36
280
     0
102
RTVSPost2010PropOp36
 70
     1
102
RTVSPost2010Prop37
 90
       50
102
RTVSPost2010PropOp37
 70
     1
102
RTVSPost2010Prop38
140
0.0
102
RTVSPost2010PropOp38
 70
     1
102
RTVSPost2010Prop39
140
1.0
102
RTVSPost2010PropOp39
 70
     1
102
RTVSPost2010Prop40
 90
        0
102
RTVSPost2010PropOp40
 70
     1
102
RTVSPost2010Prop41ColorIndex
 90
       18
102
RTVSPost2010Prop41ColorRGB
 90
        0
102
RTVSPost2010PropOp41
 70
     1
102
RTVSPost2010Prop42
 90
       50
102
RTVSPost2010PropOp42
 70
     1
102
RTVSPost2010Prop43
 90
        3
102
RTVSPost2010PropOp43
 70
     1
102
RTVSPost2010Prop44ColorIndex
 90
        5
102
RTVSPost2010Prop44ColorRGB
 90
      255
102
RTVSPost2010PropOp44
 70
     1
102
RTVSPost2010Prop45
280
     0
102
RTVSPost2010PropOp45
 70
     1
102
RTVSPost2010Prop46
 90
       50
102
RTVSPost2010PropOp46
 70
     1
102
RTVSPost2010Prop47
 90
       50
102
RTVSPost2010PropOp47
 70
     1
102
RTVSPost2010Prop48
 90
       50
102
RTVSPost2010PropOp48
 70
     1
102
RTVSPost2010Prop49
280
     0
102
RTVSPost2010PropOp49
 70
     1
102
RTVSPost2010Prop50
 90
       50
102
RTVSPost2010PropOp50
 70
     1
102
RTVSPost2010Prop51ColorIndex
 90
      256
102
RTVSPost2010Prop51ColorRGB
 90
-16777216
102
RTVSPost2010PropOp51
 70
     0
102
RTVSPost2010Prop52
140
1.0
102
RTVSPost2010PropOp52
 70
     0
102
RTVSPost2010Prop53
 90
        2
102
RTVSPost2010PropOp53
 70
     1
102
RTVSPost2010Prop54
  1
strokes_ogs.tif
102
RTVSPost2010PropOp54
 70
     1
102
RTVSPost2010Prop55
280
     0
102
RTVSPost2010PropOp55
 70
     1
102
RTVSPost2010Prop56
140
1.0
102
RTVSPost2010PropOp56
 70
     1
102
RTVSPost2010Prop57
140
1.0
102
RTVSPost2010PropOp57
 70
     1
102
RTVSPropertyOp0
 70
     1
102
RTVSPropertyOp1
 70
     1
102
RTVSPropertyOp2
 70
     1
102
RTVSPropertyOp3
 70
     1
102
RTVSPropertyOp4
 70
     1
102
RTVSPropertyOp5
 70
     1
102
RTVSPropertyOp6
 70
     1
102
RTVSPropertyOp7
 70
     1
102
RTVSPropertyOp8
 70
     1
102
RTVSPropertyOp9
 70
     1
102
RTVSPropertyOp10
 70
     1
102
RTVSPropertyOp11
 70
     1
102
RTVSPropertyOp12
 70
     1
102
RTVSPropertyOp13
 70
     1
102
RTVSPropertyOp14
 70
     1
102
RTVSPropertyOp15
 70
     1
102
RTVSPropertyOp16
 70
     1
102
RTVSPropertyOp17
 70
     1
102
RTVSPropertyOp18
 70
     1
102
RTVSPropertyOp19
 70
     1
102
RTVSPropertyOp20
 70
     1
102
RTVSPropertyOp21
 70
     1
102
RTVSPropertyOp22
 70
     1
102
RTVSPropertyOp23
 70
     1
102
RTVSPropertyOp24
 70
     1
102
RTVSPropertyOp25
 70
     1
102
RTVSPropertyOp26
 70
     1
102
RTVSPropertyOp27
 70
     1
102
RTVSPropertyOp28
 70
     1
102
RTVSPropertyOp29
 70
     1
102
RTVSPropertyOp30
 70
     1
102
RTVSPropertyOp31
 70
     1
102
RTVSPropertyOp32
 70
     1
102
RTVSPropertyOp33
 70
     1
102
RTVSPropertyOp34
 70
     1
102
RTVSPropertyOp35
 70
     1
102
RTVSPropertyOp36
 70
     1
102
RTVSPropertyOp37
 70
     1
102
RTVSPropertyOp38
 70
     1
102
RTVSPropertyOp39
 70
     1
102
RTVSPropertyOp40
 70
     1
102
RTVSPropertyOp41
 70
     1
102
RTVSPropertyOp42
 70
     1
102
RTVSPropertyOp43
 70
     1
102
RTVSPropertyOp44
 70
     1
102
RTVSPropertyOp45
 70
     1
102
RTVSPropertyOp46
 70
     1
102
RTVSPropertyOp47
 70
     1
102
RTVSPropertyOp48
 70
     1
102
RTVSPropertyOp49
 70
     1
102
RTVSPropertyOp50
 70
     1
102
RTVSPropertyOp51
 70
     0
102
RTVSPropertyOp52
 70
     0
102
RTVSPropertyOp53
 70
     1
102
RTVSPropertyOp54
 70
     1
102
RTVSPropertyOp55
 70
     1
102
RTVSPropertyOp56
 70
     1
102
RTVSPropertyOp57
 70
     1
102
RTVSPropertyOp58
 70
     1
102
RTVSPropertyOp59
 70
     1
102
RTVSPropertyOp60
 70
     1
102
RTVSPropertyOp61
 70
     1
102
RTVSPropertyOp62
 70
     1
  0
XRECORD
  5
612
102
{ACAD_REACTORS
330
611
102
}
330
611
100
AcDbXrecord
280
     1
102
RTVSPost2010Prop28
280
     0
102
RTVSPost2010PropOp28
 70
     0
102
RTVSPost2010Prop29
280
     1
102
RTVSPost2010PropOp29
 70
     0
102
RTVSPost2010Prop30
280
     1
102
RTVSPost2010PropOp30
 70
     0
102
RTVSPost2010Prop31
280
     0
102
RTVSPost2010PropOp31
 70
     0
102
RTVSPost2010Prop32
280
     0
102
RTVSPost2010PropOp32
 70
     0
102
RTVSPost2010Prop33
280
     0
102
RTVSPost2010PropOp33
 70
     0
102
RTVSPost2010Prop34
280
     0
102
RTVSPost2010PropOp34
 70
     0
102
RTVSPost2010Prop35
280
     0
102
RTVSPost2010PropOp35
 70
     0
102
RTVSPost2010Prop36
280
     0
102
RTVSPost2010PropOp36
 70
     0
102
RTVSPost2010Prop37
 90
       50
102
RTVSPost2010PropOp37
 70
     0
102
RTVSPost2010Prop38
140
0.0
102
RTVSPost2010PropOp38
 70
     0
102
RTVSPost2010Prop39
140
1.0
102
RTVSPost2010PropOp39
 70
     0
102
RTVSPost2010Prop40
 90
        0
102
RTVSPost2010PropOp40
 70
     0
102
RTVSPost2010Prop41ColorIndex
 90
       18
102
RTVSPost2010Prop41ColorRGB
 90
        0
102
RTVSPost2010PropOp41
 70
     0
102
RTVSPost2010Prop42
 90
       50
102
RTVSPost2010PropOp42
 70
     0
102
RTVSPost2010Prop43
 90
        3
102
RTVSPost2010PropOp43
 70
     0
102
RTVSPost2010Prop44ColorIndex
 90
        5
102
RTVSPost2010Prop44ColorRGB
 90
      255
102
RTVSPost2010PropOp44
 70
     0
102
RTVSPost2010Prop45
280
     0
102
RTVSPost2010PropOp45
 70
     0
102
RTVSPost2010Prop46
 90
       50
102
RTVSPost2010PropOp46
 70
     0
102
RTVSPost2010Prop47
 90
       50
102
RTVSPost2010PropOp47
 70
     0
102
RTVSPost2010Prop48
 90
       50
102
RTVSPost2010PropOp48
 70
     0
102
RTVSPost2010Prop49
280
     0
102
RTVSPost2010PropOp49
 70
     0
102
RTVSPost2010Prop50
 90
       50
102
RTVSPost2010PropOp50
 70
     0
102
RTVSPost2010Prop51ColorIndex
 90
      256
102
RTVSPost2010Prop51ColorRGB
 90
-16777216
102
RTVSPost2010PropOp51
 70
     0
102
RTVSPost2010Prop52
140
1.0
102
RTVSPost2010PropOp52
 70
     0
102
RTVSPost2010Prop53
 90
        2
102
RTVSPost2010PropOp53
 70
     0
102
RTVSPost2010Prop54
  1
strokes_ogs.tif
102
RTVSPost2010PropOp54
 70
     0
102
RTVSPost2010Prop55
280
     0
102
RTVSPost2010PropOp55
 70
     0
102
RTVSPost2010Prop56
140
1.0
102
RTVSPost2010PropOp56
 70
     0
102
RTVSPost2010Prop57
140
1.0
102
RTVSPost2010PropOp57
 70
     0
102
RTVSPropertyOp0
 70
     0
102
RTVSPropertyOp1
 70
     0
102
RTVSPropertyOp2
 70
     0
102
RTVSPropertyOp3
 70
     0
102
RTVSPropertyOp4
 70
     0
102
RTVSPropertyOp5
 70
     0
102
RTVSPropertyOp6
 70
     0
102
RTVSPropertyOp7
 70
     0
102
RTVSPropertyOp8
 70
     0
102
RTVSPropertyOp9
 70
     0
102
RTVSPropertyOp10
 70
     0
102
RTVSPropertyOp11
 70
     0
102
RTVSPropertyOp12
 70
     0
102
RTVSPropertyOp13
 70
     0
102
RTVSPropertyOp14
 70
     2
102
RTVSPropertyOp15
 70
     0
102
RTVSPropertyOp16
 70
     0
102
RTVSPropertyOp17
 70
     0
102
RTVSPropertyOp18
 70
     0
102
RTVSPropertyOp19
 70
     0
102
RTVSPropertyOp20
 70
     0
102
RTVSPropertyOp21
 70
     0
102
RTVSPropertyOp22
 70
     0
102
RTVSPropertyOp23
 70
     0
102
RTVSPropertyOp24
 70
     0
102
RTVSPropertyOp25
 70
     0
102
RTVSPropertyOp26
 70
     0
102
RTVSPropertyOp27
 70
     0
102
RTVSPropertyOp28
 70
     0
102
RTVSPropertyOp29
 70
     0
102
RTVSPropertyOp30
 70
     0
102
RTVSPropertyOp31
 70
     0
102
RTVSPropertyOp32
 70
     0
102
RTVSPropertyOp33
 70
     0
102
RTVSPropertyOp34
 70
     0
102
RTVSPropertyOp35
 70
     0
102
RTVSPropertyOp36
 70
     0
102
RTVSPropertyOp37
 70
     0
102
RTVSPropertyOp38
 70
     0
102
RTVSPropertyOp39
 70
     0
102
RTVSPropertyOp40
 70
     0
102
RTVSPropertyOp41
 70
     0
102
RTVSPropertyOp42
 70
     0
102
RTVSPropertyOp43
 70
     0
102
RTVSPropertyOp44
 70
     0
102
RTVSPropertyOp45
 70
     0
102
RTVSPropertyOp46
 70
     0
102
RTVSPropertyOp47
 70
     0
102
RTVSPropertyOp48
 70
     0
102
RTVSPropertyOp49
 70
     0
102
RTVSPropertyOp50
 70
     0
102
RTVSPropertyOp51
 70
     0
102
RTVSPropertyOp52
 70
     0
102
RTVSPropertyOp53
 70
     0
102
RTVSPropertyOp54
 70
     0
102
RTVSPropertyOp55
 70
     0
102
RTVSPropertyOp56
 70
     0
102
RTVSPropertyOp57
 70
     0
102
RTVSPropertyOp58
 70
     0
102
RTVSPropertyOp59
 70
     0
102
RTVSPropertyOp60
 70
     0
102
RTVSPropertyOp61
 70
     0
102
RTVSPropertyOp62
 70
     0
  0
XRECORD
  5
5F8
102
{ACAD_REACTORS
330
5F7
102
}
330
5F7
100
AcDbXrecord
280
     1
102
RTVSPost2010Prop28
280
     0
102
RTVSPost2010PropOp28
 70
     1
102
RTVSPost2010Prop29
280
     1
102
RTVSPost2010PropOp29
 70
     1
102
RTVSPost2010Prop30
280
     1
102
RTVSPost2010PropOp30
 70
     1
102
RTVSPost2010Prop31
280
     0
102
RTVSPost2010PropOp31
 70
     1
102
RTVSPost2010Prop32
280
     0
102
RTVSPost2010PropOp32
 70
     1
102
RTVSPost2010Prop33
280
     0
102
RTVSPost2010PropOp33
 70
     1
102
RTVSPost2010Prop34
280
     0
102
RTVSPost2010PropOp34
 70
     1
102
RTVSPost2010Prop35
280
     0
102
RTVSPost2010PropOp35
 70
     1
102
RTVSPost2010Prop36
280
     0
102
RTVSPost2010PropOp36
 70
     1
102
RTVSPost2010Prop37
 90
       50
102
RTVSPost2010PropOp37
 70
     1
102
RTVSPost2010Prop38
140
0.0
102
RTVSPost2010PropOp38
 70
     1
102
RTVSPost2010Prop39
140
1.0
102
RTVSPost2010PropOp39
 70
     1
102
RTVSPost2010Prop40
 90
        0
102
RTVSPost2010PropOp40
 70
     1
102
RTVSPost2010Prop41ColorIndex
 90
       18
102
RTVSPost2010Prop41ColorRGB
 90
        0
102
RTVSPost2010PropOp41
 70
     1
102
RTVSPost2010Prop42
 90
       50
102
RTVSPost2010PropOp42
 70
     1
102
RTVSPost2010Prop43
 90
        3
102
RTVSPost2010PropOp43
 70
     1
102
RTVSPost2010Prop44ColorIndex
 90
        5
102
RTVSPost2010Prop44ColorRGB
 90
      255
102
RTVSPost2010PropOp44
 70
     1
102
RTVSPost2010Prop45
280
     0
102
RTVSPost2010PropOp45
 70
     1
102
RTVSPost2010Prop46
 90
       50
102
RTVSPost2010PropOp46
 70
     1
102
RTVSPost2010Prop47
 90
       50
102
RTVSPost2010PropOp47
 70
     1
102
RTVSPost2010Prop48
 90
       50
102
RTVSPost2010PropOp48
 70
     1
102
RTVSPost2010Prop49
280
     0
102
RTVSPost2010PropOp49
 70
     1
102
RTVSPost2010Prop50
 90
       50
102
RTVSPost2010PropOp50
 70
     1
102
RTVSPost2010Prop51ColorIndex
 90
      256
102
RTVSPost2010Prop51ColorRGB
 90
-16777216
102
RTVSPost2010PropOp51
 70
     0
102
RTVSPost2010Prop52
140
1.0
102
RTVSPost2010PropOp52
 70
     0
102
RTVSPost2010Prop53
 90
        2
102
RTVSPost2010PropOp53
 70
     1
102
RTVSPost2010Prop54
  1
strokes_ogs.tif
102
RTVSPost2010PropOp54
 70
     1
102
RTVSPost2010Prop55
280
     0
102
RTVSPost2010PropOp55
 70
     1
102
RTVSPost2010Prop56
140
1.0
102
RTVSPost2010PropOp56
 70
     1
102
RTVSPost2010Prop57
140
1.0
102
RTVSPost2010PropOp57
 70
     1
102
RTVSPropertyOp0
 70
     1
102
RTVSPropertyOp1
 70
     1
102
RTVSPropertyOp2
 70
     1
102
RTVSPropertyOp3
 70
     1
102
RTVSPropertyOp4
 70
     1
102
RTVSPropertyOp5
 70
     1
102
RTVSPropertyOp6
 70
     1
102
RTVSPropertyOp7
 70
     1
102
RTVSPropertyOp8
 70
     1
102
RTVSPropertyOp9
 70
     1
102
RTVSPropertyOp10
 70
     1
102
RTVSPropertyOp11
 70
     1
102
RTVSPropertyOp12
 70
     1
102
RTVSPropertyOp13
 70
     1
102
RTVSPropertyOp14
 70
     1
102
RTVSPropertyOp15
 70
     1
102
RTVSPropertyOp16
 70
     1
102
RTVSPropertyOp17
 70
     1
102
RTVSPropertyOp18
 70
     1
102
RTVSPropertyOp19
 70
     1
102
RTVSPropertyOp20
 70
     1
102
RTVSPropertyOp21
 70
     1
102
RTVSPropertyOp22
 70
     1
102
RTVSPropertyOp23
 70
     1
102
RTVSPropertyOp24
 70
     1
102
RTVSPropertyOp25
 70
     1
102
RTVSPropertyOp26
 70
     1
102
RTVSPropertyOp27
 70
     1
102
RTVSPropertyOp28
 70
     1
102
RTVSPropertyOp29
 70
     1
102
RTVSPropertyOp30
 70
     1
102
RTVSPropertyOp31
 70
     1
102
RTVSPropertyOp32
 70
     1
102
RTVSPropertyOp33
 70
     1
102
RTVSPropertyOp34
 70
     1
102
RTVSPropertyOp35
 70
     1
102
RTVSPropertyOp36
 70
     1
102
RTVSPropertyOp37
 70
     1
102
RTVSPropertyOp38
 70
     1
102
RTVSPropertyOp39
 70
     1
102
RTVSPropertyOp40
 70
     1
102
RTVSPropertyOp41
 70
     1
102
RTVSPropertyOp42
 70
     1
102
RTVSPropertyOp43
 70
     1
102
RTVSPropertyOp44
 70
     1
102
RTVSPropertyOp45
 70
     1
102
RTVSPropertyOp46
 70
     1
102
RTVSPropertyOp47
 70
     1
102
RTVSPropertyOp48
 70
     1
102
RTVSPropertyOp49
 70
     1
102
RTVSPropertyOp50
 70
     1
102
RTVSPropertyOp51
 70
     0
102
RTVSPropertyOp52
 70
     0
102
RTVSPropertyOp53
 70
     1
102
RTVSPropertyOp54
 70
     1
102
RTVSPropertyOp55
 70
     1
102
RTVSPropertyOp56
 70
     1
102
RTVSPropertyOp57
 70
     1
102
RTVSPropertyOp58
 70
     1
102
RTVSPropertyOp59
 70
     1
102
RTVSPropertyOp60
 70
     1
102
RTVSPropertyOp61
 70
     1
102
RTVSPropertyOp62
 70
     1
  0
XRECORD
  5
60E
102
{ACAD_REACTORS
330
60D
102
}
330
60D
100
AcDbXrecord
280
     1
102
RTVSPost2010Prop28
280
     0
102
RTVSPost2010PropOp28
 70
     1
102
RTVSPost2010Prop29
280
     1
102
RTVSPost2010PropOp29
 70
     1
102
RTVSPost2010Prop30
280
     1
102
RTVSPost2010PropOp30
 70
     1
102
RTVSPost2010Prop31
280
     0
102
RTVSPost2010PropOp31
 70
     1
102
RTVSPost2010Prop32
280
     0
102
RTVSPost2010PropOp32
 70
     1
102
RTVSPost2010Prop33
280
     0
102
RTVSPost2010PropOp33
 70
     1
102
RTVSPost2010Prop34
280
     0
102
RTVSPost2010PropOp34
 70
     1
102
RTVSPost2010Prop35
280
     0
102
RTVSPost2010PropOp35
 70
     1
102
RTVSPost2010Prop36
280
     0
102
RTVSPost2010PropOp36
 70
     1
102
RTVSPost2010Prop37
 90
       50
102
RTVSPost2010PropOp37
 70
     1
102
RTVSPost2010Prop38
140
0.0
102
RTVSPost2010PropOp38
 70
     1
102
RTVSPost2010Prop39
140
1.0
102
RTVSPost2010PropOp39
 70
     1
102
RTVSPost2010Prop40
 90
        0
102
RTVSPost2010PropOp40
 70
     1
102
RTVSPost2010Prop41ColorIndex
 90
       18
102
RTVSPost2010Prop41ColorRGB
 90
        0
102
RTVSPost2010PropOp41
 70
     1
102
RTVSPost2010Prop42
 90
       50
102
RTVSPost2010PropOp42
 70
     1
102
RTVSPost2010Prop43
 90
        3
102
RTVSPost2010PropOp43
 70
     1
102
RTVSPost2010Prop44ColorIndex
 90
        5
102
RTVSPost2010Prop44ColorRGB
 90
      255
102
RTVSPost2010PropOp44
 70
     1
102
RTVSPost2010Prop45
280
     0
102
RTVSPost2010PropOp45
 70
     1
102
RTVSPost2010Prop46
 90
       50
102
RTVSPost2010PropOp46
 70
     1
102
RTVSPost2010Prop47
 90
       50
102
RTVSPost2010PropOp47
 70
     1
102
RTVSPost2010Prop48
 90
       50
102
RTVSPost2010PropOp48
 70
     1
102
RTVSPost2010Prop49
280
     0
102
RTVSPost2010PropOp49
 70
     1
102
RTVSPost2010Prop50
 90
       50
102
RTVSPost2010PropOp50
 70
     1
102
RTVSPost2010Prop51ColorIndex
 90
      256
102
RTVSPost2010Prop51ColorRGB
 90
-16777216
102
RTVSPost2010PropOp51
 70
     0
102
RTVSPost2010Prop52
140
1.0
102
RTVSPost2010PropOp52
 70
     0
102
RTVSPost2010Prop53
 90
        2
102
RTVSPost2010PropOp53
 70
     1
102
RTVSPost2010Prop54
  1
strokes_ogs.tif
102
RTVSPost2010PropOp54
 70
     1
102
RTVSPost2010Prop55
280
     0
102
RTVSPost2010PropOp55
 70
     1
102
RTVSPost2010Prop56
140
1.0
102
RTVSPost2010PropOp56
 70
     1
102
RTVSPost2010Prop57
140
1.0
102
RTVSPost2010PropOp57
 70
     1
102
RTVSPropertyOp0
 70
     1
102
RTVSPropertyOp1
 70
     1
102
RTVSPropertyOp2
 70
     1
102
RTVSPropertyOp3
 70
     1
102
RTVSPropertyOp4
 70
     1
102
RTVSPropertyOp5
 70
     1
102
RTVSPropertyOp6
 70
     1
102
RTVSPropertyOp7
 70
     1
102
RTVSPropertyOp8
 70
     1
102
RTVSPropertyOp9
 70
     1
102
RTVSPropertyOp10
 70
     1
102
RTVSPropertyOp11
 70
     1
102
RTVSPropertyOp12
 70
     1
102
RTVSPropertyOp13
 70
     1
102
RTVSPropertyOp14
 70
     1
102
RTVSPropertyOp15
 70
     1
102
RTVSPropertyOp16
 70
     1
102
RTVSPropertyOp17
 70
     1
102
RTVSPropertyOp18
 70
     1
102
RTVSPropertyOp19
 70
     1
102
RTVSPropertyOp20
 70
     1
102
RTVSPropertyOp21
 70
     1
102
RTVSPropertyOp22
 70
     1
102
RTVSPropertyOp23
 70
     1
102
RTVSPropertyOp24
 70
     1
102
RTVSPropertyOp25
 70
     1
102
RTVSPropertyOp26
 70
     1
102
RTVSPropertyOp27
 70
     1
102
RTVSPropertyOp28
 70
     1
102
RTVSPropertyOp29
 70
     1
102
RTVSPropertyOp30
 70
     1
102
RTVSPropertyOp31
 70
     1
102
RTVSPropertyOp32
 70
     1
102
RTVSPropertyOp33
 70
     1
102
RTVSPropertyOp34
 70
     1
102
RTVSPropertyOp35
 70
     1
102
RTVSPropertyOp36
 70
     1
102
RTVSPropertyOp37
 70
     1
102
RTVSPropertyOp38
 70
     1
102
RTVSPropertyOp39
 70
     1
102
RTVSPropertyOp40
 70
     1
102
RTVSPropertyOp41
 70
     1
102
RTVSPropertyOp42
 70
     1
102
RTVSPropertyOp43
 70
     1
102
RTVSPropertyOp44
 70
     1
102
RTVSPropertyOp45
 70
     1
102
RTVSPropertyOp46
 70
     1
102
RTVSPropertyOp47
 70
     1
102
RTVSPropertyOp48
 70
     1
102
RTVSPropertyOp49
 70
     1
102
RTVSPropertyOp50
 70
     1
102
RTVSPropertyOp51
 70
     0
102
RTVSPropertyOp52
 70
     0
102
RTVSPropertyOp53
 70
     1
102
RTVSPropertyOp54
 70
     1
102
RTVSPropertyOp55
 70
     1
102
RTVSPropertyOp56
 70
     1
102
RTVSPropertyOp57
 70
     1
102
RTVSPropertyOp58
 70
     1
102
RTVSPropertyOp59
 70
     1
102
RTVSPropertyOp60
 70
     1
102
RTVSPropertyOp61
 70
     1
102
RTVSPropertyOp62
 70
     1
  0
XRECORD
  5
60C
102
{ACAD_REACTORS
330
60B
102
}
330
60B
100
AcDbXrecord
280
     1
102
RTVSPost2010Prop28
280
     0
102
RTVSPost2010PropOp28
 70
     1
102
RTVSPost2010Prop29
280
     1
102
RTVSPost2010PropOp29
 70
     1
102
RTVSPost2010Prop30
280
     1
102
RTVSPost2010PropOp30
 70
     1
102
RTVSPost2010Prop31
280
     0
102
RTVSPost2010PropOp31
 70
     1
102
RTVSPost2010Prop32
280
     0
102
RTVSPost2010PropOp32
 70
     1
102
RTVSPost2010Prop33
280
     0
102
RTVSPost2010PropOp33
 70
     1
102
RTVSPost2010Prop34
280
     0
102
RTVSPost2010PropOp34
 70
     1
102
RTVSPost2010Prop35
280
     0
102
RTVSPost2010PropOp35
 70
     1
102
RTVSPost2010Prop36
280
     0
102
RTVSPost2010PropOp36
 70
     1
102
RTVSPost2010Prop37
 90
       50
102
RTVSPost2010PropOp37
 70
     1
102
RTVSPost2010Prop38
140
0.0
102
RTVSPost2010PropOp38
 70
     1
102
RTVSPost2010Prop39
140
1.0
102
RTVSPost2010PropOp39
 70
     1
102
RTVSPost2010Prop40
 90
        0
102
RTVSPost2010PropOp40
 70
     1
102
RTVSPost2010Prop41ColorIndex
 90
       18
102
RTVSPost2010Prop41ColorRGB
 90
        0
102
RTVSPost2010PropOp41
 70
     1
102
RTVSPost2010Prop42
 90
       50
102
RTVSPost2010PropOp42
 70
     1
102
RTVSPost2010Prop43
 90
        3
102
RTVSPost2010PropOp43
 70
     1
102
RTVSPost2010Prop44ColorIndex
 90
        5
102
RTVSPost2010Prop44ColorRGB
 90
      255
102
RTVSPost2010PropOp44
 70
     1
102
RTVSPost2010Prop45
280
     0
102
RTVSPost2010PropOp45
 70
     1
102
RTVSPost2010Prop46
 90
       50
102
RTVSPost2010PropOp46
 70
     1
102
RTVSPost2010Prop47
 90
       50
102
RTVSPost2010PropOp47
 70
     1
102
RTVSPost2010Prop48
 90
       50
102
RTVSPost2010PropOp48
 70
     1
102
RTVSPost2010Prop49
280
     0
102
RTVSPost2010PropOp49
 70
     1
102
RTVSPost2010Prop50
 90
       50
102
RTVSPost2010PropOp50
 70
     1
102
RTVSPost2010Prop51ColorIndex
 90
      256
102
RTVSPost2010Prop51ColorRGB
 90
-16777216
102
RTVSPost2010PropOp51
 70
     0
102
RTVSPost2010Prop52
140
1.0
102
RTVSPost2010PropOp52
 70
     0
102
RTVSPost2010Prop53
 90
        2
102
RTVSPost2010PropOp53
 70
     1
102
RTVSPost2010Prop54
  1
strokes_ogs.tif
102
RTVSPost2010PropOp54
 70
     1
102
RTVSPost2010Prop55
280
     0
102
RTVSPost2010PropOp55
 70
     1
102
RTVSPost2010Prop56
140
1.0
102
RTVSPost2010PropOp56
 70
     1
102
RTVSPost2010Prop57
140
1.0
102
RTVSPost2010PropOp57
 70
     1
102
RTVSPropertyOp0
 70
     1
102
RTVSPropertyOp1
 70
     1
102
RTVSPropertyOp2
 70
     1
102
RTVSPropertyOp3
 70
     1
102
RTVSPropertyOp4
 70
     1
102
RTVSPropertyOp5
 70
     1
102
RTVSPropertyOp6
 70
     1
102
RTVSPropertyOp7
 70
     1
102
RTVSPropertyOp8
 70
     1
102
RTVSPropertyOp9
 70
     1
102
RTVSPropertyOp10
 70
     1
102
RTVSPropertyOp11
 70
     1
102
RTVSPropertyOp12
 70
     1
102
RTVSPropertyOp13
 70
     1
102
RTVSPropertyOp14
 70
     1
102
RTVSPropertyOp15
 70
     1
102
RTVSPropertyOp16
 70
     1
102
RTVSPropertyOp17
 70
     1
102
RTVSPropertyOp18
 70
     1
102
RTVSPropertyOp19
 70
     1
102
RTVSPropertyOp20
 70
     1
102
RTVSPropertyOp21
 70
     1
102
RTVSPropertyOp22
 70
     1
102
RTVSPropertyOp23
 70
     1
102
RTVSPropertyOp24
 70
     1
102
RTVSPropertyOp25
 70
     1
102
RTVSPropertyOp26
 70
     1
102
RTVSPropertyOp27
 70
     1
102
RTVSPropertyOp28
 70
     1
102
RTVSPropertyOp29
 70
     1
102
RTVSPropertyOp30
 70
     1
102
RTVSPropertyOp31
 70
     1
102
RTVSPropertyOp32
 70
     1
102
RTVSPropertyOp33
 70
     1
102
RTVSPropertyOp34
 70
     1
102
RTVSPropertyOp35
 70
     1
102
RTVSPropertyOp36
 70
     1
102
RTVSPropertyOp37
 70
     1
102
RTVSPropertyOp38
 70
     1
102
RTVSPropertyOp39
 70
     1
102
RTVSPropertyOp40
 70
     1
102
RTVSPropertyOp41
 70
     1
102
RTVSPropertyOp42
 70
     1
102
RTVSPropertyOp43
 70
     1
102
RTVSPropertyOp44
 70
     1
102
RTVSPropertyOp45
 70
     1
102
RTVSPropertyOp46
 70
     1
102
RTVSPropertyOp47
 70
     1
102
RTVSPropertyOp48
 70
     1
102
RTVSPropertyOp49
 70
     1
102
RTVSPropertyOp50
 70
     1
102
RTVSPropertyOp51
 70
     0
102
RTVSPropertyOp52
 70
     0
102
RTVSPropertyOp53
 70
     1
102
RTVSPropertyOp54
 70
     1
102
RTVSPropertyOp55
 70
     1
102
RTVSPropertyOp56
 70
     1
102
RTVSPropertyOp57
 70
     1
102
RTVSPropertyOp58
 70
     1
102
RTVSPropertyOp59
 70
     1
102
RTVSPropertyOp60
 70
     1
102
RTVSPropertyOp61
 70
     1
102
RTVSPropertyOp62
 70
     1
  0
XRECORD
  5
606
102
{ACAD_REACTORS
330
605
102
}
330
605
100
AcDbXrecord
280
     1
102
RTVSPost2010Prop28
280
     0
102
RTVSPost2010PropOp28
 70
     1
102
RTVSPost2010Prop29
280
     1
102
RTVSPost2010PropOp29
 70
     1
102
RTVSPost2010Prop30
280
     1
102
RTVSPost2010PropOp30
 70
     1
102
RTVSPost2010Prop31
280
     0
102
RTVSPost2010PropOp31
 70
     1
102
RTVSPost2010Prop32
280
     0
102
RTVSPost2010PropOp32
 70
     1
102
RTVSPost2010Prop33
280
     0
102
RTVSPost2010PropOp33
 70
     1
102
RTVSPost2010Prop34
280
     0
102
RTVSPost2010PropOp34
 70
     1
102
RTVSPost2010Prop35
280
     0
102
RTVSPost2010PropOp35
 70
     1
102
RTVSPost2010Prop36
280
     0
102
RTVSPost2010PropOp36
 70
     1
102
RTVSPost2010Prop37
 90
       50
102
RTVSPost2010PropOp37
 70
     1
102
RTVSPost2010Prop38
140
0.0
102
RTVSPost2010PropOp38
 70
     1
102
RTVSPost2010Prop39
140
1.0
102
RTVSPost2010PropOp39
 70
     1
102
RTVSPost2010Prop40
 90
        0
102
RTVSPost2010PropOp40
 70
     1
102
RTVSPost2010Prop41ColorIndex
 90
       18
102
RTVSPost2010Prop41ColorRGB
 90
        0
102
RTVSPost2010PropOp41
 70
     1
102
RTVSPost2010Prop42
 90
       50
102
RTVSPost2010PropOp42
 70
     1
102
RTVSPost2010Prop43
 90
        3
102
RTVSPost2010PropOp43
 70
     1
102
RTVSPost2010Prop44ColorIndex
 90
        5
102
RTVSPost2010Prop44ColorRGB
 90
      255
102
RTVSPost2010PropOp44
 70
     1
102
RTVSPost2010Prop45
280
     0
102
RTVSPost2010PropOp45
 70
     1
102
RTVSPost2010Prop46
 90
       50
102
RTVSPost2010PropOp46
 70
     1
102
RTVSPost2010Prop47
 90
       50
102
RTVSPost2010PropOp47
 70
     1
102
RTVSPost2010Prop48
 90
       50
102
RTVSPost2010PropOp48
 70
     1
102
RTVSPost2010Prop49
280
     0
102
RTVSPost2010PropOp49
 70
     1
102
RTVSPost2010Prop50
 90
       50
102
RTVSPost2010PropOp50
 70
     1
102
RTVSPost2010Prop51ColorIndex
 90
      256
102
RTVSPost2010Prop51ColorRGB
 90
-16777216
102
RTVSPost2010PropOp51
 70
     0
102
RTVSPost2010Prop52
140
1.0
102
RTVSPost2010PropOp52
 70
     0
102
RTVSPost2010Prop53
 90
        2
102
RTVSPost2010PropOp53
 70
     1
102
RTVSPost2010Prop54
  1
strokes_ogs.tif
102
RTVSPost2010PropOp54
 70
     1
102
RTVSPost2010Prop55
280
     0
102
RTVSPost2010PropOp55
 70
     1
102
RTVSPost2010Prop56
140
1.0
102
RTVSPost2010PropOp56
 70
     1
102
RTVSPost2010Prop57
140
1.0
102
RTVSPost2010PropOp57
 70
     1
102
RTVSPropertyOp0
 70
     1
102
RTVSPropertyOp1
 70
     1
102
RTVSPropertyOp2
 70
     1
102
RTVSPropertyOp3
 70
     1
102
RTVSPropertyOp4
 70
     1
102
RTVSPropertyOp5
 70
     1
102
RTVSPropertyOp6
 70
     1
102
RTVSPropertyOp7
 70
     1
102
RTVSPropertyOp8
 70
     1
102
RTVSPropertyOp9
 70
     1
102
RTVSPropertyOp10
 70
     1
102
RTVSPropertyOp11
 70
     1
102
RTVSPropertyOp12
 70
     1
102
RTVSPropertyOp13
 70
     1
102
RTVSPropertyOp14
 70
     1
102
RTVSPropertyOp15
 70
     1
102
RTVSPropertyOp16
 70
     1
102
RTVSPropertyOp17
 70
     1
102
RTVSPropertyOp18
 70
     1
102
RTVSPropertyOp19
 70
     1
102
RTVSPropertyOp20
 70
     1
102
RTVSPropertyOp21
 70
     1
102
RTVSPropertyOp22
 70
     1
102
RTVSPropertyOp23
 70
     1
102
RTVSPropertyOp24
 70
     1
102
RTVSPropertyOp25
 70
     1
102
RTVSPropertyOp26
 70
     1
102
RTVSPropertyOp27
 70
     1
102
RTVSPropertyOp28
 70
     1
102
RTVSPropertyOp29
 70
     1
102
RTVSPropertyOp30
 70
     1
102
RTVSPropertyOp31
 70
     1
102
RTVSPropertyOp32
 70
     1
102
RTVSPropertyOp33
 70
     1
102
RTVSPropertyOp34
 70
     1
102
RTVSPropertyOp35
 70
     1
102
RTVSPropertyOp36
 70
     1
102
RTVSPropertyOp37
 70
     1
102
RTVSPropertyOp38
 70
     1
102
RTVSPropertyOp39
 70
     1
102
RTVSPropertyOp40
 70
     1
102
RTVSPropertyOp41
 70
     1
102
RTVSPropertyOp42
 70
     1
102
RTVSPropertyOp43
 70
     1
102
RTVSPropertyOp44
 70
     1
102
RTVSPropertyOp45
 70
     1
102
RTVSPropertyOp46
 70
     1
102
RTVSPropertyOp47
 70
     1
102
RTVSPropertyOp48
 70
     1
102
RTVSPropertyOp49
 70
     1
102
RTVSPropertyOp50
 70
     1
102
RTVSPropertyOp51
 70
     0
102
RTVSPropertyOp52
 70
     0
102
RTVSPropertyOp53
 70
     1
102
RTVSPropertyOp54
 70
     1
102
RTVSPropertyOp55
 70
     1
102
RTVSPropertyOp56
 70
     1
102
RTVSPropertyOp57
 70
     1
102
RTVSPropertyOp58
 70
     1
102
RTVSPropertyOp59
 70
     1
102
RTVSPropertyOp60
 70
     1
102
RTVSPropertyOp61
 70
     1
102
RTVSPropertyOp62
 70
     1
  0
XRECORD
  5
608
102
{ACAD_REACTORS
330
607
102
}
330
607
100
AcDbXrecord
280
     1
102
RTVSPost2010Prop28
280
     0
102
RTVSPost2010PropOp28
 70
     1
102
RTVSPost2010Prop29
280
     1
102
RTVSPost2010PropOp29
 70
     1
102
RTVSPost2010Prop30
280
     1
102
RTVSPost2010PropOp30
 70
     1
102
RTVSPost2010Prop31
280
     0
102
RTVSPost2010PropOp31
 70
     1
102
RTVSPost2010Prop32
280
     0
102
RTVSPost2010PropOp32
 70
     1
102
RTVSPost2010Prop33
280
     0
102
RTVSPost2010PropOp33
 70
     1
102
RTVSPost2010Prop34
280
     0
102
RTVSPost2010PropOp34
 70
     1
102
RTVSPost2010Prop35
280
     0
102
RTVSPost2010PropOp35
 70
     1
102
RTVSPost2010Prop36
280
     0
102
RTVSPost2010PropOp36
 70
     1
102
RTVSPost2010Prop37
 90
       50
102
RTVSPost2010PropOp37
 70
     1
102
RTVSPost2010Prop38
140
0.0
102
RTVSPost2010PropOp38
 70
     1
102
RTVSPost2010Prop39
140
1.0
102
RTVSPost2010PropOp39
 70
     1
102
RTVSPost2010Prop40
 90
        0
102
RTVSPost2010PropOp40
 70
     1
102
RTVSPost2010Prop41ColorIndex
 90
       18
102
RTVSPost2010Prop41ColorRGB
 90
        0
102
RTVSPost2010PropOp41
 70
     1
102
RTVSPost2010Prop42
 90
       50
102
RTVSPost2010PropOp42
 70
     1
102
RTVSPost2010Prop43
 90
        3
102
RTVSPost2010PropOp43
 70
     1
102
RTVSPost2010Prop44ColorIndex
 90
        5
102
RTVSPost2010Prop44ColorRGB
 90
      255
102
RTVSPost2010PropOp44
 70
     1
102
RTVSPost2010Prop45
280
     0
102
RTVSPost2010PropOp45
 70
     1
102
RTVSPost2010Prop46
 90
       50
102
RTVSPost2010PropOp46
 70
     1
102
RTVSPost2010Prop47
 90
       50
102
RTVSPost2010PropOp47
 70
     1
102
RTVSPost2010Prop48
 90
       50
102
RTVSPost2010PropOp48
 70
     1
102
RTVSPost2010Prop49
280
     0
102
RTVSPost2010PropOp49
 70
     1
102
RTVSPost2010Prop50
 90
       50
102
RTVSPost2010PropOp50
 70
     1
102
RTVSPost2010Prop51ColorIndex
 90
      256
102
RTVSPost2010Prop51ColorRGB
 90
-16777216
102
RTVSPost2010PropOp51
 70
     0
102
RTVSPost2010Prop52
140
1.0
102
RTVSPost2010PropOp52
 70
     0
102
RTVSPost2010Prop53
 90
        2
102
RTVSPost2010PropOp53
 70
     1
102
RTVSPost2010Prop54
  1
strokes_ogs.tif
102
RTVSPost2010PropOp54
 70
     1
102
RTVSPost2010Prop55
280
     0
102
RTVSPost2010PropOp55
 70
     1
102
RTVSPost2010Prop56
140
1.0
102
RTVSPost2010PropOp56
 70
     1
102
RTVSPost2010Prop57
140
1.0
102
RTVSPost2010PropOp57
 70
     1
102
RTVSPropertyOp0
 70
     1
102
RTVSPropertyOp1
 70
     1
102
RTVSPropertyOp2
 70
     1
102
RTVSPropertyOp3
 70
     1
102
RTVSPropertyOp4
 70
     1
102
RTVSPropertyOp5
 70
     1
102
RTVSPropertyOp6
 70
     1
102
RTVSPropertyOp7
 70
     1
102
RTVSPropertyOp8
 70
     1
102
RTVSPropertyOp9
 70
     1
102
RTVSPropertyOp10
 70
     1
102
RTVSPropertyOp11
 70
     1
102
RTVSPropertyOp12
 70
     1
102
RTVSPropertyOp13
 70
     1
102
RTVSPropertyOp14
 70
     1
102
RTVSPropertyOp15
 70
     1
102
RTVSPropertyOp16
 70
     1
102
RTVSPropertyOp17
 70
     1
102
RTVSPropertyOp18
 70
     1
102
RTVSPropertyOp19
 70
     1
102
RTVSPropertyOp20
 70
     1
102
RTVSPropertyOp21
 70
     1
102
RTVSPropertyOp22
 70
     1
102
RTVSPropertyOp23
 70
     1
102
RTVSPropertyOp24
 70
     1
102
RTVSPropertyOp25
 70
     1
102
RTVSPropertyOp26
 70
     1
102
RTVSPropertyOp27
 70
     1
102
RTVSPropertyOp28
 70
     1
102
RTVSPropertyOp29
 70
     1
102
RTVSPropertyOp30
 70
     1
102
RTVSPropertyOp31
 70
     1
102
RTVSPropertyOp32
 70
     1
102
RTVSPropertyOp33
 70
     1
102
RTVSPropertyOp34
 70
     1
102
RTVSPropertyOp35
 70
     1
102
RTVSPropertyOp36
 70
     1
102
RTVSPropertyOp37
 70
     1
102
RTVSPropertyOp38
 70
     1
102
RTVSPropertyOp39
 70
     1
102
RTVSPropertyOp40
 70
     1
102
RTVSPropertyOp41
 70
     1
102
RTVSPropertyOp42
 70
     1
102
RTVSPropertyOp43
 70
     1
102
RTVSPropertyOp44
 70
     1
102
RTVSPropertyOp45
 70
     1
102
RTVSPropertyOp46
 70
     1
102
RTVSPropertyOp47
 70
     1
102
RTVSPropertyOp48
 70
     1
102
RTVSPropertyOp49
 70
     1
102
RTVSPropertyOp50
 70
     1
102
RTVSPropertyOp51
 70
     0
102
RTVSPropertyOp52
 70
     0
102
RTVSPropertyOp53
 70
     1
102
RTVSPropertyOp54
 70
     1
102
RTVSPropertyOp55
 70
     1
102
RTVSPropertyOp56
 70
     1
102
RTVSPropertyOp57
 70
     1
102
RTVSPropertyOp58
 70
     1
102
RTVSPropertyOp59
 70
     1
102
RTVSPropertyOp60
 70
     1
102
RTVSPropertyOp61
 70
     1
102
RTVSPropertyOp62
 70
     1
  0
XRECORD
  5
5FE
102
{ACAD_REACTORS
330
5FD
102
}
330
5FD
100
AcDbXrecord
280
     1
102
RTVSPost2010Prop28
280
     0
102
RTVSPost2010PropOp28
 70
     1
102
RTVSPost2010Prop29
280
     1
102
RTVSPost2010PropOp29
 70
     1
102
RTVSPost2010Prop30
280
     1
102
RTVSPost2010PropOp30
 70
     1
102
RTVSPost2010Prop31
280
     0
102
RTVSPost2010PropOp31
 70
     1
102
RTVSPost2010Prop32
280
     0
102
RTVSPost2010PropOp32
 70
     1
102
RTVSPost2010Prop33
280
     0
102
RTVSPost2010PropOp33
 70
     1
102
RTVSPost2010Prop34
280
     0
102
RTVSPost2010PropOp34
 70
     1
102
RTVSPost2010Prop35
280
     0
102
RTVSPost2010PropOp35
 70
     1
102
RTVSPost2010Prop36
280
     0
102
RTVSPost2010PropOp36
 70
     1
102
RTVSPost2010Prop37
 90
       50
102
RTVSPost2010PropOp37
 70
     1
102
RTVSPost2010Prop38
140
0.0
102
RTVSPost2010PropOp38
 70
     1
102
RTVSPost2010Prop39
140
1.0
102
RTVSPost2010PropOp39
 70
     1
102
RTVSPost2010Prop40
 90
        0
102
RTVSPost2010PropOp40
 70
     1
102
RTVSPost2010Prop41ColorIndex
 90
       18
102
RTVSPost2010Prop41ColorRGB
 90
        0
102
RTVSPost2010PropOp41
 70
     1
102
RTVSPost2010Prop42
 90
       50
102
RTVSPost2010PropOp42
 70
     1
102
RTVSPost2010Prop43
 90
        3
102
RTVSPost2010PropOp43
 70
     1
102
RTVSPost2010Prop44ColorIndex
 90
        5
102
RTVSPost2010Prop44ColorRGB
 90
      255
102
RTVSPost2010PropOp44
 70
     1
102
RTVSPost2010Prop45
280
     0
102
RTVSPost2010PropOp45
 70
     1
102
RTVSPost2010Prop46
 90
       50
102
RTVSPost2010PropOp46
 70
     1
102
RTVSPost2010Prop47
 90
       50
102
RTVSPost2010PropOp47
 70
     1
102
RTVSPost2010Prop48
 90
       50
102
RTVSPost2010PropOp48
 70
     1
102
RTVSPost2010Prop49
280
     0
102
RTVSPost2010PropOp49
 70
     1
102
RTVSPost2010Prop50
 90
       50
102
RTVSPost2010PropOp50
 70
     1
102
RTVSPost2010Prop51ColorIndex
 90
      256
102
RTVSPost2010Prop51ColorRGB
 90
-16777216
102
RTVSPost2010PropOp51
 70
     0
102
RTVSPost2010Prop52
140
1.0
102
RTVSPost2010PropOp52
 70
     0
102
RTVSPost2010Prop53
 90
        2
102
RTVSPost2010PropOp53
 70
     1
102
RTVSPost2010Prop54
  1
strokes_ogs.tif
102
RTVSPost2010PropOp54
 70
     1
102
RTVSPost2010Prop55
280
     0
102
RTVSPost2010PropOp55
 70
     1
102
RTVSPost2010Prop56
140
1.0
102
RTVSPost2010PropOp56
 70
     1
102
RTVSPost2010Prop57
140
1.0
102
RTVSPost2010PropOp57
 70
     1
102
RTVSPropertyOp0
 70
     1
102
RTVSPropertyOp1
 70
     1
102
RTVSPropertyOp2
 70
     1
102
RTVSPropertyOp3
 70
     1
102
RTVSPropertyOp4
 70
     1
102
RTVSPropertyOp5
 70
     1
102
RTVSPropertyOp6
 70
     1
102
RTVSPropertyOp7
 70
     1
102
RTVSPropertyOp8
 70
     1
102
RTVSPropertyOp9
 70
     1
102
RTVSPropertyOp10
 70
     1
102
RTVSPropertyOp11
 70
     1
102
RTVSPropertyOp12
 70
     1
102
RTVSPropertyOp13
 70
     1
102
RTVSPropertyOp14
 70
     1
102
RTVSPropertyOp15
 70
     1
102
RTVSPropertyOp16
 70
     1
102
RTVSPropertyOp17
 70
     1
102
RTVSPropertyOp18
 70
     1
102
RTVSPropertyOp19
 70
     1
102
RTVSPropertyOp20
 70
     1
102
RTVSPropertyOp21
 70
     1
102
RTVSPropertyOp22
 70
     1
102
RTVSPropertyOp23
 70
     1
102
RTVSPropertyOp24
 70
     1
102
RTVSPropertyOp25
 70
     1
102
RTVSPropertyOp26
 70
     1
102
RTVSPropertyOp27
 70
     1
102
RTVSPropertyOp28
 70
     1
102
RTVSPropertyOp29
 70
     1
102
RTVSPropertyOp30
 70
     1
102
RTVSPropertyOp31
 70
     1
102
RTVSPropertyOp32
 70
     1
102
RTVSPropertyOp33
 70
     1
102
RTVSPropertyOp34
 70
     1
102
RTVSPropertyOp35
 70
     1
102
RTVSPropertyOp36
 70
     1
102
RTVSPropertyOp37
 70
     1
102
RTVSPropertyOp38
 70
     1
102
RTVSPropertyOp39
 70
     1
102
RTVSPropertyOp40
 70
     1
102
RTVSPropertyOp41
 70
     1
102
RTVSPropertyOp42
 70
     1
102
RTVSPropertyOp43
 70
     1
102
RTVSPropertyOp44
 70
     1
102
RTVSPropertyOp45
 70
     1
102
RTVSPropertyOp46
 70
     1
102
RTVSPropertyOp47
 70
     1
102
RTVSPropertyOp48
 70
     1
102
RTVSPropertyOp49
 70
     1
102
RTVSPropertyOp50
 70
     1
102
RTVSPropertyOp51
 70
     0
102
RTVSPropertyOp52
 70
     0
102
RTVSPropertyOp53
 70
     1
102
RTVSPropertyOp54
 70
     1
102
RTVSPropertyOp55
 70
     1
102
RTVSPropertyOp56
 70
     1
102
RTVSPropertyOp57
 70
     1
102
RTVSPropertyOp58
 70
     1
102
RTVSPropertyOp59
 70
     1
102
RTVSPropertyOp60
 70
     1
102
RTVSPropertyOp61
 70
     1
102
RTVSPropertyOp62
 70
     1
  0
XRECORD
  5
5F2
102
{ACAD_REACTORS
330
5F1
102
}
330
5F1
100
AcDbXrecord
280
     1
102
RTVSPost2010Prop28
280
     0
102
RTVSPost2010PropOp28
 70
     1
102
RTVSPost2010Prop29
280
     1
102
RTVSPost2010PropOp29
 70
     1
102
RTVSPost2010Prop30
280
     1
102
RTVSPost2010PropOp30
 70
     1
102
RTVSPost2010Prop31
280
     0
102
RTVSPost2010PropOp31
 70
     1
102
RTVSPost2010Prop32
280
     0
102
RTVSPost2010PropOp32
 70
     1
102
RTVSPost2010Prop33
280
     0
102
RTVSPost2010PropOp33
 70
     1
102
RTVSPost2010Prop34
280
     0
102
RTVSPost2010PropOp34
 70
     1
102
RTVSPost2010Prop35
280
     0
102
RTVSPost2010PropOp35
 70
     1
102
RTVSPost2010Prop36
280
     0
102
RTVSPost2010PropOp36
 70
     1
102
RTVSPost2010Prop37
 90
       50
102
RTVSPost2010PropOp37
 70
     1
102
RTVSPost2010Prop38
140
0.0
102
RTVSPost2010PropOp38
 70
     1
102
RTVSPost2010Prop39
140
1.0
102
RTVSPost2010PropOp39
 70
     1
102
RTVSPost2010Prop40
 90
        0
102
RTVSPost2010PropOp40
 70
     1
102
RTVSPost2010Prop41ColorIndex
 90
       18
102
RTVSPost2010Prop41ColorRGB
 90
        0
102
RTVSPost2010PropOp41
 70
     1
102
RTVSPost2010Prop42
 90
       50
102
RTVSPost2010PropOp42
 70
     1
102
RTVSPost2010Prop43
 90
        3
102
RTVSPost2010PropOp43
 70
     1
102
RTVSPost2010Prop44ColorIndex
 90
        5
102
RTVSPost2010Prop44ColorRGB
 90
      255
102
RTVSPost2010PropOp44
 70
     1
102
RTVSPost2010Prop45
280
     0
102
RTVSPost2010PropOp45
 70
     1
102
RTVSPost2010Prop46
 90
       50
102
RTVSPost2010PropOp46
 70
     1
102
RTVSPost2010Prop47
 90
       50
102
RTVSPost2010PropOp47
 70
     1
102
RTVSPost2010Prop48
 90
       50
102
RTVSPost2010PropOp48
 70
     1
102
RTVSPost2010Prop49
280
     0
102
RTVSPost2010PropOp49
 70
     1
102
RTVSPost2010Prop50
 90
       50
102
RTVSPost2010PropOp50
 70
     1
102
RTVSPost2010Prop51ColorIndex
 90
      256
102
RTVSPost2010Prop51ColorRGB
 90
-16777216
102
RTVSPost2010PropOp51
 70
     0
102
RTVSPost2010Prop52
140
1.0
102
RTVSPost2010PropOp52
 70
     0
102
RTVSPost2010Prop53
 90
        2
102
RTVSPost2010PropOp53
 70
     1
102
RTVSPost2010Prop54
  1
strokes_ogs.tif
102
RTVSPost2010PropOp54
 70
     1
102
RTVSPost2010Prop55
280
     0
102
RTVSPost2010PropOp55
 70
     1
102
RTVSPost2010Prop56
140
1.0
102
RTVSPost2010PropOp56
 70
     1
102
RTVSPost2010Prop57
140
1.0
102
RTVSPost2010PropOp57
 70
     1
102
RTVSPropertyOp0
 70
     1
102
RTVSPropertyOp1
 70
     1
102
RTVSPropertyOp2
 70
     1
102
RTVSPropertyOp3
 70
     1
102
RTVSPropertyOp4
 70
     1
102
RTVSPropertyOp5
 70
     1
102
RTVSPropertyOp6
 70
     1
102
RTVSPropertyOp7
 70
     1
102
RTVSPropertyOp8
 70
     1
102
RTVSPropertyOp9
 70
     1
102
RTVSPropertyOp10
 70
     1
102
RTVSPropertyOp11
 70
     1
102
RTVSPropertyOp12
 70
     1
102
RTVSPropertyOp13
 70
     1
102
RTVSPropertyOp14
 70
     1
102
RTVSPropertyOp15
 70
     1
102
RTVSPropertyOp16
 70
     1
102
RTVSPropertyOp17
 70
     1
102
RTVSPropertyOp18
 70
     1
102
RTVSPropertyOp19
 70
     1
102
RTVSPropertyOp20
 70
     1
102
RTVSPropertyOp21
 70
     1
102
RTVSPropertyOp22
 70
     1
102
RTVSPropertyOp23
 70
     1
102
RTVSPropertyOp24
 70
     1
102
RTVSPropertyOp25
 70
     1
102
RTVSPropertyOp26
 70
     1
102
RTVSPropertyOp27
 70
     1
102
RTVSPropertyOp28
 70
     1
102
RTVSPropertyOp29
 70
     1
102
RTVSPropertyOp30
 70
     1
102
RTVSPropertyOp31
 70
     1
102
RTVSPropertyOp32
 70
     1
102
RTVSPropertyOp33
 70
     1
102
RTVSPropertyOp34
 70
     1
102
RTVSPropertyOp35
 70
     1
102
RTVSPropertyOp36
 70
     1
102
RTVSPropertyOp37
 70
     1
102
RTVSPropertyOp38
 70
     1
102
RTVSPropertyOp39
 70
     1
102
RTVSPropertyOp40
 70
     1
102
RTVSPropertyOp41
 70
     1
102
RTVSPropertyOp42
 70
     1
102
RTVSPropertyOp43
 70
     1
102
RTVSPropertyOp44
 70
     1
102
RTVSPropertyOp45
 70
     1
102
RTVSPropertyOp46
 70
     1
102
RTVSPropertyOp47
 70
     1
102
RTVSPropertyOp48
 70
     1
102
RTVSPropertyOp49
 70
     1
102
RTVSPropertyOp50
 70
     1
102
RTVSPropertyOp51
 70
     0
102
RTVSPropertyOp52
 70
     0
102
RTVSPropertyOp53
 70
     1
102
RTVSPropertyOp54
 70
     1
102
RTVSPropertyOp55
 70
     1
102
RTVSPropertyOp56
 70
     1
102
RTVSPropertyOp57
 70
     1
102
RTVSPropertyOp58
 70
     1
102
RTVSPropertyOp59
 70
     1
102
RTVSPropertyOp60
 70
     1
102
RTVSPropertyOp61
 70
     1
102
RTVSPropertyOp62
 70
     1
  0
XRECORD
  5
60A
102
{ACAD_REACTORS
330
609
102
}
330
609
100
AcDbXrecord
280
     1
102
RTVSPost2010Prop28
280
     0
102
RTVSPost2010PropOp28
 70
     1
102
RTVSPost2010Prop29
280
     1
102
RTVSPost2010PropOp29
 70
     1
102
RTVSPost2010Prop30
280
     1
102
RTVSPost2010PropOp30
 70
     1
102
RTVSPost2010Prop31
280
     0
102
RTVSPost2010PropOp31
 70
     1
102
RTVSPost2010Prop32
280
     0
102
RTVSPost2010PropOp32
 70
     1
102
RTVSPost2010Prop33
280
     0
102
RTVSPost2010PropOp33
 70
     1
102
RTVSPost2010Prop34
280
     0
102
RTVSPost2010PropOp34
 70
     1
102
RTVSPost2010Prop35
280
     0
102
RTVSPost2010PropOp35
 70
     1
102
RTVSPost2010Prop36
280
     0
102
RTVSPost2010PropOp36
 70
     1
102
RTVSPost2010Prop37
 90
       50
102
RTVSPost2010PropOp37
 70
     1
102
RTVSPost2010Prop38
140
0.0
102
RTVSPost2010PropOp38
 70
     1
102
RTVSPost2010Prop39
140
1.0
102
RTVSPost2010PropOp39
 70
     1
102
RTVSPost2010Prop40
 90
        0
102
RTVSPost2010PropOp40
 70
     1
102
RTVSPost2010Prop41ColorIndex
 90
       18
102
RTVSPost2010Prop41ColorRGB
 90
        0
102
RTVSPost2010PropOp41
 70
     1
102
RTVSPost2010Prop42
 90
       50
102
RTVSPost2010PropOp42
 70
     1
102
RTVSPost2010Prop43
 90
        3
102
RTVSPost2010PropOp43
 70
     1
102
RTVSPost2010Prop44ColorIndex
 90
        5
102
RTVSPost2010Prop44ColorRGB
 90
      255
102
RTVSPost2010PropOp44
 70
     1
102
RTVSPost2010Prop45
280
     0
102
RTVSPost2010PropOp45
 70
     1
102
RTVSPost2010Prop46
 90
       50
102
RTVSPost2010PropOp46
 70
     1
102
RTVSPost2010Prop47
 90
       50
102
RTVSPost2010PropOp47
 70
     1
102
RTVSPost2010Prop48
 90
       50
102
RTVSPost2010PropOp48
 70
     1
102
RTVSPost2010Prop49
280
     0
102
RTVSPost2010PropOp49
 70
     1
102
RTVSPost2010Prop50
 90
       50
102
RTVSPost2010PropOp50
 70
     1
102
RTVSPost2010Prop51ColorIndex
 90
      256
102
RTVSPost2010Prop51ColorRGB
 90
-16777216
102
RTVSPost2010PropOp51
 70
     0
102
RTVSPost2010Prop52
140
1.0
102
RTVSPost2010PropOp52
 70
     0
102
RTVSPost2010Prop53
 90
        2
102
RTVSPost2010PropOp53
 70
     1
102
RTVSPost2010Prop54
  1
strokes_ogs.tif
102
RTVSPost2010PropOp54
 70
     1
102
RTVSPost2010Prop55
280
     0
102
RTVSPost2010PropOp55
 70
     1
102
RTVSPost2010Prop56
140
1.0
102
RTVSPost2010PropOp56
 70
     1
102
RTVSPost2010Prop57
140
1.0
102
RTVSPost2010PropOp57
 70
     1
102
RTVSPropertyOp0
 70
     1
102
RTVSPropertyOp1
 70
     1
102
RTVSPropertyOp2
 70
     1
102
RTVSPropertyOp3
 70
     1
102
RTVSPropertyOp4
 70
     1
102
RTVSPropertyOp5
 70
     1
102
RTVSPropertyOp6
 70
     1
102
RTVSPropertyOp7
 70
     1
102
RTVSPropertyOp8
 70
     1
102
RTVSPropertyOp9
 70
     1
102
RTVSPropertyOp10
 70
     1
102
RTVSPropertyOp11
 70
     1
102
RTVSPropertyOp12
 70
     1
102
RTVSPropertyOp13
 70
     1
102
RTVSPropertyOp14
 70
     1
102
RTVSPropertyOp15
 70
     1
102
RTVSPropertyOp16
 70
     1
102
RTVSPropertyOp17
 70
     1
102
RTVSPropertyOp18
 70
     1
102
RTVSPropertyOp19
 70
     1
102
RTVSPropertyOp20
 70
     1
102
RTVSPropertyOp21
 70
     1
102
RTVSPropertyOp22
 70
     1
102
RTVSPropertyOp23
 70
     1
102
RTVSPropertyOp24
 70
     1
102
RTVSPropertyOp25
 70
     1
102
RTVSPropertyOp26
 70
     1
102
RTVSPropertyOp27
 70
     1
102
RTVSPropertyOp28
 70
     1
102
RTVSPropertyOp29
 70
     1
102
RTVSPropertyOp30
 70
     1
102
RTVSPropertyOp31
 70
     1
102
RTVSPropertyOp32
 70
     1
102
RTVSPropertyOp33
 70
     1
102
RTVSPropertyOp34
 70
     1
102
RTVSPropertyOp35
 70
     1
102
RTVSPropertyOp36
 70
     1
102
RTVSPropertyOp37
 70
     1
102
RTVSPropertyOp38
 70
     1
102
RTVSPropertyOp39
 70
     1
102
RTVSPropertyOp40
 70
     1
102
RTVSPropertyOp41
 70
     1
102
RTVSPropertyOp42
 70
     1
102
RTVSPropertyOp43
 70
     1
102
RTVSPropertyOp44
 70
     1
102
RTVSPropertyOp45
 70
     1
102
RTVSPropertyOp46
 70
     1
102
RTVSPropertyOp47
 70
     1
102
RTVSPropertyOp48
 70
     1
102
RTVSPropertyOp49
 70
     1
102
RTVSPropertyOp50
 70
     1
102
RTVSPropertyOp51
 70
     0
102
RTVSPropertyOp52
 70
     0
102
RTVSPropertyOp53
 70
     1
102
RTVSPropertyOp54
 70
     1
102
RTVSPropertyOp55
 70
     1
102
RTVSPropertyOp56
 70
     1
102
RTVSPropertyOp57
 70
     1
102
RTVSPropertyOp58
 70
     1
102
RTVSPropertyOp59
 70
     1
102
RTVSPropertyOp60
 70
     1
102
RTVSPropertyOp61
 70
     1
102
RTVSPropertyOp62
 70
     1
  0
ENDSEC
  0
EOF
