  0
SECTION
  2
HEADER
  9
$ACADVER
  1
AC1015
  9
$ACADMAINTVER
 70
    20
  9
$DWGCODEPAGE
  3
ANSI_932
  9
$INSBASE
 10
0.0
 20
0.0
 30
0.0
  9
$EXTMIN
 10
-0.0232543666186445
 20
-0.0895385533682287
 30
-0.0015258207003583
  9
$EXTMAX
 10
0.3859836079260881
 20
0.3932889429638669
 30
0.0000000349246037
  9
$LIMMIN
 10
0.0
 20
0.0
  9
$LIMMAX
 10
12.0
 20
9.0
  9
$ORTHOMODE
 70
     0
  9
$REGENMODE
 70
     1
  9
$FILLMODE
 70
     1
  9
$QTEXTMODE
 70
     0
  9
$MIRRTEXT
 70
     1
  9
$LTSCALE
 40
1.0
  9
$ATTMODE
 70
     1
  9
$TEXTSIZE
 40
0.2
  9
$TRACEWID
 40
0.05
  9
$TEXTSTYLE
  7
Standard
  9
$CLAYER
  8
0
  9
$CELTYPE
  6
ByBlock
  9
$CECOLOR
 62
   256
  9
$CELTSCALE
 40
1.0
  9
$DISPSILH
 70
     0
  9
$DIMSCALE
 40
1.0
  9
$DIMASZ
 40
0.18
  9
$DIMEXO
 40
0.0625
  9
$DIMDLI
 40
0.38
  9
$DIMRND
 40
0.0
  9
$DIMDLE
 40
0.0
  9
$DIMEXE
 40
0.18
  9
$DIMTP
 40
0.0
  9
$DIMTM
 40
0.0
  9
$DIMTXT
 40
0.18
  9
$DIMCEN
 40
0.09
  9
$DIMTSZ
 40
0.0
  9
$DIMTOL
 70
     0
  9
$DIMLIM
 70
     0
  9
$DIMTIH
 70
     1
  9
$DIMTOH
 70
     1
  9
$DIMSE1
 70
     0
  9
$DIMSE2
 70
     0
  9
$DIMTAD
 70
     0
  9
$DIMZIN
 70
     0
  9
$DIMBLK
  1

  9
$DIMASO
 70
     1
  9
$DIMSHO
 70
     1
  9
$DIMPOST
  1

  9
$DIMAPOST
  1

  9
$DIMALT
 70
     0
  9
$DIMALTD
 70
     2
  9
$DIMALTF
 40
25.4
  9
$DIMLFAC
 40
1.0
  9
$DIMTOFL
 70
     0
  9
$DIMTVP
 40
0.0
  9
$DIMTIX
 70
     0
  9
$DIMSOXD
 70
     0
  9
$DIMSAH
 70
     0
  9
$DIMBLK1
  1

  9
$DIMBLK2
  1

  9
$DIMSTYLE
  2
Standard
  9
$DIMCLRD
 70
     0
  9
$DIMCLRE
 70
     0
  9
$DIMCLRT
 70
     0
  9
$DIMTFAC
 40
1.0
  9
$DIMGAP
 40
0.09
  9
$DIMJUST
 70
     0
  9
$DIMSD1
 70
     0
  9
$DIMSD2
 70
     0
  9
$DIMTOLJ
 70
     1
  9
$DIMTZIN
 70
     0
  9
$DIMALTZ
 70
     0
  9
$DIMALTTZ
 70
     0
  9
$DIMUPT
 70
     0
  9
$DIMDEC
 70
     4
  9
$DIMTDEC
 70
     4
  9
$DIMALTU
 70
     2
  9
$DIMALTTD
 70
     2
  9
$DIMTXSTY
  7
Standard
  9
$DIMAUNIT
 70
     0
  9
$DIMADEC
 70
     0
  9
$DIMALTRND
 40
0.0
  9
$DIMAZIN
 70
     0
  9
$DIMDSEP
 70
    46
  9
$DIMATFIT
 70
     3
  9
$DIMFRAC
 70
     0
  9
$DIMLDRBLK
  1

  9
$DIMLUNIT
 70
     2
  9
$DIMLWD
 70
    -2
  9
$DIMLWE
 70
    -2
  9
$DIMTMOVE
 70
     0
  9
$LUNITS
 70
     2
  9
$LUPREC
 70
     4
  9
$SKETCHINC
 40
0.1
  9
$FILLETRAD
 40
0.5
  9
$AUNITS
 70
     0
  9
$AUPREC
 70
     0
  9
$MENU
  1
.
  9
$ELEVATION
 40
0.0
  9
$PELEVATION
 40
0.0
  9
$THICKNESS
 40
0.0
  9
$LIMCHECK
 70
     0
  9
$CHAMFERA
 40
0.5
  9
$CHAMFERB
 40
0.5
  9
$CHAMFERC
 40
1.0
  9
$CHAMFERD
 40
0.0
  9
$SKPOLY
 70
     0
  9
$TDCREATE
 40
2457106.723640949
  9
$TDUCREATE
 40
2457106.348640949
  9
$TDUPDATE
 40
2457353.374271539
  9
$TDUUPDATE
 40
2457352.999271539
  9
$TDINDWG
 40
0.0012283449
  9
$TDUSRTIMER
 40
0.0012283449
  9
$USRTIMER
 70
     1
  9
$ANGBASE
 50
0.0
  9
$ANGDIR
 70
     0
  9
$PDMODE
 70
     0
  9
$PDSIZE
 40
0.0
  9
$PLINEWID
 40
0.0
  9
$SPLFRAME
 70
     0
  9
$SPLINETYPE
 70
     6
  9
$SPLINESEGS
 70
     8
  9
$HANDSEED
  5
625
  9
$SURFTAB1
 70
     6
  9
$SURFTAB2
 70
     6
  9
$SURFTYPE
 70
     6
  9
$SURFU
 70
     6
  9
$SURFV
 70
     6
  9
$UCSBASE
  2

  9
$UCSNAME
  2

  9
$UCSORG
 10
0.0
 20
0.0
 30
0.0
  9
$UCSXDIR
 10
1.0
 20
0.0
 30
0.0
  9
$UCSYDIR
 10
0.0
 20
1.0
 30
0.0
  9
$UCSORTHOREF
  2

  9
$UCSORTHOVIEW
 70
     0
  9
$UCSORGTOP
 10
0.0
 20
0.0
 30
0.0
  9
$UCSORGBOTTOM
 10
0.0
 20
0.0
 30
0.0
  9
$UCSORGLEFT
 10
0.0
 20
0.0
 30
0.0
  9
$UCSORGRIGHT
 10
0.0
 20
0.0
 30
0.0
  9
$UCSORGFRONT
 10
0.0
 20
0.0
 30
0.0
  9
$UCSORGBACK
 10
0.0
 20
0.0
 30
0.0
  9
$PUCSBASE
  2

  9
$PUCSNAME
  2

  9
$PUCSORG
 10
0.0
 20
0.0
 30
0.0
  9
$PUCSXDIR
 10
1.0
 20
0.0
 30
0.0
  9
$PUCSYDIR
 10
0.0
 20
1.0
 30
0.0
  9
$PUCSORTHOREF
  2

  9
$PUCSORTHOVIEW
 70
     0
  9
$PUCSORGTOP
 10
0.0
 20
0.0
 30
0.0
  9
$PUCSORGBOTTOM
 10
0.0
 20
0.0
 30
0.0
  9
$PUCSORGLEFT
 10
0.0
 20
0.0
 30
0.0
  9
$PUCSORGRIGHT
 10
0.0
 20
0.0
 30
0.0
  9
$PUCSORGFRONT
 10
0.0
 20
0.0
 30
0.0
  9
$PUCSORGBACK
 10
0.0
 20
0.0
 30
0.0
  9
$USERI1
 70
     0
  9
$USERI2
 70
     0
  9
$USERI3
 70
     0
  9
$USERI4
 70
     0
  9
$USERI5
 70
     0
  9
$USERR1
 40
0.0
  9
$USERR2
 40
0.0
  9
$USERR3
 40
0.0
  9
$USERR4
 40
0.0
  9
$USERR5
 40
0.0
  9
$WORLDVIEW
 70
     1
  9
$SHADEDGE
 70
     3
  9
$SHADEDIF
 70
    70
  9
$TILEMODE
 70
     1
  9
$MAXACTVP
 70
    64
  9
$PINSBASE
 10
0.0
 20
0.0
 30
0.0
  9
$PLIMCHECK
 70
     0
  9
$PEXTMIN
 10
1.000000000000000E+20
 20
1.000000000000000E+20
 30
1.000000000000000E+20
  9
$PEXTMAX
 10
-1.000000000000000E+20
 20
-1.000000000000000E+20
 30
-1.000000000000000E+20
  9
$PLIMMIN
 10
0.0
 20
0.0
  9
$PLIMMAX
 10
12.0
 20
9.0
  9
$UNITMODE
 70
     0
  9
$VISRETAIN
 70
     1
  9
$PLINEGEN
 70
     0
  9
$PSLTSCALE
 70
     1
  9
$TREEDEPTH
 70
  3020
  9
$CMLSTYLE
  2
Standard
  9
$CMLJUST
 70
     0
  9
$CMLSCALE
 40
1.0
  9
$PROXYGRAPHICS
 70
     1
  9
$MEASUREMENT
 70
     0
  9
$CELWEIGHT
370
    -1
  9
$ENDCAPS
280
     0
  9
$JOINSTYLE
280
     0
  9
$LWDISPLAY
290
     0
  9
$INSUNITS
 70
     0
  9
$HYPERLINKBASE
  1

  9
$STYLESHEET
  1

  9
$XEDIT
290
     1
  9
$CEPSNTYPE
380
     0
  9
$PSTYLEMODE
290
     1
  9
$FINGERPRINTGUID
  2
{3A5FB69D-B157-450F-A42F-4A3CBCC0C0C2}
  9
$VERSIONGUID
  2
{D2209B91-FD3A-4325-B110-A2CFBAFE5A6B}
  9
$EXTNAMES
290
     1
  9
$PSVPSCALE
 40
0.0
  9
$OLESTARTUP
290
     0
  0
ENDSEC
  0
SECTION
  2
CLASSES
  0
CLASS
  1
ACDBDICTIONARYWDFLT
  2
AcDbDictionaryWithDefault
  3
ObjectDBX Classes
 90
        0
280
     0
281
     0
  0
CLASS
  1
MATERIAL
  2
AcDbMaterial
  3
ObjectDBX Classes
 90
     1153
280
     0
281
     0
  0
CLASS
  1
VISUALSTYLE
  2
AcDbVisualStyle
  3
ObjectDBX Classes
 90
     4095
280
     0
281
     0
  0
CLASS
  1
TABLESTYLE
  2
AcDbTableStyle
  3
ObjectDBX Classes
 90
     4095
280
     0
281
     0
  0
CLASS
  1
SCALE
  2
AcDbScale
  3
ObjectDBX Classes
 90
     1153
280
     0
281
     0
  0
CLASS
  1
MLEADERSTYLE
  2
AcDbMLeaderStyle
  3
ACDB_MLEADERSTYLE_CLASS
 90
     4095
280
     0
281
     0
  0
CLASS
  1
ACDBSECTIONVIEWSTYLE
  2
AcDbSectionViewStyle
  3
ObjectDBX Classes
 90
     1025
280
     0
281
     0
  0
CLASS
  1
ACDBDETAILVIEWSTYLE
  2
AcDbDetailViewStyle
  3
ObjectDBX Classes
 90
     1025
280
     0
281
     0
  0
CLASS
  1
ACME_DOCUMENT
  2
AcMeDbDoc
  3
AcMeServices
 90
     1024
280
     0
281
     0
  0
CLASS
  1
AMGSETTINGSOBJ
  2
AmgSettingsObj
  3
"AcadM|Product Description: AutoCAD Mechanical|Company: Autodesk, Inc."
 90
     1024
280
     0
281
     0
  0
CLASS
  1
ACMESCOPE
  2
AcMeScope
  3
AcMeServices
 90
     1024
280
     0
281
     0
  0
CLASS
  1
ACMECOMMANDHISTORY
  2
AcMeCommandHistory
  3
AcMeServices
 90
     1024
280
     0
281
     0
  0
CLASS
  1
ACIMSYSVARMAN
  2
AcImSysVarManager
  3
AcMeServices
 90
     1024
280
     0
281
     0
  0
CLASS
  1
ACIMINTSYSVAR
  2
AcImIntSysVar
  3
AcMeServices
 90
     1024
280
     0
281
     0
  0
CLASS
  1
ACMESTATEMGR
  2
AcMeStateMgr
  3
AcMeServices
 90
     1024
280
     0
281
     0
  0
CLASS
  1
ACDBENTITYCACHE
  2
AcMeEntityCache
  3
AcMeServices
 90
     1024
280
     0
281
     0
  0
CLASS
  1
ACGREFMASTER
  2
AcGrefMaster
  3
AcAttribServices
 90
     1024
280
     0
281
     0
  0
CLASS
  1
ACME_DATABASE
  2
AcMeDbDatabase
  3
AcMeServices
 90
     1024
280
     0
281
     0
  0
CLASS
  1
ACRFINSADJUSTERMGR
  2
AcRfInsAdjusterMgr
  3
AcMeServices
 90
     1024
280
     0
281
     0
  0
CLASS
  1
ACGREFACADMASTER
  2
AcGrefacadMaster
  3
AcGrefServices
 90
     1024
280
     0
281
     0
  0
CLASS
  1
AMDTMENUSTATEMGR
  2
AmdtMenuStateMgr
  3
McadcomServices
 90
     1024
280
     0
281
     0
  0
CLASS
  1
AMDTMCOMMENUSTATE
  2
AmdtMcomMenuState
  3
McadcomServices
 90
     1024
280
     0
281
     0
  0
CLASS
  1
AMIMASTER
  2
AmiMaster
  3
AmiServices
 90
     1024
280
     0
281
     0
  0
CLASS
  1
MAPIAMMOUDLE
  2
MApiAmModule
  3
MApiAmServices
 90
     1024
280
     0
281
     0
  0
CLASS
  1
ACIMSTRSYSVAR
  2
AcImStrSysVar
  3
AcMeServices
 90
     1024
280
     0
281
     0
  0
CLASS
  1
AMDTAMMENUSTATE
  2
AmdtAmMenuState
  3
DesignerAssemblies
 90
     1024
280
     0
281
     0
  0
CLASS
  1
ACAMPROJECT
  2
AcAmProject
  3
DesignerAssemblies
 90
     1024
280
     0
281
     0
  0
CLASS
  1
ACAMGRCOMPDEF
  2
AcAmGrCompDef
  3
DesignerAssemblies
 90
     1024
280
     0
281
     0
  0
CLASS
  1
ACAMCOMPDEF
  2
AcAmCompDef
  3
DesignerAssemblies
 90
     1024
280
     0
281
     0
  0
CLASS
  1
ACAMCOMPDEFMGR
  2
AcAmCompDefMgr
  3
DesignerAssemblies
 90
     1024
280
     0
281
     0
  0
CLASS
  1
AMCONTEXTMGR
  2
AcAmContextMgr
  3
DesignerAssemblies
 90
     1024
280
     0
281
     0
  0
CLASS
  1
ACAMCONTEXTMODELER
  2
AcAmContextModeler
  3
DesignerAssemblies
 90
     1024
280
     0
281
     0
  0
CLASS
  1
ACMDATADICTIONARY
  2
AcmDataDictionary
  3
"AcmSymBB|Product Description: AutoCAD Mechanical|Company: Autodesk, Inc."
 90
     1024
280
     0
281
     0
  0
CLASS
  1
ACAMGRCOMPDEFSET
  2
AcAmGrCompDefSet
  3
DesignerAssemblies
 90
     1024
280
     0
281
     0
  0
CLASS
  1
AMDTBROWSERDBTAB
  2
AmdtBrowserDbTab
  3
McadcomServices
 90
     1024
280
     0
281
     0
  0
CLASS
  1
CBROWSERAPPOBJECT
  2
CBrowserAppObject
  3
McadcomServices
 90
     1024
280
     0
281
     0
  0
CLASS
  1
DM_PLACEHOLDER
  2
AcDmSelsetPlaceholder
  3
McadcomServices
 90
     1024
280
     0
281
     0
  0
CLASS
  1
ACMSTANDARDANSI
  2
AcmStandardANSI
  3
"Amdt_StdImp|Product Description: AutoCAD Mechanical|Company: Autodesk, Inc."
 90
     1024
280
     0
281
     0
  0
CLASS
  1
ACMSURFSTANDARDANSI
  2
AcmSurfTextStdANSI
  3
"Amdt_StdImp|Product Description: AutoCAD Mechanical|Company: Autodesk, Inc."
 90
     1024
280
     0
281
     0
  0
CLASS
  1
ACMFCFSTANDARDANSI
  2
AcmFCFStdANSI
  3
"Amdt_StdImp|Product Description: AutoCAD Mechanical|Company: Autodesk, Inc."
 90
     1024
280
     0
281
     0
  0
CLASS
  1
ACMWELDSTANDARDANSI
  2
AcmWeldingStdANSI
  3
"Amdt_StdImp|Product Description: AutoCAD Mechanical|Company: Autodesk, Inc."
 90
     1024
280
     0
281
     0
  0
CLASS
  1
ACMIDSTANDARDANSI
  2
AcmIdStdANSI
  3
"Amdt_StdImp|Product Description: AutoCAD Mechanical|Company: Autodesk, Inc."
 90
     1024
280
     0
281
     0
  0
CLASS
  1
ACMDATUMSTANDARDANSI
  2
AcmDatumStdANSI
  3
"Amdt_StdImp|Product Description: AutoCAD Mechanical|Company: Autodesk, Inc."
 90
     1024
280
     0
281
     0
  0
CLASS
  1
ACMBOMSTANDARDANSI
  2
AcmBOMStdANSI
  3
"Amdt_StdImp|Product Description: AutoCAD Mechanical|Company: Autodesk, Inc."
 90
     1024
280
     0
281
     0
  0
CLASS
  1
ACMDETAILSTANDARDANSI
  2
AmdtDetailSymStdANSI
  3
"Amdt_StdImp|Product Description: AutoCAD Mechanical|Company: Autodesk, Inc."
 90
     1024
280
     0
281
     0
  0
CLASS
  1
ACMSECTIONSTANDARDANSI
  2
AmdtSectionSymStdANSI
  3
"Amdt_StdImp|Product Description: AutoCAD Mechanical|Company: Autodesk, Inc."
 90
     1024
280
     0
281
     0
  0
CLASS
  1
ACMCENTERLINESTANDARDANSI
  2
AmdtCenterLineStdANSI
  3
"Amdt_StdImp|Product Description: AutoCAD Mechanical|Company: Autodesk, Inc."
 90
     1024
280
     0
281
     0
  0
CLASS
  1
ACMTHREADLINESTANDARDANSI
  2
AmdtThreadLineStdANSI
  3
"Amdt_StdImp|Product Description: AutoCAD Mechanical|Company: Autodesk, Inc."
 90
     1024
280
     0
281
     0
  0
CLASS
  1
ACMNOTESTANDARDANSI
  2
AmdtNoteStdANSI
  3
"Amdt_StdImp|Product Description: AutoCAD Mechanical|Company: Autodesk, Inc."
 90
     1024
280
     0
281
     0
  0
CLASS
  1
ACMTAPERSTANDARDANSI
  2
AcmTaperStdANSI
  3
"Amdt_StdImp|Product Description: AutoCAD Mechanical|Company: Autodesk, Inc."
 90
     1024
280
     0
281
     0
  0
CLASS
  1
ACMANOOTATIONVIEWSTANDARDANSI
  2
AmdtAnViewStdANSI
  3
"Amdt_StdImp|Product Description: AutoCAD Mechanical|Company: Autodesk, Inc."
 90
     1024
280
     0
281
     0
  0
CLASS
  1
ACAMGLAYSTD
  2
AcAmgLayStd
  3
"AmgLay|Product Description: AutoCAD Mechanical|Company: Autodesk, Inc."
 90
     1024
280
     0
281
     0
  0
CLASS
  1
ACAMGDIMSTD
  2
AcAmgDimStd
  3
"AmgDim|Product Description: AutoCAD Mechanical|Company: Autodesk, Inc."
 90
     1024
280
     0
281
     0
  0
CLASS
  1
AMGOBJPROPCFG
  2
AmgObjPropCfg
  3
"AmgLay|Product Description: AutoCAD Mechanical|Company: Autodesk, Inc."
 90
     1024
280
     0
281
     0
  0
CLASS
  1
ACAMGHOLECHARTSTDANSI
  2
AcAmgHoleChartStdANSI
  3
AmgDim|Product Description: AutoCAD Mechanical|Company: Autodesk, Inc.
 90
     1024
280
     0
281
     0
  0
CLASS
  1
ACAMGTITLESTD
  2
AcAmgTitleStd
  3
"AmgTitle|Product Description: AutoCAD Mechanical|Company: Autodesk, Inc."
 90
     1024
280
     0
281
     0
  0
CLASS
  1
AMDTNOTETEMPLATEDB
  2
AmdtNoteTemplateDB
  3
AcmSymBB|Product Description: AutoCAD Mechanical|Company: Autodesk, Inc.
 90
     1024
280
     0
281
     0
  0
CLASS
  1
ACAMGFILTERDAT
  2
AcAmgFilterDat
  3
"AcadM|Product Description: AutoCAD Mechanical|Company: Autodesk, Inc."
 90
     1024
280
     0
281
     0
  0
CLASS
  1
SORTENTSTABLE
  2
AcDbSortentsTable
  3
ObjectDBX Classes
 90
        0
280
     0
281
     0
  0
CLASS
  1
CELLSTYLEMAP
  2
AcDbCellStyleMap
  3
ObjectDBX Classes
 90
     1152
280
     0
281
     0
  0
CLASS
  1
DICTIONARYVAR
  2
AcDbDictionaryVar
  3
ObjectDBX Classes
 90
        0
280
     0
281
     0
  0
CLASS
  1
ACDBPLACEHOLDER
  2
AcDbPlaceHolder
  3
ObjectDBX Classes
 90
        0
280
     0
281
     0
  0
CLASS
  1
LAYOUT
  2
AcDbLayout
  3
ObjectDBX Classes
 90
        0
280
     0
281
     0
  0
ENDSEC
  0
SECTION
  2
TABLES
  0
TABLE
  2
VPORT
  5
8
330
0
100
AcDbSymbolTable
 70
     1
  0
VPORT
  5
122
330
8
100
AcDbSymbolTableRecord
100
AcDbViewportTableRecord
  2
*Active
 70
     0
 10
0.0
 20
0.0
 11
1.0
 21
1.0
 12
0.0179032366610663
 22
0.1133001070597143
 13
0.0
 23
0.0
 14
0.5
 24
0.5
 15
0.5
 25
0.5
 16
0.0
 26
0.0
 36
1.0
 17
0.0
 27
0.0
 37
0.0
 40
1.241298020122875
 41
1.681623931623931
 42
50.0
 43
0.0
 44
0.0
 50
0.0
 51
0.0
 71
     0
 72
   100
 73
     1
 74
     3
 75
     0
 76
     0
 77
     0
 78
     0
281
     0
 65
     1
110
0.0
120
0.0
130
0.0
111
1.0
121
0.0
131
0.0
112
0.0
122
1.0
132
0.0
 79
     0
146
0.0
1001
ACAD_NAV_VCDISPLAY
1070
     3
  0
ENDTAB
  0
TABLE
  2
LTYPE
  5
5
330
0
100
AcDbSymbolTable
 70
     8
  0
LTYPE
  5
14
330
5
100
AcDbSymbolTableRecord
100
AcDbLinetypeTableRecord
  2
ByBlock
 70
     0
  3

 72
    65
 73
     0
 40
0.0
  0
LTYPE
  5
15
330
5
100
AcDbSymbolTableRecord
100
AcDbLinetypeTableRecord
  2
ByLayer
 70
     0
  3

 72
    65
 73
     0
 40
0.0
  0
LTYPE
  5
16
330
5
100
AcDbSymbolTableRecord
100
AcDbLinetypeTableRecord
  2
Continuous
 70
     0
  3
Solid line
 72
    65
 73
     0
 40
0.0
  0
LTYPE
  5
172
330
5
100
AcDbSymbolTableRecord
100
AcDbLinetypeTableRecord
  2
PHANTOM2
 70
     0
  3
Phantom (.5x) ___ _ _ ___ _ _ ___ _ _ ___ _ _
 72
    65
 73
     6
 40
1.25
 49
0.625
 74
     0
 49
-0.125
 74
     0
 49
0.125
 74
     0
 49
-0.125
 74
     0
 49
0.125
 74
     0
 49
-0.125
 74
     0
  0
LTYPE
  5
187
330
5
100
AcDbSymbolTableRecord
100
AcDbLinetypeTableRecord
  2
HIDDEN
 70
     0
  3
Hidden __ __ __ __ __ __ __ __ __ __ __ __ __ _
 72
    65
 73
     2
 40
0.375
 49
0.25
 74
     0
 49
-0.125
 74
     0
  0
LTYPE
  5
188
330
5
100
AcDbSymbolTableRecord
100
AcDbLinetypeTableRecord
  2
CENTER
 70
     0
  3
Center ____ _ ____ _ ____ _ ____ _ ____ _ ____
 72
    65
 73
     4
 40
2.0
 49
1.25
 74
     0
 49
-0.25
 74
     0
 49
0.25
 74
     0
 49
-0.25
 74
     0
  0
LTYPE
  5
1C2
330
5
100
AcDbSymbolTableRecord
100
AcDbLinetypeTableRecord
  2
CENTER2
 70
     0
  3
Center (.5x) ___ _ ___ _ ___ _ ___ _ ___ _ ___
 72
    65
 73
     4
 40
1.125
 49
0.75
 74
     0
 49
-0.125
 74
     0
 49
0.125
 74
     0
 49
-0.125
 74
     0
  0
LTYPE
  5
1C3
330
5
100
AcDbSymbolTableRecord
100
AcDbLinetypeTableRecord
  2
HIDDEN2
 70
     0
  3
Hidden (.5x) _ _ _ _ _ _ _ _ _ _ _ _ _ _ _ _ _
 72
    65
 73
     2
 40
0.1875
 49
0.125
 74
     0
 49
-0.0625
 74
     0
  0
LTYPE
  5
1D1
330
5
100
AcDbSymbolTableRecord
100
AcDbLinetypeTableRecord
  2
ACANSTGB
 70
     0
  3
__ . . __ . .
 72
    65
 73
     6
 40
0.35433070866
 49
0.15748031496
 74
     0
 49
-0.03937007874
 74
     0
 49
0.03937007874
 74
     0
 49
-0.03937007874
 74
     0
 49
0.03937007874
 74
     0
 49
-0.03937007874
 74
     0
  0
LTYPE
  5
1D2
330
5
100
AcDbSymbolTableRecord
100
AcDbLinetypeTableRecord
  2
ACANSTGL
 70
     0
  3
_ _ _ _ _
 72
    65
 73
     2
 40
0.11811023622
 49
0.07874015748
 74
     0
 49
-0.03937007874
 74
     0
  0
ENDTAB
  0
TABLE
  2
LAYER
  5
2
330
0
100
AcDbSymbolTable
 70
     2
  0
LAYER
  5
10
102
{ACAD_XDICTIONARY
360
5CF
102
}
330
2
100
AcDbSymbolTableRecord
100
AcDbLayerTableRecord
  2
0
 70
     0
 62
     7
  6
Continuous
370
    -3
390
F
  0
LAYER
  5
567
102
{ACAD_XDICTIONARY
360
5D1
102
}
330
2
100
AcDbSymbolTableRecord
100
AcDbLayerTableRecord
  2
AM_CL
 70
     0
 62
     1
  6
Continuous
370
    15
390
F
1001
AcAecLayerStandard
1000

1000

  0
ENDTAB
  0
TABLE
  2
STYLE
  5
3
330
0
100
AcDbSymbolTable
 70
     3
  0
STYLE
  5
11
330
3
100
AcDbSymbolTableRecord
100
AcDbTextStyleTableRecord
  2
Standard
 70
     0
 40
0.0
 41
1.0
 50
0.0
 71
     0
 42
0.2
  3
txt
  4

  0
STYLE
  5
1CF
330
3
100
AcDbSymbolTableRecord
100
AcDbTextStyleTableRecord
  2
ACANSTS
 70
     0
 40
1.0
 41
1.0
 50
0.0
 71
     0
 42
0.2
  3
romans.shx
  4
extfont.shx
  0
STYLE
  5
1D0
330
3
100
AcDbSymbolTableRecord
100
AcDbTextStyleTableRecord
  2
ACANSGDT
 70
     0
 40
0.0
 41
1.0
 50
0.0
 71
     0
 42
0.2
  3
amgdt.shx
  4

  0
ENDTAB
  0
TABLE
  2
VIEW
  5
6
330
0
100
AcDbSymbolTable
 70
     0
  0
ENDTAB
  0
TABLE
  2
UCS
  5
7
330
0
100
AcDbSymbolTable
 70
     0
  0
ENDTAB
  0
TABLE
  2
APPID
  5
9
330
0
100
AcDbSymbolTable
 70
    14
  0
APPID
  5
12
330
9
100
AcDbSymbolTableRecord
100
AcDbRegAppTableRecord
  2
ACAD
 70
     0
  0
APPID
  5
180
330
9
100
AcDbSymbolTableRecord
100
AcDbRegAppTableRecord
  2
MCAD_NO_VIS
 70
     0
  0
APPID
  5
181
330
9
100
AcDbSymbolTableRecord
100
AcDbRegAppTableRecord
  2
ACAD_TEMP_GRAPHIC
 70
     0
  0
APPID
  5
18D
330
9
100
AcDbSymbolTableRecord
100
AcDbRegAppTableRecord
  2
ACATTRIBSERVICES
 70
     0
  0
APPID
  5
1A5
330
9
100
AcDbSymbolTableRecord
100
AcDbRegAppTableRecord
  2
DESIGNERASSEMBLIES
 70
     0
  0
APPID
  5
1BF
330
9
100
AcDbSymbolTableRecord
100
AcDbRegAppTableRecord
  2
ACAD_DSTYLE_DIMJAG
 70
     0
  0
APPID
  5
1C0
330
9
100
AcDbSymbolTableRecord
100
AcDbRegAppTableRecord
  2
ACAD_DSTYLE_DIMBREAK
 70
     0
  0
APPID
  5
1DA
330
9
100
AcDbSymbolTableRecord
100
AcDbRegAppTableRecord
  2
ACAD_NAV_VCDISPLAY
 70
     0
  0
APPID
  5
568
330
9
100
AcDbSymbolTableRecord
100
AcDbRegAppTableRecord
  2
AcAecLayerStandard
 70
     0
  0
APPID
  5
61E
330
9
100
AcDbSymbolTableRecord
100
AcDbRegAppTableRecord
  2
ACAD_MLEADERVER
 70
     0
  0
APPID
  5
621
330
9
100
AcDbSymbolTableRecord
100
AcDbRegAppTableRecord
  2
ACAD_DSTYLE_DIMARC_LENGTH_SYMBOL
 70
     0
  0
APPID
  5
622
330
9
100
AcDbSymbolTableRecord
100
AcDbRegAppTableRecord
  2
ACAD_DSTYLE_DIM_LINETYPE
 70
     0
  0
APPID
  5
623
330
9
100
AcDbSymbolTableRecord
100
AcDbRegAppTableRecord
  2
ACAD_DSTYLE_DIM_EXT1_LINETYPE
 70
     0
  0
APPID
  5
624
330
9
100
AcDbSymbolTableRecord
100
AcDbRegAppTableRecord
  2
ACAD_DSTYLE_DIM_EXT2_LINETYPE
 70
     0
  0
ENDTAB
  0
TABLE
  2
DIMSTYLE
  5
A
330
0
100
AcDbSymbolTable
 70
     7
100
AcDbDimStyleTable
 71
     0
  0
DIMSTYLE
105
21
330
A
100
AcDbSymbolTableRecord
100
AcDbDimStyleTableRecord
  2
Standard
 70
     0
340
11
  0
DIMSTYLE
105
1BE
102
{ACAD_REACTORS
330
1AE
102
}
330
A
100
AcDbSymbolTableRecord
100
AcDbDimStyleTableRecord
  2
AM_ANSI
 70
     0
  4
mm
 41
0.12
 42
0.05
 43
0.5
 44
0.1
 47
0.1
 48
0.1
 78
     7
 79
     2
140
0.12
141
0.0
146
0.71
147
0.06
176
   256
177
   256
178
     2
274
     4
284
     7
340
11
371
    -1
372
    -1
1001
ACAD_DSTYLE_DIMJAG
1070
   388
1040
1.5
1001
ACAD_DSTYLE_DIMBREAK
1070
   391
1040
0.125
1001
ACAD_DSTYLE_DIMARC_LENGTH_SYMBOL
1070
   379
1070
     1
1001
ACAD_DSTYLE_DIM_LINETYPE
1070
   380
1005
14
1001
ACAD_DSTYLE_DIM_EXT1_LINETYPE
1070
   381
1005
14
1001
ACAD_DSTYLE_DIM_EXT2_LINETYPE
1070
   382
1005
14
  0
DIMSTYLE
105
1C4
330
A
100
AcDbSymbolTableRecord
100
AcDbDimStyleTableRecord
  2
AM_ANSI$3
 70
     0
  4
mm
 41
0.12
 42
0.05
 43
0.5
 44
0.1
 47
0.1
 48
0.1
 78
     7
 79
     2
140
0.12
141
0.0
146
0.71
147
0.06
176
   256
177
   256
178
     2
274
     4
284
     7
288
     1
289
     0
340
11
371
    -1
372
    -1
1001
ACAD_DSTYLE_DIMBREAK
1070
   391
1040
0.125
1001
ACAD_DSTYLE_DIMJAG
1070
   388
1040
1.5
1001
ACAD_DSTYLE_DIMARC_LENGTH_SYMBOL
1070
   379
1070
     1
1001
ACAD_DSTYLE_DIM_LINETYPE
1070
   380
1005
14
1001
ACAD_DSTYLE_DIM_EXT1_LINETYPE
1070
   381
1005
14
1001
ACAD_DSTYLE_DIM_EXT2_LINETYPE
1070
   382
1005
14
  0
DIMSTYLE
105
1C5
330
A
100
AcDbSymbolTableRecord
100
AcDbDimStyleTableRecord
  2
AM_ANSI$4
 70
     0
  4
mm
 41
0.12
 42
0.05
 43
0.5
 44
0.1
 47
0.1
 48
0.1
 78
     7
 79
     2
140
0.12
141
0.0
146
0.71
147
0.06
176
   256
177
   256
178
     2
274
     4
284
     7
288
     1
289
     0
340
11
371
    -1
372
    -1
1001
ACAD_DSTYLE_DIMBREAK
1070
   391
1040
0.125
1001
ACAD_DSTYLE_DIMJAG
1070
   388
1040
1.5
1001
ACAD_DSTYLE_DIMARC_LENGTH_SYMBOL
1070
   379
1070
     1
1001
ACAD_DSTYLE_DIM_LINETYPE
1070
   380
1005
14
1001
ACAD_DSTYLE_DIM_EXT1_LINETYPE
1070
   381
1005
14
1001
ACAD_DSTYLE_DIM_EXT2_LINETYPE
1070
   382
1005
14
  0
DIMSTYLE
105
1C6
330
A
100
AcDbSymbolTableRecord
100
AcDbDimStyleTableRecord
  2
AM_ANSI$7
 70
     0
  4
mm
 41
0.12
 42
0.05
 43
0.5
 44
0.1
 47
0.1
 48
0.1
 78
     7
 79
     2
140
0.12
141
0.0
146
0.71
147
0.06
176
   256
177
   256
178
     2
274
     4
284
     7
340
11
371
    -1
372
    -1
1001
ACAD_DSTYLE_DIMBREAK
1070
   391
1040
0.125
1001
ACAD_DSTYLE_DIMJAG
1070
   388
1040
1.5
1001
ACAD_DSTYLE_DIMARC_LENGTH_SYMBOL
1070
   379
1070
     1
1001
ACAD_DSTYLE_DIM_LINETYPE
1070
   380
1005
14
1001
ACAD_DSTYLE_DIM_EXT1_LINETYPE
1070
   381
1005
14
1001
ACAD_DSTYLE_DIM_EXT2_LINETYPE
1070
   382
1005
14
  0
DIMSTYLE
105
1C7
330
A
100
AcDbSymbolTableRecord
100
AcDbDimStyleTableRecord
  2
AM_ANSI$SF
 70
     0
  4
mm
 41
0.12
 42
0.05
 43
0.5
 44
0.1
 47
0.1
 48
0.1
 75
     1
 76
     1
 78
     7
 79
     2
140
0.12
141
0.0
146
0.71
147
0.06
176
   256
177
   256
178
     2
274
     4
284
     7
340
11
371
    -1
372
    -1
1001
ACAD_DSTYLE_DIMBREAK
1070
   391
1040
0.125
1001
ACAD_DSTYLE_DIMJAG
1070
   388
1040
1.5
1001
ACAD_DSTYLE_DIMARC_LENGTH_SYMBOL
1070
   379
1070
     1
1001
ACAD_DSTYLE_DIM_LINETYPE
1070
   380
1005
14
1001
ACAD_DSTYLE_DIM_EXT1_LINETYPE
1070
   381
1005
14
1001
ACAD_DSTYLE_DIM_EXT2_LINETYPE
1070
   382
1005
14
  0
DIMSTYLE
105
1CC
330
A
100
AcDbSymbolTableRecord
100
AcDbDimStyleTableRecord
  2
AM_ANSI$SH
 70
     0
  4
mm
 41
0.12
 42
0.05
 43
0.5
 44
0.1
 47
0.1
 48
0.1
 75
     1
 76
     1
 78
     7
 79
     2
140
0.12
141
0.0
146
0.71
147
0.06
173
     1
176
   256
177
   256
178
     2
274
     4
284
     7
340
11
343
1C8
371
    -1
372
    -1
1001
ACAD_DSTYLE_DIMBREAK
1070
   391
1040
0.125
1001
ACAD_DSTYLE_DIMJAG
1070
   388
1040
1.5
1001
ACAD_DSTYLE_DIMARC_LENGTH_SYMBOL
1070
   379
1070
     1
1001
ACAD_DSTYLE_DIM_LINETYPE
1070
   380
1005
14
1001
ACAD_DSTYLE_DIM_EXT1_LINETYPE
1070
   381
1005
14
1001
ACAD_DSTYLE_DIM_EXT2_LINETYPE
1070
   382
1005
14
  0
ENDTAB
  0
TABLE
  2
BLOCK_RECORD
  5
1
330
0
100
AcDbSymbolTable
 70
     4
  0
BLOCK_RECORD
  5
1D
102
{ACAD_XDICTIONARY
360
56A
102
}
330
1
100
AcDbSymbolTableRecord
100
AcDbBlockTableRecord
  2
*Model_Space
340
1E
  0
BLOCK_RECORD
  5
1B
330
1
100
AcDbSymbolTableRecord
100
AcDbBlockTableRecord
  2
*Paper_Space
340
1C
  0
BLOCK_RECORD
  5
1C8
330
1
100
AcDbSymbolTableRecord
100
AcDbBlockTableRecord
  2
GENAXEH
340
0
  0
ENDTAB
  0
ENDSEC
  0
SECTION
  2
BLOCKS
  0
BLOCK
  5
123
330
1D
100
AcDbEntity
  8
0
100
AcDbBlockBegin
  2
*Model_Space
 70
     0
 10
0.0
 20
0.0
 30
0.0
  3
*Model_Space
  1

  0
ENDBLK
  5
124
330
1D
100
AcDbEntity
  8
0
100
AcDbBlockEnd
  0
BLOCK
  5
125
330
1B
100
AcDbEntity
 67
     1
  8
0
100
AcDbBlockBegin
  2
*Paper_Space
 70
     0
 10
0.0
 20
0.0
 30
0.0
  3
*Paper_Space
  1

  0
ENDBLK
  5
126
330
1B
100
AcDbEntity
 67
     1
  8
0
100
AcDbBlockEnd
  0
BLOCK
  5
1CA
330
1C8
100
AcDbEntity
  8
0
100
AcDbBlockBegin
  2
GENAXEH
 70
     0
 10
0.0
 20
0.0
 30
0.0
  3
GENAXEH
  1

  0
LINE
  5
1C9
330
1C8
100
AcDbEntity
  8
0
100
AcDbLine
 10
-1.0
 20
0.0
 30
0.0
 11
1.0
 21
0.0
 31
0.0
  0
ENDBLK
  5
1CB
330
1C8
100
AcDbEntity
  8
0
100
AcDbBlockEnd
  0
ENDSEC
  0
SECTION
  2
ENTITIES
  0
LINE
  5
22
330
1D
100
AcDbEntity
  8
0
  6
Continuous
100
AcDbLine
 10
0.017496
 20
0.037002
 30
0.0
 11
0.017496
 21
0.038802
 31
0.0
  0
LINE
  5
23
330
1D
100
AcDbEntity
  8
0
  6
Continuous
100
AcDbLine
 10
-0.017496
 20
0.038802
 30
0.0
 11
-0.017496
 21
0.037002
 31
0.0
  0
LINE
  5
24
330
1D
100
AcDbEntity
  8
0
  6
Continuous
100
AcDbLine
 10
-0.019222
 20
0.030732
 30
0.0
 11
-0.019544
 21
0.020524
 31
0.0
  0
LINE
  5
25
330
1D
100
AcDbEntity
  8
0
  6
Continuous
100
AcDbLine
 10
-0.014753
 20
0.024208
 30
0.0
 11
-0.015757
 21
0.028088
 31
0.0
  0
LINE
  5
26
330
1D
100
AcDbEntity
  8
0
  6
Continuous
100
AcDbLine
 10
-0.011274
 20
0.019877
 30
0.0
 11
-0.012409
 21
0.020732
 31
0.0
  0
LINE
  5
27
330
1D
100
AcDbEntity
  8
0
  6
Continuous
100
AcDbLine
 10
-0.012409
 20
0.020732
 30
0.0
 11
-0.014753
 21
0.024208
 31
0.0
  0
LINE
  5
28
330
1D
100
AcDbEntity
  8
0
  6
Continuous
100
AcDbLine
 10
-0.015757
 20
0.028088
 30
0.0
 11
-0.016358
 21
0.032085
 31
0.0
  0
LINE
  5
29
330
1D
100
AcDbEntity
  8
0
  6
Continuous
100
AcDbLine
 10
-0.016759
 20
0.036335
 30
0.0
 11
-0.016358
 21
0.032085
 31
0.0
  0
LINE
  5
2A
330
1D
100
AcDbEntity
  8
0
  6
Continuous
100
AcDbLine
 10
-0.019
 20
0.037322
 30
0.0
 11
-0.019034
 21
0.036672
 31
0.0
  0
LINE
  5
2B
330
1D
100
AcDbEntity
  8
0
  6
Continuous
100
AcDbLine
 10
-0.014454
 20
0.037322
 30
0.0
 11
-0.016852
 21
0.037322
 31
0.0
  0
LINE
  5
2C
330
1D
100
AcDbEntity
  8
0
  6
Continuous
100
AcDbLine
 10
-0.016759
 20
0.036335
 30
0.0
 11
-0.016852
 21
0.037322
 31
0.0
  0
LINE
  5
2D
330
1D
100
AcDbEntity
  8
0
  6
Continuous
100
AcDbLine
 10
-0.016852
 20
0.037322
 30
0.0
 11
-0.017514
 21
0.037322
 31
0.0
  0
LINE
  5
2E
330
1D
100
AcDbEntity
  8
0
  6
Continuous
100
AcDbLine
 10
0.0
 20
0.037322
 30
0.0
 11
-0.012511
 21
0.037322
 31
0.0
  0
LINE
  5
2F
330
1D
100
AcDbEntity
  8
0
  6
Continuous
100
AcDbLine
 10
-0.01755
 20
0.037322
 30
0.0
 11
-0.019
 21
0.037322
 31
0.0
  0
LINE
  5
30
330
1D
100
AcDbEntity
  8
0
  6
Continuous
100
AcDbLine
 10
-0.019034
 20
0.036672
 30
0.0
 11
-0.019222
 21
0.030732
 31
0.0
  0
LINE
  5
31
330
1D
100
AcDbEntity
  8
0
  6
Continuous
100
AcDbLine
 10
-0.012511
 20
0.037322
 30
0.0
 11
-0.014454
 21
0.037322
 31
0.0
  0
LINE
  5
32
330
1D
100
AcDbEntity
  8
0
  6
Continuous
100
AcDbLine
 10
-0.019866
 20
0.010315
 30
0.0
 11
-0.020194
 21
-0.000074
 31
0.0
  0
LINE
  5
33
330
1D
100
AcDbEntity
  8
0
  6
Continuous
100
AcDbLine
 10
-0.019544
 20
0.020524
 30
0.0
 11
-0.019866
 21
0.010315
 31
0.0
  0
LINE
  5
34
330
1D
100
AcDbEntity
  8
0
  6
Continuous
100
AcDbLine
 10
-0.020194
 20
-0.000074
 30
0.0
 11
-0.02051
 21
-0.010103
 31
0.0
  0
LINE
  5
35
330
1D
100
AcDbEntity
  8
0
  6
Continuous
100
AcDbLine
 10
-0.02051
 20
-0.010103
 30
0.0
 11
-0.022968
 21
-0.088001
 31
0.0
  0
LINE
  5
36
330
1D
100
AcDbEntity
  8
0
  6
Continuous
100
AcDbLine
 10
0.0
 20
0.000763
 30
0.0
 11
0.0
 21
-0.005359
 31
0.0
  0
LINE
  5
37
330
1D
100
AcDbEntity
  8
0
  6
Continuous
100
AcDbLine
 10
0.0
 20
0.010934
 30
0.0
 11
0.0
 21
0.009374
 31
0.0
  0
LINE
  5
38
330
1D
100
AcDbEntity
  8
0
  6
Continuous
100
AcDbLine
 10
0.0
 20
0.009374
 30
0.0
 11
0.0
 21
0.006005
 31
0.0
  0
LINE
  5
39
330
1D
100
AcDbEntity
  8
0
  6
Continuous
100
AcDbLine
 10
0.0
 20
0.006005
 30
0.0
 11
0.0
 21
0.000763
 31
0.0
  0
LINE
  5
3A
330
1D
100
AcDbEntity
  8
0
  6
Continuous
100
AcDbLine
 10
0.0
 20
-0.011565
 30
0.0
 11
0.0
 21
-0.088
 31
0.0
  0
LINE
  5
3B
330
1D
100
AcDbEntity
  8
0
  6
Continuous
100
AcDbLine
 10
0.019546
 20
0.020524
 30
0.0
 11
0.019223
 21
0.030732
 31
0.0
  0
LINE
  5
3C
330
1D
100
AcDbEntity
  8
0
  6
Continuous
100
AcDbLine
 10
0.015757
 20
0.028088
 30
0.0
 11
0.014753
 21
0.024208
 31
0.0
  0
LINE
  5
3D
330
1D
100
AcDbEntity
  8
0
  6
Continuous
100
AcDbLine
 10
0.012409
 20
0.020732
 30
0.0
 11
0.011274
 21
0.019877
 31
0.0
  0
LINE
  5
3E
330
1D
100
AcDbEntity
  8
0
  6
Continuous
100
AcDbLine
 10
0.014753
 20
0.024208
 30
0.0
 11
0.012409
 21
0.020732
 31
0.0
  0
LINE
  5
3F
330
1D
100
AcDbEntity
  8
0
  6
Continuous
100
AcDbLine
 10
0.016358
 20
0.032085
 30
0.0
 11
0.015757
 21
0.028088
 31
0.0
  0
LINE
  5
40
330
1D
100
AcDbEntity
  8
0
  6
Continuous
100
AcDbLine
 10
0.016358
 20
0.032085
 30
0.0
 11
0.016759
 21
0.036335
 31
0.0
  0
LINE
  5
41
330
1D
100
AcDbEntity
  8
0
  6
Continuous
100
AcDbLine
 10
0.019034
 20
0.036672
 30
0.0
 11
0.019
 21
0.037322
 31
0.0
  0
LINE
  5
42
330
1D
100
AcDbEntity
  8
0
  6
Continuous
100
AcDbLine
 10
0.016852
 20
0.037322
 30
0.0
 11
0.014454
 21
0.037322
 31
0.0
  0
LINE
  5
43
330
1D
100
AcDbEntity
  8
0
  6
Continuous
100
AcDbLine
 10
0.017514
 20
0.037322
 30
0.0
 11
0.016852
 21
0.037322
 31
0.0
  0
LINE
  5
44
330
1D
100
AcDbEntity
  8
0
  6
Continuous
100
AcDbLine
 10
0.016852
 20
0.037322
 30
0.0
 11
0.016759
 21
0.036335
 31
0.0
  0
LINE
  5
45
330
1D
100
AcDbEntity
  8
0
  6
Continuous
100
AcDbLine
 10
0.012511
 20
0.037322
 30
0.0
 11
0.0
 21
0.037322
 31
0.0
  0
LINE
  5
46
330
1D
100
AcDbEntity
  8
0
  6
Continuous
100
AcDbLine
 10
0.019
 20
0.037322
 30
0.0
 11
0.01755
 21
0.037322
 31
0.0
  0
LINE
  5
47
330
1D
100
AcDbEntity
  8
0
  6
Continuous
100
AcDbLine
 10
0.019223
 20
0.030732
 30
0.0
 11
0.019034
 21
0.036672
 31
0.0
  0
LINE
  5
48
330
1D
100
AcDbEntity
  8
0
  6
Continuous
100
AcDbLine
 10
0.014454
 20
0.037322
 30
0.0
 11
0.012511
 21
0.037322
 31
0.0
  0
LINE
  5
49
330
1D
100
AcDbEntity
  8
0
  6
Continuous
100
AcDbLine
 10
0.020199
 20
-0.000074
 30
0.0
 11
0.019869
 21
0.010315
 31
0.0
  0
LINE
  5
4A
330
1D
100
AcDbEntity
  8
0
  6
Continuous
100
AcDbLine
 10
0.019869
 20
0.010315
 30
0.0
 11
0.019546
 21
0.020524
 31
0.0
  0
LINE
  5
4B
330
1D
100
AcDbEntity
  8
0
  6
Continuous
100
AcDbLine
 10
0.020516
 20
-0.010102
 30
0.0
 11
0.020199
 21
-0.000074
 31
0.0
  0
LINE
  5
4C
330
1D
100
AcDbEntity
  8
0
  6
Continuous
100
AcDbLine
 10
0.022984
 20
-0.088
 30
0.0
 11
0.020516
 21
-0.010102
 31
0.0
  0
LINE
  5
4D
330
1D
100
AcDbEntity
  8
0
  6
Continuous
100
AcDbLine
 10
-0.016267
 20
-0.089
 30
0.0
 11
-0.011503
 21
-0.089
 31
0.0
  0
LINE
  5
4E
330
1D
100
AcDbEntity
  8
0
  6
Continuous
100
AcDbLine
 10
-0.019922
 20
-0.089
 30
0.0
 11
-0.016267
 21
-0.089
 31
0.0
  0
LINE
  5
4F
330
1D
100
AcDbEntity
  8
0
  6
Continuous
100
AcDbLine
 10
-0.005954
 20
-0.089
 30
0.0
 11
0.0
 21
-0.089
 31
0.0
  0
LINE
  5
50
330
1D
100
AcDbEntity
  8
0
  6
Continuous
100
AcDbLine
 10
-0.011503
 20
-0.089
 30
0.0
 11
-0.005954
 21
-0.089
 31
0.0
  0
LINE
  5
51
330
1D
100
AcDbEntity
  8
0
  6
Continuous
100
AcDbLine
 10
-0.022218
 20
-0.089
 30
0.0
 11
-0.019922
 21
-0.089
 31
0.0
  0
LINE
  5
52
330
1D
100
AcDbEntity
  8
0
  6
Continuous
100
AcDbLine
 10
-0.022968
 20
-0.088001
 30
0.0
 11
-0.023
 21
-0.089
 31
0.0
  0
LINE
  5
53
330
1D
100
AcDbEntity
  8
0
  6
Continuous
100
AcDbLine
 10
-0.023
 20
-0.089
 30
0.0
 11
-0.022218
 21
-0.089
 31
0.0
  0
LINE
  5
54
330
1D
100
AcDbEntity
  8
0
  6
Continuous
100
AcDbLine
 10
0.016267
 20
-0.089
 30
0.0
 11
0.011503
 21
-0.089
 31
0.0
  0
LINE
  5
55
330
1D
100
AcDbEntity
  8
0
  6
Continuous
100
AcDbLine
 10
0.019922
 20
-0.089
 30
0.0
 11
0.016267
 21
-0.089
 31
0.0
  0
LINE
  5
56
330
1D
100
AcDbEntity
  8
0
  6
Continuous
100
AcDbLine
 10
0.005954
 20
-0.089
 30
0.0
 11
0.0
 21
-0.089
 31
0.0
  0
LINE
  5
57
330
1D
100
AcDbEntity
  8
0
  6
Continuous
100
AcDbLine
 10
0.011503
 20
-0.089
 30
0.0
 11
0.005954
 21
-0.089
 31
0.0
  0
LINE
  5
58
330
1D
100
AcDbEntity
  8
0
  6
Continuous
100
AcDbLine
 10
0.022218
 20
-0.089
 30
0.0
 11
0.019922
 21
-0.089
 31
0.0
  0
LINE
  5
59
330
1D
100
AcDbEntity
  8
0
  6
Continuous
100
AcDbLine
 10
0.023
 20
-0.089
 30
0.0
 11
0.022984
 21
-0.088
 31
0.0
  0
LINE
  5
5A
330
1D
100
AcDbEntity
  8
0
  6
Continuous
100
AcDbLine
 10
0.023
 20
-0.089
 30
0.0
 11
0.022218
 21
-0.089
 31
0.0
  0
LINE
  5
5B
330
1D
100
AcDbEntity
  8
0
  6
Continuous
100
AcDbLine
 10
-0.011274
 20
0.020966
 30
0.0
 11
-0.011274
 21
0.017387
 31
0.0
  0
LINE
  5
5C
330
1D
100
AcDbEntity
  8
0
  6
Continuous
100
AcDbLine
 10
0.011274
 20
0.017387
 30
0.0
 11
0.011274
 21
0.020966
 31
0.0
  0
LINE
  5
5D
330
1D
100
AcDbEntity
  8
0
  6
Continuous
100
AcDbLine
 10
-0.003484
 20
0.011691
 30
0.0
 11
0.0
 21
0.01142
 31
0.0
  0
LINE
  5
5E
330
1D
100
AcDbEntity
  8
0
  6
Continuous
100
AcDbLine
 10
-0.006627
 20
0.012476
 30
0.0
 11
-0.003484
 21
0.011691
 31
0.0
  0
LINE
  5
5F
330
1D
100
AcDbEntity
  8
0
  6
Continuous
100
AcDbLine
 10
-0.009121
 20
0.0137
 30
0.0
 11
-0.006627
 21
0.012476
 31
0.0
  0
LINE
  5
60
330
1D
100
AcDbEntity
  8
0
  6
Continuous
100
AcDbLine
 10
-0.010722
 20
0.015242
 30
0.0
 11
-0.009121
 21
0.0137
 31
0.0
  0
LINE
  5
61
330
1D
100
AcDbEntity
  8
0
  6
Continuous
100
AcDbLine
 10
-0.011274
 20
0.016951
 30
0.0
 11
-0.010722
 21
0.015242
 31
0.0
  0
LINE
  5
62
330
1D
100
AcDbEntity
  8
0
  6
Continuous
100
AcDbLine
 10
-0.011274
 20
0.017387
 30
0.0
 11
-0.011274
 21
0.016951
 31
0.0
  0
LINE
  5
63
330
1D
100
AcDbEntity
  8
0
  6
Continuous
100
AcDbLine
 10
-0.010722
 20
0.01866
 30
0.0
 11
-0.011274
 21
0.016951
 31
0.0
  0
LINE
  5
64
330
1D
100
AcDbEntity
  8
0
  6
Continuous
100
AcDbLine
 10
-0.009121
 20
0.020202
 30
0.0
 11
-0.010722
 21
0.01866
 31
0.0
  0
LINE
  5
65
330
1D
100
AcDbEntity
  8
0
  6
Continuous
100
AcDbLine
 10
-0.006627
 20
0.021426
 30
0.0
 11
-0.009121
 21
0.020202
 31
0.0
  0
LINE
  5
66
330
1D
100
AcDbEntity
  8
0
  6
Continuous
100
AcDbLine
 10
-0.003484
 20
0.022212
 30
0.0
 11
-0.006627
 21
0.021426
 31
0.0
  0
LINE
  5
67
330
1D
100
AcDbEntity
  8
0
  6
Continuous
100
AcDbLine
 10
0.0
 20
0.022482
 30
0.0
 11
-0.003484
 21
0.022212
 31
0.0
  0
LINE
  5
68
330
1D
100
AcDbEntity
  8
0
  6
Continuous
100
AcDbLine
 10
0.003484
 20
0.022212
 30
0.0
 11
0.0
 21
0.022482
 31
0.0
  0
LINE
  5
69
330
1D
100
AcDbEntity
  8
0
  6
Continuous
100
AcDbLine
 10
0.006627
 20
0.021426
 30
0.0
 11
0.003484
 21
0.022212
 31
0.0
  0
LINE
  5
6A
330
1D
100
AcDbEntity
  8
0
  6
Continuous
100
AcDbLine
 10
0.009121
 20
0.020202
 30
0.0
 11
0.006627
 21
0.021426
 31
0.0
  0
LINE
  5
6B
330
1D
100
AcDbEntity
  8
0
  6
Continuous
100
AcDbLine
 10
0.010722
 20
0.01866
 30
0.0
 11
0.009121
 21
0.020202
 31
0.0
  0
LINE
  5
6C
330
1D
100
AcDbEntity
  8
0
  6
Continuous
100
AcDbLine
 10
0.011274
 20
0.016951
 30
0.0
 11
0.011274
 21
0.017387
 31
0.0
  0
LINE
  5
6D
330
1D
100
AcDbEntity
  8
0
  6
Continuous
100
AcDbLine
 10
0.011274
 20
0.016951
 30
0.0
 11
0.010722
 21
0.01866
 31
0.0
  0
LINE
  5
6E
330
1D
100
AcDbEntity
  8
0
  6
Continuous
100
AcDbLine
 10
0.010722
 20
0.015242
 30
0.0
 11
0.011274
 21
0.016951
 31
0.0
  0
LINE
  5
6F
330
1D
100
AcDbEntity
  8
0
  6
Continuous
100
AcDbLine
 10
0.009121
 20
0.0137
 30
0.0
 11
0.010722
 21
0.015242
 31
0.0
  0
LINE
  5
70
330
1D
100
AcDbEntity
  8
0
  6
Continuous
100
AcDbLine
 10
0.006627
 20
0.012476
 30
0.0
 11
0.009121
 21
0.0137
 31
0.0
  0
LINE
  5
71
330
1D
100
AcDbEntity
  8
0
  6
Continuous
100
AcDbLine
 10
0.003484
 20
0.011691
 30
0.0
 11
0.006627
 21
0.012476
 31
0.0
  0
LINE
  5
72
330
1D
100
AcDbEntity
  8
0
  6
Continuous
100
AcDbLine
 10
0.0
 20
0.01142
 30
0.0
 11
0.003484
 21
0.011691
 31
0.0
  0
LINE
  5
73
330
1D
100
AcDbEntity
  8
0
  6
Continuous
100
AcDbLine
 10
0.002585
 20
0.013296
 30
0.0
 11
0.004918
 21
0.013879
 31
0.0
  0
LINE
  5
74
330
1D
100
AcDbEntity
  8
0
  6
Continuous
100
AcDbLine
 10
-0.004918
 20
0.013879
 30
0.0
 11
-0.006769
 21
0.014787
 31
0.0
  0
LINE
  5
75
330
1D
100
AcDbEntity
  8
0
  6
Continuous
100
AcDbLine
 10
0.002585
 20
0.013296
 30
0.0
 11
0.0
 21
0.013095
 31
0.0
  0
LINE
  5
76
330
1D
100
AcDbEntity
  8
0
  6
Continuous
100
AcDbLine
 10
-0.006769
 20
0.014787
 30
0.0
 11
-0.007957
 21
0.015931
 31
0.0
  0
LINE
  5
77
330
1D
100
AcDbEntity
  8
0
  6
Continuous
100
AcDbLine
 10
0.008367
 20
0.0172
 30
0.0
 11
0.007957
 21
0.015931
 31
0.0
  0
LINE
  5
78
330
1D
100
AcDbEntity
  8
0
  6
Continuous
100
AcDbLine
 10
0.007957
 20
0.015931
 30
0.0
 11
0.006769
 21
0.014787
 31
0.0
  0
LINE
  5
79
330
1D
100
AcDbEntity
  8
0
  6
Continuous
100
AcDbLine
 10
-0.007957
 20
0.015931
 30
0.0
 11
-0.008367
 21
0.0172
 31
0.0
  0
LINE
  5
7A
330
1D
100
AcDbEntity
  8
0
  6
Continuous
100
AcDbLine
 10
0.0
 20
0.013095
 30
0.0
 11
-0.002585
 21
0.013296
 31
0.0
  0
LINE
  5
7B
330
1D
100
AcDbEntity
  8
0
  6
Continuous
100
AcDbLine
 10
0.006769
 20
0.014787
 30
0.0
 11
0.004918
 21
0.013879
 31
0.0
  0
LINE
  5
7C
330
1D
100
AcDbEntity
  8
0
  6
Continuous
100
AcDbLine
 10
-0.002585
 20
0.013296
 30
0.0
 11
-0.004918
 21
0.013879
 31
0.0
  0
LINE
  5
7D
330
1D
100
AcDbEntity
  8
0
  6
Continuous
100
AcDbLine
 10
0.002585
 20
0.013047
 30
0.0
 11
0.0
 21
0.012846
 31
0.0
  0
LINE
  5
7E
330
1D
100
AcDbEntity
  8
0
  6
Continuous
100
AcDbLine
 10
0.004918
 20
0.01363
 30
0.0
 11
0.002585
 21
0.013047
 31
0.0
  0
LINE
  5
7F
330
1D
100
AcDbEntity
  8
0
  6
Continuous
100
AcDbLine
 10
0.006769
 20
0.014538
 30
0.0
 11
0.004918
 21
0.01363
 31
0.0
  0
LINE
  5
80
330
1D
100
AcDbEntity
  8
0
  6
Continuous
100
AcDbLine
 10
0.007957
 20
0.015683
 30
0.0
 11
0.006769
 21
0.014538
 31
0.0
  0
LINE
  5
81
330
1D
100
AcDbEntity
  8
0
  6
Continuous
100
AcDbLine
 10
0.008367
 20
0.016951
 30
0.0
 11
0.007957
 21
0.015683
 31
0.0
  0
LINE
  5
82
330
1D
100
AcDbEntity
  8
0
  6
Continuous
100
AcDbLine
 10
0.007957
 20
0.01822
 30
0.0
 11
0.008367
 21
0.016951
 31
0.0
  0
LINE
  5
83
330
1D
100
AcDbEntity
  8
0
  6
Continuous
100
AcDbLine
 10
0.006769
 20
0.019364
 30
0.0
 11
0.007957
 21
0.01822
 31
0.0
  0
LINE
  5
84
330
1D
100
AcDbEntity
  8
0
  6
Continuous
100
AcDbLine
 10
0.004918
 20
0.020272
 30
0.0
 11
0.006769
 21
0.019364
 31
0.0
  0
LINE
  5
85
330
1D
100
AcDbEntity
  8
0
  6
Continuous
100
AcDbLine
 10
0.002585
 20
0.020855
 30
0.0
 11
0.004918
 21
0.020272
 31
0.0
  0
LINE
  5
86
330
1D
100
AcDbEntity
  8
0
  6
Continuous
100
AcDbLine
 10
0.0
 20
0.021056
 30
0.0
 11
0.002585
 21
0.020855
 31
0.0
  0
LINE
  5
87
330
1D
100
AcDbEntity
  8
0
  6
Continuous
100
AcDbLine
 10
-0.002585
 20
0.020855
 30
0.0
 11
0.0
 21
0.021056
 31
0.0
  0
LINE
  5
88
330
1D
100
AcDbEntity
  8
0
  6
Continuous
100
AcDbLine
 10
-0.004918
 20
0.020272
 30
0.0
 11
-0.002585
 21
0.020855
 31
0.0
  0
LINE
  5
89
330
1D
100
AcDbEntity
  8
0
  6
Continuous
100
AcDbLine
 10
-0.006769
 20
0.019364
 30
0.0
 11
-0.004918
 21
0.020272
 31
0.0
  0
LINE
  5
8A
330
1D
100
AcDbEntity
  8
0
  6
Continuous
100
AcDbLine
 10
-0.007957
 20
0.01822
 30
0.0
 11
-0.006769
 21
0.019364
 31
0.0
  0
LINE
  5
8B
330
1D
100
AcDbEntity
  8
0
  6
Continuous
100
AcDbLine
 10
-0.008367
 20
0.016951
 30
0.0
 11
-0.007957
 21
0.01822
 31
0.0
  0
LINE
  5
8C
330
1D
100
AcDbEntity
  8
0
  6
Continuous
100
AcDbLine
 10
-0.007957
 20
0.015683
 30
0.0
 11
-0.008367
 21
0.016951
 31
0.0
  0
LINE
  5
8D
330
1D
100
AcDbEntity
  8
0
  6
Continuous
100
AcDbLine
 10
-0.006769
 20
0.014538
 30
0.0
 11
-0.007957
 21
0.015683
 31
0.0
  0
LINE
  5
8E
330
1D
100
AcDbEntity
  8
0
  6
Continuous
100
AcDbLine
 10
-0.004918
 20
0.01363
 30
0.0
 11
-0.006769
 21
0.014538
 31
0.0
  0
LINE
  5
8F
330
1D
100
AcDbEntity
  8
0
  6
Continuous
100
AcDbLine
 10
-0.002585
 20
0.013047
 30
0.0
 11
-0.004918
 21
0.01363
 31
0.0
  0
LINE
  5
90
330
1D
100
AcDbEntity
  8
0
  6
Continuous
100
AcDbLine
 10
0.0
 20
0.012846
 30
0.0
 11
-0.002585
 21
0.013047
 31
0.0
  0
LINE
  5
91
330
1D
100
AcDbEntity
  8
0
  6
Continuous
100
AcDbLine
 10
-0.016455
 20
0.089
 30
0.0
 11
-0.018353
 21
0.089
 31
0.0
  0
LINE
  5
92
330
1D
100
AcDbEntity
  8
0
  6
Continuous
100
AcDbLine
 10
-0.0095
 20
0.089
 30
0.0
 11
-0.013435
 21
0.089
 31
0.0
  0
LINE
  5
93
330
1D
100
AcDbEntity
  8
0
  6
Continuous
100
AcDbLine
 10
-0.019
 20
0.089
 30
0.0
 11
-0.019
 21
0.08861
 31
0.0
  0
LINE
  5
94
330
1D
100
AcDbEntity
  8
0
  6
Continuous
100
AcDbLine
 10
-0.018353
 20
0.089
 30
0.0
 11
-0.019
 21
0.089
 31
0.0
  0
LINE
  5
95
330
1D
100
AcDbEntity
  8
0
  6
Continuous
100
AcDbLine
 10
-0.013435
 20
0.089
 30
0.0
 11
-0.016455
 21
0.089
 31
0.0
  0
LINE
  5
96
330
1D
100
AcDbEntity
  8
0
  6
Continuous
100
AcDbLine
 10
-0.004918
 20
0.089
 30
0.0
 11
-0.0095
 21
0.089
 31
0.0
  0
LINE
  5
97
330
1D
100
AcDbEntity
  8
0
  6
Continuous
100
AcDbLine
 10
-0.019
 20
0.08861
 30
0.0
 11
-0.019
 21
0.063901
 31
0.0
  0
LINE
  5
98
330
1D
100
AcDbEntity
  8
0
  6
Continuous
100
AcDbLine
 10
0.0
 20
0.089
 30
0.0
 11
-0.004918
 21
0.089
 31
0.0
  0
LINE
  5
99
330
1D
100
AcDbEntity
  8
0
  6
Continuous
100
AcDbLine
 10
0.0
 20
0.079949
 30
0.0
 11
-0.000697
 21
0.079994
 31
0.0
  0
LINE
  5
9A
330
1D
100
AcDbEntity
  8
0
  6
Continuous
100
AcDbLine
 10
-0.001577
 20
0.080289
 30
0.0
 11
-0.001063
 21
0.080017
 31
0.0
  0
LINE
  5
9B
330
1D
100
AcDbEntity
  8
0
  6
Continuous
100
AcDbLine
 10
-0.001577
 20
0.080289
 30
0.0
 11
-0.004601
 21
0.082386
 31
0.0
  0
LINE
  5
9C
330
1D
100
AcDbEntity
  8
0
  6
Continuous
100
AcDbLine
 10
-0.004601
 20
0.082386
 30
0.0
 11
-0.00155
 21
0.082268
 31
0.0
  0
LINE
  5
9D
330
1D
100
AcDbEntity
  8
0
  6
Continuous
100
AcDbLine
 10
-0.00069
 20
0.085142
 30
0.0
 11
-0.001062
 21
0.085139
 31
0.0
  0
LINE
  5
9E
330
1D
100
AcDbEntity
  8
0
  6
Continuous
100
AcDbLine
 10
-0.001062
 20
0.079509
 30
0.0
 11
-0.00105
 21
0.063924
 31
0.0
  0
LINE
  5
9F
330
1D
100
AcDbEntity
  8
0
  6
Continuous
100
AcDbLine
 10
-0.001063
 20
0.080017
 30
0.0
 11
-0.001062
 21
0.079509
 31
0.0
  0
LINE
  5
A0
330
1D
100
AcDbEntity
  8
0
  6
Continuous
100
AcDbLine
 10
-0.001073
 20
0.080622
 30
0.0
 11
-0.001063
 21
0.080017
 31
0.0
  0
LINE
  5
A1
330
1D
100
AcDbEntity
  8
0
  6
Continuous
100
AcDbLine
 10
-0.001063
 20
0.080017
 30
0.0
 11
-0.000697
 21
0.079994
 31
0.0
  0
LINE
  5
A2
330
1D
100
AcDbEntity
  8
0
  6
Continuous
100
AcDbLine
 10
-0.004918
 20
0.082015
 30
0.0
 11
-0.004918
 21
0.081445
 31
0.0
  0
LINE
  5
A3
330
1D
100
AcDbEntity
  8
0
  6
Continuous
100
AcDbLine
 10
-0.004918
 20
0.082585
 30
0.0
 11
-0.004918
 21
0.082015
 31
0.0
  0
LINE
  5
A4
330
1D
100
AcDbEntity
  8
0
  6
Continuous
100
AcDbLine
 10
0.0
 20
0.085148
 30
0.0
 11
-0.00069
 21
0.085142
 31
0.0
  0
LINE
  5
A5
330
1D
100
AcDbEntity
  8
0
  6
Continuous
100
AcDbLine
 10
-0.004918
 20
0.082705
 30
0.0
 11
-0.004918
 21
0.082585
 31
0.0
  0
LINE
  5
A6
330
1D
100
AcDbEntity
  8
0
  6
Continuous
100
AcDbLine
 10
-0.00429
 20
0.08511
 30
0.0
 11
-0.004918
 21
0.085104
 31
0.0
  0
LINE
  5
A7
330
1D
100
AcDbEntity
  8
0
  6
Continuous
100
AcDbLine
 10
-0.004918
 20
0.085104
 30
0.0
 11
-0.004918
 21
0.084949
 31
0.0
  0
LINE
  5
A8
330
1D
100
AcDbEntity
  8
0
  6
Continuous
100
AcDbLine
 10
-0.00154
 20
0.085134
 30
0.0
 11
-0.00429
 21
0.08511
 31
0.0
  0
LINE
  5
A9
330
1D
100
AcDbEntity
  8
0
  6
Continuous
100
AcDbLine
 10
-0.001062
 20
0.085139
 30
0.0
 11
-0.00154
 21
0.085134
 31
0.0
  0
LINE
  5
AA
330
1D
100
AcDbEntity
  8
0
  6
Continuous
100
AcDbLine
 10
-0.004918
 20
0.083827
 30
0.0
 11
-0.004918
 21
0.082705
 31
0.0
  0
LINE
  5
AB
330
1D
100
AcDbEntity
  8
0
  6
Continuous
100
AcDbLine
 10
-0.004448
 20
0.083731
 30
0.0
 11
-0.004918
 21
0.082705
 31
0.0
  0
LINE
  5
AC
330
1D
100
AcDbEntity
  8
0
  6
Continuous
100
AcDbLine
 10
-0.004918
 20
0.084949
 30
0.0
 11
-0.004918
 21
0.083827
 31
0.0
  0
LINE
  5
AD
330
1D
100
AcDbEntity
  8
0
  6
Continuous
100
AcDbLine
 10
-0.004448
 20
0.083731
 30
0.0
 11
-0.004573
 21
0.082632
 31
0.0
  0
LINE
  5
AE
330
1D
100
AcDbEntity
  8
0
  6
Continuous
100
AcDbLine
 10
-0.001548
 20
0.08301
 30
0.0
 11
-0.004573
 21
0.082632
 31
0.0
  0
LINE
  5
AF
330
1D
100
AcDbEntity
  8
0
  6
Continuous
100
AcDbLine
 10
-0.004573
 20
0.082632
 30
0.0
 11
-0.00155
 21
0.082268
 31
0.0
  0
LINE
  5
B0
330
1D
100
AcDbEntity
  8
0
  6
Continuous
100
AcDbLine
 10
-0.004918
 20
0.081445
 30
0.0
 11
-0.004918
 21
0.063901
 31
0.0
  0
LINE
  5
B1
330
1D
100
AcDbEntity
  8
0
  6
Continuous
100
AcDbLine
 10
-0.018353
 20
0.038802
 30
0.0
 11
-0.016455
 21
0.038802
 31
0.0
  0
LINE
  5
B2
330
1D
100
AcDbEntity
  8
0
  6
Continuous
100
AcDbLine
 10
-0.013435
 20
0.038802
 30
0.0
 11
-0.0095
 21
0.038802
 31
0.0
  0
LINE
  5
B3
330
1D
100
AcDbEntity
  8
0
  6
Continuous
100
AcDbLine
 10
-0.019
 20
0.038802
 30
0.0
 11
-0.018353
 21
0.038802
 31
0.0
  0
LINE
  5
B4
330
1D
100
AcDbEntity
  8
0
  6
Continuous
100
AcDbLine
 10
-0.019
 20
0.039193
 30
0.0
 11
-0.019
 21
0.038802
 31
0.0
  0
LINE
  5
B5
330
1D
100
AcDbEntity
  8
0
  6
Continuous
100
AcDbLine
 10
-0.016455
 20
0.038802
 30
0.0
 11
-0.013435
 21
0.038802
 31
0.0
  0
LINE
  5
B6
330
1D
100
AcDbEntity
  8
0
  6
Continuous
100
AcDbLine
 10
-0.0095
 20
0.038802
 30
0.0
 11
-0.004918
 21
0.038802
 31
0.0
  0
LINE
  5
B7
330
1D
100
AcDbEntity
  8
0
  6
Continuous
100
AcDbLine
 10
-0.019
 20
0.063901
 30
0.0
 11
-0.019
 21
0.039193
 31
0.0
  0
LINE
  5
B8
330
1D
100
AcDbEntity
  8
0
  6
Continuous
100
AcDbLine
 10
-0.004918
 20
0.038802
 30
0.0
 11
0.0
 21
0.038802
 31
0.0
  0
LINE
  5
B9
330
1D
100
AcDbEntity
  8
0
  6
Continuous
100
AcDbLine
 10
-0.000697
 20
0.047809
 30
0.0
 11
0.0
 21
0.047853
 31
0.0
  0
LINE
  5
BA
330
1D
100
AcDbEntity
  8
0
  6
Continuous
100
AcDbLine
 10
-0.001063
 20
0.047785
 30
0.0
 11
-0.001577
 21
0.047513
 31
0.0
  0
LINE
  5
BB
330
1D
100
AcDbEntity
  8
0
  6
Continuous
100
AcDbLine
 10
-0.001577
 20
0.047513
 30
0.0
 11
-0.004601
 21
0.045416
 31
0.0
  0
LINE
  5
BC
330
1D
100
AcDbEntity
  8
0
  6
Continuous
100
AcDbLine
 10
-0.004601
 20
0.045416
 30
0.0
 11
-0.00155
 21
0.045534
 31
0.0
  0
LINE
  5
BD
330
1D
100
AcDbEntity
  8
0
  6
Continuous
100
AcDbLine
 10
-0.001062
 20
0.042664
 30
0.0
 11
-0.00069
 21
0.04266
 31
0.0
  0
LINE
  5
BE
330
1D
100
AcDbEntity
  8
0
  6
Continuous
100
AcDbLine
 10
-0.00105
 20
0.063901
 30
0.0
 11
-0.001062
 21
0.048293
 31
0.0
  0
LINE
  5
BF
330
1D
100
AcDbEntity
  8
0
  6
Continuous
100
AcDbLine
 10
-0.001062
 20
0.048293
 30
0.0
 11
-0.001063
 21
0.047785
 31
0.0
  0
LINE
  5
C0
330
1D
100
AcDbEntity
  8
0
  6
Continuous
100
AcDbLine
 10
-0.000697
 20
0.047809
 30
0.0
 11
-0.001063
 21
0.047785
 31
0.0
  0
LINE
  5
C1
330
1D
100
AcDbEntity
  8
0
  6
Continuous
100
AcDbLine
 10
-0.001063
 20
0.047785
 30
0.0
 11
-0.001073
 21
0.04718
 31
0.0
  0
LINE
  5
C2
330
1D
100
AcDbEntity
  8
0
  6
Continuous
100
AcDbLine
 10
-0.004918
 20
0.046357
 30
0.0
 11
-0.004918
 21
0.045788
 31
0.0
  0
LINE
  5
C3
330
1D
100
AcDbEntity
  8
0
  6
Continuous
100
AcDbLine
 10
-0.004918
 20
0.045788
 30
0.0
 11
-0.004918
 21
0.045217
 31
0.0
  0
LINE
  5
C4
330
1D
100
AcDbEntity
  8
0
  6
Continuous
100
AcDbLine
 10
-0.00069
 20
0.04266
 30
0.0
 11
0.0
 21
0.042654
 31
0.0
  0
LINE
  5
C5
330
1D
100
AcDbEntity
  8
0
  6
Continuous
100
AcDbLine
 10
-0.004918
 20
0.045217
 30
0.0
 11
-0.004918
 21
0.045097
 31
0.0
  0
LINE
  5
C6
330
1D
100
AcDbEntity
  8
0
  6
Continuous
100
AcDbLine
 10
-0.004918
 20
0.042853
 30
0.0
 11
-0.004918
 21
0.042698
 31
0.0
  0
LINE
  5
C7
330
1D
100
AcDbEntity
  8
0
  6
Continuous
100
AcDbLine
 10
-0.004918
 20
0.042698
 30
0.0
 11
-0.00429
 21
0.042692
 31
0.0
  0
LINE
  5
C8
330
1D
100
AcDbEntity
  8
0
  6
Continuous
100
AcDbLine
 10
-0.00429
 20
0.042692
 30
0.0
 11
-0.00154
 21
0.042668
 31
0.0
  0
LINE
  5
C9
330
1D
100
AcDbEntity
  8
0
  6
Continuous
100
AcDbLine
 10
-0.00154
 20
0.042668
 30
0.0
 11
-0.001062
 21
0.042664
 31
0.0
  0
LINE
  5
CA
330
1D
100
AcDbEntity
  8
0
  6
Continuous
100
AcDbLine
 10
-0.004448
 20
0.044071
 30
0.0
 11
-0.004918
 21
0.045097
 31
0.0
  0
LINE
  5
CB
330
1D
100
AcDbEntity
  8
0
  6
Continuous
100
AcDbLine
 10
-0.004918
 20
0.045097
 30
0.0
 11
-0.004918
 21
0.043975
 31
0.0
  0
LINE
  5
CC
330
1D
100
AcDbEntity
  8
0
  6
Continuous
100
AcDbLine
 10
-0.004918
 20
0.043975
 30
0.0
 11
-0.004918
 21
0.042853
 31
0.0
  0
LINE
  5
CD
330
1D
100
AcDbEntity
  8
0
  6
Continuous
100
AcDbLine
 10
-0.00155
 20
0.045534
 30
0.0
 11
-0.004573
 21
0.04517
 31
0.0
  0
LINE
  5
CE
330
1D
100
AcDbEntity
  8
0
  6
Continuous
100
AcDbLine
 10
-0.001548
 20
0.044792
 30
0.0
 11
-0.004573
 21
0.04517
 31
0.0
  0
LINE
  5
CF
330
1D
100
AcDbEntity
  8
0
  6
Continuous
100
AcDbLine
 10
-0.004573
 20
0.04517
 30
0.0
 11
-0.004448
 21
0.044071
 31
0.0
  0
LINE
  5
D0
330
1D
100
AcDbEntity
  8
0
  6
Continuous
100
AcDbLine
 10
-0.004918
 20
0.063901
 30
0.0
 11
-0.004918
 21
0.046357
 31
0.0
  0
LINE
  5
D1
330
1D
100
AcDbEntity
  8
0
  6
Continuous
100
AcDbLine
 10
0.018353
 20
0.089
 30
0.0
 11
0.016455
 21
0.089
 31
0.0
  0
LINE
  5
D2
330
1D
100
AcDbEntity
  8
0
  6
Continuous
100
AcDbLine
 10
0.013435
 20
0.089
 30
0.0
 11
0.0095
 21
0.089
 31
0.0
  0
LINE
  5
D3
330
1D
100
AcDbEntity
  8
0
  6
Continuous
100
AcDbLine
 10
0.019
 20
0.089
 30
0.0
 11
0.018353
 21
0.089
 31
0.0
  0
LINE
  5
D4
330
1D
100
AcDbEntity
  8
0
  6
Continuous
100
AcDbLine
 10
0.019
 20
0.08861
 30
0.0
 11
0.019
 21
0.089
 31
0.0
  0
LINE
  5
D5
330
1D
100
AcDbEntity
  8
0
  6
Continuous
100
AcDbLine
 10
0.016455
 20
0.089
 30
0.0
 11
0.013435
 21
0.089
 31
0.0
  0
LINE
  5
D6
330
1D
100
AcDbEntity
  8
0
  6
Continuous
100
AcDbLine
 10
0.0095
 20
0.089
 30
0.0
 11
0.004918
 21
0.089
 31
0.0
  0
LINE
  5
D7
330
1D
100
AcDbEntity
  8
0
  6
Continuous
100
AcDbLine
 10
0.019
 20
0.063901
 30
0.0
 11
0.019
 21
0.08861
 31
0.0
  0
LINE
  5
D8
330
1D
100
AcDbEntity
  8
0
  6
Continuous
100
AcDbLine
 10
0.004918
 20
0.089
 30
0.0
 11
0.0
 21
0.089
 31
0.0
  0
LINE
  5
D9
330
1D
100
AcDbEntity
  8
0
  6
Continuous
100
AcDbLine
 10
0.0
 20
0.080605
 30
0.0
 11
0.0
 21
0.079949
 31
0.0
  0
LINE
  5
DA
330
1D
100
AcDbEntity
  8
0
  6
Continuous
100
AcDbLine
 10
0.0
 20
0.079949
 30
0.0
 11
0.0
 21
0.079445
 31
0.0
  0
LINE
  5
DB
330
1D
100
AcDbEntity
  8
0
  6
Continuous
100
AcDbLine
 10
0.000697
 20
0.079994
 30
0.0
 11
0.0
 21
0.079949
 31
0.0
  0
LINE
  5
DC
330
1D
100
AcDbEntity
  8
0
  6
Continuous
100
AcDbLine
 10
0.0
 20
0.079445
 30
0.0
 11
0.0
 21
0.063931
 31
0.0
  0
LINE
  5
DD
330
1D
100
AcDbEntity
  8
0
  6
Continuous
100
AcDbLine
 10
0.001063
 20
0.080017
 30
0.0
 11
0.001577
 21
0.080289
 31
0.0
  0
LINE
  5
DE
330
1D
100
AcDbEntity
  8
0
  6
Continuous
100
AcDbLine
 10
0.001577
 20
0.080289
 30
0.0
 11
0.004601
 21
0.082386
 31
0.0
  0
LINE
  5
DF
330
1D
100
AcDbEntity
  8
0
  6
Continuous
100
AcDbLine
 10
0.004601
 20
0.082386
 30
0.0
 11
0.00155
 21
0.082268
 31
0.0
  0
LINE
  5
E0
330
1D
100
AcDbEntity
  8
0
  6
Continuous
100
AcDbLine
 10
0.001062
 20
0.085139
 30
0.0
 11
0.00069
 21
0.085142
 31
0.0
  0
LINE
  5
E1
330
1D
100
AcDbEntity
  8
0
  6
Continuous
100
AcDbLine
 10
0.00105
 20
0.063901
 30
0.0
 11
0.001062
 21
0.079509
 31
0.0
  0
LINE
  5
E2
330
1D
100
AcDbEntity
  8
0
  6
Continuous
100
AcDbLine
 10
0.001062
 20
0.079509
 30
0.0
 11
0.001063
 21
0.080017
 31
0.0
  0
LINE
  5
E3
330
1D
100
AcDbEntity
  8
0
  6
Continuous
100
AcDbLine
 10
0.000697
 20
0.079994
 30
0.0
 11
0.001063
 21
0.080017
 31
0.0
  0
LINE
  5
E4
330
1D
100
AcDbEntity
  8
0
  6
Continuous
100
AcDbLine
 10
0.001063
 20
0.080017
 30
0.0
 11
0.001073
 21
0.080622
 31
0.0
  0
LINE
  5
E5
330
1D
100
AcDbEntity
  8
0
  6
Continuous
100
AcDbLine
 10
0.004918
 20
0.081445
 30
0.0
 11
0.004918
 21
0.082015
 31
0.0
  0
LINE
  5
E6
330
1D
100
AcDbEntity
  8
0
  6
Continuous
100
AcDbLine
 10
0.004918
 20
0.082015
 30
0.0
 11
0.004918
 21
0.082585
 31
0.0
  0
LINE
  5
E7
330
1D
100
AcDbEntity
  8
0
  6
Continuous
100
AcDbLine
 10
0.00069
 20
0.085142
 30
0.0
 11
0.0
 21
0.085148
 31
0.0
  0
LINE
  5
E8
330
1D
100
AcDbEntity
  8
0
  6
Continuous
100
AcDbLine
 10
0.004918
 20
0.082585
 30
0.0
 11
0.004918
 21
0.082705
 31
0.0
  0
LINE
  5
E9
330
1D
100
AcDbEntity
  8
0
  6
Continuous
100
AcDbLine
 10
0.004918
 20
0.084949
 30
0.0
 11
0.004918
 21
0.085104
 31
0.0
  0
LINE
  5
EA
330
1D
100
AcDbEntity
  8
0
  6
Continuous
100
AcDbLine
 10
0.004918
 20
0.085104
 30
0.0
 11
0.00429
 21
0.08511
 31
0.0
  0
LINE
  5
EB
330
1D
100
AcDbEntity
  8
0
  6
Continuous
100
AcDbLine
 10
0.00429
 20
0.08511
 30
0.0
 11
0.00154
 21
0.085134
 31
0.0
  0
LINE
  5
EC
330
1D
100
AcDbEntity
  8
0
  6
Continuous
100
AcDbLine
 10
0.00154
 20
0.085134
 30
0.0
 11
0.001062
 21
0.085139
 31
0.0
  0
LINE
  5
ED
330
1D
100
AcDbEntity
  8
0
  6
Continuous
100
AcDbLine
 10
0.004448
 20
0.083731
 30
0.0
 11
0.004918
 21
0.082705
 31
0.0
  0
LINE
  5
EE
330
1D
100
AcDbEntity
  8
0
  6
Continuous
100
AcDbLine
 10
0.004918
 20
0.082705
 30
0.0
 11
0.004918
 21
0.083827
 31
0.0
  0
LINE
  5
EF
330
1D
100
AcDbEntity
  8
0
  6
Continuous
100
AcDbLine
 10
0.004918
 20
0.083827
 30
0.0
 11
0.004918
 21
0.084949
 31
0.0
  0
LINE
  5
F0
330
1D
100
AcDbEntity
  8
0
  6
Continuous
100
AcDbLine
 10
0.00155
 20
0.082268
 30
0.0
 11
0.004573
 21
0.082632
 31
0.0
  0
LINE
  5
F1
330
1D
100
AcDbEntity
  8
0
  6
Continuous
100
AcDbLine
 10
0.001548
 20
0.08301
 30
0.0
 11
0.004573
 21
0.082632
 31
0.0
  0
LINE
  5
F2
330
1D
100
AcDbEntity
  8
0
  6
Continuous
100
AcDbLine
 10
0.004573
 20
0.082632
 30
0.0
 11
0.004448
 21
0.083731
 31
0.0
  0
LINE
  5
F3
330
1D
100
AcDbEntity
  8
0
  6
Continuous
100
AcDbLine
 10
0.004918
 20
0.063901
 30
0.0
 11
0.004918
 21
0.081445
 31
0.0
  0
LINE
  5
F4
330
1D
100
AcDbEntity
  8
0
  6
Continuous
100
AcDbLine
 10
0.016455
 20
0.038802
 30
0.0
 11
0.018353
 21
0.038802
 31
0.0
  0
LINE
  5
F5
330
1D
100
AcDbEntity
  8
0
  6
Continuous
100
AcDbLine
 10
0.0095
 20
0.038802
 30
0.0
 11
0.013435
 21
0.038802
 31
0.0
  0
LINE
  5
F6
330
1D
100
AcDbEntity
  8
0
  6
Continuous
100
AcDbLine
 10
0.019
 20
0.038802
 30
0.0
 11
0.019
 21
0.039193
 31
0.0
  0
LINE
  5
F7
330
1D
100
AcDbEntity
  8
0
  6
Continuous
100
AcDbLine
 10
0.018353
 20
0.038802
 30
0.0
 11
0.019
 21
0.038802
 31
0.0
  0
LINE
  5
F8
330
1D
100
AcDbEntity
  8
0
  6
Continuous
100
AcDbLine
 10
0.013435
 20
0.038802
 30
0.0
 11
0.016455
 21
0.038802
 31
0.0
  0
LINE
  5
F9
330
1D
100
AcDbEntity
  8
0
  6
Continuous
100
AcDbLine
 10
0.004918
 20
0.038802
 30
0.0
 11
0.0095
 21
0.038802
 31
0.0
  0
LINE
  5
FA
330
1D
100
AcDbEntity
  8
0
  6
Continuous
100
AcDbLine
 10
0.019
 20
0.039193
 30
0.0
 11
0.019
 21
0.063901
 31
0.0
  0
LINE
  5
FB
330
1D
100
AcDbEntity
  8
0
  6
Continuous
100
AcDbLine
 10
0.0
 20
0.038802
 30
0.0
 11
0.004918
 21
0.038802
 31
0.0
  0
LINE
  5
FC
330
1D
100
AcDbEntity
  8
0
  6
Continuous
100
AcDbLine
 10
0.0
 20
0.047853
 30
0.0
 11
0.0
 21
0.047197
 31
0.0
  0
LINE
  5
FD
330
1D
100
AcDbEntity
  8
0
  6
Continuous
100
AcDbLine
 10
0.0
 20
0.047853
 30
0.0
 11
0.000697
 21
0.047809
 31
0.0
  0
LINE
  5
FE
330
1D
100
AcDbEntity
  8
0
  6
Continuous
100
AcDbLine
 10
0.0
 20
0.048358
 30
0.0
 11
0.0
 21
0.047853
 31
0.0
  0
LINE
  5
FF
330
1D
100
AcDbEntity
  8
0
  6
Continuous
100
AcDbLine
 10
0.0
 20
0.063901
 30
0.0
 11
0.0
 21
0.048358
 31
0.0
  0
LINE
  5
100
330
1D
100
AcDbEntity
  8
0
  6
Continuous
100
AcDbLine
 10
0.001577
 20
0.047513
 30
0.0
 11
0.001063
 21
0.047785
 31
0.0
  0
LINE
  5
101
330
1D
100
AcDbEntity
  8
0
  6
Continuous
100
AcDbLine
 10
0.001577
 20
0.047513
 30
0.0
 11
0.004601
 21
0.045416
 31
0.0
  0
LINE
  5
102
330
1D
100
AcDbEntity
  8
0
  6
Continuous
100
AcDbLine
 10
0.004601
 20
0.045416
 30
0.0
 11
0.00155
 21
0.045534
 31
0.0
  0
LINE
  5
103
330
1D
100
AcDbEntity
  8
0
  6
Continuous
100
AcDbLine
 10
0.00069
 20
0.04266
 30
0.0
 11
0.001062
 21
0.042664
 31
0.0
  0
LINE
  5
104
330
1D
100
AcDbEntity
  8
0
  6
Continuous
100
AcDbLine
 10
0.001062
 20
0.048293
 30
0.0
 11
0.00105
 21
0.063878
 31
0.0
  0
LINE
  5
105
330
1D
100
AcDbEntity
  8
0
  6
Continuous
100
AcDbLine
 10
0.001063
 20
0.047785
 30
0.0
 11
0.001062
 21
0.048293
 31
0.0
  0
LINE
  5
106
330
1D
100
AcDbEntity
  8
0
  6
Continuous
100
AcDbLine
 10
0.001073
 20
0.04718
 30
0.0
 11
0.001063
 21
0.047785
 31
0.0
  0
LINE
  5
107
330
1D
100
AcDbEntity
  8
0
  6
Continuous
100
AcDbLine
 10
0.001063
 20
0.047785
 30
0.0
 11
0.000697
 21
0.047809
 31
0.0
  0
LINE
  5
108
330
1D
100
AcDbEntity
  8
0
  6
Continuous
100
AcDbLine
 10
0.004918
 20
0.045788
 30
0.0
 11
0.004918
 21
0.046357
 31
0.0
  0
LINE
  5
109
330
1D
100
AcDbEntity
  8
0
  6
Continuous
100
AcDbLine
 10
0.004918
 20
0.045217
 30
0.0
 11
0.004918
 21
0.045788
 31
0.0
  0
LINE
  5
10A
330
1D
100
AcDbEntity
  8
0
  6
Continuous
100
AcDbLine
 10
0.0
 20
0.042654
 30
0.0
 11
0.00069
 21
0.04266
 31
0.0
  0
LINE
  5
10B
330
1D
100
AcDbEntity
  8
0
  6
Continuous
100
AcDbLine
 10
0.004918
 20
0.045097
 30
0.0
 11
0.004918
 21
0.045217
 31
0.0
  0
LINE
  5
10C
330
1D
100
AcDbEntity
  8
0
  6
Continuous
100
AcDbLine
 10
0.00429
 20
0.042692
 30
0.0
 11
0.004918
 21
0.042698
 31
0.0
  0
LINE
  5
10D
330
1D
100
AcDbEntity
  8
0
  6
Continuous
100
AcDbLine
 10
0.004918
 20
0.042698
 30
0.0
 11
0.004918
 21
0.042853
 31
0.0
  0
LINE
  5
10E
330
1D
100
AcDbEntity
  8
0
  6
Continuous
100
AcDbLine
 10
0.00154
 20
0.042668
 30
0.0
 11
0.00429
 21
0.042692
 31
0.0
  0
LINE
  5
10F
330
1D
100
AcDbEntity
  8
0
  6
Continuous
100
AcDbLine
 10
0.001062
 20
0.042664
 30
0.0
 11
0.00154
 21
0.042668
 31
0.0
  0
LINE
  5
110
330
1D
100
AcDbEntity
  8
0
  6
Continuous
100
AcDbLine
 10
0.004918
 20
0.043975
 30
0.0
 11
0.004918
 21
0.045097
 31
0.0
  0
LINE
  5
111
330
1D
100
AcDbEntity
  8
0
  6
Continuous
100
AcDbLine
 10
0.004448
 20
0.044071
 30
0.0
 11
0.004918
 21
0.045097
 31
0.0
  0
LINE
  5
112
330
1D
100
AcDbEntity
  8
0
  6
Continuous
100
AcDbLine
 10
0.004918
 20
0.042853
 30
0.0
 11
0.004918
 21
0.043975
 31
0.0
  0
LINE
  5
113
330
1D
100
AcDbEntity
  8
0
  6
Continuous
100
AcDbLine
 10
0.004448
 20
0.044071
 30
0.0
 11
0.004573
 21
0.04517
 31
0.0
  0
LINE
  5
114
330
1D
100
AcDbEntity
  8
0
  6
Continuous
100
AcDbLine
 10
0.001548
 20
0.044792
 30
0.0
 11
0.004573
 21
0.04517
 31
0.0
  0
LINE
  5
115
330
1D
100
AcDbEntity
  8
0
  6
Continuous
100
AcDbLine
 10
0.004573
 20
0.04517
 30
0.0
 11
0.00155
 21
0.045534
 31
0.0
  0
LINE
  5
116
330
1D
100
AcDbEntity
  8
0
  6
Continuous
100
AcDbLine
 10
0.004918
 20
0.046357
 30
0.0
 11
0.004918
 21
0.063901
 31
0.0
  0
LINE
  5
117
330
1D
100
AcDbEntity
  8
0
  6
Continuous
100
AcDbLine
 10
0.009121
 20
0.024213
 30
0.0
 11
0.009848
 21
0.02346
 31
0.0
  0
LINE
  5
118
330
1D
100
AcDbEntity
  8
0
  6
Continuous
100
AcDbLine
 10
0.0
 20
0.026955
 30
0.0
 11
0.003484
 21
0.026617
 31
0.0
  0
LINE
  5
119
330
1D
100
AcDbEntity
  8
0
  6
Continuous
100
AcDbLine
 10
0.010791
 20
0.022325
 30
0.0
 11
0.010876
 21
0.022067
 31
0.0
  0
LINE
  5
11A
330
1D
100
AcDbEntity
  8
0
  6
Continuous
100
AcDbLine
 10
0.010722
 20
0.022556
 30
0.0
 11
0.010791
 21
0.022325
 31
0.0
  0
LINE
  5
11B
330
1D
100
AcDbEntity
  8
0
  6
Continuous
100
AcDbLine
 10
0.011079
 20
0.02149
 30
0.0
 11
0.011274
 21
0.020966
 31
0.0
  0
LINE
  5
11C
330
1D
100
AcDbEntity
  8
0
  6
Continuous
100
AcDbLine
 10
0.010876
 20
0.022067
 30
0.0
 11
0.011079
 21
0.02149
 31
0.0
  0
LINE
  5
11D
330
1D
100
AcDbEntity
  8
0
  6
Continuous
100
AcDbLine
 10
-0.009121
 20
0.024213
 30
0.0
 11
-0.009848
 21
0.02346
 31
0.0
  0
LINE
  5
11E
330
1D
100
AcDbEntity
  8
0
  6
Continuous
100
AcDbLine
 10
0.009848
 20
0.02346
 30
0.0
 11
0.010722
 21
0.022556
 31
0.0
  0
LINE
  5
11F
330
1D
100
AcDbEntity
  8
0
  6
Continuous
100
AcDbLine
 10
-0.009121
 20
0.024213
 30
0.0
 11
-0.007957
 21
0.024826
 31
0.0
  0
LINE
  5
120
330
1D
100
AcDbEntity
  8
0
  6
Continuous
100
AcDbLine
 10
-0.007957
 20
0.024826
 30
0.0
 11
-0.006627
 21
0.025639
 31
0.0
  0
LINE
  5
121
330
1D
100
AcDbEntity
  8
0
  6
Continuous
100
AcDbLine
 10
-0.003484
 20
0.026617
 30
0.0
 11
0.0
 21
0.026955
 31
0.0
  0
LINE
  5
2A8
330
1D
100
AcDbEntity
  8
0
  6
Continuous
100
AcDbLine
 10
-0.019544
 20
0.3525989429638669
 30
0.0
 11
-0.019176
 21
0.3491309429638669
 31
0.0
  0
LINE
  5
2A9
330
1D
100
AcDbEntity
  8
0
  6
Continuous
100
AcDbLine
 10
-0.019034
 20
0.3526989429638669
 30
0.0
 11
-0.019012
 21
0.3392299429638669
 31
0.0
  0
LINE
  5
2AA
330
1D
100
AcDbEntity
  8
0
  6
Continuous
100
AcDbLine
 10
-0.016852
 20
0.2252629429638669
 30
0.0
 11
-0.014454
 21
0.2246449429638669
 31
0.0
  0
LINE
  5
2AB
330
1D
100
AcDbEntity
  8
0
  6
Continuous
100
AcDbLine
 10
-0.017514
 20
0.2276409429638669
 30
0.0
 11
-0.016852
 21
0.2252629429638669
 31
0.0
  0
LINE
  5
2AC
330
1D
100
AcDbEntity
  8
0
  6
Continuous
100
AcDbLine
 10
-0.012511
 20
0.2246449429638669
 30
0.0
 11
0.0
 21
0.2246449429638669
 31
0.0
  0
LINE
  5
2AD
330
1D
100
AcDbEntity
  8
0
  6
Continuous
100
AcDbLine
 10
-0.019
 20
0.3321409429638669
 30
0.0
 11
-0.01755
 21
0.2298239429638669
 31
0.0
  0
LINE
  5
2AE
330
1D
100
AcDbEntity
  8
0
  6
Continuous
100
AcDbLine
 10
-0.019222
 20
0.3526629429638669
 30
0.0
 11
-0.019047
 21
0.3392769429638669
 31
0.0
  0
LINE
  5
2AF
330
1D
100
AcDbEntity
  8
0
  6
Continuous
100
AcDbLine
 10
-0.01755
 20
0.2298239429638669
 30
0.0
 11
-0.017514
 21
0.2276409429638669
 31
0.0
  0
LINE
  5
2B0
330
1D
100
AcDbEntity
  8
0
  6
Continuous
100
AcDbLine
 10
-0.014454
 20
0.2246449429638669
 30
0.0
 11
-0.012511
 21
0.2246449429638669
 31
0.0
  0
LINE
  5
2B1
330
1D
100
AcDbEntity
  8
0
  6
Continuous
100
AcDbLine
 10
-0.018992
 20
0.3525859429638669
 30
0.0
 11
-0.019
 21
0.3321409429638669
 31
0.0
  0
LINE
  5
2B2
330
1D
100
AcDbEntity
  8
0
  6
Continuous
100
AcDbLine
 10
-0.019866
 20
0.3525359429638668
 30
0.0
 11
-0.019167
 21
0.3484519429638669
 31
0.0
  0
LINE
  5
2B3
330
1D
100
AcDbEntity
  8
0
  6
Continuous
100
AcDbLine
 10
0.019176
 20
0.3491219429638669
 30
0.0
 11
0.019546
 21
0.3525989429638669
 31
0.0
  0
LINE
  5
2B4
330
1D
100
AcDbEntity
  8
0
  6
Continuous
100
AcDbLine
 10
0.019012
 20
0.3392299429638669
 30
0.0
 11
0.019034
 21
0.3526989429638669
 31
0.0
  0
LINE
  5
2B5
330
1D
100
AcDbEntity
  8
0
  6
Continuous
100
AcDbLine
 10
0.014454
 20
0.2246449429638669
 30
0.0
 11
0.016852
 21
0.2252629429638669
 31
0.0
  0
LINE
  5
2B6
330
1D
100
AcDbEntity
  8
0
  6
Continuous
100
AcDbLine
 10
0.016852
 20
0.2252629429638669
 30
0.0
 11
0.017514
 21
0.2276409429638669
 31
0.0
  0
LINE
  5
2B7
330
1D
100
AcDbEntity
  8
0
  6
Continuous
100
AcDbLine
 10
0.0
 20
0.2246449429638669
 30
0.0
 11
0.012511
 21
0.2246449429638669
 31
0.0
  0
LINE
  5
2B8
330
1D
100
AcDbEntity
  8
0
  6
Continuous
100
AcDbLine
 10
0.01755
 20
0.2298239429638669
 30
0.0
 11
0.019
 21
0.3321409429638669
 31
0.0
  0
LINE
  5
2B9
330
1D
100
AcDbEntity
  8
0
  6
Continuous
100
AcDbLine
 10
0.019048
 20
0.3392769429638669
 30
0.0
 11
0.019223
 21
0.3526619429638669
 31
0.0
  0
LINE
  5
2BA
330
1D
100
AcDbEntity
  8
0
  6
Continuous
100
AcDbLine
 10
0.017514
 20
0.2276409429638669
 30
0.0
 11
0.01755
 21
0.2298239429638669
 31
0.0
  0
LINE
  5
2BB
330
1D
100
AcDbEntity
  8
0
  6
Continuous
100
AcDbLine
 10
0.012511
 20
0.2246449429638669
 30
0.0
 11
0.014454
 21
0.2246449429638669
 31
0.0
  0
LINE
  5
2BC
330
1D
100
AcDbEntity
  8
0
  6
Continuous
100
AcDbLine
 10
0.019
 20
0.3321409429638669
 30
0.0
 11
0.018992
 21
0.3525859429638669
 31
0.0
  0
LINE
  5
2BD
330
1D
100
AcDbEntity
  8
0
  6
Continuous
100
AcDbLine
 10
0.019167
 20
0.3484449429638669
 30
0.0
 11
0.019869
 21
0.3525349429638669
 31
0.0
  0
LINE
  5
2BE
330
1D
100
AcDbEntity
  8
0
  6
Continuous
100
AcDbLine
 10
-0.019922
 20
0.3404169429638669
 30
0.0
 11
-0.019047
 21
0.3392769429638669
 31
0.0
  0
LINE
  5
2BF
330
1D
100
AcDbEntity
  8
0
  6
Continuous
100
AcDbLine
 10
-0.022218
 20
0.3459659429638669
 30
0.0
 11
-0.019922
 21
0.3404169429638669
 31
0.0
  0
LINE
  5
2C0
330
1D
100
AcDbEntity
  8
0
  6
Continuous
100
AcDbLine
 10
-0.005955
 20
0.3740689429638669
 30
0.0
 11
-0.011505
 21
0.3717709429638669
 31
0.0
  0
LINE
  5
2C1
330
1D
100
AcDbEntity
  8
0
  6
Continuous
100
AcDbLine
 10
-0.002091
 20
0.3746159429638669
 30
0.0
 11
-0.005955
 21
0.3740689429638669
 31
0.0
  0
LINE
  5
2C2
330
1D
100
AcDbEntity
  8
0
  6
Continuous
100
AcDbLine
 10
-0.022225
 20
0.3577879429638669
 30
0.0
 11
-0.023
 21
0.3519209429638669
 31
0.0
  0
LINE
  5
2C3
330
1D
100
AcDbEntity
  8
0
  6
Continuous
100
AcDbLine
 10
-0.011505
 20
0.3717709429638669
 30
0.0
 11
-0.01627
 21
0.3681119429638669
 31
0.0
  0
LINE
  5
2C4
330
1D
100
AcDbEntity
  8
0
  6
Continuous
100
AcDbLine
 10
-0.01627
 20
0.3681119429638669
 30
0.0
 11
-0.019927
 21
0.3633429429638669
 31
0.0
  0
LINE
  5
2C5
330
1D
100
AcDbEntity
  8
0
  6
Continuous
100
AcDbLine
 10
-0.019927
 20
0.3633429429638669
 30
0.0
 11
-0.022225
 21
0.3577879429638669
 31
0.0
  0
LINE
  5
2C6
330
1D
100
AcDbEntity
  8
0
  6
Continuous
100
AcDbLine
 10
-0.023
 20
0.3519209429638669
 30
0.0
 11
-0.022218
 21
0.3459659429638669
 31
0.0
  0
LINE
  5
2C7
330
1D
100
AcDbEntity
  8
0
  6
Continuous
100
AcDbLine
 10
0.019048
 20
0.3392769429638669
 30
0.0
 11
0.019922
 21
0.3404169429638669
 31
0.0
  0
LINE
  5
2C8
330
1D
100
AcDbEntity
  8
0
  6
Continuous
100
AcDbLine
 10
0.019922
 20
0.3404169429638669
 30
0.0
 11
0.022218
 21
0.3459659429638669
 31
0.0
  0
LINE
  5
2C9
330
1D
100
AcDbEntity
  8
0
  6
Continuous
100
AcDbLine
 10
0.011505
 20
0.3717709429638669
 30
0.0
 11
0.005955
 21
0.3740689429638669
 31
0.0
  0
LINE
  5
2CA
330
1D
100
AcDbEntity
  8
0
  6
Continuous
100
AcDbLine
 10
0.005955
 20
0.3740689429638669
 30
0.0
 11
0.001792
 21
0.3746579429638669
 31
0.0
  0
LINE
  5
2CB
330
1D
100
AcDbEntity
  8
0
  6
Continuous
100
AcDbLine
 10
0.023
 20
0.3519209429638669
 30
0.0
 11
0.022225
 21
0.3577879429638669
 31
0.0
  0
LINE
  5
2CC
330
1D
100
AcDbEntity
  8
0
  6
Continuous
100
AcDbLine
 10
0.01627
 20
0.3681119429638669
 30
0.0
 11
0.011505
 21
0.3717709429638669
 31
0.0
  0
LINE
  5
2CD
330
1D
100
AcDbEntity
  8
0
  6
Continuous
100
AcDbLine
 10
0.019927
 20
0.3633429429638669
 30
0.0
 11
0.01627
 21
0.3681119429638669
 31
0.0
  0
LINE
  5
2CE
330
1D
100
AcDbEntity
  8
0
  6
Continuous
100
AcDbLine
 10
0.022225
 20
0.3577879429638669
 30
0.0
 11
0.019927
 21
0.3633429429638669
 31
0.0
  0
LINE
  5
2CF
330
1D
100
AcDbEntity
  8
0
  6
Continuous
100
AcDbLine
 10
0.022218
 20
0.3459659429638669
 30
0.0
 11
0.023
 21
0.3519209429638669
 31
0.0
  0
LINE
  5
2D0
330
1D
100
AcDbEntity
  8
0
  6
Continuous
100
AcDbLine
 10
0.00227
 20
0.3854789429638669
 30
0.0
 11
0.002843
 21
0.3901379429638669
 31
0.0
  0
LINE
  5
2D1
330
1D
100
AcDbEntity
  8
0
  6
Continuous
100
AcDbLine
 10
0.001963
 20
0.3814809429638668
 30
0.0
 11
0.001985
 21
0.3823859429638669
 31
0.0
  0
LINE
  5
2D2
330
1D
100
AcDbEntity
  8
0
  6
Continuous
100
AcDbLine
 10
0.001985
 20
0.3805719429638669
 30
0.0
 11
0.001963
 21
0.3814809429638668
 31
0.0
  0
LINE
  5
2D3
330
1D
100
AcDbEntity
  8
0
  6
Continuous
100
AcDbLine
 10
0.001959
 20
0.3800359429638669
 30
0.0
 11
0.001985
 21
0.3805719429638669
 31
0.0
  0
LINE
  5
2D4
330
1D
100
AcDbEntity
  8
0
  6
Continuous
100
AcDbLine
 10
0.001917
 20
0.3791839429638669
 30
0.0
 11
0.001959
 21
0.3800359429638669
 31
0.0
  0
LINE
  5
2D5
330
1D
100
AcDbEntity
  8
0
  6
Continuous
100
AcDbLine
 10
0.001935
 20
0.3785609429638669
 30
0.0
 11
0.001917
 21
0.3791839429638669
 31
0.0
  0
LINE
  5
2D6
330
1D
100
AcDbEntity
  8
0
  6
Continuous
100
AcDbLine
 10
0.001958
 20
0.3823219429638669
 30
0.0
 11
0.00227
 21
0.3854789429638669
 31
0.0
  0
LINE
  5
2D7
330
1D
100
AcDbEntity
  8
0
  6
Continuous
100
AcDbLine
 10
0.002769
 20
0.3901389429638669
 30
0.0
 11
0.00207
 21
0.3854799429638669
 31
0.0
  0
LINE
  5
2D8
330
1D
100
AcDbEntity
  8
0
  6
Continuous
100
AcDbLine
 10
0.002238
 20
0.3854749429638669
 30
0.0
 11
0.002769
 21
0.3901389429638669
 31
0.0
  0
LINE
  5
2D9
330
1D
100
AcDbEntity
  8
0
  6
Continuous
100
AcDbLine
 10
0.001811
 20
0.3810639429638669
 30
0.0
 11
0.001868
 21
0.3824049429638669
 31
0.0
  0
LINE
  5
2DA
330
1D
100
AcDbEntity
  8
0
  6
Continuous
100
AcDbLine
 10
0.001515
 20
0.3824849429638669
 30
0.0
 11
0.001397
 21
0.3809259429638669
 31
0.0
  0
LINE
  5
2DB
330
1D
100
AcDbEntity
  8
0
  6
Continuous
100
AcDbLine
 10
0.001778
 20
0.3798079429638669
 30
0.0
 11
0.001811
 21
0.3810639429638669
 31
0.0
  0
LINE
  5
2DC
330
1D
100
AcDbEntity
  8
0
  6
Continuous
100
AcDbLine
 10
0.001397
 20
0.3809259429638669
 30
0.0
 11
0.001416
 21
0.3795739429638669
 31
0.0
  0
LINE
  5
2DD
330
1D
100
AcDbEntity
  8
0
  6
Continuous
100
AcDbLine
 10
0.001747
 20
0.3788569429638669
 30
0.0
 11
0.001778
 21
0.3798079429638669
 31
0.0
  0
LINE
  5
2DE
330
1D
100
AcDbEntity
  8
0
  6
Continuous
100
AcDbLine
 10
0.001416
 20
0.3795739429638669
 30
0.0
 11
0.001475
 21
0.3785749429638669
 31
0.0
  0
LINE
  5
2DF
330
1D
100
AcDbEntity
  8
0
  6
Continuous
100
AcDbLine
 10
0.001475
 20
0.3785749429638669
 30
0.0
 11
0.001413
 21
0.3777169429638669
 31
0.0
  0
LINE
  5
2E0
330
1D
100
AcDbEntity
  8
0
  6
Continuous
100
AcDbLine
 10
0.001868
 20
0.3824049429638669
 30
0.0
 11
0.002238
 21
0.3854749429638669
 31
0.0
  0
LINE
  5
2E1
330
1D
100
AcDbEntity
  8
0
  6
Continuous
100
AcDbLine
 10
0.002606
 20
0.3921939429638669
 30
0.0
 11
0.002084
 21
0.3928609429638669
 31
0.0
  0
LINE
  5
2E2
330
1D
100
AcDbEntity
  8
0
  6
Continuous
100
AcDbLine
 10
0.002533
 20
0.3921949429638669
 30
0.0
 11
0.00201
 21
0.3928629429638668
 31
0.0
  0
LINE
  5
2E3
330
1D
100
AcDbEntity
  8
0
  6
Continuous
100
AcDbLine
 10
0.002267
 20
0.3921939429638669
 30
0.0
 11
0.001745
 21
0.3929619429638669
 31
0.0
  0
LINE
  5
2E4
330
1D
100
AcDbEntity
  8
0
  6
Continuous
100
AcDbLine
 10
0.001456
 20
0.3931079429638669
 30
0.0
 11
0.0
 21
0.3932889429638669
 31
0.0
  0
LINE
  5
2E5
330
1D
100
AcDbEntity
  8
0
  6
Continuous
100
AcDbLine
 10
0.0
 20
0.3932889429638669
 30
0.0
 11
0.001745
 21
0.3929619429638669
 31
0.0
  0
LINE
  5
2E6
330
1D
100
AcDbEntity
  8
0
  6
Continuous
100
AcDbLine
 10
0.002606
 20
0.3921939429638669
 30
0.0
 11
0.002533
 21
0.3921949429638669
 31
0.0
  0
LINE
  5
2E7
330
1D
100
AcDbEntity
  8
0
  6
Continuous
100
AcDbLine
 10
0.002843
 20
0.3901379429638669
 30
0.0
 11
0.002606
 21
0.3921939429638669
 31
0.0
  0
LINE
  5
2E8
330
1D
100
AcDbEntity
  8
0
  6
Continuous
100
AcDbLine
 10
0.002769
 20
0.3901389429638669
 30
0.0
 11
0.002533
 21
0.3921949429638669
 31
0.0
  0
LINE
  5
2E9
330
1D
100
AcDbEntity
  8
0
  6
Continuous
100
AcDbLine
 10
0.001745
 20
0.3929619429638669
 30
0.0
 11
0.00201
 21
0.3928629429638668
 31
0.0
  0
LINE
  5
2EA
330
1D
100
AcDbEntity
  8
0
  6
Continuous
100
AcDbLine
 10
0.002084
 20
0.3928609429638669
 30
0.0
 11
0.001456
 21
0.3931079429638669
 31
0.0
  0
LINE
  5
2EB
330
1D
100
AcDbEntity
  8
0
  6
Continuous
100
AcDbLine
 10
0.00201
 20
0.3928629429638668
 30
0.0
 11
0.002084
 21
0.3928609429638669
 31
0.0
  0
LINE
  5
2EC
330
1D
100
AcDbEntity
  8
0
  6
Continuous
100
AcDbLine
 10
-0.001935
 20
0.3785609429638669
 30
0.0
 11
-0.002146
 21
0.3731999429638669
 31
0.0
  0
LINE
  5
2ED
330
1D
100
AcDbEntity
  8
0
  6
Continuous
100
AcDbLine
 10
0.001515
 20
0.3824849429638669
 30
0.0
 11
0.00207
 21
0.3854799429638669
 31
0.0
  0
LINE
  5
2EE
330
1D
100
AcDbEntity
  8
0
  6
Continuous
100
AcDbLine
 10
0.001413
 20
0.3777169429638669
 30
0.0
 11
0.0
 21
0.3775899429638669
 31
0.0
  0
LINE
  5
2EF
330
1D
100
AcDbEntity
  8
0
  6
Continuous
100
AcDbLine
 10
0.001061
 20
0.3732309429638669
 30
0.0
 11
0.001413
 21
0.3777169429638669
 31
0.0
  0
LINE
  5
2F0
330
1D
100
AcDbEntity
  8
0
  6
Continuous
100
AcDbLine
 10
-0.002843
 20
0.3901379429638669
 30
0.0
 11
-0.00227
 21
0.3854789429638669
 31
0.0
  0
LINE
  5
2F1
330
1D
100
AcDbEntity
  8
0
  6
Continuous
100
AcDbLine
 10
-0.001985
 20
0.3823859429638669
 30
0.0
 11
-0.001963
 21
0.3814809429638668
 31
0.0
  0
LINE
  5
2F2
330
1D
100
AcDbEntity
  8
0
  6
Continuous
100
AcDbLine
 10
-0.001963
 20
0.3814809429638668
 30
0.0
 11
-0.001985
 21
0.3805719429638669
 31
0.0
  0
LINE
  5
2F3
330
1D
100
AcDbEntity
  8
0
  6
Continuous
100
AcDbLine
 10
-0.001959
 20
0.3800359429638669
 30
0.0
 11
-0.001917
 21
0.3791839429638669
 31
0.0
  0
LINE
  5
2F4
330
1D
100
AcDbEntity
  8
0
  6
Continuous
100
AcDbLine
 10
-0.001985
 20
0.3805719429638669
 30
0.0
 11
-0.001959
 21
0.3800359429638669
 31
0.0
  0
LINE
  5
2F5
330
1D
100
AcDbEntity
  8
0
  6
Continuous
100
AcDbLine
 10
-0.001917
 20
0.3791839429638669
 30
0.0
 11
-0.001935
 21
0.3785609429638669
 31
0.0
  0
LINE
  5
2F6
330
1D
100
AcDbEntity
  8
0
  6
Continuous
100
AcDbLine
 10
-0.00227
 20
0.3854789429638669
 30
0.0
 11
-0.001958
 21
0.3823219429638669
 31
0.0
  0
LINE
  5
2F7
330
1D
100
AcDbEntity
  8
0
  6
Continuous
100
AcDbLine
 10
-0.002769
 20
0.3901389429638669
 30
0.0
 11
-0.002238
 21
0.3854749429638669
 31
0.0
  0
LINE
  5
2F8
330
1D
100
AcDbEntity
  8
0
  6
Continuous
100
AcDbLine
 10
-0.002769
 20
0.3901389429638669
 30
0.0
 11
-0.00207
 21
0.3854799429638669
 31
0.0
  0
LINE
  5
2F9
330
1D
100
AcDbEntity
  8
0
  6
Continuous
100
AcDbLine
 10
-0.001397
 20
0.3809259429638669
 30
0.0
 11
-0.001515
 21
0.3824849429638669
 31
0.0
  0
LINE
  5
2FA
330
1D
100
AcDbEntity
  8
0
  6
Continuous
100
AcDbLine
 10
-0.001868
 20
0.3824049429638669
 30
0.0
 11
-0.001811
 21
0.3810639429638669
 31
0.0
  0
LINE
  5
2FB
330
1D
100
AcDbEntity
  8
0
  6
Continuous
100
AcDbLine
 10
-0.001416
 20
0.3795739429638669
 30
0.0
 11
-0.001397
 21
0.3809259429638669
 31
0.0
  0
LINE
  5
2FC
330
1D
100
AcDbEntity
  8
0
  6
Continuous
100
AcDbLine
 10
-0.001811
 20
0.3810639429638669
 30
0.0
 11
-0.001778
 21
0.3798079429638669
 31
0.0
  0
LINE
  5
2FD
330
1D
100
AcDbEntity
  8
0
  6
Continuous
100
AcDbLine
 10
-0.001475
 20
0.3785749429638669
 30
0.0
 11
-0.001416
 21
0.3795739429638669
 31
0.0
  0
LINE
  5
2FE
330
1D
100
AcDbEntity
  8
0
  6
Continuous
100
AcDbLine
 10
-0.001778
 20
0.3798079429638669
 30
0.0
 11
-0.001747
 21
0.3788569429638669
 31
0.0
  0
LINE
  5
2FF
330
1D
100
AcDbEntity
  8
0
  6
Continuous
100
AcDbLine
 10
-0.001413
 20
0.3777169429638669
 30
0.0
 11
-0.001475
 21
0.3785749429638669
 31
0.0
  0
LINE
  5
300
330
1D
100
AcDbEntity
  8
0
  6
Continuous
100
AcDbLine
 10
-0.002238
 20
0.3854749429638669
 30
0.0
 11
-0.001868
 21
0.3824049429638669
 31
0.0
  0
LINE
  5
301
330
1D
100
AcDbEntity
  8
0
  6
Continuous
100
AcDbLine
 10
-0.002084
 20
0.3928609429638669
 30
0.0
 11
-0.002606
 21
0.3921939429638669
 31
0.0
  0
LINE
  5
302
330
1D
100
AcDbEntity
  8
0
  6
Continuous
100
AcDbLine
 10
-0.00201
 20
0.3928629429638668
 30
0.0
 11
-0.002533
 21
0.3921949429638669
 31
0.0
  0
LINE
  5
303
330
1D
100
AcDbEntity
  8
0
  6
Continuous
100
AcDbLine
 10
-0.001745
 20
0.3929619429638669
 30
0.0
 11
-0.002267
 21
0.3921939429638669
 31
0.0
  0
LINE
  5
304
330
1D
100
AcDbEntity
  8
0
  6
Continuous
100
AcDbLine
 10
0.0
 20
0.3921819429638669
 30
0.0
 11
0.0
 21
0.3932889429638669
 31
0.0
  0
LINE
  5
305
330
1D
100
AcDbEntity
  8
0
  6
Continuous
100
AcDbLine
 10
0.0
 20
0.3932889429638669
 30
0.0
 11
-0.001456
 21
0.3931079429638669
 31
0.0
  0
LINE
  5
306
330
1D
100
AcDbEntity
  8
0
  6
Continuous
100
AcDbLine
 10
-0.001745
 20
0.3929619429638669
 30
0.0
 11
0.0
 21
0.3932889429638669
 31
0.0
  0
LINE
  5
307
330
1D
100
AcDbEntity
  8
0
  6
Continuous
100
AcDbLine
 10
-0.002606
 20
0.3921939429638669
 30
0.0
 11
-0.002843
 21
0.3901379429638669
 31
0.0
  0
LINE
  5
308
330
1D
100
AcDbEntity
  8
0
  6
Continuous
100
AcDbLine
 10
-0.002533
 20
0.3921949429638669
 30
0.0
 11
-0.002606
 21
0.3921939429638669
 31
0.0
  0
LINE
  5
309
330
1D
100
AcDbEntity
  8
0
  6
Continuous
100
AcDbLine
 10
-0.002533
 20
0.3921949429638669
 30
0.0
 11
-0.002769
 21
0.3901389429638669
 31
0.0
  0
LINE
  5
30A
330
1D
100
AcDbEntity
  8
0
  6
Continuous
100
AcDbLine
 10
-0.002084
 20
0.3928609429638669
 30
0.0
 11
-0.00201
 21
0.3928629429638668
 31
0.0
  0
LINE
  5
30B
330
1D
100
AcDbEntity
  8
0
  6
Continuous
100
AcDbLine
 10
-0.001456
 20
0.3931079429638669
 30
0.0
 11
-0.002084
 21
0.3928609429638669
 31
0.0
  0
LINE
  5
30C
330
1D
100
AcDbEntity
  8
0
  6
Continuous
100
AcDbLine
 10
-0.00201
 20
0.3928629429638668
 30
0.0
 11
-0.001745
 21
0.3929619429638669
 31
0.0
  0
LINE
  5
30D
330
1D
100
AcDbEntity
  8
0
  6
Continuous
100
AcDbLine
 10
-0.00207
 20
0.3854799429638669
 30
0.0
 11
-0.001515
 21
0.3824849429638669
 31
0.0
  0
LINE
  5
30E
330
1D
100
AcDbEntity
  8
0
  6
Continuous
100
AcDbLine
 10
-0.00177
 20
0.3781709429638669
 30
0.0
 11
-0.001909
 21
0.3731639429638669
 31
0.0
  0
LINE
  5
30F
330
1D
100
AcDbEntity
  8
0
  6
Continuous
100
AcDbLine
 10
0.0
 20
0.3775899429638669
 30
0.0
 11
-0.001413
 21
0.3777169429638669
 31
0.0
  0
LINE
  5
310
330
1D
100
AcDbEntity
  8
0
  6
Continuous
100
AcDbLine
 10
-0.001413
 20
0.3777169429638669
 30
0.0
 11
-0.001377
 21
0.3731779429638669
 31
0.0
  0
LINE
  5
311
330
1D
100
AcDbEntity
  8
0
  6
Continuous
100
AcDbLine
 10
0.00174
 20
0.3732689429638669
 30
0.0
 11
0.001935
 21
0.3785609429638669
 31
0.0
  0
LINE
  5
312
330
1D
100
AcDbEntity
  8
0
  6
Continuous
100
AcDbLine
 10
-0.018353
 20
0.3477009429638669
 30
0.0
 11
-0.016455
 21
0.3431359429638669
 31
0.0
  0
LINE
  5
313
330
1D
100
AcDbEntity
  8
0
  6
Continuous
100
AcDbLine
 10
-0.018353
 20
0.3575459429638669
 30
0.0
 11
-0.019
 21
0.3526439429638668
 31
0.0
  0
LINE
  5
314
330
1D
100
AcDbEntity
  8
0
  6
Continuous
100
AcDbLine
 10
0.0
 20
0.3716359429638669
 30
0.0
 11
-0.004918
 21
0.3709899429638669
 31
0.0
  0
LINE
  5
315
330
1D
100
AcDbEntity
  8
0
  6
Continuous
100
AcDbLine
 10
-0.016455
 20
0.3621329429638669
 30
0.0
 11
-0.018353
 21
0.3575459429638669
 31
0.0
  0
LINE
  5
316
330
1D
100
AcDbEntity
  8
0
  6
Continuous
100
AcDbLine
 10
-0.0095
 20
0.3690919429638669
 30
0.0
 11
-0.013435
 21
0.3660709429638669
 31
0.0
  0
LINE
  5
317
330
1D
100
AcDbEntity
  8
0
  6
Continuous
100
AcDbLine
 10
-0.013435
 20
0.3391999429638669
 30
0.0
 11
-0.0095
 21
0.3361809429638669
 31
0.0
  0
LINE
  5
318
330
1D
100
AcDbEntity
  8
0
  6
Continuous
100
AcDbLine
 10
-0.004918
 20
0.3709899429638669
 30
0.0
 11
-0.0095
 21
0.3690919429638669
 31
0.0
  0
LINE
  5
319
330
1D
100
AcDbEntity
  8
0
  6
Continuous
100
AcDbLine
 10
-0.018353
 20
0.3477009429638669
 30
0.0
 11
-0.019
 21
0.3526439429638668
 31
0.0
  0
LINE
  5
31A
330
1D
100
AcDbEntity
  8
0
  6
Continuous
100
AcDbLine
 10
-0.016455
 20
0.3621329429638669
 30
0.0
 11
-0.013435
 21
0.3660709429638669
 31
0.0
  0
LINE
  5
31B
330
1D
100
AcDbEntity
  8
0
  6
Continuous
100
AcDbLine
 10
-0.016455
 20
0.3431359429638669
 30
0.0
 11
-0.013435
 21
0.3391999429638669
 31
0.0
  0
LINE
  5
31C
330
1D
100
AcDbEntity
  8
0
  6
Continuous
100
AcDbLine
 10
-0.004918
 20
0.3342829429638669
 30
0.0
 11
-0.0095
 21
0.3361809429638669
 31
0.0
  0
LINE
  5
31D
330
1D
100
AcDbEntity
  8
0
  6
Continuous
100
AcDbLine
 10
0.0
 20
0.3336349429638669
 30
0.0
 11
-0.004918
 21
0.3342829429638669
 31
0.0
  0
LINE
  5
31E
330
1D
100
AcDbEntity
  8
0
  6
Continuous
100
AcDbLine
 10
-0.004594
 20
0.3336819429638669
 30
0.0
 11
-0.001566
 21
0.3290259429638669
 31
0.0
  0
LINE
  5
31F
330
1D
100
AcDbEntity
  8
0
  6
Continuous
100
AcDbLine
 10
-0.001577
 20
0.3290679429638669
 30
0.0
 11
-0.001614
 21
0.3291239429638669
 31
0.0
  0
LINE
  5
320
330
1D
100
AcDbEntity
  8
0
  6
Continuous
100
AcDbLine
 10
0.0
 20
0.3278259429638669
 30
0.0
 11
-0.000697
 21
0.3281149429638669
 31
0.0
  0
LINE
  5
321
330
1D
100
AcDbEntity
  8
0
  6
Continuous
100
AcDbLine
 10
-0.000697
 20
0.3280799429638669
 30
0.0
 11
0.0
 21
0.3278259429638669
 31
0.0
  0
LINE
  5
322
330
1D
100
AcDbEntity
  8
0
  6
Continuous
100
AcDbLine
 10
-0.001566
 20
0.3290259429638669
 30
0.0
 11
-0.00105
 21
0.3282319429638669
 31
0.0
  0
LINE
  5
323
330
1D
100
AcDbEntity
  8
0
  6
Continuous
100
AcDbLine
 10
-0.001577
 20
0.3290679429638669
 30
0.0
 11
-0.001063
 21
0.3282769429638669
 31
0.0
  0
LINE
  5
324
330
1D
100
AcDbEntity
  8
0
  6
Continuous
100
AcDbLine
 10
-0.004601
 20
0.3337109429638669
 30
0.0
 11
-0.001577
 21
0.3290679429638669
 31
0.0
  0
LINE
  5
325
330
1D
100
AcDbEntity
  8
0
  6
Continuous
100
AcDbLine
 10
-0.004601
 20
0.3337109429638669
 30
0.0
 11
-0.00155
 21
0.3315479429638669
 31
0.0
  0
LINE
  5
326
330
1D
100
AcDbEntity
  8
0
  6
Continuous
100
AcDbLine
 10
-0.00069
 20
0.3337069429638669
 30
0.0
 11
-0.001062
 21
0.3337559429638669
 31
0.0
  0
LINE
  5
327
330
1D
100
AcDbEntity
  8
0
  6
Continuous
100
AcDbLine
 10
-0.00105
 20
0.3282319429638669
 30
0.0
 11
-0.000697
 21
0.3280799429638669
 31
0.0
  0
LINE
  5
328
330
1D
100
AcDbEntity
  8
0
  6
Continuous
100
AcDbLine
 10
-0.001062
 20
0.3282739429638669
 30
0.0
 11
-0.00105
 21
0.3282319429638669
 31
0.0
  0
LINE
  5
329
330
1D
100
AcDbEntity
  8
0
  6
Continuous
100
AcDbLine
 10
-0.001073
 20
0.3289239429638669
 30
0.0
 11
-0.001063
 21
0.3282769429638669
 31
0.0
  0
LINE
  5
32A
330
1D
100
AcDbEntity
  8
0
  6
Continuous
100
AcDbLine
 10
-0.001063
 20
0.3282769429638669
 30
0.0
 11
-0.000697
 21
0.3281149429638669
 31
0.0
  0
LINE
  5
32B
330
1D
100
AcDbEntity
  8
0
  6
Continuous
100
AcDbLine
 10
0.0
 20
0.3336159429638669
 30
0.0
 11
-0.00069
 21
0.3337069429638669
 31
0.0
  0
LINE
  5
32C
330
1D
100
AcDbEntity
  8
0
  6
Continuous
100
AcDbLine
 10
-0.004918
 20
0.3342629429638669
 30
0.0
 11
-0.004601
 21
0.3337109429638669
 31
0.0
  0
LINE
  5
32D
330
1D
100
AcDbEntity
  8
0
  6
Continuous
100
AcDbLine
 10
-0.004918
 20
0.3342629429638669
 30
0.0
 11
-0.004323
 21
0.3341219429638669
 31
0.0
  0
LINE
  5
32E
330
1D
100
AcDbEntity
  8
0
  6
Continuous
100
AcDbLine
 10
-0.00429
 20
0.3341809429638669
 30
0.0
 11
-0.004918
 21
0.3342629429638669
 31
0.0
  0
LINE
  5
32F
330
1D
100
AcDbEntity
  8
0
  6
Continuous
100
AcDbLine
 10
-0.00154
 20
0.3338189429638669
 30
0.0
 11
-0.00429
 21
0.3341809429638669
 31
0.0
  0
LINE
  5
330
330
1D
100
AcDbEntity
  8
0
  6
Continuous
100
AcDbLine
 10
-0.001062
 20
0.3337559429638669
 30
0.0
 11
-0.00154
 21
0.3338189429638669
 31
0.0
  0
LINE
  5
331
330
1D
100
AcDbEntity
  8
0
  6
Continuous
100
AcDbLine
 10
-0.004918
 20
0.3342629429638669
 30
0.0
 11
-0.004448
 21
0.3339369429638669
 31
0.0
  0
LINE
  5
332
330
1D
100
AcDbEntity
  8
0
  6
Continuous
100
AcDbLine
 10
-0.004448
 20
0.3339369429638669
 30
0.0
 11
-0.004573
 21
0.3337519429638669
 31
0.0
  0
LINE
  5
333
330
1D
100
AcDbEntity
  8
0
  6
Continuous
100
AcDbLine
 10
-0.001548
 20
0.3325709429638669
 30
0.0
 11
-0.004573
 21
0.3337519429638669
 31
0.0
  0
LINE
  5
334
330
1D
100
AcDbEntity
  8
0
  6
Continuous
100
AcDbLine
 10
-0.004573
 20
0.3337519429638669
 30
0.0
 11
-0.00155
 21
0.3315479429638669
 31
0.0
  0
LINE
  5
335
330
1D
100
AcDbEntity
  8
0
  6
Continuous
100
AcDbLine
 10
-0.004918
 20
0.3342619429638669
 30
0.0
 11
-0.004594
 21
0.3336819429638669
 31
0.0
  0
LINE
  5
336
330
1D
100
AcDbEntity
  8
0
  6
Continuous
100
AcDbLine
 10
0.016455
 20
0.3431359429638669
 30
0.0
 11
0.018353
 21
0.3477009429638669
 31
0.0
  0
LINE
  5
337
330
1D
100
AcDbEntity
  8
0
  6
Continuous
100
AcDbLine
 10
0.019
 20
0.3526439429638668
 30
0.0
 11
0.018353
 21
0.3575459429638669
 31
0.0
  0
LINE
  5
338
330
1D
100
AcDbEntity
  8
0
  6
Continuous
100
AcDbLine
 10
0.004918
 20
0.3709899429638669
 30
0.0
 11
0.0
 21
0.3716359429638669
 31
0.0
  0
LINE
  5
339
330
1D
100
AcDbEntity
  8
0
  6
Continuous
100
AcDbLine
 10
0.018353
 20
0.3575459429638669
 30
0.0
 11
0.016455
 21
0.3621329429638669
 31
0.0
  0
LINE
  5
33A
330
1D
100
AcDbEntity
  8
0
  6
Continuous
100
AcDbLine
 10
0.013435
 20
0.3660709429638669
 30
0.0
 11
0.0095
 21
0.3690919429638669
 31
0.0
  0
LINE
  5
33B
330
1D
100
AcDbEntity
  8
0
  6
Continuous
100
AcDbLine
 10
0.0095
 20
0.3361809429638669
 30
0.0
 11
0.013435
 21
0.3391999429638669
 31
0.0
  0
LINE
  5
33C
330
1D
100
AcDbEntity
  8
0
  6
Continuous
100
AcDbLine
 10
0.0095
 20
0.3690919429638669
 30
0.0
 11
0.004918
 21
0.3709899429638669
 31
0.0
  0
LINE
  5
33D
330
1D
100
AcDbEntity
  8
0
  6
Continuous
100
AcDbLine
 10
0.019
 20
0.3526439429638668
 30
0.0
 11
0.018353
 21
0.3477009429638669
 31
0.0
  0
LINE
  5
33E
330
1D
100
AcDbEntity
  8
0
  6
Continuous
100
AcDbLine
 10
0.013435
 20
0.3660709429638669
 30
0.0
 11
0.016455
 21
0.3621329429638669
 31
0.0
  0
LINE
  5
33F
330
1D
100
AcDbEntity
  8
0
  6
Continuous
100
AcDbLine
 10
0.013435
 20
0.3391999429638669
 30
0.0
 11
0.016455
 21
0.3431359429638669
 31
0.0
  0
LINE
  5
340
330
1D
100
AcDbEntity
  8
0
  6
Continuous
100
AcDbLine
 10
0.0095
 20
0.3361809429638669
 30
0.0
 11
0.004918
 21
0.3342829429638669
 31
0.0
  0
LINE
  5
341
330
1D
100
AcDbEntity
  8
0
  6
Continuous
100
AcDbLine
 10
0.004918
 20
0.3342829429638669
 30
0.0
 11
0.0
 21
0.3336349429638669
 31
0.0
  0
LINE
  5
342
330
1D
100
AcDbEntity
  8
0
  6
Continuous
100
AcDbLine
 10
0.0
 20
0.3286569429638669
 30
0.0
 11
0.0
 21
0.3278259429638669
 31
0.0
  0
LINE
  5
343
330
1D
100
AcDbEntity
  8
0
  6
Continuous
100
AcDbLine
 10
0.001566
 20
0.3290259429638669
 30
0.0
 11
0.004594
 21
0.3336819429638669
 31
0.0
  0
LINE
  5
344
330
1D
100
AcDbEntity
  8
0
  6
Continuous
100
AcDbLine
 10
0.001614
 20
0.3291239429638669
 30
0.0
 11
0.001577
 21
0.3290679429638669
 31
0.0
  0
LINE
  5
345
330
1D
100
AcDbEntity
  8
0
  6
Continuous
100
AcDbLine
 10
0.000697
 20
0.3281149429638669
 30
0.0
 11
0.0
 21
0.3278259429638669
 31
0.0
  0
LINE
  5
346
330
1D
100
AcDbEntity
  8
0
  6
Continuous
100
AcDbLine
 10
0.0
 20
0.3278259429638669
 30
0.0
 11
0.000697
 21
0.3280799429638669
 31
0.0
  0
LINE
  5
347
330
1D
100
AcDbEntity
  8
0
  6
Continuous
100
AcDbLine
 10
0.00105
 20
0.3282319429638669
 30
0.0
 11
0.001566
 21
0.3290259429638669
 31
0.0
  0
LINE
  5
348
330
1D
100
AcDbEntity
  8
0
  6
Continuous
100
AcDbLine
 10
0.001063
 20
0.3282769429638669
 30
0.0
 11
0.001577
 21
0.3290679429638669
 31
0.0
  0
LINE
  5
349
330
1D
100
AcDbEntity
  8
0
  6
Continuous
100
AcDbLine
 10
0.001577
 20
0.3290679429638669
 30
0.0
 11
0.004601
 21
0.3337109429638669
 31
0.0
  0
LINE
  5
34A
330
1D
100
AcDbEntity
  8
0
  6
Continuous
100
AcDbLine
 10
0.004601
 20
0.3337109429638669
 30
0.0
 11
0.00155
 21
0.3315479429638669
 31
0.0
  0
LINE
  5
34B
330
1D
100
AcDbEntity
  8
0
  6
Continuous
100
AcDbLine
 10
0.001062
 20
0.3337559429638669
 30
0.0
 11
0.00069
 21
0.3337069429638669
 31
0.0
  0
LINE
  5
34C
330
1D
100
AcDbEntity
  8
0
  6
Continuous
100
AcDbLine
 10
0.00105
 20
0.3282319429638669
 30
0.0
 11
0.001062
 21
0.3282739429638669
 31
0.0
  0
LINE
  5
34D
330
1D
100
AcDbEntity
  8
0
  6
Continuous
100
AcDbLine
 10
0.000697
 20
0.3280799429638669
 30
0.0
 11
0.00105
 21
0.3282319429638669
 31
0.0
  0
LINE
  5
34E
330
1D
100
AcDbEntity
  8
0
  6
Continuous
100
AcDbLine
 10
0.000697
 20
0.3281149429638669
 30
0.0
 11
0.001063
 21
0.3282769429638669
 31
0.0
  0
LINE
  5
34F
330
1D
100
AcDbEntity
  8
0
  6
Continuous
100
AcDbLine
 10
0.001063
 20
0.3282769429638669
 30
0.0
 11
0.001073
 21
0.3289239429638669
 31
0.0
  0
LINE
  5
350
330
1D
100
AcDbEntity
  8
0
  6
Continuous
100
AcDbLine
 10
0.00069
 20
0.3337069429638669
 30
0.0
 11
0.0
 21
0.3336159429638669
 31
0.0
  0
LINE
  5
351
330
1D
100
AcDbEntity
  8
0
  6
Continuous
100
AcDbLine
 10
0.004601
 20
0.3337109429638669
 30
0.0
 11
0.004918
 21
0.3342629429638669
 31
0.0
  0
LINE
  5
352
330
1D
100
AcDbEntity
  8
0
  6
Continuous
100
AcDbLine
 10
0.004323
 20
0.3341219429638669
 30
0.0
 11
0.004918
 21
0.3342629429638669
 31
0.0
  0
LINE
  5
353
330
1D
100
AcDbEntity
  8
0
  6
Continuous
100
AcDbLine
 10
0.004918
 20
0.3342629429638669
 30
0.0
 11
0.00429
 21
0.3341809429638669
 31
0.0
  0
LINE
  5
354
330
1D
100
AcDbEntity
  8
0
  6
Continuous
100
AcDbLine
 10
0.00429
 20
0.3341809429638669
 30
0.0
 11
0.00154
 21
0.3338189429638669
 31
0.0
  0
LINE
  5
355
330
1D
100
AcDbEntity
  8
0
  6
Continuous
100
AcDbLine
 10
0.00154
 20
0.3338189429638669
 30
0.0
 11
0.001062
 21
0.3337559429638669
 31
0.0
  0
LINE
  5
356
330
1D
100
AcDbEntity
  8
0
  6
Continuous
100
AcDbLine
 10
0.004448
 20
0.3339369429638669
 30
0.0
 11
0.004918
 21
0.3342629429638669
 31
0.0
  0
LINE
  5
357
330
1D
100
AcDbEntity
  8
0
  6
Continuous
100
AcDbLine
 10
0.00155
 20
0.3315479429638669
 30
0.0
 11
0.004573
 21
0.3337519429638669
 31
0.0
  0
LINE
  5
358
330
1D
100
AcDbEntity
  8
0
  6
Continuous
100
AcDbLine
 10
0.001548
 20
0.3325709429638669
 30
0.0
 11
0.004573
 21
0.3337519429638669
 31
0.0
  0
LINE
  5
359
330
1D
100
AcDbEntity
  8
0
  6
Continuous
100
AcDbLine
 10
0.004573
 20
0.3337519429638669
 30
0.0
 11
0.004448
 21
0.3339369429638669
 31
0.0
  0
LINE
  5
35A
330
1D
100
AcDbEntity
  8
0
  6
Continuous
100
AcDbLine
 10
0.004594
 20
0.3336819429638669
 30
0.0
 11
0.004918
 21
0.3342619429638669
 31
0.0
  0
LINE
  5
35B
330
1D
100
AcDbEntity
  8
0
  6
Continuous
100
AcDbLine
 10
-0.000958
 20
0.3732219429638669
 30
0.0
 11
-0.000149
 21
0.3733199429638669
 31
0.0
  0
LINE
  5
35C
330
1D
100
AcDbEntity
  8
0
  6
Continuous
100
AcDbLine
 10
0.000262
 20
0.3733179429638669
 30
0.0
 11
0.0
 21
0.3733419429638669
 31
0.0
  0
LINE
  5
35D
330
1D
100
AcDbEntity
  8
0
  6
Continuous
100
AcDbLine
 10
-0.000149
 20
0.3733199429638669
 30
0.0
 11
0.0
 21
0.3733419429638669
 31
0.0
  0
LINE
  5
35E
330
1D
100
AcDbEntity
  8
0
  6
Continuous
100
AcDbLine
 10
0.000262
 20
0.3733179429638669
 30
0.0
 11
0.001061
 21
0.3732309429638669
 31
0.0
  0
LINE
  5
35F
330
1D
100
AcDbEntity
  8
0
  6
Continuous
100
AcDbLine
 10
-0.001992
 20
0.3731719429638669
 30
0.0
 11
-0.001909
 21
0.3731639429638669
 31
0.0
  0
LINE
  5
360
330
1D
100
AcDbEntity
  8
0
  6
Continuous
100
AcDbLine
 10
-0.001909
 20
0.3731639429638669
 30
0.0
 11
-0.00159
 21
0.3731749429638669
 31
0.0
  0
LINE
  5
361
330
1D
100
AcDbEntity
  8
0
  6
Continuous
100
AcDbLine
 10
0.00155
 20
0.3732249429638669
 30
0.0
 11
0.001372
 21
0.3732239429638669
 31
0.0
  0
LINE
  5
362
330
1D
100
AcDbEntity
  8
0
  6
Continuous
100
AcDbLine
 10
0.001372
 20
0.3732239429638669
 30
0.0
 11
0.001061
 21
0.3732309429638669
 31
0.0
  0
LINE
  5
363
330
1D
100
AcDbEntity
  8
0
  6
Continuous
100
AcDbLine
 10
0.00174
 20
0.3732689429638669
 30
0.0
 11
0.001671
 21
0.3732589429638669
 31
0.0
  0
LINE
  5
364
330
1D
100
AcDbEntity
  8
0
  6
Continuous
100
AcDbLine
 10
-0.001564
 20
0.3731759429638669
 30
0.0
 11
-0.001377
 21
0.3731779429638669
 31
0.0
  0
LINE
  5
365
330
1D
100
AcDbEntity
  8
0
  6
Continuous
100
AcDbLine
 10
-0.001377
 20
0.3731779429638669
 30
0.0
 11
-0.000958
 21
0.3732219429638669
 31
0.0
  0
LINE
  5
469
330
1D
100
AcDbEntity
  8
0
  6
Continuous
100
AcDbLine
 10
0.3277616079260881
 20
0.038802
 30
0.0
 11
0.3277616079260881
 21
0.037322
 31
0.0
  0
LINE
  5
46A
330
1D
100
AcDbEntity
  8
0
  6
Continuous
100
AcDbLine
 10
0.3628656079260881
 20
0.037002
 30
0.0
 11
0.3628656079260881
 21
0.038802
 31
0.0
  0
LINE
  5
46B
330
1D
100
AcDbEntity
  8
0
  6
Continuous
100
AcDbLine
 10
0.349872607926088
 20
0.037322
 30
0.0
 11
0.354109607926088
 21
0.037322
 31
0.0
  0
LINE
  5
46C
330
1D
100
AcDbEntity
  8
0
  6
Continuous
100
AcDbLine
 10
0.354109607926088
 20
0.037322
 30
0.0
 11
0.357744607926088
 21
0.037322
 31
0.0
  0
LINE
  5
46D
330
1D
100
AcDbEntity
  8
0
  6
Continuous
100
AcDbLine
 10
0.340669607926088
 20
0.037322
 30
0.0
 11
0.345338607926088
 21
0.037322
 31
0.0
  0
LINE
  5
46E
330
1D
100
AcDbEntity
  8
0
  6
Continuous
100
AcDbLine
 10
0.357744607926088
 20
0.037322
 30
0.0
 11
0.360527607926088
 21
0.037322
 31
0.0
  0
LINE
  5
46F
330
1D
100
AcDbEntity
  8
0
  6
Continuous
100
AcDbLine
 10
0.3628656079260881
 20
0.037322
 30
0.0
 11
0.3628656079260881
 21
0.038802
 31
0.0
  0
LINE
  5
470
330
1D
100
AcDbEntity
  8
0
  6
Continuous
100
AcDbLine
 10
0.362272607926088
 20
0.037322
 30
0.0
 11
0.3628656079260881
 21
0.037322
 31
0.0
  0
LINE
  5
471
330
1D
100
AcDbEntity
  8
0
  6
Continuous
100
AcDbLine
 10
0.345338607926088
 20
0.037322
 30
0.0
 11
0.349872607926088
 21
0.037322
 31
0.0
  0
LINE
  5
472
330
1D
100
AcDbEntity
  8
0
  6
Continuous
100
AcDbLine
 10
0.360527607926088
 20
0.037322
 30
0.0
 11
0.362272607926088
 21
0.037322
 31
0.0
  0
LINE
  5
473
330
1D
100
AcDbEntity
  8
0
  6
Continuous
100
AcDbLine
 10
0.250474607926088
 20
0.013913
 30
0.0
 11
0.252651607926088
 21
0.013761
 31
0.0
  0
LINE
  5
474
330
1D
100
AcDbEntity
  8
0
  6
Continuous
100
AcDbLine
 10
0.323069607926088
 20
0.000763
 30
0.0
 11
0.324051607926088
 21
-0.005359
 31
0.0
  0
LINE
  5
475
330
1D
100
AcDbEntity
  8
0
  6
Continuous
100
AcDbLine
 10
0.3091336079260881
 20
0.010934
 30
0.0
 11
0.314655607926088
 21
0.009374
 31
0.0
  0
LINE
  5
476
330
1D
100
AcDbEntity
  8
0
  6
Continuous
100
AcDbLine
 10
0.314655607926088
 20
0.009374
 30
0.0
 11
0.319891607926088
 21
0.006005
 31
0.0
  0
LINE
  5
477
330
1D
100
AcDbEntity
  8
0
  6
Continuous
100
AcDbLine
 10
0.319891607926088
 20
0.006005
 30
0.0
 11
0.323069607926088
 21
0.000763
 31
0.0
  0
LINE
  5
478
330
1D
100
AcDbEntity
  8
0
  6
Continuous
100
AcDbLine
 10
0.323640607926088
 20
-0.011565
 30
0.0
 11
0.3216156079260881
 21
-0.088
 31
0.0
  0
LINE
  5
479
330
1D
100
AcDbEntity
  8
0
  6
Continuous
100
AcDbLine
 10
0.364963607926088
 20
0.011808
 30
0.0
 11
0.364716607926088
 21
0.021211
 31
0.0
  0
LINE
  5
47A
330
1D
100
AcDbEntity
  8
0
  6
Continuous
100
AcDbLine
 10
0.365547607926088
 20
-0.010343
 30
0.0
 11
0.365211607926088
 21
0.002406
 31
0.0
  0
LINE
  5
47B
330
1D
100
AcDbEntity
  8
0
  6
Continuous
100
AcDbLine
 10
0.365211607926088
 20
0.002406
 30
0.0
 11
0.364963607926088
 21
0.011808
 31
0.0
  0
LINE
  5
47C
330
1D
100
AcDbEntity
  8
0
  6
Continuous
100
AcDbLine
 10
0.367592607926088
 20
-0.088
 30
0.0
 11
0.3663526079260881
 21
-0.040907
 31
0.0
  0
LINE
  5
47D
330
1D
100
AcDbEntity
  8
0
  6
Continuous
100
AcDbLine
 10
0.366036607926088
 20
-0.028929
 30
0.0
 11
0.365547607926088
 21
-0.010343
 31
0.0
  0
LINE
  5
47E
330
1D
100
AcDbEntity
  8
0
  6
Continuous
100
AcDbLine
 10
0.3644686079260881
 20
0.030613
 30
0.0
 11
0.364308607926088
 21
0.03667
 31
0.0
  0
LINE
  5
47F
330
1D
100
AcDbEntity
  8
0
  6
Continuous
100
AcDbLine
 10
0.364716607926088
 20
0.021211
 30
0.0
 11
0.3644686079260881
 21
0.030613
 31
0.0
  0
LINE
  5
480
330
1D
100
AcDbEntity
  8
0
  6
Continuous
100
AcDbLine
 10
0.224570607926088
 20
0.028378
 30
0.0
 11
0.229253607926088
 21
0.024826
 31
0.0
  0
LINE
  5
481
330
1D
100
AcDbEntity
  8
0
  6
Continuous
100
AcDbLine
 10
0.225533607926088
 20
0.028088
 30
0.0
 11
0.230800607926088
 21
0.024208
 31
0.0
  0
LINE
  5
482
330
1D
100
AcDbEntity
  8
0
  6
Continuous
100
AcDbLine
 10
0.244127607926088
 20
0.016634
 30
0.0
 11
0.245945607926088
 21
0.015553
 31
0.0
  0
LINE
  5
483
330
1D
100
AcDbEntity
  8
0
  6
Continuous
100
AcDbLine
 10
0.236712607926088
 20
0.020732
 30
0.0
 11
0.239065607926088
 21
0.019476
 31
0.0
  0
LINE
  5
484
330
1D
100
AcDbEntity
  8
0
  6
Continuous
100
AcDbLine
 10
0.229253607926088
 20
0.024826
 30
0.0
 11
0.234082607926088
 21
0.021839
 31
0.0
  0
LINE
  5
485
330
1D
100
AcDbEntity
  8
0
  6
Continuous
100
AcDbLine
 10
0.230800607926088
 20
0.024208
 30
0.0
 11
0.236712607926088
 21
0.020732
 31
0.0
  0
LINE
  5
486
330
1D
100
AcDbEntity
  8
0
  6
Continuous
100
AcDbLine
 10
0.220603607926088
 20
0.032261
 30
0.0
 11
0.224570607926088
 21
0.028378
 31
0.0
  0
LINE
  5
487
330
1D
100
AcDbEntity
  8
0
  6
Continuous
100
AcDbLine
 10
0.2213756079260881
 20
0.032085
 30
0.0
 11
0.225533607926088
 21
0.028088
 31
0.0
  0
LINE
  5
488
330
1D
100
AcDbEntity
  8
0
  6
Continuous
100
AcDbLine
 10
0.2458356079260881
 20
0.015358
 30
0.0
 11
0.247511607926088
 21
0.014411
 31
0.0
  0
LINE
  5
489
330
1D
100
AcDbEntity
  8
0
  6
Continuous
100
AcDbLine
 10
0.247511607926088
 20
0.014411
 30
0.0
 11
0.250474607926088
 21
0.013913
 31
0.0
  0
LINE
  5
48A
330
1D
100
AcDbEntity
  8
0
  6
Continuous
100
AcDbLine
 10
0.217979607926088
 20
0.03633
 30
0.0
 11
0.220603607926088
 21
0.032261
 31
0.0
  0
LINE
  5
48B
330
1D
100
AcDbEntity
  8
0
  6
Continuous
100
AcDbLine
 10
0.2213756079260881
 20
0.032085
 30
0.0
 11
0.218603607926088
 21
0.036335
 31
0.0
  0
LINE
  5
48C
330
1D
100
AcDbEntity
  8
0
  6
Continuous
100
AcDbLine
 10
0.345395607926088
 20
0.037322
 30
0.0
 11
0.3248356079260881
 21
0.037322
 31
0.0
  0
LINE
  5
48D
330
1D
100
AcDbEntity
  8
0
  6
Continuous
100
AcDbLine
 10
0.363684607926088
 20
0.037322
 30
0.0
 11
0.361786607926088
 21
0.037322
 31
0.0
  0
LINE
  5
48E
330
1D
100
AcDbEntity
  8
0
  6
Continuous
100
AcDbLine
 10
0.354827607926088
 20
0.037322
 30
0.0
 11
0.350240607926088
 21
0.037322
 31
0.0
  0
LINE
  5
48F
330
1D
100
AcDbEntity
  8
0
  6
Continuous
100
AcDbLine
 10
0.358765607926088
 20
0.037322
 30
0.0
 11
0.354827607926088
 21
0.037322
 31
0.0
  0
LINE
  5
490
330
1D
100
AcDbEntity
  8
0
  6
Continuous
100
AcDbLine
 10
0.361786607926088
 20
0.037322
 30
0.0
 11
0.358765607926088
 21
0.037322
 31
0.0
  0
LINE
  5
491
330
1D
100
AcDbEntity
  8
0
  6
Continuous
100
AcDbLine
 10
0.350240607926088
 20
0.037322
 30
0.0
 11
0.345395607926088
 21
0.037322
 31
0.0
  0
LINE
  5
492
330
1D
100
AcDbEntity
  8
0
  6
Continuous
100
AcDbLine
 10
0.364275607926088
 20
0.037322
 30
0.0
 11
0.363684607926088
 21
0.037322
 31
0.0
  0
LINE
  5
493
330
1D
100
AcDbEntity
  8
0
  6
Continuous
100
AcDbLine
 10
0.364308607926088
 20
0.03667
 30
0.0
 11
0.364275607926088
 21
0.037322
 31
0.0
  0
LINE
  5
494
330
1D
100
AcDbEntity
  8
0
  6
Continuous
100
AcDbLine
 10
0.217957607926088
 20
0.037322
 30
0.0
 11
0.217339607926088
 21
0.037322
 31
0.0
  0
LINE
  5
495
330
1D
100
AcDbEntity
  8
0
  6
Continuous
100
AcDbLine
 10
0.217339607926088
 20
0.037322
 30
0.0
 11
0.217979607926088
 21
0.03633
 31
0.0
  0
LINE
  5
496
330
1D
100
AcDbEntity
  8
0
  6
Continuous
100
AcDbLine
 10
0.220335607926088
 20
0.037322
 30
0.0
 11
0.217957607926088
 21
0.037322
 31
0.0
  0
LINE
  5
497
330
1D
100
AcDbEntity
  8
0
  6
Continuous
100
AcDbLine
 10
0.217957607926088
 20
0.037322
 30
0.0
 11
0.218603607926088
 21
0.036335
 31
0.0
  0
LINE
  5
498
330
1D
100
AcDbEntity
  8
0
  6
Continuous
100
AcDbLine
 10
0.3248356079260881
 20
0.037322
 30
0.0
 11
0.222518607926088
 21
0.037322
 31
0.0
  0
LINE
  5
499
330
1D
100
AcDbEntity
  8
0
  6
Continuous
100
AcDbLine
 10
0.222518607926088
 20
0.037322
 30
0.0
 11
0.220335607926088
 21
0.037322
 31
0.0
  0
LINE
  5
49A
330
1D
100
AcDbEntity
  8
0
  6
Continuous
100
AcDbLine
 10
0.252651607926088
 20
0.013761
 30
0.0
 11
0.3091336079260881
 21
0.010934
 31
0.0
  0
LINE
  5
49B
330
1D
100
AcDbEntity
  8
0
  6
Continuous
100
AcDbLine
 10
0.324051607926088
 20
-0.005359
 30
0.0
 11
0.323640607926088
 21
-0.011565
 31
0.0
  0
LINE
  5
49C
330
1D
100
AcDbEntity
  8
0
  6
Continuous
100
AcDbLine
 10
0.328345607926088
 20
-0.089
 30
0.0
 11
0.324688607926088
 21
-0.089
 31
0.0
  0
LINE
  5
49D
330
1D
100
AcDbEntity
  8
0
  6
Continuous
100
AcDbLine
 10
0.333111607926088
 20
-0.089
 30
0.0
 11
0.328345607926088
 21
-0.089
 31
0.0
  0
LINE
  5
49E
330
1D
100
AcDbEntity
  8
0
  6
Continuous
100
AcDbLine
 10
0.3216156079260881
 20
-0.088
 30
0.0
 11
0.321605607926088
 21
-0.089
 31
0.0
  0
LINE
  5
49F
330
1D
100
AcDbEntity
  8
0
  6
Continuous
100
AcDbLine
 10
0.322389607926088
 20
-0.089
 30
0.0
 11
0.321605607926088
 21
-0.089
 31
0.0
  0
LINE
  5
4A0
330
1D
100
AcDbEntity
  8
0
  6
Continuous
100
AcDbLine
 10
0.324688607926088
 20
-0.089
 30
0.0
 11
0.322389607926088
 21
-0.089
 31
0.0
  0
LINE
  5
4A1
330
1D
100
AcDbEntity
  8
0
  6
Continuous
100
AcDbLine
 10
0.338660607926088
 20
-0.089
 30
0.0
 11
0.333111607926088
 21
-0.089
 31
0.0
  0
LINE
  5
4A2
330
1D
100
AcDbEntity
  8
0
  6
Continuous
100
AcDbLine
 10
0.366763607926088
 20
-0.089
 30
0.0
 11
0.364465607926088
 21
-0.089
 31
0.0
  0
LINE
  5
4A3
330
1D
100
AcDbEntity
  8
0
  6
Continuous
100
AcDbLine
 10
0.367605607926088
 20
-0.089
 30
0.0
 11
0.367592607926088
 21
-0.088
 31
0.0
  0
LINE
  5
4A4
330
1D
100
AcDbEntity
  8
0
  6
Continuous
100
AcDbLine
 10
0.367605607926088
 20
-0.089
 30
0.0
 11
0.366763607926088
 21
-0.089
 31
0.0
  0
LINE
  5
4A5
330
1D
100
AcDbEntity
  8
0
  6
Continuous
100
AcDbLine
 10
0.350482607926088
 20
-0.089
 30
0.0
 11
0.344615607926088
 21
-0.089
 31
0.0
  0
LINE
  5
4A6
330
1D
100
AcDbEntity
  8
0
  6
Continuous
100
AcDbLine
 10
0.364465607926088
 20
-0.089
 30
0.0
 11
0.360806607926088
 21
-0.089
 31
0.0
  0
LINE
  5
4A7
330
1D
100
AcDbEntity
  8
0
  6
Continuous
100
AcDbLine
 10
0.356037607926088
 20
-0.089
 30
0.0
 11
0.360806607926088
 21
-0.089
 31
0.0
  0
LINE
  5
4A8
330
1D
100
AcDbEntity
  8
0
  6
Continuous
100
AcDbLine
 10
0.356037607926088
 20
-0.089
 30
0.0
 11
0.350482607926088
 21
-0.089
 31
0.0
  0
LINE
  5
4A9
330
1D
100
AcDbEntity
  8
0
  6
Continuous
100
AcDbLine
 10
0.344615607926088
 20
-0.089
 30
0.0
 11
0.338660607926088
 21
-0.089
 31
0.0
  0
LINE
  5
4AA
330
1D
100
AcDbEntity
  8
0
  6
Continuous
100
AcDbLine
 10
0.243859607926088
 20
0.011856
 30
0.0
 11
0.2458356079260881
 21
0.015358
 31
0.0
  0
LINE
  5
4AB
330
1D
100
AcDbEntity
  8
0
  6
Continuous
100
AcDbLine
 10
0.226447607926088
 20
0.026955
 30
0.0
 11
0.224170607926088
 21
0.022918
 31
0.0
  0
LINE
  5
4AC
330
1D
100
AcDbEntity
  8
0
  6
Continuous
100
AcDbLine
 10
0.223924607926088
 20
0.022482
 30
0.0
 11
0.224406607926088
 21
0.022212
 31
0.0
  0
LINE
  5
4AD
330
1D
100
AcDbEntity
  8
0
  6
Continuous
100
AcDbLine
 10
0.224170607926088
 20
0.022918
 30
0.0
 11
0.223924607926088
 21
0.022482
 31
0.0
  0
LINE
  5
4AE
330
1D
100
AcDbEntity
  8
0
  6
Continuous
100
AcDbLine
 10
0.225804607926088
 20
0.021426
 30
0.0
 11
0.224406607926088
 21
0.022212
 31
0.0
  0
LINE
  5
4AF
330
1D
100
AcDbEntity
  8
0
  6
Continuous
100
AcDbLine
 10
0.227982607926088
 20
0.020202
 30
0.0
 11
0.225804607926088
 21
0.021426
 31
0.0
  0
LINE
  5
4B0
330
1D
100
AcDbEntity
  8
0
  6
Continuous
100
AcDbLine
 10
0.230727607926088
 20
0.01866
 30
0.0
 11
0.227982607926088
 21
0.020202
 31
0.0
  0
LINE
  5
4B1
330
1D
100
AcDbEntity
  8
0
  6
Continuous
100
AcDbLine
 10
0.233769607926088
 20
0.016951
 30
0.0
 11
0.230727607926088
 21
0.01866
 31
0.0
  0
LINE
  5
4B2
330
1D
100
AcDbEntity
  8
0
  6
Continuous
100
AcDbLine
 10
0.233769607926088
 20
0.016951
 30
0.0
 11
0.236811607926088
 21
0.015242
 31
0.0
  0
LINE
  5
4B3
330
1D
100
AcDbEntity
  8
0
  6
Continuous
100
AcDbLine
 10
0.236811607926088
 20
0.015242
 30
0.0
 11
0.239555607926088
 21
0.0137
 31
0.0
  0
LINE
  5
4B4
330
1D
100
AcDbEntity
  8
0
  6
Continuous
100
AcDbLine
 10
0.241733607926088
 20
0.012476
 30
0.0
 11
0.239555607926088
 21
0.0137
 31
0.0
  0
LINE
  5
4B5
330
1D
100
AcDbEntity
  8
0
  6
Continuous
100
AcDbLine
 10
0.241733607926088
 20
0.012476
 30
0.0
 11
0.243131607926088
 21
0.011691
 31
0.0
  0
LINE
  5
4B6
330
1D
100
AcDbEntity
  8
0
  6
Continuous
100
AcDbLine
 10
0.243613607926088
 20
0.01142
 30
0.0
 11
0.243859607926088
 21
0.011856
 31
0.0
  0
LINE
  5
4B7
330
1D
100
AcDbEntity
  8
0
  6
Continuous
100
AcDbLine
 10
0.243131607926088
 20
0.011691
 30
0.0
 11
0.243613607926088
 21
0.01142
 31
0.0
  0
LINE
  5
4B8
330
1D
100
AcDbEntity
  8
0
  6
Continuous
100
AcDbLine
 10
0.373693607926088
 20
-0.014767
 30
0.0
 11
0.374179607926088
 21
-0.01421
 31
0.0
  0
LINE
  5
4B9
330
1D
100
AcDbEntity
  8
0
  6
Continuous
100
AcDbLine
 10
0.373608607926088
 20
-0.011072
 30
0.0
 11
0.3722396079260881
 21
-0.011941
 31
0.0
  0
LINE
  5
4BA
330
1D
100
AcDbEntity
  8
0
  6
Continuous
100
AcDbLine
 10
0.3828006079260881
 20
-0.012238
 30
0.0
 11
0.378111607926088
 21
-0.011873
 31
0.0
  0
LINE
  5
4BB
330
1D
100
AcDbEntity
  8
0
  6
Continuous
100
AcDbLine
 10
0.3828006079260881
 20
-0.012238
 30
0.0
 11
0.378280607926088
 21
-0.012458
 31
0.0
  0
LINE
  5
4BC
330
1D
100
AcDbEntity
  8
0
  6
Continuous
100
AcDbLine
 10
0.378132607926088
 20
-0.012638
 30
0.0
 11
0.382811607926088
 21
-0.012498
 31
0.0
  0
LINE
  5
4BD
330
1D
100
AcDbEntity
  8
0
  6
Continuous
100
AcDbLine
 10
0.385934607926088
 20
-0.01216
 30
0.0
 11
0.3848816079260881
 21
-0.012247
 31
0.0
  0
LINE
  5
4BE
330
1D
100
AcDbEntity
  8
0
  6
Continuous
100
AcDbLine
 10
0.385550607926088
 20
-0.012511
 30
0.0
 11
0.385934607926088
 21
-0.01216
 31
0.0
  0
LINE
  5
4BF
330
1D
100
AcDbEntity
  8
0
  6
Continuous
100
AcDbLine
 10
0.378111607926088
 20
-0.011873
 30
0.0
 11
0.382773607926088
 21
-0.01216
 31
0.0
  0
LINE
  5
4C0
330
1D
100
AcDbEntity
  8
0
  6
Continuous
100
AcDbLine
 10
0.3722396079260881
 20
-0.011941
 30
0.0
 11
0.3712006079260881
 21
-0.012918
 31
0.0
  0
LINE
  5
4C1
330
1D
100
AcDbEntity
  8
0
  6
Continuous
100
AcDbLine
 10
0.373250607926088
 20
-0.015363
 30
0.0
 11
0.373693607926088
 21
-0.014767
 31
0.0
  0
LINE
  5
4C2
330
1D
100
AcDbEntity
  8
0
  6
Continuous
100
AcDbLine
 10
0.375080607926088
 20
-0.012035
 30
0.0
 11
0.374175607926088
 21
-0.012538
 31
0.0
  0
LINE
  5
4C3
330
1D
100
AcDbEntity
  8
0
  6
Continuous
100
AcDbLine
 10
0.374757607926088
 20
-0.013741
 30
0.0
 11
0.375439607926088
 21
-0.01346
 31
0.0
  0
LINE
  5
4C4
330
1D
100
AcDbEntity
  8
0
  6
Continuous
100
AcDbLine
 10
0.375109607926088
 20
-0.012952
 30
0.0
 11
0.374396607926088
 21
-0.013327
 31
0.0
  0
LINE
  5
4C5
330
1D
100
AcDbEntity
  8
0
  6
Continuous
100
AcDbLine
 10
0.382820607926088
 20
-0.010216
 30
0.0
 11
0.378464607926088
 21
-0.009769
 31
0.0
  0
LINE
  5
4C6
330
1D
100
AcDbEntity
  8
0
  6
Continuous
100
AcDbLine
 10
0.373347607926088
 20
-0.014482
 30
0.0
 11
0.373762607926088
 21
-0.01379
 31
0.0
  0
LINE
  5
4C7
330
1D
100
AcDbEntity
  8
0
  6
Continuous
100
AcDbLine
 10
0.3732666079260881
 20
-0.01304
 30
0.0
 11
0.372730607926088
 21
-0.013924
 31
0.0
  0
LINE
  5
4C8
330
1D
100
AcDbEntity
  8
0
  6
Continuous
100
AcDbLine
 10
0.375547607926088
 20
-0.010197
 30
0.0
 11
0.373608607926088
 21
-0.011072
 31
0.0
  0
LINE
  5
4C9
330
1D
100
AcDbEntity
  8
0
  6
Continuous
100
AcDbLine
 10
0.371878607926088
 20
-0.013536
 30
0.0
 11
0.371255607926088
 21
-0.014361
 31
0.0
  0
LINE
  5
4CA
330
1D
100
AcDbEntity
  8
0
  6
Continuous
100
AcDbLine
 10
0.3729766079260881
 20
-0.015182
 30
0.0
 11
0.373347607926088
 21
-0.014482
 31
0.0
  0
LINE
  5
4CB
330
1D
100
AcDbEntity
  8
0
  6
Continuous
100
AcDbLine
 10
0.372730607926088
 20
-0.013924
 30
0.0
 11
0.3724056079260881
 21
-0.014901
 31
0.0
  0
LINE
  5
4CC
330
1D
100
AcDbEntity
  8
0
  6
Continuous
100
AcDbLine
 10
0.374396607926088
 20
-0.013327
 30
0.0
 11
0.373762607926088
 21
-0.01379
 31
0.0
  0
LINE
  5
4CD
330
1D
100
AcDbEntity
  8
0
  6
Continuous
100
AcDbLine
 10
0.374179607926088
 20
-0.01421
 30
0.0
 11
0.374757607926088
 21
-0.013741
 31
0.0
  0
LINE
  5
4CE
330
1D
100
AcDbEntity
  8
0
  6
Continuous
100
AcDbLine
 10
0.3712006079260881
 20
-0.012918
 30
0.0
 11
0.370284607926088
 21
-0.013979
 31
0.0
  0
LINE
  5
4CF
330
1D
100
AcDbEntity
  8
0
  6
Continuous
100
AcDbLine
 10
0.375080607926088
 20
-0.012035
 30
0.0
 11
0.378111607926088
 21
-0.011873
 31
0.0
  0
LINE
  5
4D0
330
1D
100
AcDbEntity
  8
0
  6
Continuous
100
AcDbLine
 10
0.3750166079260881
 20
-0.011056
 30
0.0
 11
0.378173607926088
 21
-0.010564
 31
0.0
  0
LINE
  5
4D1
330
1D
100
AcDbEntity
  8
0
  6
Continuous
100
AcDbLine
 10
0.3828336079260881
 20
-0.010707
 30
0.0
 11
0.3781746079260881
 21
-0.010058
 31
0.0
  0
LINE
  5
4D2
330
1D
100
AcDbEntity
  8
0
  6
Continuous
100
AcDbLine
 10
0.3781696079260881
 20
-0.010268
 30
0.0
 11
0.3828336079260881
 21
-0.010707
 31
0.0
  0
LINE
  5
4D3
330
1D
100
AcDbEntity
  8
0
  6
Continuous
100
AcDbLine
 10
0.373758607926088
 20
-0.011406
 30
0.0
 11
0.375099607926088
 21
-0.01077
 31
0.0
  0
LINE
  5
4D4
330
1D
100
AcDbEntity
  8
0
  6
Continuous
100
AcDbLine
 10
0.375179607926088
 20
-0.010473
 30
0.0
 11
0.373620607926088
 21
-0.011156
 31
0.0
  0
LINE
  5
4D5
330
1D
100
AcDbEntity
  8
0
  6
Continuous
100
AcDbLine
 10
0.372502607926088
 20
-0.012243
 30
0.0
 11
0.373758607926088
 21
-0.011406
 31
0.0
  0
LINE
  5
4D6
330
1D
100
AcDbEntity
  8
0
  6
Continuous
100
AcDbLine
 10
0.373620607926088
 20
-0.011156
 30
0.0
 11
0.372268607926088
 21
-0.01206
 31
0.0
  0
LINE
  5
4D7
330
1D
100
AcDbEntity
  8
0
  6
Continuous
100
AcDbLine
 10
0.3715516079260881
 20
-0.01333
 30
0.0
 11
0.372502607926088
 21
-0.012243
 31
0.0
  0
LINE
  5
4D8
330
1D
100
AcDbEntity
  8
0
  6
Continuous
100
AcDbLine
 10
0.372268607926088
 20
-0.01206
 30
0.0
 11
0.371269607926088
 21
-0.013168
 31
0.0
  0
LINE
  5
4D9
330
1D
100
AcDbEntity
  8
0
  6
Continuous
100
AcDbLine
 10
0.371269607926088
 20
-0.013168
 30
0.0
 11
0.370411607926088
 21
-0.014039
 31
0.0
  0
LINE
  5
4DA
330
1D
100
AcDbEntity
  8
0
  6
Continuous
100
AcDbLine
 10
0.375099607926088
 20
-0.01077
 30
0.0
 11
0.3781696079260881
 21
-0.010268
 31
0.0
  0
LINE
  5
4DB
330
1D
100
AcDbEntity
  8
0
  6
Continuous
100
AcDbLine
 10
0.384876607926088
 20
-0.010216
 30
0.0
 11
0.382820607926088
 21
-0.010216
 31
0.0
  0
LINE
  5
4DC
330
1D
100
AcDbEntity
  8
0
  6
Continuous
100
AcDbLine
 10
0.385934607926088
 20
-0.01216
 30
0.0
 11
0.385979607926088
 21
-0.011144
 31
0.0
  0
LINE
  5
4DD
330
1D
100
AcDbEntity
  8
0
  6
Continuous
100
AcDbLine
 10
0.385736607926088
 20
-0.01216
 30
0.0
 11
0.385934607926088
 21
-0.01216
 31
0.0
  0
LINE
  5
4DE
330
1D
100
AcDbEntity
  8
0
  6
Continuous
100
AcDbLine
 10
0.3848176079260881
 20
-0.01216
 30
0.0
 11
0.385409607926088
 21
-0.01216
 31
0.0
  0
LINE
  5
4DF
330
1D
100
AcDbEntity
  8
0
  6
Continuous
100
AcDbLine
 10
0.384889607926088
 20
-0.010707
 30
0.0
 11
0.385557607926088
 21
-0.010707
 31
0.0
  0
LINE
  5
4E0
330
1D
100
AcDbEntity
  8
0
  6
Continuous
100
AcDbLine
 10
0.385550607926088
 20
-0.012511
 30
0.0
 11
0.3848816079260881
 21
-0.012247
 31
0.0
  0
LINE
  5
4E1
330
1D
100
AcDbEntity
  8
0
  6
Continuous
100
AcDbLine
 10
0.382811607926088
 20
-0.012498
 30
0.0
 11
0.385550607926088
 21
-0.012511
 31
0.0
  0
LINE
  5
4E2
330
1D
100
AcDbEntity
  8
0
  6
Continuous
100
AcDbLine
 10
0.3859836079260881
 20
-0.010216
 30
0.0
 11
0.384876607926088
 21
-0.010216
 31
0.0
  0
LINE
  5
4E3
330
1D
100
AcDbEntity
  8
0
  6
Continuous
100
AcDbLine
 10
0.384888607926088
 20
-0.010579
 30
0.0
 11
0.385656607926088
 21
-0.010579
 31
0.0
  0
LINE
  5
4E4
330
1D
100
AcDbEntity
  8
0
  6
Continuous
100
AcDbLine
 10
0.3859836079260881
 20
-0.010216
 30
0.0
 11
0.385656607926088
 21
-0.010579
 31
0.0
  0
LINE
  5
4E5
330
1D
100
AcDbEntity
  8
0
  6
Continuous
100
AcDbLine
 10
0.385979607926088
 20
-0.011144
 30
0.0
 11
0.3859836079260881
 21
-0.010216
 31
0.0
  0
LINE
  5
4E6
330
1D
100
AcDbEntity
  8
0
  6
Continuous
100
AcDbLine
 10
0.3848176079260881
 20
-0.01216
 30
0.0
 11
0.384888607926088
 21
-0.011144
 31
0.0
  0
LINE
  5
4E7
330
1D
100
AcDbEntity
  8
0
  6
Continuous
100
AcDbLine
 10
0.384888607926088
 20
-0.011144
 30
0.0
 11
0.384889607926088
 21
-0.010707
 31
0.0
  0
LINE
  5
4E8
330
1D
100
AcDbEntity
  8
0
  6
Continuous
100
AcDbLine
 10
0.3828336079260881
 20
-0.010707
 30
0.0
 11
0.384889607926088
 21
-0.010707
 31
0.0
  0
LINE
  5
4E9
330
1D
100
AcDbEntity
  8
0
  6
Continuous
100
AcDbLine
 10
0.3848176079260881
 20
-0.01216
 30
0.0
 11
0.382773607926088
 21
-0.01216
 31
0.0
  0
LINE
  5
4EA
330
1D
100
AcDbEntity
  8
0
  6
Continuous
100
AcDbLine
 10
0.385409607926088
 20
-0.01216
 30
0.0
 11
0.385736607926088
 21
-0.01216
 31
0.0
  0
LINE
  5
4EB
330
1D
100
AcDbEntity
  8
0
  6
Continuous
100
AcDbLine
 10
0.375439607926088
 20
-0.01346
 30
0.0
 11
0.378132607926088
 21
-0.012638
 31
0.0
  0
LINE
  5
4EC
330
1D
100
AcDbEntity
  8
0
  6
Continuous
100
AcDbLine
 10
0.378280607926088
 20
-0.012458
 30
0.0
 11
0.375109607926088
 21
-0.012952
 31
0.0
  0
LINE
  5
4ED
330
1D
100
AcDbEntity
  8
0
  6
Continuous
100
AcDbLine
 10
0.385656607926088
 20
-0.010579
 30
0.0
 11
0.385557607926088
 21
-0.010707
 31
0.0
  0
LINE
  5
4EE
330
1D
100
AcDbEntity
  8
0
  6
Continuous
100
AcDbLine
 10
0.385557607926088
 20
-0.010707
 30
0.0
 11
0.385555607926088
 21
-0.011144
 31
0.0
  0
LINE
  5
4EF
330
1D
100
AcDbEntity
  8
0
  6
Continuous
100
AcDbLine
 10
0.378464607926088
 20
-0.009769
 30
0.0
 11
0.375547607926088
 21
-0.010197
 31
0.0
  0
LINE
  5
4F0
330
1D
100
AcDbEntity
  8
0
  6
Continuous
100
AcDbLine
 10
0.375179607926088
 20
-0.010473
 30
0.0
 11
0.3781746079260881
 21
-0.010058
 31
0.0
  0
LINE
  5
4F1
330
1D
100
AcDbEntity
  8
0
  6
Continuous
100
AcDbLine
 10
0.3724056079260881
 20
-0.014901
 30
0.0
 11
0.366092607926088
 21
-0.038385
 31
0.0
  0
LINE
  5
4F2
330
1D
100
AcDbEntity
  8
0
  6
Continuous
100
AcDbLine
 10
0.366357607926088
 20
-0.041102
 30
0.0
 11
0.373250607926088
 21
-0.015363
 31
0.0
  0
LINE
  5
4F3
330
1D
100
AcDbEntity
  8
0
  6
Continuous
100
AcDbLine
 10
0.3729766079260881
 20
-0.015182
 30
0.0
 11
0.3662316079260881
 21
-0.040509
 31
0.0
  0
LINE
  5
4F4
330
1D
100
AcDbEntity
  8
0
  6
Continuous
100
AcDbLine
 10
0.370411607926088
 20
-0.014039
 30
0.0
 11
0.370284607926088
 21
-0.013979
 31
0.0
  0
LINE
  5
4F5
330
1D
100
AcDbEntity
  8
0
  6
Continuous
100
AcDbLine
 10
0.365925607926088
 20
-0.02987
 30
0.0
 11
0.370411607926088
 21
-0.014039
 31
0.0
  0
LINE
  5
4F6
330
1D
100
AcDbEntity
  8
0
  6
Continuous
100
AcDbLine
 10
0.370284607926088
 20
-0.013979
 30
0.0
 11
0.366033607926088
 21
-0.028796
 31
0.0
  0
LINE
  5
4F7
330
1D
100
AcDbEntity
  8
0
  6
Continuous
100
AcDbLine
 10
0.365963607926088
 20
-0.034652
 30
0.0
 11
0.371255607926088
 21
-0.014361
 31
0.0
  0
LINE
  5
4F8
330
1D
100
AcDbEntity
  8
0
  6
Continuous
100
AcDbLine
 10
0.340395607926088
 20
0.089
 30
0.0
 11
0.335830607926088
 21
0.089
 31
0.0
  0
LINE
  5
4F9
330
1D
100
AcDbEntity
  8
0
  6
Continuous
100
AcDbLine
 10
0.354827607926088
 20
0.089
 30
0.0
 11
0.350240607926088
 21
0.089
 31
0.0
  0
LINE
  5
4FA
330
1D
100
AcDbEntity
  8
0
  6
Continuous
100
AcDbLine
 10
0.331894607926088
 20
0.089
 30
0.0
 11
0.3288756079260881
 21
0.089
 31
0.0
  0
LINE
  5
4FB
330
1D
100
AcDbEntity
  8
0
  6
Continuous
100
AcDbLine
 10
0.350240607926088
 20
0.089
 30
0.0
 11
0.345338607926088
 21
0.089
 31
0.0
  0
LINE
  5
4FC
330
1D
100
AcDbEntity
  8
0
  6
Continuous
100
AcDbLine
 10
0.363684607926088
 20
0.089
 30
0.0
 11
0.361786607926088
 21
0.089
 31
0.0
  0
LINE
  5
4FD
330
1D
100
AcDbEntity
  8
0
  6
Continuous
100
AcDbLine
 10
0.345338607926088
 20
0.089
 30
0.0
 11
0.340395607926088
 21
0.089
 31
0.0
  0
LINE
  5
4FE
330
1D
100
AcDbEntity
  8
0
  6
Continuous
100
AcDbLine
 10
0.364330607926088
 20
0.089
 30
0.0
 11
0.363684607926088
 21
0.089
 31
0.0
  0
LINE
  5
4FF
330
1D
100
AcDbEntity
  8
0
  6
Continuous
100
AcDbLine
 10
0.364330607926088
 20
0.08861
 30
0.0
 11
0.364330607926088
 21
0.089
 31
0.0
  0
LINE
  5
500
330
1D
100
AcDbEntity
  8
0
  6
Continuous
100
AcDbLine
 10
0.358765607926088
 20
0.089
 30
0.0
 11
0.354827607926088
 21
0.089
 31
0.0
  0
LINE
  5
501
330
1D
100
AcDbEntity
  8
0
  6
Continuous
100
AcDbLine
 10
0.335830607926088
 20
0.089
 30
0.0
 11
0.331894607926088
 21
0.089
 31
0.0
  0
LINE
  5
502
330
1D
100
AcDbEntity
  8
0
  6
Continuous
100
AcDbLine
 10
0.3288756079260881
 20
0.089
 30
0.0
 11
0.326977607926088
 21
0.089
 31
0.0
  0
LINE
  5
503
330
1D
100
AcDbEntity
  8
0
  6
Continuous
100
AcDbLine
 10
0.361786607926088
 20
0.089
 30
0.0
 11
0.358765607926088
 21
0.089
 31
0.0
  0
LINE
  5
504
330
1D
100
AcDbEntity
  8
0
  6
Continuous
100
AcDbLine
 10
0.364330607926088
 20
0.063901
 30
0.0
 11
0.364330607926088
 21
0.08861
 31
0.0
  0
LINE
  5
505
330
1D
100
AcDbEntity
  8
0
  6
Continuous
100
AcDbLine
 10
0.326329607926088
 20
0.089
 30
0.0
 11
0.326329607926088
 21
0.088511
 31
0.0
  0
LINE
  5
506
330
1D
100
AcDbEntity
  8
0
  6
Continuous
100
AcDbLine
 10
0.326977607926088
 20
0.089
 30
0.0
 11
0.326329607926088
 21
0.089
 31
0.0
  0
LINE
  5
507
330
1D
100
AcDbEntity
  8
0
  6
Continuous
100
AcDbLine
 10
0.321351607926088
 20
0.080605
 30
0.0
 11
0.320520607926088
 21
0.079949
 31
0.0
  0
LINE
  5
508
330
1D
100
AcDbEntity
  8
0
  6
Continuous
100
AcDbLine
 10
0.320520607926088
 20
0.079949
 30
0.0
 11
0.320520607926088
 21
0.079445
 31
0.0
  0
LINE
  5
509
330
1D
100
AcDbEntity
  8
0
  6
Continuous
100
AcDbLine
 10
0.320809607926088
 20
0.079994
 30
0.0
 11
0.320520607926088
 21
0.079949
 31
0.0
  0
LINE
  5
50A
330
1D
100
AcDbEntity
  8
0
  6
Continuous
100
AcDbLine
 10
0.320520607926088
 20
0.079445
 30
0.0
 11
0.320520607926088
 21
0.063901
 31
0.0
  0
LINE
  5
50B
330
1D
100
AcDbEntity
  8
0
  6
Continuous
100
AcDbLine
 10
0.320971607926088
 20
0.080017
 30
0.0
 11
0.3217626079260881
 21
0.080289
 31
0.0
  0
LINE
  5
50C
330
1D
100
AcDbEntity
  8
0
  6
Continuous
100
AcDbLine
 10
0.3217626079260881
 20
0.080289
 30
0.0
 11
0.326405607926088
 21
0.082386
 31
0.0
  0
LINE
  5
50D
330
1D
100
AcDbEntity
  8
0
  6
Continuous
100
AcDbLine
 10
0.326405607926088
 20
0.082386
 30
0.0
 11
0.3242426079260881
 21
0.082268
 31
0.0
  0
LINE
  5
50E
330
1D
100
AcDbEntity
  8
0
  6
Continuous
100
AcDbLine
 10
0.326450607926088
 20
0.085139
 30
0.0
 11
0.326401607926088
 21
0.085142
 31
0.0
  0
LINE
  5
50F
330
1D
100
AcDbEntity
  8
0
  6
Continuous
100
AcDbLine
 10
0.320926607926088
 20
0.063901
 30
0.0
 11
0.3209686079260881
 21
0.079509
 31
0.0
  0
LINE
  5
510
330
1D
100
AcDbEntity
  8
0
  6
Continuous
100
AcDbLine
 10
0.3209686079260881
 20
0.079509
 30
0.0
 11
0.320971607926088
 21
0.080017
 31
0.0
  0
LINE
  5
511
330
1D
100
AcDbEntity
  8
0
  6
Continuous
100
AcDbLine
 10
0.320809607926088
 20
0.079994
 30
0.0
 11
0.320971607926088
 21
0.080017
 31
0.0
  0
LINE
  5
512
330
1D
100
AcDbEntity
  8
0
  6
Continuous
100
AcDbLine
 10
0.320971607926088
 20
0.080017
 30
0.0
 11
0.321618607926088
 21
0.080622
 31
0.0
  0
LINE
  5
513
330
1D
100
AcDbEntity
  8
0
  6
Continuous
100
AcDbLine
 10
0.326957607926088
 20
0.081445
 30
0.0
 11
0.326957607926088
 21
0.082015
 31
0.0
  0
LINE
  5
514
330
1D
100
AcDbEntity
  8
0
  6
Continuous
100
AcDbLine
 10
0.326957607926088
 20
0.082015
 30
0.0
 11
0.326957607926088
 21
0.082585
 31
0.0
  0
LINE
  5
515
330
1D
100
AcDbEntity
  8
0
  6
Continuous
100
AcDbLine
 10
0.3263106079260881
 20
0.085148
 30
0.0
 11
0.325376607926088
 21
0.08386
 31
0.0
  0
LINE
  5
516
330
1D
100
AcDbEntity
  8
0
  6
Continuous
100
AcDbLine
 10
0.326401607926088
 20
0.085142
 30
0.0
 11
0.3263106079260881
 21
0.085148
 31
0.0
  0
LINE
  5
517
330
1D
100
AcDbEntity
  8
0
  6
Continuous
100
AcDbLine
 10
0.326957607926088
 20
0.082585
 30
0.0
 11
0.326957607926088
 21
0.082705
 31
0.0
  0
LINE
  5
518
330
1D
100
AcDbEntity
  8
0
  6
Continuous
100
AcDbLine
 10
0.326957607926088
 20
0.084949
 30
0.0
 11
0.326957607926088
 21
0.085104
 31
0.0
  0
LINE
  5
519
330
1D
100
AcDbEntity
  8
0
  6
Continuous
100
AcDbLine
 10
0.326957607926088
 20
0.085104
 30
0.0
 11
0.326875607926088
 21
0.08511
 31
0.0
  0
LINE
  5
51A
330
1D
100
AcDbEntity
  8
0
  6
Continuous
100
AcDbLine
 10
0.326875607926088
 20
0.08511
 30
0.0
 11
0.326513607926088
 21
0.085134
 31
0.0
  0
LINE
  5
51B
330
1D
100
AcDbEntity
  8
0
  6
Continuous
100
AcDbLine
 10
0.326513607926088
 20
0.085134
 30
0.0
 11
0.326450607926088
 21
0.085139
 31
0.0
  0
LINE
  5
51C
330
1D
100
AcDbEntity
  8
0
  6
Continuous
100
AcDbLine
 10
0.323623607926088
 20
0.08216
 30
0.0
 11
0.321351607926088
 21
0.080605
 31
0.0
  0
LINE
  5
51D
330
1D
100
AcDbEntity
  8
0
  6
Continuous
100
AcDbLine
 10
0.326631607926088
 20
0.083731
 30
0.0
 11
0.326957607926088
 21
0.082705
 31
0.0
  0
LINE
  5
51E
330
1D
100
AcDbEntity
  8
0
  6
Continuous
100
AcDbLine
 10
0.326957607926088
 20
0.082705
 30
0.0
 11
0.326957607926088
 21
0.083827
 31
0.0
  0
LINE
  5
51F
330
1D
100
AcDbEntity
  8
0
  6
Continuous
100
AcDbLine
 10
0.326957607926088
 20
0.083827
 30
0.0
 11
0.326957607926088
 21
0.084949
 31
0.0
  0
LINE
  5
520
330
1D
100
AcDbEntity
  8
0
  6
Continuous
100
AcDbLine
 10
0.3242426079260881
 20
0.082268
 30
0.0
 11
0.326446607926088
 21
0.082632
 31
0.0
  0
LINE
  5
521
330
1D
100
AcDbEntity
  8
0
  6
Continuous
100
AcDbLine
 10
0.325265607926088
 20
0.08301
 30
0.0
 11
0.326446607926088
 21
0.082632
 31
0.0
  0
LINE
  5
522
330
1D
100
AcDbEntity
  8
0
  6
Continuous
100
AcDbLine
 10
0.326446607926088
 20
0.082632
 30
0.0
 11
0.326631607926088
 21
0.083731
 31
0.0
  0
LINE
  5
523
330
1D
100
AcDbEntity
  8
0
  6
Continuous
100
AcDbLine
 10
0.324672607926088
 20
0.082877
 30
0.0
 11
0.323623607926088
 21
0.08216
 31
0.0
  0
LINE
  5
524
330
1D
100
AcDbEntity
  8
0
  6
Continuous
100
AcDbLine
 10
0.325376607926088
 20
0.08386
 30
0.0
 11
0.324672607926088
 21
0.082877
 31
0.0
  0
LINE
  5
525
330
1D
100
AcDbEntity
  8
0
  6
Continuous
100
AcDbLine
 10
0.3269566079260881
 20
0.063901
 30
0.0
 11
0.326957607926088
 21
0.081445
 31
0.0
  0
LINE
  5
526
330
1D
100
AcDbEntity
  8
0
  6
Continuous
100
AcDbLine
 10
0.335830607926088
 20
0.038802
 30
0.0
 11
0.340395607926088
 21
0.038802
 31
0.0
  0
LINE
  5
527
330
1D
100
AcDbEntity
  8
0
  6
Continuous
100
AcDbLine
 10
0.350240607926088
 20
0.038802
 30
0.0
 11
0.354827607926088
 21
0.038802
 31
0.0
  0
LINE
  5
528
330
1D
100
AcDbEntity
  8
0
  6
Continuous
100
AcDbLine
 10
0.3288756079260881
 20
0.038802
 30
0.0
 11
0.331894607926088
 21
0.038802
 31
0.0
  0
LINE
  5
529
330
1D
100
AcDbEntity
  8
0
  6
Continuous
100
AcDbLine
 10
0.345338607926088
 20
0.038802
 30
0.0
 11
0.350240607926088
 21
0.038802
 31
0.0
  0
LINE
  5
52A
330
1D
100
AcDbEntity
  8
0
  6
Continuous
100
AcDbLine
 10
0.361786607926088
 20
0.038802
 30
0.0
 11
0.363684607926088
 21
0.038802
 31
0.0
  0
LINE
  5
52B
330
1D
100
AcDbEntity
  8
0
  6
Continuous
100
AcDbLine
 10
0.340395607926088
 20
0.038802
 30
0.0
 11
0.345338607926088
 21
0.038802
 31
0.0
  0
LINE
  5
52C
330
1D
100
AcDbEntity
  8
0
  6
Continuous
100
AcDbLine
 10
0.364330607926088
 20
0.038802
 30
0.0
 11
0.364330607926088
 21
0.039193
 31
0.0
  0
LINE
  5
52D
330
1D
100
AcDbEntity
  8
0
  6
Continuous
100
AcDbLine
 10
0.363684607926088
 20
0.038802
 30
0.0
 11
0.364330607926088
 21
0.038802
 31
0.0
  0
LINE
  5
52E
330
1D
100
AcDbEntity
  8
0
  6
Continuous
100
AcDbLine
 10
0.354827607926088
 20
0.038802
 30
0.0
 11
0.358765607926088
 21
0.038802
 31
0.0
  0
LINE
  5
52F
330
1D
100
AcDbEntity
  8
0
  6
Continuous
100
AcDbLine
 10
0.331894607926088
 20
0.038802
 30
0.0
 11
0.335830607926088
 21
0.038802
 31
0.0
  0
LINE
  5
530
330
1D
100
AcDbEntity
  8
0
  6
Continuous
100
AcDbLine
 10
0.326977607926088
 20
0.038802
 30
0.0
 11
0.3288756079260881
 21
0.038802
 31
0.0
  0
LINE
  5
531
330
1D
100
AcDbEntity
  8
0
  6
Continuous
100
AcDbLine
 10
0.358765607926088
 20
0.038802
 30
0.0
 11
0.361786607926088
 21
0.038802
 31
0.0
  0
LINE
  5
532
330
1D
100
AcDbEntity
  8
0
  6
Continuous
100
AcDbLine
 10
0.364330607926088
 20
0.039193
 30
0.0
 11
0.364330607926088
 21
0.063901
 31
0.0
  0
LINE
  5
533
330
1D
100
AcDbEntity
  8
0
  6
Continuous
100
AcDbLine
 10
0.326329607926088
 20
0.038802
 30
0.0
 11
0.326977607926088
 21
0.038802
 31
0.0
  0
LINE
  5
534
330
1D
100
AcDbEntity
  8
0
  6
Continuous
100
AcDbLine
 10
0.326329607926088
 20
0.039291
 30
0.0
 11
0.326329607926088
 21
0.038802
 31
0.0
  0
LINE
  5
535
330
1D
100
AcDbEntity
  8
0
  6
Continuous
100
AcDbLine
 10
0.320520607926088
 20
0.047853
 30
0.0
 11
0.321351607926088
 21
0.047197
 31
0.0
  0
LINE
  5
536
330
1D
100
AcDbEntity
  8
0
  6
Continuous
100
AcDbLine
 10
0.320520607926088
 20
0.047853
 30
0.0
 11
0.320809607926088
 21
0.047809
 31
0.0
  0
LINE
  5
537
330
1D
100
AcDbEntity
  8
0
  6
Continuous
100
AcDbLine
 10
0.320520607926088
 20
0.048358
 30
0.0
 11
0.320520607926088
 21
0.047853
 31
0.0
  0
LINE
  5
538
330
1D
100
AcDbEntity
  8
0
  6
Continuous
100
AcDbLine
 10
0.320520607926088
 20
0.063901
 30
0.0
 11
0.320520607926088
 21
0.048358
 31
0.0
  0
LINE
  5
539
330
1D
100
AcDbEntity
  8
0
  6
Continuous
100
AcDbLine
 10
0.3217626079260881
 20
0.047513
 30
0.0
 11
0.320971607926088
 21
0.047785
 31
0.0
  0
LINE
  5
53A
330
1D
100
AcDbEntity
  8
0
  6
Continuous
100
AcDbLine
 10
0.3217626079260881
 20
0.047513
 30
0.0
 11
0.326405607926088
 21
0.045416
 31
0.0
  0
LINE
  5
53B
330
1D
100
AcDbEntity
  8
0
  6
Continuous
100
AcDbLine
 10
0.326405607926088
 20
0.045416
 30
0.0
 11
0.3242426079260881
 21
0.045534
 31
0.0
  0
LINE
  5
53C
330
1D
100
AcDbEntity
  8
0
  6
Continuous
100
AcDbLine
 10
0.326401607926088
 20
0.04266
 30
0.0
 11
0.326450607926088
 21
0.042664
 31
0.0
  0
LINE
  5
53D
330
1D
100
AcDbEntity
  8
0
  6
Continuous
100
AcDbLine
 10
0.3209686079260881
 20
0.048293
 30
0.0
 11
0.320926607926088
 21
0.063901
 31
0.0
  0
LINE
  5
53E
330
1D
100
AcDbEntity
  8
0
  6
Continuous
100
AcDbLine
 10
0.320971607926088
 20
0.047785
 30
0.0
 11
0.3209686079260881
 21
0.048293
 31
0.0
  0
LINE
  5
53F
330
1D
100
AcDbEntity
  8
0
  6
Continuous
100
AcDbLine
 10
0.321618607926088
 20
0.04718
 30
0.0
 11
0.320971607926088
 21
0.047785
 31
0.0
  0
LINE
  5
540
330
1D
100
AcDbEntity
  8
0
  6
Continuous
100
AcDbLine
 10
0.320971607926088
 20
0.047785
 30
0.0
 11
0.320809607926088
 21
0.047809
 31
0.0
  0
LINE
  5
541
330
1D
100
AcDbEntity
  8
0
  6
Continuous
100
AcDbLine
 10
0.326957607926088
 20
0.045788
 30
0.0
 11
0.326957607926088
 21
0.046357
 31
0.0
  0
LINE
  5
542
330
1D
100
AcDbEntity
  8
0
  6
Continuous
100
AcDbLine
 10
0.326957607926088
 20
0.045217
 30
0.0
 11
0.326957607926088
 21
0.045788
 31
0.0
  0
LINE
  5
543
330
1D
100
AcDbEntity
  8
0
  6
Continuous
100
AcDbLine
 10
0.3263106079260881
 20
0.042654
 30
0.0
 11
0.326401607926088
 21
0.04266
 31
0.0
  0
LINE
  5
544
330
1D
100
AcDbEntity
  8
0
  6
Continuous
100
AcDbLine
 10
0.325376607926088
 20
0.043942
 30
0.0
 11
0.3263106079260881
 21
0.042654
 31
0.0
  0
LINE
  5
545
330
1D
100
AcDbEntity
  8
0
  6
Continuous
100
AcDbLine
 10
0.326957607926088
 20
0.045097
 30
0.0
 11
0.326957607926088
 21
0.045217
 31
0.0
  0
LINE
  5
546
330
1D
100
AcDbEntity
  8
0
  6
Continuous
100
AcDbLine
 10
0.326875607926088
 20
0.042692
 30
0.0
 11
0.326957607926088
 21
0.042698
 31
0.0
  0
LINE
  5
547
330
1D
100
AcDbEntity
  8
0
  6
Continuous
100
AcDbLine
 10
0.326957607926088
 20
0.042698
 30
0.0
 11
0.326957607926088
 21
0.042853
 31
0.0
  0
LINE
  5
548
330
1D
100
AcDbEntity
  8
0
  6
Continuous
100
AcDbLine
 10
0.326513607926088
 20
0.042668
 30
0.0
 11
0.326875607926088
 21
0.042692
 31
0.0
  0
LINE
  5
549
330
1D
100
AcDbEntity
  8
0
  6
Continuous
100
AcDbLine
 10
0.326450607926088
 20
0.042664
 30
0.0
 11
0.326513607926088
 21
0.042668
 31
0.0
  0
LINE
  5
54A
330
1D
100
AcDbEntity
  8
0
  6
Continuous
100
AcDbLine
 10
0.321351607926088
 20
0.047197
 30
0.0
 11
0.323623607926088
 21
0.045643
 31
0.0
  0
LINE
  5
54B
330
1D
100
AcDbEntity
  8
0
  6
Continuous
100
AcDbLine
 10
0.326957607926088
 20
0.043975
 30
0.0
 11
0.326957607926088
 21
0.045097
 31
0.0
  0
LINE
  5
54C
330
1D
100
AcDbEntity
  8
0
  6
Continuous
100
AcDbLine
 10
0.326631607926088
 20
0.044071
 30
0.0
 11
0.326957607926088
 21
0.045097
 31
0.0
  0
LINE
  5
54D
330
1D
100
AcDbEntity
  8
0
  6
Continuous
100
AcDbLine
 10
0.326957607926088
 20
0.042853
 30
0.0
 11
0.326957607926088
 21
0.043975
 31
0.0
  0
LINE
  5
54E
330
1D
100
AcDbEntity
  8
0
  6
Continuous
100
AcDbLine
 10
0.326631607926088
 20
0.044071
 30
0.0
 11
0.326446607926088
 21
0.04517
 31
0.0
  0
LINE
  5
54F
330
1D
100
AcDbEntity
  8
0
  6
Continuous
100
AcDbLine
 10
0.325265607926088
 20
0.044792
 30
0.0
 11
0.326446607926088
 21
0.04517
 31
0.0
  0
LINE
  5
550
330
1D
100
AcDbEntity
  8
0
  6
Continuous
100
AcDbLine
 10
0.326446607926088
 20
0.04517
 30
0.0
 11
0.3242426079260881
 21
0.045534
 31
0.0
  0
LINE
  5
551
330
1D
100
AcDbEntity
  8
0
  6
Continuous
100
AcDbLine
 10
0.323623607926088
 20
0.045643
 30
0.0
 11
0.324672607926088
 21
0.044926
 31
0.0
  0
LINE
  5
552
330
1D
100
AcDbEntity
  8
0
  6
Continuous
100
AcDbLine
 10
0.324672607926088
 20
0.044926
 30
0.0
 11
0.325376607926088
 21
0.043942
 31
0.0
  0
LINE
  5
553
330
1D
100
AcDbEntity
  8
0
  6
Continuous
100
AcDbLine
 10
0.326957607926088
 20
0.046357
 30
0.0
 11
0.3269566079260881
 21
0.0639
 31
0.0
  0
LINE
  5
554
330
1D
100
AcDbEntity
  8
0
  6
Continuous
100
AcDbLine
 10
0.3663526079260881
 20
-0.040907
 30
0.0
 11
0.366331607926088
 21
-0.040857
 31
0.0
  0
LINE
  5
555
330
1D
100
AcDbEntity
  8
0
  6
Continuous
100
AcDbLine
 10
0.366012607926088
 20
-0.029272
 30
0.0
 11
0.366036607926088
 21
-0.028929
 31
0.0
  0
LINE
  5
556
330
1D
100
AcDbEntity
  8
0
  6
Continuous
100
AcDbLine
 10
0.366012607926088
 20
-0.029272
 30
0.0
 11
0.365925607926088
 21
-0.02987
 31
0.0
  0
LINE
  5
557
330
1D
100
AcDbEntity
  8
0
  6
Continuous
100
AcDbLine
 10
0.366331607926088
 20
-0.040857
 30
0.0
 11
0.3662316079260881
 21
-0.040509
 31
0.0
  0
LINE
  5
558
330
1D
100
AcDbEntity
  8
0
  6
Continuous
100
AcDbLine
 10
0.3662316079260881
 20
-0.040509
 30
0.0
 11
0.366197607926088
 21
-0.039888
 31
0.0
  0
LINE
  5
559
330
1D
100
AcDbEntity
  8
0
  6
Continuous
100
AcDbLine
 10
0.365919607926088
 20
-0.032067
 30
0.0
 11
0.3659186079260881
 21
-0.03113
 31
0.0
  0
LINE
  5
55A
330
1D
100
AcDbEntity
  8
0
  6
Continuous
100
AcDbLine
 10
0.366197607926088
 20
-0.039888
 30
0.0
 11
0.366092607926088
 21
-0.038385
 31
0.0
  0
LINE
  5
55B
330
1D
100
AcDbEntity
  8
0
  6
Continuous
100
AcDbLine
 10
0.3659186079260881
 20
-0.03113
 30
0.0
 11
0.365925607926088
 21
-0.02987
 31
0.0
  0
LINE
  5
55C
330
1D
100
AcDbEntity
  8
0
  6
Continuous
100
AcDbLine
 10
0.365963607926088
 20
-0.034652
 30
0.0
 11
0.3659536079260881
 21
-0.03393
 31
0.0
  0
LINE
  5
55D
330
1D
100
AcDbEntity
  8
0
  6
Continuous
100
AcDbLine
 10
0.2458356079260881
 20
0.015358
 30
0.0
 11
0.2454476079260881
 21
0.01576
 31
0.0
  0
LINE
  5
55E
330
1D
100
AcDbEntity
  8
0
  6
Continuous
100
AcDbLine
 10
0.245433607926088
 20
0.015771
 30
0.0
 11
0.2450266079260881
 21
0.016008
 31
0.0
  0
LINE
  5
55F
330
1D
100
AcDbEntity
  8
0
  6
Continuous
100
AcDbLine
 10
0.234913607926088
 20
0.02149
 30
0.0
 11
0.236034607926088
 21
0.020966
 31
0.0
  0
LINE
  5
560
330
1D
100
AcDbEntity
  8
0
  6
Continuous
100
AcDbLine
 10
0.233767607926088
 20
0.022067
 30
0.0
 11
0.234913607926088
 21
0.02149
 31
0.0
  0
LINE
  5
561
330
1D
100
AcDbEntity
  8
0
  6
Continuous
100
AcDbLine
 10
0.2450266079260881
 20
0.016008
 30
0.0
 11
0.244127607926088
 21
0.016634
 31
0.0
  0
LINE
  5
562
330
1D
100
AcDbEntity
  8
0
  6
Continuous
100
AcDbLine
 10
0.236034607926088
 20
0.020966
 30
0.0
 11
0.237218607926088
 21
0.020379
 31
0.0
  0
LINE
  5
563
330
1D
100
AcDbEntity
  8
0
  6
Continuous
100
AcDbLine
 10
0.237218607926088
 20
0.020379
 30
0.0
 11
0.239065607926088
 21
0.019476
 31
0.0
  0
LINE
  5
564
330
1D
100
AcDbEntity
  8
0
  6
Continuous
100
AcDbLine
 10
0.239065607926088
 20
0.019476
 30
0.0
 11
0.239181607926088
 21
0.019443
 31
0.0
  0
LINE
  5
565
330
1D
100
AcDbEntity
  8
0
  6
Continuous
100
AcDbLine
 10
0.239181607926088
 20
0.019443
 30
0.0
 11
0.2420516079260881
 21
0.018123
 31
0.0
  0
LINE
  5
566
330
1D
100
AcDbEntity
  8
0
  6
Continuous
100
AcDbLine
 10
0.244102607926088
 20
0.016675
 30
0.0
 11
0.242298607926088
 21
0.017925
 31
0.0
  0
ENDSEC
  0
SECTION
  2
OBJECTS
  0
DICTIONARY
  5
C
330
0
100
AcDbDictionary
281
     1
  3
ACAD_2007HEADERVARS_RT
350
5E4
  3
ACAD_CIP_PREVIOUS_PRODUCT_INFO
350
179
  3
ACAD_COLOR
350
15A
  3
ACAD_DETAILVIEWSTYLE
350
174
  3
ACAD_GROUP
350
D
  3
ACAD_LAYOUT
350
1A
  3
ACAD_MATERIAL
350
128
  3
ACAD_MLEADERSTYLE
350
16F
  3
ACAD_MLINESTYLE
350
17
  3
ACAD_PLOTSETTINGS
350
19
  3
ACAD_PLOTSTYLENAME
350
E
  3
ACAD_SCALELIST
350
15D
  3
ACAD_SECTIONVIEWSTYLE
350
171
  3
ACAD_TABLESTYLE
350
15B
  3
ACAD_VISUALSTYLE
350
141
  3
ACDB_RECOMPOSE_DATA
350
5E2
  3
AcDbVariableDictionary
350
5D3
  3
AcmDictionary
350
1A6
  3
AMG
350
17B
  3
AMGSNAPSETTINGS
350
1DB
  3
DWGPROPS
350
5E3
  0
DICTIONARY
  5
5CF
330
10
100
AcDbDictionary
280
     1
281
     1
  3
ADSK_XREC_LAYER_RECONCILED
360
5D0
  0
DICTIONARY
  5
5D1
330
567
100
AcDbDictionary
280
     1
281
     1
  3
ADSK_XREC_LAYER_RECONCILED
360
5D2
  0
DICTIONARY
  5
56A
330
1D
100
AcDbDictionary
280
     1
281
     1
  3
ACAD_SORTENTS
360
56B
  0
DICTIONARY
  5
5E4
102
{ACAD_REACTORS
330
C
102
}
330
C
100
AcDbDictionary
281
     1
  3
INTERFERECOLOR
350
5E5
  0
XRECORD
  5
179
102
{ACAD_REACTORS
330
C
102
}
330
C
100
AcDbXrecord
280
     1
300
AMECH_PP
300
2013
300
PDSS_F_S
  0
DICTIONARY
  5
15A
102
{ACAD_REACTORS
330
C
102
}
330
C
100
AcDbDictionary
281
     1
  0
DICTIONARY
  5
174
102
{ACAD_REACTORS
330
C
102
}
330
C
100
AcDbDictionary
281
     1
  3
Imperial24
350
175
  0
DICTIONARY
  5
D
102
{ACAD_REACTORS
330
C
102
}
330
C
100
AcDbDictionary
281
     1
  0
DICTIONARY
  5
1A
102
{ACAD_REACTORS
330
C
102
}
330
C
100
AcDbDictionary
281
     1
  3
Layout1
350
1C
  3
Model
350
1E
  0
DICTIONARY
  5
128
102
{ACAD_REACTORS
330
C
102
}
330
C
100
AcDbDictionary
281
     1
  3
ByBlock
350
131
  3
ByLayer
350
129
  3
Global
350
139
  0
DICTIONARY
  5
16F
102
{ACAD_REACTORS
330
C
102
}
330
C
100
AcDbDictionary
281
     1
  3
Standard
350
170
  0
DICTIONARY
  5
17
102
{ACAD_REACTORS
330
C
102
}
330
C
100
AcDbDictionary
281
     1
  3
Standard
350
18
  0
DICTIONARY
  5
19
102
{ACAD_REACTORS
330
C
102
}
330
C
100
AcDbDictionary
281
     1
  0
ACDBDICTIONARYWDFLT
  5
E
102
{ACAD_REACTORS
330
C
102
}
330
C
100
AcDbDictionary
281
     1
  3
Normal
350
F
100
AcDbDictionaryWithDefault
340
F
  0
DICTIONARY
  5
15D
102
{ACAD_REACTORS
330
C
102
}
330
C
100
AcDbDictionary
281
     1
  3
A0
350
15E
  3
A1
350
15F
  3
A2
350
160
  3
A3
350
161
  3
A4
350
162
  3
A5
350
163
  3
A6
350
164
  3
A7
350
165
  3
A8
350
166
  3
A9
350
167
  3
B0
350
168
  3
B1
350
169
  3
B2
350
16A
  3
B3
350
16B
  3
B4
350
16C
  3
B5
350
16D
  3
B6
350
16E
  0
DICTIONARY
  5
171
102
{ACAD_REACTORS
330
C
102
}
330
C
100
AcDbDictionary
281
     1
  3
Imperial24
350
173
  0
DICTIONARY
  5
15B
102
{ACAD_REACTORS
330
C
102
}
330
C
100
AcDbDictionary
281
     1
  3
Standard
350
15C
  0
DICTIONARY
  5
141
102
{ACAD_REACTORS
330
C
102
}
330
C
100
AcDbDictionary
281
     1
  3
2dWireframe
350
147
  3
Basic
350
146
  3
Brighten
350
14D
  3
ColorChange
350
151
  3
Conceptual
350
14A
  3
Dim
350
14C
  3
EdgeColorOff
350
159
  3
Facepattern
350
150
  3
Flat
350
142
  3
FlatWithEdges
350
143
  3
Gouraud
350
144
  3
GouraudWithEdges
350
145
  3
Hidden
350
149
  3
JitterOff
350
157
  3
Linepattern
350
14F
  3
OverhangOff
350
158
  3
Realistic
350
14B
  3
Shaded
350
156
  3
Shaded with edges
350
155
  3
Shades of Gray
350
152
  3
Sketchy
350
153
  3
Thicken
350
14E
  3
Wireframe
350
148
  3
X-Ray
350
154
  0
XRECORD
  5
5E2
102
{ACAD_REACTORS
330
C
102
}
330
C
100
AcDbXrecord
280
     1
 90
        1
330
15C
  0
DICTIONARY
  5
5D3
102
{ACAD_REACTORS
330
C
102
}
330
C
100
AcDbDictionary
281
     1
  3
CANNOSCALE
350
5D8
  3
CMLEADERSTYLE
350
5D5
  3
CTABLESTYLE
350
5D4
  3
CVIEWDETAILSTYLE
350
5D6
  3
CVIEWSECTIONSTYLE
350
5D7
  3
DGNFRAME
350
5DF
  3
DIMASSOC
350
5DD
  3
HIDETEXT
350
5DB
  3
INDEXCTL
350
5DA
  3
SOLIDHIST
350
5DE
  3
SORTENTS
350
5D9
  3
XCLIPFRAME
350
5DC
  0
DICTIONARY
  5
1A6
102
{ACAD_REACTORS
330
C
102
}
330
C
100
AcDbDictionary
281
     1
  3
AcmStdDictionary
350
1AD
  0
DICTIONARY
  5
17B
102
{ACAD_REACTORS
330
C
102
}
330
C
100
AcDbDictionary
281
     1
  0
DICTIONARY
  5
1DB
102
{ACAD_REACTORS
330
C
102
}
330
C
100
AcDbDictionary
281
     1
  0
XRECORD
  5
5E3
102
{ACAD_REACTORS
330
C
102
}
330
C
100
AcDbXrecord
280
     1
  1
DWGPROPS COOKIE
  2

  3

  4

  6

  7

  8
tomitais
  9

300
=
301
=
302
=
303
=
304
=
305
=
306
=
307
=
308
=
309
=
 40
0.0012274768518519
 41
2457106.723640949
 42
2457353.374271539
  1

 90
        0
  0
XRECORD
  5
5D0
102
{ACAD_REACTORS
330
5CF
102
}
330
5CF
100
AcDbXrecord
280
     1
290
     1
  0
XRECORD
  5
5D2
102
{ACAD_REACTORS
330
5D1
102
}
330
5D1
100
AcDbXrecord
280
     1
290
     1
  0
SORTENTSTABLE
  5
56B
102
{ACAD_REACTORS
330
56A
102
}
330
56A
100
AcDbSortentsTable
330
1D
331
4D0
  5
4DC
331
2B8
  5
2C4
331
4E1
  5
4ED
331
D8
  5
E4
331
2C9
  5
2D5
331
4F2
  5
4FE
331
E9
  5
F5
331
503
  5
50F
331
23
  5
2F
331
2D3
  5
2DF
331
F3
  5
FF
331
514
  5
520
331
34
  5
40
331
2E4
  5
2F0
331
104
  5
110
331
525
  5
531
331
45
  5
51
331
2F5
  5
301
331
115
  5
121
331
306
  5
312
331
531
  5
53D
331
471
  5
47D
331
328
  5
334
331
317
  5
323
331
67
  5
73
331
542
  5
54E
331
482
  5
48E
331
339
  5
345
331
56
  5
62
331
553
  5
55F
331
564
  5
574
331
4A4
  5
4B0
331
83
  5
8F
331
94
  5
A0
331
356
  5
362
331
A5
  5
B1
331
4BF
  5
4CB
331
B6
  5
C2
331
C7
  5
D3
331
493
  5
49F
331
4C0
  5
4CC
331
2A8
  5
2B4
331
4D1
  5
4DD
331
C8
  5
D4
331
2B9
  5
2C5
331
4E2
  5
4EE
331
D9
  5
E5
331
2CA
  5
2D6
331
4F3
  5
4FF
331
EA
  5
F6
331
504
  5
510
331
24
  5
30
331
2D4
  5
2E0
331
F4
  5
100
331
515
  5
521
331
35
  5
41
331
2E5
  5
2F1
331
105
  5
111
331
526
  5
532
331
46
  5
52
331
116
  5
2A8
331
307
  5
313
331
532
  5
53E
331
472
  5
47E
331
329
  5
335
331
318
  5
324
331
68
  5
74
331
543
  5
54F
331
483
  5
48F
331
33A
  5
346
331
57
  5
63
331
2F6
  5
302
331
554
  5
560
331
565
  5
575
331
4A5
  5
4B1
331
84
  5
90
331
95
  5
A1
331
357
  5
363
331
A6
  5
B2
331
B7
  5
C3
331
494
  5
4A0
331
4B0
  5
4BC
331
358
  5
364
331
4C1
  5
4CD
331
B8
  5
C4
331
2A9
  5
2B5
331
4D2
  5
4DE
331
C9
  5
D5
331
2BA
  5
2C6
331
4E3
  5
4EF
331
DA
  5
E6
331
2CB
  5
2D7
331
4F4
  5
500
331
EB
  5
F7
331
505
  5
511
331
25
  5
31
331
2D5
  5
2E1
331
F5
  5
101
331
516
  5
522
331
36
  5
42
331
2E6
  5
2F2
331
527
  5
533
331
47
  5
53
331
117
  5
2A9
331
308
  5
314
331
533
  5
53F
331
473
  5
47F
331
32A
  5
336
331
319
  5
325
331
69
  5
75
331
544
  5
550
331
484
  5
490
331
33B
  5
347
331
58
  5
64
331
2F7
  5
303
331
106
  5
112
331
555
  5
561
331
566
  5
576
331
4A6
  5
4B2
331
85
  5
91
331
A7
  5
B3
331
96
  5
A2
331
495
  5
4A1
331
348
  5
354
331
4B1
  5
4BD
331
A8
  5
B4
331
359
  5
365
331
4C2
  5
4CE
331
B9
  5
C5
331
2AA
  5
2B6
331
4D3
  5
4DF
331
CA
  5
D6
331
2BB
  5
2C7
331
4E4
  5
4F0
331
DB
  5
E7
331
2CC
  5
2D8
331
4F5
  5
501
331
EC
  5
F8
331
506
  5
512
331
26
  5
32
331
2D6
  5
2E2
331
F6
  5
102
331
517
  5
523
331
2E7
  5
2F3
331
2F8
  5
304
331
48
  5
54
331
309
  5
315
331
59
  5
65
331
534
  5
540
331
474
  5
480
331
32B
  5
337
331
31A
  5
326
331
545
  5
551
331
485
  5
491
331
33C
  5
348
331
556
  5
562
331
496
  5
4A2
331
6A
  5
76
331
118
  5
2AA
331
107
  5
113
331
37
  5
43
331
4A7
  5
4B3
331
97
  5
A3
331
86
  5
92
331
4A8
  5
4B4
331
349
  5
355
331
98
  5
A4
331
4B2
  5
4BE
331
A9
  5
B5
331
35A
  5
469
331
4C3
  5
4CF
331
BA
  5
C6
331
2AB
  5
2B7
331
4D4
  5
4E0
331
CB
  5
D7
331
2BC
  5
2C8
331
4E5
  5
4F1
331
DC
  5
E8
331
2CD
  5
2D9
331
4F6
  5
502
331
ED
  5
F9
331
507
  5
513
331
27
  5
33
331
2D7
  5
2E3
331
518
  5
524
331
38
  5
44
331
2E8
  5
2F4
331
2F9
  5
305
331
49
  5
55
331
30A
  5
316
331
5A
  5
66
331
535
  5
541
331
475
  5
481
331
32C
  5
338
331
31B
  5
327
331
546
  5
552
331
486
  5
492
331
33D
  5
349
331
557
  5
563
331
497
  5
4A3
331
6B
  5
77
331
119
  5
2AB
331
108
  5
114
331
F7
  5
103
331
87
  5
93
331
558
  5
564
331
498
  5
4A4
331
4A9
  5
4B5
331
88
  5
94
331
34A
  5
356
331
99
  5
A5
331
4B3
  5
4BF
331
AA
  5
B6
331
35B
  5
46A
331
4C4
  5
4D0
331
BB
  5
C7
331
2AC
  5
2B8
331
4D5
  5
4E1
331
CC
  5
D8
331
2BD
  5
2C9
331
4E6
  5
4F2
331
DD
  5
E9
331
2CE
  5
2DA
331
4F7
  5
503
331
EE
  5
FA
331
508
  5
514
331
28
  5
34
331
F8
  5
104
331
519
  5
525
331
39
  5
45
331
2E9
  5
2F5
331
2FA
  5
306
331
4A
  5
56
331
30B
  5
317
331
5B
  5
67
331
536
  5
542
331
476
  5
482
331
32D
  5
339
331
31C
  5
328
331
547
  5
553
331
487
  5
493
331
33E
  5
34A
331
6C
  5
78
331
11A
  5
2AC
331
109
  5
115
331
2D8
  5
2E4
331
548
  5
554
331
488
  5
494
331
559
  5
565
331
499
  5
4A5
331
78
  5
84
331
4AA
  5
4B6
331
89
  5
95
331
34B
  5
357
331
9A
  5
A6
331
4B4
  5
4C0
331
AB
  5
B7
331
35C
  5
46B
331
4C5
  5
4D1
331
BC
  5
C8
331
2AD
  5
2B9
331
4D6
  5
4E2
331
CD
  5
D9
331
2BE
  5
2CA
331
4E7
  5
4F3
331
DE
  5
EA
331
2CF
  5
2DB
331
4F8
  5
504
331
EF
  5
FB
331
509
  5
515
331
2D9
  5
2E5
331
F9
  5
105
331
51A
  5
526
331
2EA
  5
2F6
331
2FB
  5
307
331
4B
  5
57
331
30C
  5
318
331
5C
  5
68
331
537
  5
543
331
477
  5
483
331
32E
  5
33A
331
31D
  5
329
331
33F
  5
34B
331
6D
  5
79
331
11B
  5
2AD
331
10A
  5
116
331
3A
  5
46
331
29
  5
35
331
538
  5
544
331
478
  5
484
331
549
  5
555
331
489
  5
495
331
340
  5
34C
331
55A
  5
566
331
49A
  5
4A6
331
79
  5
85
331
4AB
  5
4B7
331
8A
  5
96
331
34C
  5
358
331
9B
  5
A7
331
4B5
  5
4C1
331
AC
  5
B8
331
35D
  5
46C
331
4C6
  5
4D2
331
BD
  5
C9
331
2AE
  5
2BA
331
4D7
  5
4E3
331
CE
  5
DA
331
2BF
  5
2CB
331
4F9
  5
505
331
4E8
  5
4F4
331
DF
  5
EB
331
50A
  5
516
331
2A
  5
36
331
2DA
  5
2E6
331
51B
  5
527
331
3B
  5
47
331
2EB
  5
2F7
331
2FC
  5
308
331
4C
  5
58
331
30D
  5
319
331
5D
  5
69
331
32F
  5
33B
331
31E
  5
32A
331
6E
  5
7A
331
11C
  5
2AE
331
10B
  5
117
331
FA
  5
106
331
528
  5
534
331
539
  5
545
331
479
  5
485
331
330
  5
33C
331
54A
  5
556
331
48A
  5
496
331
341
  5
34D
331
55B
  5
569
331
49B
  5
4A7
331
7A
  5
86
331
4AC
  5
4B8
331
8B
  5
97
331
34D
  5
359
331
9C
  5
A8
331
4B6
  5
4C2
331
AD
  5
B9
331
35E
  5
46D
331
4C7
  5
4D3
331
BE
  5
CA
331
2AF
  5
2BB
331
4D8
  5
4E4
331
CF
  5
DB
331
2C0
  5
2CC
331
4FA
  5
506
331
4E9
  5
4F5
331
E0
  5
EC
331
50B
  5
517
331
2DB
  5
2E7
331
2B
  5
37
331
51C
  5
528
331
3C
  5
48
331
2EC
  5
2F8
331
2FD
  5
309
331
4D
  5
59
331
30E
  5
31A
331
5E
  5
6A
331
31F
  5
32B
331
6F
  5
7B
331
11D
  5
2AF
331
10C
  5
118
331
FB
  5
107
331
529
  5
535
331
469
  5
475
331
320
  5
32C
331
70
  5
7C
331
53A
  5
546
331
47A
  5
486
331
331
  5
33D
331
54B
  5
557
331
48B
  5
497
331
342
  5
34E
331
55C
  5
56C
331
49C
  5
4A8
331
7B
  5
87
331
4AD
  5
4B9
331
8C
  5
98
331
34E
  5
35A
331
9D
  5
A9
331
4B7
  5
4C3
331
AE
  5
BA
331
35F
  5
46E
331
4C8
  5
4D4
331
BF
  5
CB
331
2B0
  5
2BC
331
4D9
  5
4E5
331
D0
  5
DC
331
2C1
  5
2CD
331
4FB
  5
507
331
4EA
  5
4F6
331
50C
  5
518
331
2C
  5
38
331
2DC
  5
2E8
331
E1
  5
ED
331
51D
  5
529
331
3D
  5
49
331
2ED
  5
2F9
331
2FE
  5
30A
331
4E
  5
5A
331
30F
  5
31B
331
5F
  5
6B
331
11E
  5
2B0
331
10D
  5
119
331
FC
  5
108
331
310
  5
31C
331
60
  5
6C
331
52A
  5
536
331
46A
  5
476
331
321
  5
32D
331
71
  5
7D
331
53B
  5
547
331
47B
  5
487
331
332
  5
33E
331
54C
  5
558
331
48C
  5
498
331
343
  5
34F
331
55D
  5
56D
331
49D
  5
4A9
331
7C
  5
88
331
4AE
  5
4BA
331
8D
  5
99
331
34F
  5
35B
331
9E
  5
AA
331
4B8
  5
4C4
331
AF
  5
BB
331
360
  5
46F
331
4C9
  5
4D5
331
C0
  5
CC
331
2B1
  5
2BD
331
4DA
  5
4E6
331
D1
  5
DD
331
2C2
  5
2CE
331
4FC
  5
508
331
4EB
  5
4F7
331
50D
  5
519
331
2D
  5
39
331
2DD
  5
2E9
331
51E
  5
52A
331
3E
  5
4A
331
2EE
  5
2FA
331
2FF
  5
30B
331
4F
  5
5B
331
11F
  5
2B1
331
10E
  5
11A
331
FD
  5
109
331
E2
  5
EE
331
300
  5
30C
331
50
  5
5C
331
120
  5
2B2
331
311
  5
31D
331
61
  5
6D
331
52B
  5
537
331
46B
  5
477
331
322
  5
32E
331
72
  5
7E
331
53C
  5
548
331
47C
  5
488
331
333
  5
33F
331
54D
  5
559
331
48D
  5
499
331
344
  5
350
331
55E
  5
56E
331
49E
  5
4AA
331
7D
  5
89
331
4AF
  5
4BB
331
8E
  5
9A
331
350
  5
35C
331
9F
  5
AB
331
4B9
  5
4C5
331
B0
  5
BC
331
361
  5
470
331
4CA
  5
4D6
331
C1
  5
CD
331
2B2
  5
2BE
331
4DB
  5
4E7
331
D2
  5
DE
331
4FD
  5
509
331
4EC
  5
4F8
331
E3
  5
EF
331
50E
  5
51A
331
2DE
  5
2EA
331
2E
  5
3A
331
51F
  5
52B
331
3F
  5
4B
331
2EF
  5
2FB
331
10F
  5
11B
331
FE
  5
10A
331
2C3
  5
2CF
331
520
  5
52C
331
40
  5
4C
331
2F0
  5
2FC
331
110
  5
11C
331
301
  5
30D
331
51
  5
5D
331
121
  5
2B3
331
312
  5
31E
331
62
  5
6E
331
52C
  5
538
331
46C
  5
478
331
323
  5
32F
331
73
  5
7F
331
53D
  5
549
331
47D
  5
489
331
334
  5
340
331
54E
  5
55A
331
48E
  5
49A
331
345
  5
351
331
55F
  5
56F
331
49F
  5
4AB
331
7E
  5
8A
331
8F
  5
9B
331
351
  5
35D
331
A0
  5
AC
331
4BA
  5
4C6
331
B1
  5
BD
331
362
  5
471
331
4CB
  5
4D7
331
C2
  5
CE
331
4DC
  5
4E8
331
D3
  5
DF
331
4FE
  5
50A
331
4ED
  5
4F9
331
E4
  5
F0
331
50F
  5
51B
331
2F
  5
3B
331
FF
  5
10B
331
2DF
  5
2EB
331
2C4
  5
2D0
331
2B3
  5
2BF
331
510
  5
51C
331
30
  5
3C
331
2E0
  5
2EC
331
100
  5
10C
331
521
  5
52D
331
41
  5
4D
331
2F1
  5
2FD
331
111
  5
11D
331
302
  5
30E
331
52
  5
5E
331
313
  5
31F
331
63
  5
6F
331
52D
  5
539
331
46D
  5
479
331
324
  5
330
331
74
  5
80
331
53E
  5
54A
331
47E
  5
48A
331
335
  5
341
331
54F
  5
55B
331
48F
  5
49B
331
346
  5
352
331
560
  5
570
331
4A0
  5
4AC
331
7F
  5
8B
331
90
  5
9C
331
352
  5
35E
331
A1
  5
AD
331
4BB
  5
4C7
331
B2
  5
BE
331
4CC
  5
4D8
331
C3
  5
CF
331
2B4
  5
2C0
331
4DD
  5
4E9
331
2C5
  5
2D1
331
4FF
  5
50B
331
4EE
  5
4FA
331
E5
  5
F1
331
D4
  5
E0
331
363
  5
472
331
500
  5
50C
331
2D0
  5
2DC
331
F0
  5
FC
331
511
  5
51D
331
31
  5
3D
331
2E1
  5
2ED
331
101
  5
10D
331
522
  5
52E
331
42
  5
4E
331
2F2
  5
2FE
331
112
  5
11E
331
303
  5
30F
331
53
  5
5F
331
314
  5
320
331
64
  5
70
331
52E
  5
53A
331
46E
  5
47A
331
325
  5
331
331
75
  5
81
331
53F
  5
54B
331
47F
  5
48B
331
336
  5
342
331
550
  5
55C
331
490
  5
49C
331
347
  5
353
331
561
  5
571
331
4A1
  5
4AD
331
80
  5
8C
331
353
  5
35F
331
A2
  5
AE
331
4BC
  5
4C8
331
B3
  5
BF
331
4CD
  5
4D9
331
C4
  5
D0
331
4DE
  5
4EA
331
D5
  5
E1
331
2B5
  5
2C1
331
4EF
  5
4FB
331
E6
  5
F2
331
2C6
  5
2D2
331
364
  5
473
331
91
  5
9D
331
501
  5
50D
331
4F0
  5
4FC
331
2D1
  5
2DD
331
F1
  5
FD
331
512
  5
51E
331
32
  5
3E
331
2E2
  5
2EE
331
102
  5
10E
331
523
  5
52F
331
43
  5
4F
331
2F3
  5
2FF
331
113
  5
11F
331
304
  5
310
331
54
  5
60
331
315
  5
321
331
65
  5
71
331
52F
  5
53B
331
46F
  5
47B
331
326
  5
332
331
76
  5
82
331
540
  5
54C
331
480
  5
48C
331
337
  5
343
331
551
  5
55D
331
491
  5
49D
331
562
  5
572
331
4A2
  5
4AE
331
81
  5
8D
331
354
  5
360
331
A3
  5
AF
331
4BD
  5
4C9
331
B4
  5
C0
331
4CE
  5
4DA
331
C5
  5
D1
331
2B6
  5
2C2
331
4DF
  5
4EB
331
D6
  5
E2
331
E7
  5
F3
331
2C7
  5
2D3
331
365
  5
474
331
92
  5
9E
331
4E0
  5
4EC
331
2C8
  5
2D4
331
4F1
  5
4FD
331
E8
  5
F4
331
502
  5
50E
331
22
  5
2E
331
2D2
  5
2DE
331
F2
  5
FE
331
513
  5
51F
331
33
  5
3F
331
2E3
  5
2EF
331
103
  5
10F
331
524
  5
530
331
44
  5
50
331
2F4
  5
300
331
114
  5
120
331
305
  5
311
331
55
  5
61
331
316
  5
322
331
66
  5
72
331
530
  5
53C
331
470
  5
47C
331
327
  5
333
331
77
  5
83
331
541
  5
54D
331
481
  5
48D
331
552
  5
55E
331
492
  5
49E
331
563
  5
573
331
4A3
  5
4AF
331
82
  5
8E
331
355
  5
361
331
A4
  5
B0
331
4BE
  5
4CA
331
B5
  5
C1
331
4CF
  5
4DB
331
2B7
  5
2C3
331
D7
  5
E3
331
C6
  5
D2
331
93
  5
9F
331
338
  5
344
  0
XRECORD
  5
5E5
102
{ACAD_REACTORS
330
5E4
102
}
330
5E4
100
AcDbXrecord
280
     1
1004
1800000001000000000000C0000000000000000000000000
  0
ACDBDETAILVIEWSTYLE
  5
175
102
{ACAD_REACTORS
330
174
102
}
330
174
100
AcDbModelDocViewStyle
 70
     0
  3
Imperial24
290
     0
100
AcDbDetailViewStyle
 70
     0
 71
     0
 90
        3
 71
     1
340
11
 40
0.24
340
0
 40
0.24
300

 40
0.36
280
     3
 71
     2
340
16
 90
       25
 71
     3
340
11
 40
0.24
 90
        1
 40
0.75
 90
        1
300
%<\AcVar ViewType \f "%tc1">% %<\AcVar ViewDetailId>%\PSCALE %<\AcVar ViewScale \f "%sn">%
 71
     4
340
16
 90
       25
340
16
 90
       25
280
     0
  0
LAYOUT
  5
1C
102
{ACAD_XDICTIONARY
360
5E6
102
}
102
{ACAD_REACTORS
330
1A
102
}
330
1A
100
AcDbPlotSettings
  1

  2
none_device
  4

  6

 40
0.0
 41
0.0
 42
0.0
 43
0.0
 44
0.0
 45
0.0
 46
0.0
 47
0.0
 48
0.0
 49
0.0
140
0.0
141
0.0
142
1.0
143
1.0
 70
   688
 72
     0
 73
     0
 74
     5
  7

 75
    16
147
1.0
148
0.0
149
0.0
100
AcDbLayout
  1
Layout1
 70
     1
 71
     1
 10
0.0
 20
0.0
 11
12.0
 21
9.0
 12
0.0
 22
0.0
 32
0.0
 14
1.000000000000000E+20
 24
1.000000000000000E+20
 34
1.000000000000000E+20
 15
-1.000000000000000E+20
 25
-1.000000000000000E+20
 35
-1.000000000000000E+20
146
0.0
 13
0.0
 23
0.0
 33
0.0
 16
1.0
 26
0.0
 36
0.0
 17
0.0
 27
1.0
 37
0.0
 76
     0
330
1B
  0
LAYOUT
  5
1E
102
{ACAD_XDICTIONARY
360
5E8
102
}
102
{ACAD_REACTORS
330
1A
102
}
330
1A
100
AcDbPlotSettings
  1

  2
none_device
  4

  6

 40
0.0
 41
0.0
 42
0.0
 43
0.0
 44
0.0
 45
0.0
 46
0.0
 47
0.0
 48
0.0
 49
0.0
140
0.0
141
0.0
142
1.0
143
1.0
 70
  1712
 72
     0
 73
     0
 74
     0
  7

 75
     0
147
1.0
148
0.0
149
0.0
100
AcDbLayout
  1
Model
 70
     1
 71
     0
 10
0.0
 20
0.0
 11
12.0
 21
9.0
 12
0.0
 22
0.0
 32
0.0
 14
1.000000000000000E+20
 24
1.000000000000000E+20
 34
1.000000000000000E+20
 15
-1.000000000000000E+20
 25
-1.000000000000000E+20
 35
-1.000000000000000E+20
146
0.0
 13
0.0
 23
0.0
 33
0.0
 16
1.0
 26
0.0
 36
0.0
 17
0.0
 27
1.0
 37
0.0
 76
     0
330
1D
331
122
  0
MATERIAL
  5
131
102
{ACAD_XDICTIONARY
360
132
102
}
102
{ACAD_REACTORS
330
128
102
}
330
128
100
AcDbMaterial
  1
ByBlock
 72
     0
 43
0.0208333333333333
 43
0.0
 43
0.0
 43
0.0
 43
0.0
 43
0.0208333333333333
 43
0.0
 43
0.0
 43
0.0
 43
0.0
 43
1.0
 43
0.0
 43
0.0
 43
0.0
 43
0.0
 43
1.0
 77
     0
 47
0.0208333333333333
 47
0.0
 47
0.0
 47
0.0
 47
0.0
 47
0.0208333333333333
 47
0.0
 47
0.0
 47
0.0
 47
0.0
 47
1.0
 47
0.0
 47
0.0
 47
0.0
 47
0.0
 47
1.0
171
     0
 49
0.0208333333333333
 49
0.0
 49
0.0
 49
0.0
 49
0.0
 49
0.0208333333333333
 49
0.0
 49
0.0
 49
0.0
 49
0.0
 49
1.0
 49
0.0
 49
0.0
 49
0.0
 49
0.0
 49
1.0
175
     0
142
0.0208333333333333
142
0.0
142
0.0
142
0.0
142
0.0
142
0.0208333333333333
142
0.0
142
0.0
142
0.0
142
0.0
142
1.0
142
0.0
142
0.0
142
0.0
142
0.0
142
1.0
179
     0
144
0.0208333333333333
144
0.0
144
0.0
144
0.0
144
0.0
144
0.0208333333333333
144
0.0
144
0.0
144
0.0
144
0.0
144
1.0
144
0.0
144
0.0
144
0.0
144
0.0
144
1.0
147
0.0208333333333333
147
0.0
147
0.0
147
0.0
147
0.0
147
0.0208333333333333
147
0.0
147
0.0
147
0.0
147
0.0
147
1.0
147
0.0
147
0.0
147
0.0
147
0.0
147
1.0
  0
MATERIAL
  5
129
102
{ACAD_XDICTIONARY
360
12A
102
}
102
{ACAD_REACTORS
330
128
102
}
330
128
100
AcDbMaterial
  1
ByLayer
 72
     0
 43
0.0208333333333333
 43
0.0
 43
0.0
 43
0.0
 43
0.0
 43
0.0208333333333333
 43
0.0
 43
0.0
 43
0.0
 43
0.0
 43
1.0
 43
0.0
 43
0.0
 43
0.0
 43
0.0
 43
1.0
 77
     0
 47
0.0208333333333333
 47
0.0
 47
0.0
 47
0.0
 47
0.0
 47
0.0208333333333333
 47
0.0
 47
0.0
 47
0.0
 47
0.0
 47
1.0
 47
0.0
 47
0.0
 47
0.0
 47
0.0
 47
1.0
171
     0
 49
0.0208333333333333
 49
0.0
 49
0.0
 49
0.0
 49
0.0
 49
0.0208333333333333
 49
0.0
 49
0.0
 49
0.0
 49
0.0
 49
1.0
 49
0.0
 49
0.0
 49
0.0
 49
0.0
 49
1.0
175
     0
142
0.0208333333333333
142
0.0
142
0.0
142
0.0
142
0.0
142
0.0208333333333333
142
0.0
142
0.0
142
0.0
142
0.0
142
1.0
142
0.0
142
0.0
142
0.0
142
0.0
142
1.0
179
     0
144
0.0208333333333333
144
0.0
144
0.0
144
0.0
144
0.0
144
0.0208333333333333
144
0.0
144
0.0
144
0.0
144
0.0
144
1.0
144
0.0
144
0.0
144
0.0
144
0.0
144
1.0
147
0.0208333333333333
147
0.0
147
0.0
147
0.0
147
0.0
147
0.0208333333333333
147
0.0
147
0.0
147
0.0
147
0.0
147
1.0
147
0.0
147
0.0
147
0.0
147
0.0
147
1.0
  0
MATERIAL
  5
139
102
{ACAD_XDICTIONARY
360
13A
102
}
102
{ACAD_REACTORS
330
128
102
}
330
128
100
AcDbMaterial
  1
Global
 72
     0
 43
0.0208333333333333
 43
0.0
 43
0.0
 43
0.0
 43
0.0
 43
0.0208333333333333
 43
0.0
 43
0.0
 43
0.0
 43
0.0
 43
1.0
 43
0.0
 43
0.0
 43
0.0
 43
0.0
 43
1.0
 77
     0
 47
0.0208333333333333
 47
0.0
 47
0.0
 47
0.0
 47
0.0
 47
0.0208333333333333
 47
0.0
 47
0.0
 47
0.0
 47
0.0
 47
1.0
 47
0.0
 47
0.0
 47
0.0
 47
0.0
 47
1.0
171
     0
 49
0.0208333333333333
 49
0.0
 49
0.0
 49
0.0
 49
0.0
 49
0.0208333333333333
 49
0.0
 49
0.0
 49
0.0
 49
0.0
 49
1.0
 49
0.0
 49
0.0
 49
0.0
 49
0.0
 49
1.0
175
     0
142
0.0208333333333333
142
0.0
142
0.0
142
0.0
142
0.0
142
0.0208333333333333
142
0.0
142
0.0
142
0.0
142
0.0
142
1.0
142
0.0
142
0.0
142
0.0
142
0.0
142
1.0
179
     0
144
0.0208333333333333
144
0.0
144
0.0
144
0.0
144
0.0
144
0.0208333333333333
144
0.0
144
0.0
144
0.0
144
0.0
144
1.0
144
0.0
144
0.0
144
0.0
144
0.0
144
1.0
147
0.0208333333333333
147
0.0
147
0.0
147
0.0
147
0.0
147
0.0208333333333333
147
0.0
147
0.0
147
0.0
147
0.0
147
1.0
147
0.0
147
0.0
147
0.0
147
0.0
147
1.0
  0
MLEADERSTYLE
  5
170
102
{ACAD_XDICTIONARY
360
61F
102
}
102
{ACAD_REACTORS
330
16F
102
}
330
16F
100
AcDbMLeaderStyle
170
     2
171
     1
172
     0
 90
        2
 40
0.0
 41
0.0
173
     1
 91
-1056964608
340
14
 92
       -2
290
     1
 42
0.09
291
     1
 43
0.36
  3
Standard
 44
0.18
300

342
11
174
     1
178
     6
175
     1
176
     0
 93
-1056964608
 45
0.18
292
     0
297
     0
 46
0.18
 94
-1056964608
 47
1.0
 49
1.0
140
1.0
293
     1
141
0.0
294
     1
177
     0
142
1.0
295
     0
296
     0
143
0.125
1001
ACAD_MLEADERVER
1070
     2
  0
MLINESTYLE
  5
18
102
{ACAD_REACTORS
330
17
102
}
330
17
100
AcDbMlineStyle
  2
STANDARD
 70
     0
  3

 62
   256
 51
90.0
 52
90.0
 71
     2
 49
0.5
 62
   256
  6
BYLAYER
 49
-0.5
 62
   256
  6
BYLAYER
  0
ACDBPLACEHOLDER
  5
F
102
{ACAD_REACTORS
330
E
102
}
330
E
  0
SCALE
  5
15E
102
{ACAD_REACTORS
330
15D
102
}
330
15D
100
AcDbScale
 70
     0
300
1:1
140
1.0
141
1.0
290
     1
  0
SCALE
  5
15F
102
{ACAD_REACTORS
330
15D
102
}
330
15D
100
AcDbScale
 70
     0
300
1/128" = 1'-0"
140
0.0078125
141
12.0
290
     0
  0
SCALE
  5
160
102
{ACAD_REACTORS
330
15D
102
}
330
15D
100
AcDbScale
 70
     0
300
1/64" = 1'-0"
140
0.015625
141
12.0
290
     0
  0
SCALE
  5
161
102
{ACAD_REACTORS
330
15D
102
}
330
15D
100
AcDbScale
 70
     0
300
1/32" = 1'-0"
140
0.03125
141
12.0
290
     0
  0
SCALE
  5
162
102
{ACAD_REACTORS
330
15D
102
}
330
15D
100
AcDbScale
 70
     0
300
1/16" = 1'-0"
140
0.0625
141
12.0
290
     0
  0
SCALE
  5
163
102
{ACAD_REACTORS
330
15D
102
}
330
15D
100
AcDbScale
 70
     0
300
3/32" = 1'-0"
140
0.09375
141
12.0
290
     0
  0
SCALE
  5
164
102
{ACAD_REACTORS
330
15D
102
}
330
15D
100
AcDbScale
 70
     0
300
1/8" = 1'-0"
140
0.125
141
12.0
290
     0
  0
SCALE
  5
165
102
{ACAD_REACTORS
330
15D
102
}
330
15D
100
AcDbScale
 70
     0
300
3/16" = 1'-0"
140
0.1875
141
12.0
290
     0
  0
SCALE
  5
166
102
{ACAD_REACTORS
330
15D
102
}
330
15D
100
AcDbScale
 70
     0
300
1/4" = 1'-0"
140
0.25
141
12.0
290
     0
  0
SCALE
  5
167
102
{ACAD_REACTORS
330
15D
102
}
330
15D
100
AcDbScale
 70
     0
300
3/8" = 1'-0"
140
0.375
141
12.0
290
     0
  0
SCALE
  5
168
102
{ACAD_REACTORS
330
15D
102
}
330
15D
100
AcDbScale
 70
     0
300
1/2" = 1'-0"
140
0.5
141
12.0
290
     0
  0
SCALE
  5
169
102
{ACAD_REACTORS
330
15D
102
}
330
15D
100
AcDbScale
 70
     0
300
3/4" = 1'-0"
140
0.75
141
12.0
290
     0
  0
SCALE
  5
16A
102
{ACAD_REACTORS
330
15D
102
}
330
15D
100
AcDbScale
 70
     0
300
1" = 1'-0"
140
1.0
141
12.0
290
     0
  0
SCALE
  5
16B
102
{ACAD_REACTORS
330
15D
102
}
330
15D
100
AcDbScale
 70
     0
300
1-1/2" = 1'-0"
140
1.5
141
12.0
290
     0
  0
SCALE
  5
16C
102
{ACAD_REACTORS
330
15D
102
}
330
15D
100
AcDbScale
 70
     0
300
3" = 1'-0"
140
3.0
141
12.0
290
     0
  0
SCALE
  5
16D
102
{ACAD_REACTORS
330
15D
102
}
330
15D
100
AcDbScale
 70
     0
300
6" = 1'-0"
140
6.0
141
12.0
290
     0
  0
SCALE
  5
16E
102
{ACAD_REACTORS
330
15D
102
}
330
15D
100
AcDbScale
 70
     0
300
1'-0" = 1'-0"
140
12.0
141
12.0
290
     0
  0
ACDBSECTIONVIEWSTYLE
  5
173
102
{ACAD_REACTORS
330
171
102
}
330
171
100
AcDbModelDocViewStyle
 70
     0
  3
Imperial24
290
     0
100
AcDbSectionViewStyle
 70
     0
 71
     0
 90
       78
 71
     1
340
11
 40
0.24
340
0
340
0
 40
0.24
300
I, O, Q, S, X, Z
 40
0.48
 90
        3
 40
0.18
 90
        1
 71
     2
340
172
 90
       25
340
16
 90
       50
 40
0.24
 40
0.0
 40
0.24
 71
     3
340
11
 40
0.24
 90
        1
 40
0.75
 90
        1
300
%<\AcVar ViewType \f "%tc1">% %<\AcVar ViewSectionStartId>%-%<\AcVar ViewSectionEndId>%\PSCALE %<\AcVar ViewScale \f "%sn">%
 71
     4
300
ANSI31
 40
1.0
 90
        0
290
     0
290
     0
 90
        6
 40
0.0
 40
1.570796326794896
 40
0.2617993877991494
 40
1.308996938995747
 40
-0.2617993877991494
 40
1.832595714594046
  0
TABLESTYLE
  5
15C
102
{ACAD_XDICTIONARY
360
5E0
102
}
102
{ACAD_REACTORS
330
15B
102
}
330
15B
100
AcDbTableStyle
  3
Standard
 70
     0
 71
     0
 40
0.06
 41
0.06
280
     0
281
     0
  7
Standard
140
0.18
170
     2
 62
     0
 63
     7
283
     0
274
    -2
284
     1
 64
     0
275
    -2
285
     1
 65
     0
276
    -2
286
     1
 66
     0
277
    -2
287
     1
 67
     0
278
    -2
288
     1
 68
     0
279
    -2
289
     1
 69
     0
  7
Standard
140
0.25
170
     5
 62
     0
 63
     7
283
     0
274
    -2
284
     1
 64
     0
275
    -2
285
     1
 65
     0
276
    -2
286
     1
 66
     0
277
    -2
287
     1
 67
     0
278
    -2
288
     1
 68
     0
279
    -2
289
     1
 69
     0
  7
Standard
140
0.18
170
     5
 62
     0
 63
     7
283
     0
274
    -2
284
     1
 64
     0
275
    -2
285
     1
 65
     0
276
    -2
286
     1
 66
     0
277
    -2
287
     1
 67
     0
278
    -2
288
     1
 68
     0
279
    -2
289
     1
 69
     0
  0
VISUALSTYLE
  5
147
102
{ACAD_XDICTIONARY
360
5F7
102
}
102
{ACAD_REACTORS
330
141
102
}
330
141
100
AcDbVisualStyle
  2
2dWireframe
 70
     4
 71
     0
 72
     2
 73
     0
 90
        0
 40
-0.6
 41
-30.0
 62
     5
 63
     7
 74
     1
 91
        4
 64
     7
 65
   257
 75
     1
175
     1
 42
1.0
 92
        0
 66
   257
 43
1.0
 76
     1
 77
     6
 78
     2
 67
     7
 79
     5
170
     0
171
     0
290
     0
174
     0
 93
        1
 44
0.0
173
     0
291
     0
 45
0.0
1001
ACAD
1000
AcDbSavedByObjectVersion
1070
     0
  0
VISUALSTYLE
  5
146
102
{ACAD_XDICTIONARY
360
5F5
102
}
102
{ACAD_REACTORS
330
141
102
}
330
141
100
AcDbVisualStyle
  2
Basic
 70
     7
 71
     1
 72
     0
 73
     1
 90
        0
 40
-0.6
 41
-30.0
 62
     5
 63
     7
 74
     0
 91
        4
 64
     7
 65
   257
 75
     1
175
     1
 42
1.0
 92
        8
 66
     7
 43
1.0
 76
     1
 77
     6
 78
     2
 67
     7
 79
     5
170
     0
171
     0
290
     0
174
     0
 93
        1
 44
0.0
173
     0
291
     1
 45
0.0
1001
ACAD
1000
AcDbSavedByObjectVersion
1070
     0
  0
VISUALSTYLE
  5
14D
102
{ACAD_XDICTIONARY
360
603
102
}
102
{ACAD_REACTORS
330
141
102
}
330
141
100
AcDbVisualStyle
  2
Brighten
 70
    12
 71
     2
 72
     2
 73
     0
 90
        0
 40
-0.6
 41
-30.0
 62
     5
 63
     7
 74
     1
 91
        4
 64
     7
 65
   257
 75
     1
175
     1
 42
1.0
 92
        8
 66
     7
 43
1.0
 76
     1
 77
     6
 78
     2
 67
     7
 79
     5
170
     0
171
     0
290
     0
174
     0
 93
        1
 44
50.0
173
     0
291
     1
 45
0.0
1001
ACAD
1000
AcDbSavedByObjectVersion
1070
     0
  0
VISUALSTYLE
  5
151
102
{ACAD_XDICTIONARY
360
60B
102
}
102
{ACAD_REACTORS
330
141
102
}
330
141
100
AcDbVisualStyle
  2
ColorChange
 70
    16
 71
     2
 72
     2
 73
     3
 90
        0
 40
-0.6
 41
-30.0
 62
     5
 63
     8
 74
     1
 91
        4
 64
     7
 65
   257
 75
     1
175
     1
 42
1.0
 92
        8
 66
     8
 43
1.0
 76
     1
 77
     6
 78
     2
 67
     7
 79
     5
170
     0
171
     0
290
     0
174
     0
 93
        1
 44
0.0
173
     0
291
     1
 45
0.0
1001
ACAD
1000
AcDbSavedByObjectVersion
1070
     0
  0
VISUALSTYLE
  5
14A
102
{ACAD_XDICTIONARY
360
5FD
102
}
102
{ACAD_REACTORS
330
141
102
}
330
141
100
AcDbVisualStyle
  2
Conceptual
 70
     9
 71
     3
 72
     2
 73
     0
 90
        0
 40
-0.6
 41
-30.0
 62
     5
 63
     7
 74
     2
 91
        2
 64
     7
 65
   257
 75
     1
175
     1
 42
179.0
 92
        8
 66
     7
 43
1.0
 76
     1
 77
     6
 78
     2
 67
     7
 79
     3
170
     0
171
     0
290
     0
174
     0
 93
        1
 44
0.0
173
     0
291
     0
 45
0.0
1001
ACAD
1000
AcDbSavedByObjectVersion
1070
     0
  0
VISUALSTYLE
  5
14C
102
{ACAD_XDICTIONARY
360
601
102
}
102
{ACAD_REACTORS
330
141
102
}
330
141
100
AcDbVisualStyle
  2
Dim
 70
    11
 71
     2
 72
     2
 73
     0
 90
        0
 40
-0.6
 41
-30.0
 62
     5
 63
     7
 74
     1
 91
        4
 64
     7
 65
   257
 75
     1
175
     1
 42
1.0
 92
        8
 66
     7
 43
1.0
 76
     1
 77
     6
 78
     2
 67
     7
 79
     5
170
     0
171
     0
290
     0
174
     0
 93
        1
 44
-50.0
173
     0
291
     1
 45
0.0
1001
ACAD
1000
AcDbSavedByObjectVersion
1070
     0
  0
VISUALSTYLE
  5
159
102
{ACAD_XDICTIONARY
360
61B
102
}
102
{ACAD_REACTORS
330
141
102
}
330
141
100
AcDbVisualStyle
  2
EdgeColorOff
 70
    22
 71
     2
 72
     2
 73
     0
 90
        0
 40
-0.6
 41
-30.0
 62
     5
 63
     7
 74
     1
 91
        4
 64
     7
 65
   257
 75
     1
175
     1
 42
1.0
 92
        8
 66
     7
 43
1.0
 76
     1
 77
     6
 78
     2
 67
     7
 79
     5
170
     0
171
     0
290
     0
174
     0
 93
        1
 44
0.0
173
     0
291
     1
 45
0.0
1001
ACAD
1000
AcDbSavedByObjectVersion
1070
     0
  0
VISUALSTYLE
  5
150
102
{ACAD_XDICTIONARY
360
609
102
}
102
{ACAD_REACTORS
330
141
102
}
330
141
100
AcDbVisualStyle
  2
Facepattern
 70
    15
 71
     2
 72
     2
 73
     0
 90
        0
 40
-0.6
 41
-30.0
 62
     5
 63
     7
 74
     1
 91
        4
 64
     7
 65
   257
 75
     1
175
     1
 42
1.0
 92
        8
 66
     7
 43
1.0
 76
     1
 77
     6
 78
     2
 67
     7
 79
     5
170
     0
171
     0
290
     0
174
     0
 93
        1
 44
0.0
173
     0
291
     1
 45
0.0
1001
ACAD
1000
AcDbSavedByObjectVersion
1070
     0
  0
VISUALSTYLE
  5
142
102
{ACAD_XDICTIONARY
360
5ED
102
}
102
{ACAD_REACTORS
330
141
102
}
330
141
100
AcDbVisualStyle
  2
Flat
 70
     0
 71
     2
 72
     1
 73
     1
 90
        2
 40
-0.6
 41
30.0
 62
     5
 63
     7
 74
     0
 91
        0
 64
     7
 65
   257
 75
     1
175
     1
 42
1.0
 92
        8
 66
     7
 43
1.0
 76
     1
 77
     6
 78
     2
 67
     7
 79
     5
170
     0
171
     0
290
     0
174
     0
 93
       13
 44
0.0
173
     0
291
     1
 45
0.0
1001
ACAD
1000
AcDbSavedByObjectVersion
1070
     0
  0
VISUALSTYLE
  5
143
102
{ACAD_XDICTIONARY
360
5EF
102
}
102
{ACAD_REACTORS
330
141
102
}
330
141
100
AcDbVisualStyle
  2
FlatWithEdges
 70
     1
 71
     2
 72
     1
 73
     1
 90
        2
 40
-0.6
 41
30.0
 62
     5
 63
     7
 74
     1
 91
        0
 64
     7
 65
   257
 75
     1
175
     1
 42
1.0
 92
        0
 66
   257
 43
1.0
 76
     1
 77
     6
 78
     2
 67
     7
 79
     5
170
     0
171
     0
290
     0
174
     0
 93
       13
 44
0.0
173
     0
291
     1
 45
0.0
1001
ACAD
1000
AcDbSavedByObjectVersion
1070
     0
  0
VISUALSTYLE
  5
144
102
{ACAD_XDICTIONARY
360
5F1
102
}
102
{ACAD_REACTORS
330
141
102
}
330
141
100
AcDbVisualStyle
  2
Gouraud
 70
     2
 71
     2
 72
     2
 73
     1
 90
        2
 40
-0.6
 41
30.0
 62
     5
 63
     7
 74
     0
 91
        0
 64
     7
 65
   257
 75
     1
175
     1
 42
1.0
 92
        0
 66
     7
 43
1.0
 76
     1
 77
     6
 78
     2
 67
     7
 79
     5
170
     0
171
     0
290
     0
174
     0
 93
       13
 44
0.0
173
     0
291
     1
 45
0.0
1001
ACAD
1000
AcDbSavedByObjectVersion
1070
     0
  0
VISUALSTYLE
  5
145
102
{ACAD_XDICTIONARY
360
5F3
102
}
102
{ACAD_REACTORS
330
141
102
}
330
141
100
AcDbVisualStyle
  2
GouraudWithEdges
 70
     3
 71
     2
 72
     2
 73
     1
 90
        2
 40
-0.6
 41
30.0
 62
     5
 63
     7
 74
     1
 91
        0
 64
     7
 65
   257
 75
     1
175
     1
 42
1.0
 92
        0
 66
   257
 43
1.0
 76
     1
 77
     6
 78
     2
 67
     7
 79
     5
170
     0
171
     0
290
     0
174
     0
 93
       13
 44
0.0
173
     0
291
     1
 45
0.0
1001
ACAD
1000
AcDbSavedByObjectVersion
1070
     0
  0
VISUALSTYLE
  5
149
102
{ACAD_XDICTIONARY
360
5FB
102
}
102
{ACAD_REACTORS
330
141
102
}
330
141
100
AcDbVisualStyle
  2
Hidden
 70
     6
 71
     1
 72
     2
 73
     2
 90
        0
 40
-0.6
 41
-30.0
 62
     5
 63
     7
 74
     2
 91
        2
 64
     7
 65
   257
 75
     2
175
     1
 42
40.0
 92
        0
 66
   257
 43
1.0
 76
     1
 77
     6
 78
     2
 67
     7
 79
     3
170
     0
171
     0
290
     0
174
     0
 93
        1
 44
0.0
173
     0
291
     0
 45
0.0
1001
ACAD
1000
AcDbSavedByObjectVersion
1070
     0
  0
VISUALSTYLE
  5
157
102
{ACAD_XDICTIONARY
360
617
102
}
102
{ACAD_REACTORS
330
141
102
}
330
141
100
AcDbVisualStyle
  2
JitterOff
 70
    20
 71
     2
 72
     2
 73
     0
 90
        0
 40
-0.6
 41
-30.0
 62
     5
 63
     7
 74
     1
 91
        4
 64
     7
 65
   257
 75
     1
175
     1
 42
1.0
 92
       10
 66
     7
 43
1.0
 76
     1
 77
     6
 78
     2
 67
     7
 79
     5
170
     0
171
     0
290
     0
174
     0
 93
        1
 44
0.0
173
     0
291
     1
 45
0.0
1001
ACAD
1000
AcDbSavedByObjectVersion
1070
     0
  0
VISUALSTYLE
  5
14F
102
{ACAD_XDICTIONARY
360
607
102
}
102
{ACAD_REACTORS
330
141
102
}
330
141
100
AcDbVisualStyle
  2
Linepattern
 70
    14
 71
     2
 72
     2
 73
     0
 90
        0
 40
-0.6
 41
-30.0
 62
     5
 63
     7
 74
     1
 91
        4
 64
     7
 65
   257
 75
     7
175
     7
 42
1.0
 92
        8
 66
     7
 43
1.0
 76
     1
 77
     6
 78
     2
 67
     7
 79
     5
170
     0
171
     0
290
     0
174
     0
 93
        1
 44
0.0
173
     0
291
     1
 45
0.0
1001
ACAD
1000
AcDbSavedByObjectVersion
1070
     0
  0
VISUALSTYLE
  5
158
102
{ACAD_XDICTIONARY
360
619
102
}
102
{ACAD_REACTORS
330
141
102
}
330
141
100
AcDbVisualStyle
  2
OverhangOff
 70
    21
 71
     2
 72
     2
 73
     0
 90
        0
 40
-0.6
 41
-30.0
 62
     5
 63
     7
 74
     1
 91
        4
 64
     7
 65
   257
 75
     1
175
     1
 42
1.0
 92
        9
 66
     7
 43
1.0
 76
     1
 77
     6
 78
     2
 67
     7
 79
     5
170
     0
171
     0
290
     0
174
     0
 93
        1
 44
0.0
173
     0
291
     1
 45
0.0
1001
ACAD
1000
AcDbSavedByObjectVersion
1070
     0
  0
VISUALSTYLE
  5
14B
102
{ACAD_XDICTIONARY
360
5FF
102
}
102
{ACAD_REACTORS
330
141
102
}
330
141
100
AcDbVisualStyle
  2
Realistic
 70
     8
 71
     2
 72
     3
 73
     0
 90
        2
 40
-0.6
 41
30.0
 62
     5
 63
     7
 74
     0
 91
        0
 64
     7
 65
   257
 75
     1
175
     1
 42
1.0
 92
        8
 66
   257
 43
1.0
 76
     1
 77
     6
 78
     2
 67
     7
 79
     3
170
     0
171
     0
290
     0
174
     0
 93
       13
 44
0.0
173
     0
291
     0
 45
0.0
1001
ACAD
1000
AcDbSavedByObjectVersion
1070
     0
  0
VISUALSTYLE
  5
156
102
{ACAD_XDICTIONARY
360
615
102
}
102
{ACAD_REACTORS
330
141
102
}
330
141
100
AcDbVisualStyle
  2
Shaded
 70
    27
 71
     2
 72
     2
 73
     1
 90
        2
 40
-0.6
 41
30.0
 62
     5
 63
     7
 74
     0
 91
        4
 64
     7
 65
   257
 75
     1
175
     1
 42
1.0
 92
        8
 66
   257
 43
1.0
 76
     1
 77
     6
 78
     2
 67
     8
 79
     3
170
     0
171
     0
290
     0
174
     0
 93
        5
 44
0.0
173
     0
291
     0
 45
0.0
1001
ACAD
1000
AcDbSavedByObjectVersion
1070
     0
  0
VISUALSTYLE
  5
155
102
{ACAD_XDICTIONARY
360
613
102
}
102
{ACAD_REACTORS
330
141
102
}
330
141
100
AcDbVisualStyle
  2
Shaded with edges
 70
    26
 71
     2
 72
     2
 73
     1
 90
        2
 40
-0.6
 41
30.0
 62
     5
 63
     7
 74
     1
 91
       10
 64
     7
 65
   257
 75
     2
175
     1
 42
1.0
 92
        8
 66
   257
 43
1.0
 76
     1
 77
     6
 78
     2
 67
     7
 79
     3
170
     0
171
     0
290
     0
174
     0
 93
        5
 44
0.0
173
     0
291
     0
 45
0.0
1001
ACAD
1000
AcDbSavedByObjectVersion
1070
     0
  0
VISUALSTYLE
  5
152
102
{ACAD_XDICTIONARY
360
60D
102
}
102
{ACAD_REACTORS
330
141
102
}
330
141
100
AcDbVisualStyle
  2
Shades of Gray
 70
    23
 71
     2
 72
     2
 73
     3
 90
        0
 40
-0.6
 41
-30.0
 62
     5
 63
     7
 74
     2
 91
        2
 64
     7
 65
     7
 75
     1
175
     1
 42
40.0
 92
        8
 66
     7
 43
1.0
 76
     1
 77
     6
 78
     2
 67
     7
 79
     3
170
     0
171
     0
290
     0
174
     0
 93
        1
 44
0.0
173
     0
291
     0
 45
0.0
1001
ACAD
1000
AcDbSavedByObjectVersion
1070
     0
  0
VISUALSTYLE
  5
153
102
{ACAD_XDICTIONARY
360
60F
102
}
102
{ACAD_REACTORS
330
141
102
}
330
141
100
AcDbVisualStyle
  2
Sketchy
 70
    24
 71
     1
 72
     2
 73
     2
 90
        0
 40
-0.6
 41
-30.0
 62
     5
 63
     7
 74
     2
 91
        2
 64
     7
 65
     7
 75
     1
175
     1
 42
40.0
 92
       11
 66
     7
 43
1.0
 76
     1
 77
     6
 78
     2
 67
     7
 79
     6
170
     0
171
     0
290
     0
174
     0
 93
        1
 44
0.0
173
     0
291
     0
 45
0.0
1001
ACAD
1000
AcDbSavedByObjectVersion
1070
     0
  0
VISUALSTYLE
  5
14E
102
{ACAD_XDICTIONARY
360
605
102
}
102
{ACAD_REACTORS
330
141
102
}
330
141
100
AcDbVisualStyle
  2
Thicken
 70
    13
 71
     2
 72
     2
 73
     0
 90
        0
 40
-0.6
 41
-30.0
 62
     5
 63
     7
 74
     1
 91
        4
 64
     7
 65
   257
 75
     1
175
     1
 42
1.0
 92
       12
 66
     7
 43
1.0
 76
     1
 77
     6
 78
     2
 67
     7
 79
     5
170
     0
171
     0
290
     0
174
     0
 93
        1
 44
0.0
173
     0
291
     1
 45
0.0
1001
ACAD
1000
AcDbSavedByObjectVersion
1070
     0
  0
VISUALSTYLE
  5
148
102
{ACAD_XDICTIONARY
360
5F9
102
}
102
{ACAD_REACTORS
330
141
102
}
330
141
100
AcDbVisualStyle
  2
Wireframe
 70
     5
 71
     0
 72
     2
 73
     0
 90
        0
 40
-0.6
 41
-30.0
 62
     5
 63
     7
 74
     1
 91
        4
 64
     7
 65
   257
 75
     1
175
     1
 42
1.0
 92
        0
 66
   257
 43
1.0
 76
     1
 77
     6
 78
     2
 67
     7
 79
     3
170
     0
171
     0
290
     0
174
     0
 93
        1
 44
0.0
173
     0
291
     0
 45
0.0
1001
ACAD
1000
AcDbSavedByObjectVersion
1070
     0
  0
VISUALSTYLE
  5
154
102
{ACAD_XDICTIONARY
360
611
102
}
102
{ACAD_REACTORS
330
141
102
}
330
141
100
AcDbVisualStyle
  2
X-Ray
 70
    25
 71
     2
 72
     2
 73
     1
 90
        1
 40
0.5
 41
-30.0
 62
     5
 63
     7
 74
     1
 91
        0
 64
     7
 65
   257
 75
     1
175
     1
 42
1.0
 92
        8
 66
     7
 43
1.0
 76
     1
 77
     6
 78
     2
 67
     7
 79
     3
170
     0
171
     0
290
     0
174
     0
 93
       13
 44
0.0
173
     0
291
     0
 45
0.0
1001
ACAD
1000
AcDbSavedByObjectVersion
1070
     0
  0
DICTIONARYVAR
  5
5D8
102
{ACAD_REACTORS
330
5D3
102
}
330
5D3
100
DictionaryVariables
280
     0
  1
1:1
  0
DICTIONARYVAR
  5
5D5
102
{ACAD_REACTORS
330
5D3
102
}
330
5D3
100
DictionaryVariables
280
     0
  1
STANDARD
  0
DICTIONARYVAR
  5
5D4
102
{ACAD_REACTORS
330
5D3
102
}
330
5D3
100
DictionaryVariables
280
     0
  1
STANDARD
  0
DICTIONARYVAR
  5
5D6
102
{ACAD_REACTORS
330
5D3
102
}
330
5D3
100
DictionaryVariables
280
     0
  1
Imperial24
  0
DICTIONARYVAR
  5
5D7
102
{ACAD_REACTORS
330
5D3
102
}
330
5D3
100
DictionaryVariables
280
     0
  1
Imperial24
  0
DICTIONARYVAR
  5
5DF
102
{ACAD_REACTORS
330
5D3
102
}
330
5D3
100
DictionaryVariables
280
     0
  1
2
  0
DICTIONARYVAR
  5
5DD
102
{ACAD_REACTORS
330
5D3
102
}
330
5D3
100
DictionaryVariables
280
     0
  1
2
  0
DICTIONARYVAR
  5
5DB
102
{ACAD_REACTORS
330
5D3
102
}
330
5D3
100
DictionaryVariables
280
     0
  1
1
  0
DICTIONARYVAR
  5
5DA
102
{ACAD_REACTORS
330
5D3
102
}
330
5D3
100
DictionaryVariables
280
     0
  1
0
  0
DICTIONARYVAR
  5
5DE
102
{ACAD_REACTORS
330
5D3
102
}
330
5D3
100
DictionaryVariables
280
     0
  1
1
  0
DICTIONARYVAR
  5
5D9
102
{ACAD_REACTORS
330
5D3
102
}
330
5D3
100
DictionaryVariables
280
     0
  1
127
  0
DICTIONARYVAR
  5
5DC
102
{ACAD_REACTORS
330
5D3
102
}
330
5D3
100
DictionaryVariables
280
     0
  1
0
  0
DICTIONARY
  5
1AD
102
{ACAD_REACTORS
330
1A6
102
}
330
1A6
100
AcDbDictionary
281
     1
  0
DICTIONARY
  5
5E6
330
1C
100
AcDbDictionary
280
     1
281
     1
  3
ACAD_XREC_ROUNDTRIP
360
5E7
  0
DICTIONARY
  5
5E8
330
1E
100
AcDbDictionary
280
     1
281
     1
  3
ACAD_XREC_ROUNDTRIP
360
5E9
  0
DICTIONARY
  5
132
330
131
100
AcDbDictionary
280
     1
281
     1
  3
ACAD_XREC_ROUNDTRIP
360
5EB
  3
BUMPTILE
360
134
  3
DIFFUSETILE
360
133
  3
OPACITYTILE
360
137
  3
REFLECTIONTILE
360
136
  3
REFRACTIONTILE
360
138
  3
SPECULARTILE
360
135
  0
DICTIONARY
  5
12A
330
129
100
AcDbDictionary
280
     1
281
     1
  3
ACAD_XREC_ROUNDTRIP
360
5EA
  3
BUMPTILE
360
12C
  3
DIFFUSETILE
360
12B
  3
OPACITYTILE
360
12F
  3
REFLECTIONTILE
360
12E
  3
REFRACTIONTILE
360
130
  3
SPECULARTILE
360
12D
  0
DICTIONARY
  5
13A
330
139
100
AcDbDictionary
280
     1
281
     1
  3
ACAD_XREC_ROUNDTRIP
360
5EC
  3
BUMPTILE
360
13C
  3
DIFFUSETILE
360
13B
  3
OPACITYTILE
360
13F
  3
REFLECTIONTILE
360
13E
  3
REFRACTIONTILE
360
140
  3
SPECULARTILE
360
13D
  0
DICTIONARY
  5
61F
330
170
100
AcDbDictionary
280
     1
281
     1
  3
ACAD_XREC_ROUNDTRIP
360
620
  0
DICTIONARY
  5
5E0
330
15C
100
AcDbDictionary
280
     1
281
     1
  3
ACAD_ROUNDTRIP_2008_TABLESTYLE_CELLSTYLEMAP
360
5E1
  3
ACAD_XREC_ROUNDTRIP
360
61D
  0
DICTIONARY
  5
5F7
330
147
100
AcDbDictionary
280
     1
281
     1
  3
ACAD_XREC_ROUNDTRIP
360
5F8
  0
DICTIONARY
  5
5F5
330
146
100
AcDbDictionary
280
     1
281
     1
  3
ACAD_XREC_ROUNDTRIP
360
5F6
  0
DICTIONARY
  5
603
330
14D
100
AcDbDictionary
280
     1
281
     1
  3
ACAD_XREC_ROUNDTRIP
360
604
  0
DICTIONARY
  5
60B
330
151
100
AcDbDictionary
280
     1
281
     1
  3
ACAD_XREC_ROUNDTRIP
360
60C
  0
DICTIONARY
  5
5FD
330
14A
100
AcDbDictionary
280
     1
281
     1
  3
ACAD_XREC_ROUNDTRIP
360
5FE
  0
DICTIONARY
  5
601
330
14C
100
AcDbDictionary
280
     1
281
     1
  3
ACAD_XREC_ROUNDTRIP
360
602
  0
DICTIONARY
  5
61B
330
159
100
AcDbDictionary
280
     1
281
     1
  3
ACAD_XREC_ROUNDTRIP
360
61C
  0
DICTIONARY
  5
609
330
150
100
AcDbDictionary
280
     1
281
     1
  3
ACAD_XREC_ROUNDTRIP
360
60A
  0
DICTIONARY
  5
5ED
330
142
100
AcDbDictionary
280
     1
281
     1
  3
ACAD_XREC_ROUNDTRIP
360
5EE
  0
DICTIONARY
  5
5EF
330
143
100
AcDbDictionary
280
     1
281
     1
  3
ACAD_XREC_ROUNDTRIP
360
5F0
  0
DICTIONARY
  5
5F1
330
144
100
AcDbDictionary
280
     1
281
     1
  3
ACAD_XREC_ROUNDTRIP
360
5F2
  0
DICTIONARY
  5
5F3
330
145
100
AcDbDictionary
280
     1
281
     1
  3
ACAD_XREC_ROUNDTRIP
360
5F4
  0
DICTIONARY
  5
5FB
330
149
100
AcDbDictionary
280
     1
281
     1
  3
ACAD_XREC_ROUNDTRIP
360
5FC
  0
DICTIONARY
  5
617
330
157
100
AcDbDictionary
280
     1
281
     1
  3
ACAD_XREC_ROUNDTRIP
360
618
  0
DICTIONARY
  5
607
330
14F
100
AcDbDictionary
280
     1
281
     1
  3
ACAD_XREC_ROUNDTRIP
360
608
  0
DICTIONARY
  5
619
330
158
100
AcDbDictionary
280
     1
281
     1
  3
ACAD_XREC_ROUNDTRIP
360
61A
  0
DICTIONARY
  5
5FF
330
14B
100
AcDbDictionary
280
     1
281
     1
  3
ACAD_XREC_ROUNDTRIP
360
600
  0
DICTIONARY
  5
615
330
156
100
AcDbDictionary
280
     1
281
     1
  3
ACAD_XREC_ROUNDTRIP
360
616
  0
DICTIONARY
  5
613
330
155
100
AcDbDictionary
280
     1
281
     1
  3
ACAD_XREC_ROUNDTRIP
360
614
  0
DICTIONARY
  5
60D
330
152
100
AcDbDictionary
280
     1
281
     1
  3
ACAD_XREC_ROUNDTRIP
360
60E
  0
DICTIONARY
  5
60F
330
153
100
AcDbDictionary
280
     1
281
     1
  3
ACAD_XREC_ROUNDTRIP
360
610
  0
DICTIONARY
  5
605
330
14E
100
AcDbDictionary
280
     1
281
     1
  3
ACAD_XREC_ROUNDTRIP
360
606
  0
DICTIONARY
  5
5F9
330
148
100
AcDbDictionary
280
     1
281
     1
  3
ACAD_XREC_ROUNDTRIP
360
5FA
  0
DICTIONARY
  5
611
330
154
100
AcDbDictionary
280
     1
281
     1
  3
ACAD_XREC_ROUNDTRIP
360
612
  0
XRECORD
  5
5E7
102
{ACAD_REACTORS
330
5E6
102
}
330
5E6
100
AcDbXrecord
280
     1
102
SHADEPLOT
 70
     0
102
SHADEPLOTRESLEVEL
 70
     2
102
SHADEPLOTCUSTOMDPI
 70
   300
  0
XRECORD
  5
5E9
102
{ACAD_REACTORS
330
5E8
102
}
330
5E8
100
AcDbXrecord
280
     1
102
SHADEPLOT
 70
     0
102
SHADEPLOTRESLEVEL
 70
     2
102
SHADEPLOTCUSTOMDPI
 70
   300
  0
XRECORD
  5
5EB
102
{ACAD_REACTORS
330
132
102
}
330
132
100
AcDbXrecord
280
     1
102
MATERIAL
148
0.0
149
0.0
149
0.0
 93
        0
 94
      127
282
     0
 72
     0
 77
     0
171
     0
175
     0
179
     0
273
     0
  0
XRECORD
  5
134
102
{ACAD_REACTORS
330
132
102
}
330
132
100
AcDbXrecord
280
     1
270
     1
271
     1
  0
XRECORD
  5
133
102
{ACAD_REACTORS
330
132
102
}
330
132
100
AcDbXrecord
280
     1
270
     1
271
     1
  0
XRECORD
  5
137
102
{ACAD_REACTORS
330
132
102
}
330
132
100
AcDbXrecord
280
     1
270
     1
271
     1
  0
XRECORD
  5
136
102
{ACAD_REACTORS
330
132
102
}
330
132
100
AcDbXrecord
280
     1
270
     1
271
     1
  0
XRECORD
  5
138
102
{ACAD_REACTORS
330
132
102
}
330
132
100
AcDbXrecord
280
     1
270
     1
271
     1
  0
XRECORD
  5
135
102
{ACAD_REACTORS
330
132
102
}
330
132
100
AcDbXrecord
280
     1
270
     1
271
     1
  0
XRECORD
  5
5EA
102
{ACAD_REACTORS
330
12A
102
}
330
12A
100
AcDbXrecord
280
     1
102
MATERIAL
148
0.0
149
0.0
149
0.0
 93
        0
 94
      127
282
     0
 72
     0
 77
     0
171
     0
175
     0
179
     0
273
     0
  0
XRECORD
  5
12C
102
{ACAD_REACTORS
330
12A
102
}
330
12A
100
AcDbXrecord
280
     1
270
     1
271
     1
  0
XRECORD
  5
12B
102
{ACAD_REACTORS
330
12A
102
}
330
12A
100
AcDbXrecord
280
     1
270
     1
271
     1
  0
XRECORD
  5
12F
102
{ACAD_REACTORS
330
12A
102
}
330
12A
100
AcDbXrecord
280
     1
270
     1
271
     1
  0
XRECORD
  5
12E
102
{ACAD_REACTORS
330
12A
102
}
330
12A
100
AcDbXrecord
280
     1
270
     1
271
     1
  0
XRECORD
  5
130
102
{ACAD_REACTORS
330
12A
102
}
330
12A
100
AcDbXrecord
280
     1
270
     1
271
     1
  0
XRECORD
  5
12D
102
{ACAD_REACTORS
330
12A
102
}
330
12A
100
AcDbXrecord
280
     1
270
     1
271
     1
  0
XRECORD
  5
5EC
102
{ACAD_REACTORS
330
13A
102
}
330
13A
100
AcDbXrecord
280
     1
102
MATERIAL
148
0.0
149
0.0
149
0.0
 93
        0
 94
      127
282
     0
 72
     0
 77
     0
171
     0
175
     0
179
     0
273
     0
  0
XRECORD
  5
13C
102
{ACAD_REACTORS
330
13A
102
}
330
13A
100
AcDbXrecord
280
     1
270
     1
271
     1
  0
XRECORD
  5
13B
102
{ACAD_REACTORS
330
13A
102
}
330
13A
100
AcDbXrecord
280
     1
270
     1
271
     1
  0
XRECORD
  5
13F
102
{ACAD_REACTORS
330
13A
102
}
330
13A
100
AcDbXrecord
280
     1
270
     1
271
     1
  0
XRECORD
  5
13E
102
{ACAD_REACTORS
330
13A
102
}
330
13A
100
AcDbXrecord
280
     1
270
     1
271
     1
  0
XRECORD
  5
140
102
{ACAD_REACTORS
330
13A
102
}
330
13A
100
AcDbXrecord
280
     1
270
     1
271
     1
  0
XRECORD
  5
13D
102
{ACAD_REACTORS
330
13A
102
}
330
13A
100
AcDbXrecord
280
     1
270
     1
271
     1
  0
XRECORD
  5
620
102
{ACAD_REACTORS
330
61F
102
}
330
61F
100
AcDbXrecord
280
     1
102
ACAD_ROUNDTRIP_2012_MLEADER_STYLE
298
     1
  0
CELLSTYLEMAP
  5
5E1
102
{ACAD_REACTORS
330
5E0
102
}
330
5E0
100
AcDbCellStyleMap
 90
        3
300
CELLSTYLE
  1
TABLEFORMAT_BEGIN
 90
        5
170
     1
 91
        0
 92
    32768
 62
   257
 93
        1
300
CONTENTFORMAT
  1
CONTENTFORMAT_BEGIN
 90
        0
 91
        0
 92
      512
 93
        0
300

 40
0.0
140
1.0
 94
        5
 62
     0
340
11
144
0.25
309
CONTENTFORMAT_END
171
     0
 94
        0
309
TABLEFORMAT_END
  1
CELLSTYLE_BEGIN
 90
        1
 91
        1
300
_TITLE
309
CELLSTYLE_END
300
CELLSTYLE
  1
TABLEFORMAT_BEGIN
 90
        5
170
     1
 91
        0
 92
        0
 62
   257
 93
        1
300
CONTENTFORMAT
  1
CONTENTFORMAT_BEGIN
 90
        0
 91
        0
 92
      512
 93
        0
300

 40
0.0
140
1.0
 94
        5
 62
     0
340
11
144
0.18
309
CONTENTFORMAT_END
171
     0
 94
        0
309
TABLEFORMAT_END
  1
CELLSTYLE_BEGIN
 90
        2
 91
        1
300
_HEADER
309
CELLSTYLE_END
300
CELLSTYLE
  1
TABLEFORMAT_BEGIN
 90
        5
170
     1
 91
        0
 92
        0
 62
   257
 93
        1
300
CONTENTFORMAT
  1
CONTENTFORMAT_BEGIN
 90
        0
 91
        0
 92
      512
 93
        0
300

 40
0.0
140
1.0
 94
        2
 62
     0
340
11
144
0.18
309
CONTENTFORMAT_END
171
     0
 94
        0
309
TABLEFORMAT_END
  1
CELLSTYLE_BEGIN
 90
        3
 91
        2
300
_DATA
309
CELLSTYLE_END
  0
XRECORD
  5
61D
102
{ACAD_REACTORS
330
5E0
102
}
330
5E0
100
AcDbXrecord
280
     1
102
ACAD_ROUNDTRIP_PRE2007_TABLESTYLE
 90
      512
 91
        0
  1

 92
      512
 93
        0
  2

 94
      512
 95
        0
  3

  0
XRECORD
  5
5F8
102
{ACAD_REACTORS
330
5F7
102
}
330
5F7
100
AcDbXrecord
280
     1
102
RTVSPost2010Prop28
280
     1
102
RTVSPost2010PropOp28
 70
     1
102
RTVSPost2010Prop29
280
     1
102
RTVSPost2010PropOp29
 70
     1
102
RTVSPost2010Prop30
280
     0
102
RTVSPost2010PropOp30
 70
     1
102
RTVSPost2010Prop31
280
     0
102
RTVSPost2010PropOp31
 70
     1
102
RTVSPost2010Prop32
280
     0
102
RTVSPost2010PropOp32
 70
     1
102
RTVSPost2010Prop33
280
     0
102
RTVSPost2010PropOp33
 70
     1
102
RTVSPost2010Prop34
280
     0
102
RTVSPost2010PropOp34
 70
     1
102
RTVSPost2010Prop35
280
     0
102
RTVSPost2010PropOp35
 70
     1
102
RTVSPost2010Prop36
280
     0
102
RTVSPost2010PropOp36
 70
     1
102
RTVSPost2010Prop37
 90
       50
102
RTVSPost2010PropOp37
 70
     1
102
RTVSPost2010Prop38
140
0.0
102
RTVSPost2010PropOp38
 70
     1
102
RTVSPost2010Prop39
140
1.0
102
RTVSPost2010PropOp39
 70
     1
102
RTVSPost2010Prop40
 90
        0
102
RTVSPost2010PropOp40
 70
     1
102
RTVSPost2010Prop41ColorIndex
 90
       18
102
RTVSPost2010Prop41ColorRGB
 90
        0
102
RTVSPost2010PropOp41
 70
     1
102
RTVSPost2010Prop42
 90
       50
102
RTVSPost2010PropOp42
 70
     1
102
RTVSPost2010Prop43
 90
        3
102
RTVSPost2010PropOp43
 70
     1
102
RTVSPost2010Prop44ColorIndex
 90
        5
102
RTVSPost2010Prop44ColorRGB
 90
      255
102
RTVSPost2010PropOp44
 70
     1
102
RTVSPost2010Prop45
280
     0
102
RTVSPost2010PropOp45
 70
     1
102
RTVSPost2010Prop46
 90
       50
102
RTVSPost2010PropOp46
 70
     1
102
RTVSPost2010Prop47
 90
       50
102
RTVSPost2010PropOp47
 70
     1
102
RTVSPost2010Prop48
 90
       50
102
RTVSPost2010PropOp48
 70
     1
102
RTVSPost2010Prop49
280
     0
102
RTVSPost2010PropOp49
 70
     1
102
RTVSPost2010Prop50
 90
       50
102
RTVSPost2010PropOp50
 70
     1
102
RTVSPost2010Prop51ColorIndex
 90
      256
102
RTVSPost2010Prop51ColorRGB
 90
-16777216
102
RTVSPost2010PropOp51
 70
     0
102
RTVSPost2010Prop52
140
1.0
102
RTVSPost2010PropOp52
 70
     0
102
RTVSPost2010Prop53
 90
        2
102
RTVSPost2010PropOp53
 70
     1
102
RTVSPost2010Prop54
  1
strokes_ogs.tif
102
RTVSPost2010PropOp54
 70
     1
102
RTVSPost2010Prop55
280
     0
102
RTVSPost2010PropOp55
 70
     1
102
RTVSPost2010Prop56
140
1.0
102
RTVSPost2010PropOp56
 70
     1
102
RTVSPost2010Prop57
140
1.0
102
RTVSPost2010PropOp57
 70
     1
102
RTVSPropertyOp0
 70
     1
102
RTVSPropertyOp1
 70
     1
102
RTVSPropertyOp2
 70
     1
102
RTVSPropertyOp3
 70
     1
102
RTVSPropertyOp4
 70
     1
102
RTVSPropertyOp5
 70
     1
102
RTVSPropertyOp6
 70
     1
102
RTVSPropertyOp7
 70
     1
102
RTVSPropertyOp8
 70
     1
102
RTVSPropertyOp9
 70
     1
102
RTVSPropertyOp10
 70
     1
102
RTVSPropertyOp11
 70
     1
102
RTVSPropertyOp12
 70
     1
102
RTVSPropertyOp13
 70
     1
102
RTVSPropertyOp14
 70
     1
102
RTVSPropertyOp15
 70
     1
102
RTVSPropertyOp16
 70
     1
102
RTVSPropertyOp17
 70
     1
102
RTVSPropertyOp18
 70
     1
102
RTVSPropertyOp19
 70
     1
102
RTVSPropertyOp20
 70
     1
102
RTVSPropertyOp21
 70
     1
102
RTVSPropertyOp22
 70
     1
102
RTVSPropertyOp23
 70
     1
102
RTVSPropertyOp24
 70
     1
102
RTVSPropertyOp25
 70
     1
102
RTVSPropertyOp26
 70
     1
102
RTVSPropertyOp27
 70
     1
102
RTVSPropertyOp28
 70
     1
102
RTVSPropertyOp29
 70
     1
102
RTVSPropertyOp30
 70
     1
102
RTVSPropertyOp31
 70
     1
102
RTVSPropertyOp32
 70
     1
102
RTVSPropertyOp33
 70
     1
102
RTVSPropertyOp34
 70
     1
102
RTVSPropertyOp35
 70
     1
102
RTVSPropertyOp36
 70
     1
102
RTVSPropertyOp37
 70
     1
102
RTVSPropertyOp38
 70
     1
102
RTVSPropertyOp39
 70
     1
102
RTVSPropertyOp40
 70
     1
102
RTVSPropertyOp41
 70
     1
102
RTVSPropertyOp42
 70
     1
102
RTVSPropertyOp43
 70
     1
102
RTVSPropertyOp44
 70
     1
102
RTVSPropertyOp45
 70
     1
102
RTVSPropertyOp46
 70
     1
102
RTVSPropertyOp47
 70
     1
102
RTVSPropertyOp48
 70
     1
102
RTVSPropertyOp49
 70
     1
102
RTVSPropertyOp50
 70
     1
102
RTVSPropertyOp51
 70
     0
102
RTVSPropertyOp52
 70
     0
102
RTVSPropertyOp53
 70
     1
102
RTVSPropertyOp54
 70
     1
102
RTVSPropertyOp55
 70
     1
102
RTVSPropertyOp56
 70
     1
102
RTVSPropertyOp57
 70
     1
102
RTVSPropertyOp58
 70
     1
102
RTVSPropertyOp59
 70
     1
102
RTVSPropertyOp60
 70
     1
102
RTVSPropertyOp61
 70
     1
102
RTVSPropertyOp62
 70
     1
  0
XRECORD
  5
5F6
102
{ACAD_REACTORS
330
5F5
102
}
330
5F5
100
AcDbXrecord
280
     1
102
RTVSPost2010Prop28
280
     0
102
RTVSPost2010PropOp28
 70
     1
102
RTVSPost2010Prop29
280
     1
102
RTVSPost2010PropOp29
 70
     1
102
RTVSPost2010Prop30
280
     1
102
RTVSPost2010PropOp30
 70
     1
102
RTVSPost2010Prop31
280
     0
102
RTVSPost2010PropOp31
 70
     1
102
RTVSPost2010Prop32
280
     0
102
RTVSPost2010PropOp32
 70
     1
102
RTVSPost2010Prop33
280
     0
102
RTVSPost2010PropOp33
 70
     1
102
RTVSPost2010Prop34
280
     0
102
RTVSPost2010PropOp34
 70
     1
102
RTVSPost2010Prop35
280
     0
102
RTVSPost2010PropOp35
 70
     1
102
RTVSPost2010Prop36
280
     0
102
RTVSPost2010PropOp36
 70
     1
102
RTVSPost2010Prop37
 90
       50
102
RTVSPost2010PropOp37
 70
     1
102
RTVSPost2010Prop38
140
0.0
102
RTVSPost2010PropOp38
 70
     1
102
RTVSPost2010Prop39
140
1.0
102
RTVSPost2010PropOp39
 70
     1
102
RTVSPost2010Prop40
 90
        0
102
RTVSPost2010PropOp40
 70
     1
102
RTVSPost2010Prop41ColorIndex
 90
       18
102
RTVSPost2010Prop41ColorRGB
 90
        0
102
RTVSPost2010PropOp41
 70
     1
102
RTVSPost2010Prop42
 90
       50
102
RTVSPost2010PropOp42
 70
     1
102
RTVSPost2010Prop43
 90
        3
102
RTVSPost2010PropOp43
 70
     1
102
RTVSPost2010Prop44ColorIndex
 90
        5
102
RTVSPost2010Prop44ColorRGB
 90
      255
102
RTVSPost2010PropOp44
 70
     1
102
RTVSPost2010Prop45
280
     0
102
RTVSPost2010PropOp45
 70
     1
102
RTVSPost2010Prop46
 90
       50
102
RTVSPost2010PropOp46
 70
     1
102
RTVSPost2010Prop47
 90
       50
102
RTVSPost2010PropOp47
 70
     1
102
RTVSPost2010Prop48
 90
       50
102
RTVSPost2010PropOp48
 70
     1
102
RTVSPost2010Prop49
280
     0
102
RTVSPost2010PropOp49
 70
     1
102
RTVSPost2010Prop50
 90
       50
102
RTVSPost2010PropOp50
 70
     1
102
RTVSPost2010Prop51ColorIndex
 90
      256
102
RTVSPost2010Prop51ColorRGB
 90
-16777216
102
RTVSPost2010PropOp51
 70
     0
102
RTVSPost2010Prop52
140
1.0
102
RTVSPost2010PropOp52
 70
     0
102
RTVSPost2010Prop53
 90
        2
102
RTVSPost2010PropOp53
 70
     1
102
RTVSPost2010Prop54
  1
strokes_ogs.tif
102
RTVSPost2010PropOp54
 70
     1
102
RTVSPost2010Prop55
280
     0
102
RTVSPost2010PropOp55
 70
     1
102
RTVSPost2010Prop56
140
1.0
102
RTVSPost2010PropOp56
 70
     1
102
RTVSPost2010Prop57
140
1.0
102
RTVSPost2010PropOp57
 70
     1
102
RTVSPropertyOp0
 70
     1
102
RTVSPropertyOp1
 70
     1
102
RTVSPropertyOp2
 70
     1
102
RTVSPropertyOp3
 70
     1
102
RTVSPropertyOp4
 70
     1
102
RTVSPropertyOp5
 70
     1
102
RTVSPropertyOp6
 70
     1
102
RTVSPropertyOp7
 70
     1
102
RTVSPropertyOp8
 70
     1
102
RTVSPropertyOp9
 70
     1
102
RTVSPropertyOp10
 70
     1
102
RTVSPropertyOp11
 70
     1
102
RTVSPropertyOp12
 70
     1
102
RTVSPropertyOp13
 70
     1
102
RTVSPropertyOp14
 70
     1
102
RTVSPropertyOp15
 70
     1
102
RTVSPropertyOp16
 70
     1
102
RTVSPropertyOp17
 70
     1
102
RTVSPropertyOp18
 70
     1
102
RTVSPropertyOp19
 70
     1
102
RTVSPropertyOp20
 70
     1
102
RTVSPropertyOp21
 70
     1
102
RTVSPropertyOp22
 70
     1
102
RTVSPropertyOp23
 70
     1
102
RTVSPropertyOp24
 70
     1
102
RTVSPropertyOp25
 70
     1
102
RTVSPropertyOp26
 70
     1
102
RTVSPropertyOp27
 70
     1
102
RTVSPropertyOp28
 70
     1
102
RTVSPropertyOp29
 70
     1
102
RTVSPropertyOp30
 70
     1
102
RTVSPropertyOp31
 70
     1
102
RTVSPropertyOp32
 70
     1
102
RTVSPropertyOp33
 70
     1
102
RTVSPropertyOp34
 70
     1
102
RTVSPropertyOp35
 70
     1
102
RTVSPropertyOp36
 70
     1
102
RTVSPropertyOp37
 70
     1
102
RTVSPropertyOp38
 70
     1
102
RTVSPropertyOp39
 70
     1
102
RTVSPropertyOp40
 70
     1
102
RTVSPropertyOp41
 70
     1
102
RTVSPropertyOp42
 70
     1
102
RTVSPropertyOp43
 70
     1
102
RTVSPropertyOp44
 70
     1
102
RTVSPropertyOp45
 70
     1
102
RTVSPropertyOp46
 70
     1
102
RTVSPropertyOp47
 70
     1
102
RTVSPropertyOp48
 70
     1
102
RTVSPropertyOp49
 70
     1
102
RTVSPropertyOp50
 70
     1
102
RTVSPropertyOp51
 70
     0
102
RTVSPropertyOp52
 70
     0
102
RTVSPropertyOp53
 70
     1
102
RTVSPropertyOp54
 70
     1
102
RTVSPropertyOp55
 70
     1
102
RTVSPropertyOp56
 70
     1
102
RTVSPropertyOp57
 70
     1
102
RTVSPropertyOp58
 70
     1
102
RTVSPropertyOp59
 70
     1
102
RTVSPropertyOp60
 70
     1
102
RTVSPropertyOp61
 70
     1
102
RTVSPropertyOp62
 70
     1
  0
XRECORD
  5
604
102
{ACAD_REACTORS
330
603
102
}
330
603
100
AcDbXrecord
280
     1
102
RTVSPost2010Prop28
280
     0
102
RTVSPost2010PropOp28
 70
     1
102
RTVSPost2010Prop29
280
     1
102
RTVSPost2010PropOp29
 70
     1
102
RTVSPost2010Prop30
280
     1
102
RTVSPost2010PropOp30
 70
     1
102
RTVSPost2010Prop31
280
     0
102
RTVSPost2010PropOp31
 70
     1
102
RTVSPost2010Prop32
280
     0
102
RTVSPost2010PropOp32
 70
     1
102
RTVSPost2010Prop33
280
     0
102
RTVSPost2010PropOp33
 70
     1
102
RTVSPost2010Prop34
280
     0
102
RTVSPost2010PropOp34
 70
     1
102
RTVSPost2010Prop35
280
     0
102
RTVSPost2010PropOp35
 70
     1
102
RTVSPost2010Prop36
280
     0
102
RTVSPost2010PropOp36
 70
     1
102
RTVSPost2010Prop37
 90
       50
102
RTVSPost2010PropOp37
 70
     1
102
RTVSPost2010Prop38
140
0.0
102
RTVSPost2010PropOp38
 70
     1
102
RTVSPost2010Prop39
140
1.0
102
RTVSPost2010PropOp39
 70
     1
102
RTVSPost2010Prop40
 90
        0
102
RTVSPost2010PropOp40
 70
     1
102
RTVSPost2010Prop41ColorIndex
 90
       18
102
RTVSPost2010Prop41ColorRGB
 90
        0
102
RTVSPost2010PropOp41
 70
     1
102
RTVSPost2010Prop42
 90
       50
102
RTVSPost2010PropOp42
 70
     1
102
RTVSPost2010Prop43
 90
        3
102
RTVSPost2010PropOp43
 70
     1
102
RTVSPost2010Prop44ColorIndex
 90
        5
102
RTVSPost2010Prop44ColorRGB
 90
      255
102
RTVSPost2010PropOp44
 70
     1
102
RTVSPost2010Prop45
280
     0
102
RTVSPost2010PropOp45
 70
     1
102
RTVSPost2010Prop46
 90
       50
102
RTVSPost2010PropOp46
 70
     1
102
RTVSPost2010Prop47
 90
       50
102
RTVSPost2010PropOp47
 70
     1
102
RTVSPost2010Prop48
 90
       50
102
RTVSPost2010PropOp48
 70
     1
102
RTVSPost2010Prop49
280
     0
102
RTVSPost2010PropOp49
 70
     1
102
RTVSPost2010Prop50
 90
       50
102
RTVSPost2010PropOp50
 70
     1
102
RTVSPost2010Prop51ColorIndex
 90
      256
102
RTVSPost2010Prop51ColorRGB
 90
-16777216
102
RTVSPost2010PropOp51
 70
     0
102
RTVSPost2010Prop52
140
1.0
102
RTVSPost2010PropOp52
 70
     0
102
RTVSPost2010Prop53
 90
        2
102
RTVSPost2010PropOp53
 70
     1
102
RTVSPost2010Prop54
  1
strokes_ogs.tif
102
RTVSPost2010PropOp54
 70
     1
102
RTVSPost2010Prop55
280
     0
102
RTVSPost2010PropOp55
 70
     1
102
RTVSPost2010Prop56
140
1.0
102
RTVSPost2010PropOp56
 70
     1
102
RTVSPost2010Prop57
140
1.0
102
RTVSPost2010PropOp57
 70
     1
102
RTVSPropertyOp0
 70
     1
102
RTVSPropertyOp1
 70
     1
102
RTVSPropertyOp2
 70
     1
102
RTVSPropertyOp3
 70
     1
102
RTVSPropertyOp4
 70
     1
102
RTVSPropertyOp5
 70
     1
102
RTVSPropertyOp6
 70
     1
102
RTVSPropertyOp7
 70
     1
102
RTVSPropertyOp8
 70
     1
102
RTVSPropertyOp9
 70
     1
102
RTVSPropertyOp10
 70
     1
102
RTVSPropertyOp11
 70
     1
102
RTVSPropertyOp12
 70
     1
102
RTVSPropertyOp13
 70
     1
102
RTVSPropertyOp14
 70
     1
102
RTVSPropertyOp15
 70
     1
102
RTVSPropertyOp16
 70
     1
102
RTVSPropertyOp17
 70
     1
102
RTVSPropertyOp18
 70
     1
102
RTVSPropertyOp19
 70
     1
102
RTVSPropertyOp20
 70
     1
102
RTVSPropertyOp21
 70
     1
102
RTVSPropertyOp22
 70
     1
102
RTVSPropertyOp23
 70
     1
102
RTVSPropertyOp24
 70
     1
102
RTVSPropertyOp25
 70
     1
102
RTVSPropertyOp26
 70
     1
102
RTVSPropertyOp27
 70
     1
102
RTVSPropertyOp28
 70
     1
102
RTVSPropertyOp29
 70
     1
102
RTVSPropertyOp30
 70
     1
102
RTVSPropertyOp31
 70
     1
102
RTVSPropertyOp32
 70
     1
102
RTVSPropertyOp33
 70
     1
102
RTVSPropertyOp34
 70
     1
102
RTVSPropertyOp35
 70
     1
102
RTVSPropertyOp36
 70
     1
102
RTVSPropertyOp37
 70
     1
102
RTVSPropertyOp38
 70
     1
102
RTVSPropertyOp39
 70
     1
102
RTVSPropertyOp40
 70
     1
102
RTVSPropertyOp41
 70
     1
102
RTVSPropertyOp42
 70
     1
102
RTVSPropertyOp43
 70
     1
102
RTVSPropertyOp44
 70
     1
102
RTVSPropertyOp45
 70
     1
102
RTVSPropertyOp46
 70
     1
102
RTVSPropertyOp47
 70
     1
102
RTVSPropertyOp48
 70
     1
102
RTVSPropertyOp49
 70
     1
102
RTVSPropertyOp50
 70
     1
102
RTVSPropertyOp51
 70
     0
102
RTVSPropertyOp52
 70
     0
102
RTVSPropertyOp53
 70
     1
102
RTVSPropertyOp54
 70
     1
102
RTVSPropertyOp55
 70
     1
102
RTVSPropertyOp56
 70
     1
102
RTVSPropertyOp57
 70
     1
102
RTVSPropertyOp58
 70
     1
102
RTVSPropertyOp59
 70
     1
102
RTVSPropertyOp60
 70
     1
102
RTVSPropertyOp61
 70
     1
102
RTVSPropertyOp62
 70
     1
  0
XRECORD
  5
60C
102
{ACAD_REACTORS
330
60B
102
}
330
60B
100
AcDbXrecord
280
     1
102
RTVSPost2010Prop28
280
     0
102
RTVSPost2010PropOp28
 70
     1
102
RTVSPost2010Prop29
280
     1
102
RTVSPost2010PropOp29
 70
     1
102
RTVSPost2010Prop30
280
     1
102
RTVSPost2010PropOp30
 70
     1
102
RTVSPost2010Prop31
280
     0
102
RTVSPost2010PropOp31
 70
     1
102
RTVSPost2010Prop32
280
     0
102
RTVSPost2010PropOp32
 70
     1
102
RTVSPost2010Prop33
280
     0
102
RTVSPost2010PropOp33
 70
     1
102
RTVSPost2010Prop34
280
     0
102
RTVSPost2010PropOp34
 70
     1
102
RTVSPost2010Prop35
280
     0
102
RTVSPost2010PropOp35
 70
     1
102
RTVSPost2010Prop36
280
     0
102
RTVSPost2010PropOp36
 70
     1
102
RTVSPost2010Prop37
 90
       50
102
RTVSPost2010PropOp37
 70
     1
102
RTVSPost2010Prop38
140
0.0
102
RTVSPost2010PropOp38
 70
     1
102
RTVSPost2010Prop39
140
1.0
102
RTVSPost2010PropOp39
 70
     1
102
RTVSPost2010Prop40
 90
        0
102
RTVSPost2010PropOp40
 70
     1
102
RTVSPost2010Prop41ColorIndex
 90
       18
102
RTVSPost2010Prop41ColorRGB
 90
        0
102
RTVSPost2010PropOp41
 70
     1
102
RTVSPost2010Prop42
 90
       50
102
RTVSPost2010PropOp42
 70
     1
102
RTVSPost2010Prop43
 90
        3
102
RTVSPost2010PropOp43
 70
     1
102
RTVSPost2010Prop44ColorIndex
 90
        5
102
RTVSPost2010Prop44ColorRGB
 90
      255
102
RTVSPost2010PropOp44
 70
     1
102
RTVSPost2010Prop45
280
     0
102
RTVSPost2010PropOp45
 70
     1
102
RTVSPost2010Prop46
 90
       50
102
RTVSPost2010PropOp46
 70
     1
102
RTVSPost2010Prop47
 90
       50
102
RTVSPost2010PropOp47
 70
     1
102
RTVSPost2010Prop48
 90
       50
102
RTVSPost2010PropOp48
 70
     1
102
RTVSPost2010Prop49
280
     0
102
RTVSPost2010PropOp49
 70
     1
102
RTVSPost2010Prop50
 90
       50
102
RTVSPost2010PropOp50
 70
     1
102
RTVSPost2010Prop51ColorIndex
 90
      256
102
RTVSPost2010Prop51ColorRGB
 90
-16777216
102
RTVSPost2010PropOp51
 70
     0
102
RTVSPost2010Prop52
140
1.0
102
RTVSPost2010PropOp52
 70
     0
102
RTVSPost2010Prop53
 90
        2
102
RTVSPost2010PropOp53
 70
     1
102
RTVSPost2010Prop54
  1
strokes_ogs.tif
102
RTVSPost2010PropOp54
 70
     1
102
RTVSPost2010Prop55
280
     0
102
RTVSPost2010PropOp55
 70
     1
102
RTVSPost2010Prop56
140
1.0
102
RTVSPost2010PropOp56
 70
     1
102
RTVSPost2010Prop57
140
1.0
102
RTVSPost2010PropOp57
 70
     1
102
RTVSPropertyOp0
 70
     1
102
RTVSPropertyOp1
 70
     1
102
RTVSPropertyOp2
 70
     1
102
RTVSPropertyOp3
 70
     1
102
RTVSPropertyOp4
 70
     1
102
RTVSPropertyOp5
 70
     1
102
RTVSPropertyOp6
 70
     1
102
RTVSPropertyOp7
 70
     1
102
RTVSPropertyOp8
 70
     1
102
RTVSPropertyOp9
 70
     1
102
RTVSPropertyOp10
 70
     1
102
RTVSPropertyOp11
 70
     1
102
RTVSPropertyOp12
 70
     1
102
RTVSPropertyOp13
 70
     1
102
RTVSPropertyOp14
 70
     1
102
RTVSPropertyOp15
 70
     1
102
RTVSPropertyOp16
 70
     1
102
RTVSPropertyOp17
 70
     1
102
RTVSPropertyOp18
 70
     1
102
RTVSPropertyOp19
 70
     1
102
RTVSPropertyOp20
 70
     1
102
RTVSPropertyOp21
 70
     1
102
RTVSPropertyOp22
 70
     1
102
RTVSPropertyOp23
 70
     1
102
RTVSPropertyOp24
 70
     1
102
RTVSPropertyOp25
 70
     1
102
RTVSPropertyOp26
 70
     1
102
RTVSPropertyOp27
 70
     1
102
RTVSPropertyOp28
 70
     1
102
RTVSPropertyOp29
 70
     1
102
RTVSPropertyOp30
 70
     1
102
RTVSPropertyOp31
 70
     1
102
RTVSPropertyOp32
 70
     1
102
RTVSPropertyOp33
 70
     1
102
RTVSPropertyOp34
 70
     1
102
RTVSPropertyOp35
 70
     1
102
RTVSPropertyOp36
 70
     1
102
RTVSPropertyOp37
 70
     1
102
RTVSPropertyOp38
 70
     1
102
RTVSPropertyOp39
 70
     1
102
RTVSPropertyOp40
 70
     1
102
RTVSPropertyOp41
 70
     1
102
RTVSPropertyOp42
 70
     1
102
RTVSPropertyOp43
 70
     1
102
RTVSPropertyOp44
 70
     1
102
RTVSPropertyOp45
 70
     1
102
RTVSPropertyOp46
 70
     1
102
RTVSPropertyOp47
 70
     1
102
RTVSPropertyOp48
 70
     1
102
RTVSPropertyOp49
 70
     1
102
RTVSPropertyOp50
 70
     1
102
RTVSPropertyOp51
 70
     0
102
RTVSPropertyOp52
 70
     0
102
RTVSPropertyOp53
 70
     1
102
RTVSPropertyOp54
 70
     1
102
RTVSPropertyOp55
 70
     1
102
RTVSPropertyOp56
 70
     1
102
RTVSPropertyOp57
 70
     1
102
RTVSPropertyOp58
 70
     1
102
RTVSPropertyOp59
 70
     1
102
RTVSPropertyOp60
 70
     1
102
RTVSPropertyOp61
 70
     1
102
RTVSPropertyOp62
 70
     1
  0
XRECORD
  5
5FE
102
{ACAD_REACTORS
330
5FD
102
}
330
5FD
100
AcDbXrecord
280
     1
102
RTVSPost2010Prop28
280
     0
102
RTVSPost2010PropOp28
 70
     1
102
RTVSPost2010Prop29
280
     1
102
RTVSPost2010PropOp29
 70
     1
102
RTVSPost2010Prop30
280
     1
102
RTVSPost2010PropOp30
 70
     1
102
RTVSPost2010Prop31
280
     0
102
RTVSPost2010PropOp31
 70
     1
102
RTVSPost2010Prop32
280
     0
102
RTVSPost2010PropOp32
 70
     1
102
RTVSPost2010Prop33
280
     0
102
RTVSPost2010PropOp33
 70
     1
102
RTVSPost2010Prop34
280
     0
102
RTVSPost2010PropOp34
 70
     1
102
RTVSPost2010Prop35
280
     0
102
RTVSPost2010PropOp35
 70
     1
102
RTVSPost2010Prop36
280
     0
102
RTVSPost2010PropOp36
 70
     1
102
RTVSPost2010Prop37
 90
       50
102
RTVSPost2010PropOp37
 70
     1
102
RTVSPost2010Prop38
140
0.0
102
RTVSPost2010PropOp38
 70
     1
102
RTVSPost2010Prop39
140
1.0
102
RTVSPost2010PropOp39
 70
     1
102
RTVSPost2010Prop40
 90
        0
102
RTVSPost2010PropOp40
 70
     1
102
RTVSPost2010Prop41ColorIndex
 90
       18
102
RTVSPost2010Prop41ColorRGB
 90
        0
102
RTVSPost2010PropOp41
 70
     1
102
RTVSPost2010Prop42
 90
       50
102
RTVSPost2010PropOp42
 70
     1
102
RTVSPost2010Prop43
 90
        3
102
RTVSPost2010PropOp43
 70
     1
102
RTVSPost2010Prop44ColorIndex
 90
        5
102
RTVSPost2010Prop44ColorRGB
 90
      255
102
RTVSPost2010PropOp44
 70
     1
102
RTVSPost2010Prop45
280
     0
102
RTVSPost2010PropOp45
 70
     1
102
RTVSPost2010Prop46
 90
       50
102
RTVSPost2010PropOp46
 70
     1
102
RTVSPost2010Prop47
 90
       50
102
RTVSPost2010PropOp47
 70
     1
102
RTVSPost2010Prop48
 90
       50
102
RTVSPost2010PropOp48
 70
     1
102
RTVSPost2010Prop49
280
     0
102
RTVSPost2010PropOp49
 70
     1
102
RTVSPost2010Prop50
 90
       50
102
RTVSPost2010PropOp50
 70
     1
102
RTVSPost2010Prop51ColorIndex
 90
      256
102
RTVSPost2010Prop51ColorRGB
 90
-16777216
102
RTVSPost2010PropOp51
 70
     0
102
RTVSPost2010Prop52
140
1.0
102
RTVSPost2010PropOp52
 70
     0
102
RTVSPost2010Prop53
 90
        2
102
RTVSPost2010PropOp53
 70
     1
102
RTVSPost2010Prop54
  1
strokes_ogs.tif
102
RTVSPost2010PropOp54
 70
     1
102
RTVSPost2010Prop55
280
     0
102
RTVSPost2010PropOp55
 70
     1
102
RTVSPost2010Prop56
140
1.0
102
RTVSPost2010PropOp56
 70
     1
102
RTVSPost2010Prop57
140
1.0
102
RTVSPost2010PropOp57
 70
     1
102
RTVSPropertyOp0
 70
     1
102
RTVSPropertyOp1
 70
     1
102
RTVSPropertyOp2
 70
     1
102
RTVSPropertyOp3
 70
     1
102
RTVSPropertyOp4
 70
     1
102
RTVSPropertyOp5
 70
     1
102
RTVSPropertyOp6
 70
     1
102
RTVSPropertyOp7
 70
     1
102
RTVSPropertyOp8
 70
     1
102
RTVSPropertyOp9
 70
     1
102
RTVSPropertyOp10
 70
     1
102
RTVSPropertyOp11
 70
     1
102
RTVSPropertyOp12
 70
     1
102
RTVSPropertyOp13
 70
     1
102
RTVSPropertyOp14
 70
     1
102
RTVSPropertyOp15
 70
     1
102
RTVSPropertyOp16
 70
     1
102
RTVSPropertyOp17
 70
     1
102
RTVSPropertyOp18
 70
     1
102
RTVSPropertyOp19
 70
     1
102
RTVSPropertyOp20
 70
     1
102
RTVSPropertyOp21
 70
     1
102
RTVSPropertyOp22
 70
     1
102
RTVSPropertyOp23
 70
     1
102
RTVSPropertyOp24
 70
     1
102
RTVSPropertyOp25
 70
     1
102
RTVSPropertyOp26
 70
     1
102
RTVSPropertyOp27
 70
     1
102
RTVSPropertyOp28
 70
     1
102
RTVSPropertyOp29
 70
     1
102
RTVSPropertyOp30
 70
     1
102
RTVSPropertyOp31
 70
     1
102
RTVSPropertyOp32
 70
     1
102
RTVSPropertyOp33
 70
     1
102
RTVSPropertyOp34
 70
     1
102
RTVSPropertyOp35
 70
     1
102
RTVSPropertyOp36
 70
     1
102
RTVSPropertyOp37
 70
     1
102
RTVSPropertyOp38
 70
     1
102
RTVSPropertyOp39
 70
     1
102
RTVSPropertyOp40
 70
     1
102
RTVSPropertyOp41
 70
     1
102
RTVSPropertyOp42
 70
     1
102
RTVSPropertyOp43
 70
     1
102
RTVSPropertyOp44
 70
     1
102
RTVSPropertyOp45
 70
     1
102
RTVSPropertyOp46
 70
     1
102
RTVSPropertyOp47
 70
     1
102
RTVSPropertyOp48
 70
     1
102
RTVSPropertyOp49
 70
     1
102
RTVSPropertyOp50
 70
     1
102
RTVSPropertyOp51
 70
     0
102
RTVSPropertyOp52
 70
     0
102
RTVSPropertyOp53
 70
     1
102
RTVSPropertyOp54
 70
     1
102
RTVSPropertyOp55
 70
     1
102
RTVSPropertyOp56
 70
     1
102
RTVSPropertyOp57
 70
     1
102
RTVSPropertyOp58
 70
     1
102
RTVSPropertyOp59
 70
     1
102
RTVSPropertyOp60
 70
     1
102
RTVSPropertyOp61
 70
     1
102
RTVSPropertyOp62
 70
     1
  0
XRECORD
  5
602
102
{ACAD_REACTORS
330
601
102
}
330
601
100
AcDbXrecord
280
     1
102
RTVSPost2010Prop28
280
     0
102
RTVSPost2010PropOp28
 70
     1
102
RTVSPost2010Prop29
280
     1
102
RTVSPost2010PropOp29
 70
     1
102
RTVSPost2010Prop30
280
     1
102
RTVSPost2010PropOp30
 70
     1
102
RTVSPost2010Prop31
280
     0
102
RTVSPost2010PropOp31
 70
     1
102
RTVSPost2010Prop32
280
     0
102
RTVSPost2010PropOp32
 70
     1
102
RTVSPost2010Prop33
280
     0
102
RTVSPost2010PropOp33
 70
     1
102
RTVSPost2010Prop34
280
     0
102
RTVSPost2010PropOp34
 70
     1
102
RTVSPost2010Prop35
280
     0
102
RTVSPost2010PropOp35
 70
     1
102
RTVSPost2010Prop36
280
     0
102
RTVSPost2010PropOp36
 70
     1
102
RTVSPost2010Prop37
 90
       50
102
RTVSPost2010PropOp37
 70
     1
102
RTVSPost2010Prop38
140
0.0
102
RTVSPost2010PropOp38
 70
     1
102
RTVSPost2010Prop39
140
1.0
102
RTVSPost2010PropOp39
 70
     1
102
RTVSPost2010Prop40
 90
        0
102
RTVSPost2010PropOp40
 70
     1
102
RTVSPost2010Prop41ColorIndex
 90
       18
102
RTVSPost2010Prop41ColorRGB
 90
        0
102
RTVSPost2010PropOp41
 70
     1
102
RTVSPost2010Prop42
 90
       50
102
RTVSPost2010PropOp42
 70
     1
102
RTVSPost2010Prop43
 90
        3
102
RTVSPost2010PropOp43
 70
     1
102
RTVSPost2010Prop44ColorIndex
 90
        5
102
RTVSPost2010Prop44ColorRGB
 90
      255
102
RTVSPost2010PropOp44
 70
     1
102
RTVSPost2010Prop45
280
     0
102
RTVSPost2010PropOp45
 70
     1
102
RTVSPost2010Prop46
 90
       50
102
RTVSPost2010PropOp46
 70
     1
102
RTVSPost2010Prop47
 90
       50
102
RTVSPost2010PropOp47
 70
     1
102
RTVSPost2010Prop48
 90
       50
102
RTVSPost2010PropOp48
 70
     1
102
RTVSPost2010Prop49
280
     0
102
RTVSPost2010PropOp49
 70
     1
102
RTVSPost2010Prop50
 90
       50
102
RTVSPost2010PropOp50
 70
     1
102
RTVSPost2010Prop51ColorIndex
 90
      256
102
RTVSPost2010Prop51ColorRGB
 90
-16777216
102
RTVSPost2010PropOp51
 70
     0
102
RTVSPost2010Prop52
140
1.0
102
RTVSPost2010PropOp52
 70
     0
102
RTVSPost2010Prop53
 90
        2
102
RTVSPost2010PropOp53
 70
     1
102
RTVSPost2010Prop54
  1
strokes_ogs.tif
102
RTVSPost2010PropOp54
 70
     1
102
RTVSPost2010Prop55
280
     0
102
RTVSPost2010PropOp55
 70
     1
102
RTVSPost2010Prop56
140
1.0
102
RTVSPost2010PropOp56
 70
     1
102
RTVSPost2010Prop57
140
1.0
102
RTVSPost2010PropOp57
 70
     1
102
RTVSPropertyOp0
 70
     1
102
RTVSPropertyOp1
 70
     1
102
RTVSPropertyOp2
 70
     1
102
RTVSPropertyOp3
 70
     1
102
RTVSPropertyOp4
 70
     1
102
RTVSPropertyOp5
 70
     1
102
RTVSPropertyOp6
 70
     1
102
RTVSPropertyOp7
 70
     1
102
RTVSPropertyOp8
 70
     1
102
RTVSPropertyOp9
 70
     1
102
RTVSPropertyOp10
 70
     1
102
RTVSPropertyOp11
 70
     1
102
RTVSPropertyOp12
 70
     1
102
RTVSPropertyOp13
 70
     1
102
RTVSPropertyOp14
 70
     1
102
RTVSPropertyOp15
 70
     1
102
RTVSPropertyOp16
 70
     1
102
RTVSPropertyOp17
 70
     1
102
RTVSPropertyOp18
 70
     1
102
RTVSPropertyOp19
 70
     1
102
RTVSPropertyOp20
 70
     1
102
RTVSPropertyOp21
 70
     1
102
RTVSPropertyOp22
 70
     1
102
RTVSPropertyOp23
 70
     1
102
RTVSPropertyOp24
 70
     1
102
RTVSPropertyOp25
 70
     1
102
RTVSPropertyOp26
 70
     1
102
RTVSPropertyOp27
 70
     1
102
RTVSPropertyOp28
 70
     1
102
RTVSPropertyOp29
 70
     1
102
RTVSPropertyOp30
 70
     1
102
RTVSPropertyOp31
 70
     1
102
RTVSPropertyOp32
 70
     1
102
RTVSPropertyOp33
 70
     1
102
RTVSPropertyOp34
 70
     1
102
RTVSPropertyOp35
 70
     1
102
RTVSPropertyOp36
 70
     1
102
RTVSPropertyOp37
 70
     1
102
RTVSPropertyOp38
 70
     1
102
RTVSPropertyOp39
 70
     1
102
RTVSPropertyOp40
 70
     1
102
RTVSPropertyOp41
 70
     1
102
RTVSPropertyOp42
 70
     1
102
RTVSPropertyOp43
 70
     1
102
RTVSPropertyOp44
 70
     1
102
RTVSPropertyOp45
 70
     1
102
RTVSPropertyOp46
 70
     1
102
RTVSPropertyOp47
 70
     1
102
RTVSPropertyOp48
 70
     1
102
RTVSPropertyOp49
 70
     1
102
RTVSPropertyOp50
 70
     1
102
RTVSPropertyOp51
 70
     0
102
RTVSPropertyOp52
 70
     0
102
RTVSPropertyOp53
 70
     1
102
RTVSPropertyOp54
 70
     1
102
RTVSPropertyOp55
 70
     1
102
RTVSPropertyOp56
 70
     1
102
RTVSPropertyOp57
 70
     1
102
RTVSPropertyOp58
 70
     1
102
RTVSPropertyOp59
 70
     1
102
RTVSPropertyOp60
 70
     1
102
RTVSPropertyOp61
 70
     1
102
RTVSPropertyOp62
 70
     1
  0
XRECORD
  5
61C
102
{ACAD_REACTORS
330
61B
102
}
330
61B
100
AcDbXrecord
280
     1
102
RTVSPost2010Prop28
280
     0
102
RTVSPost2010PropOp28
 70
     0
102
RTVSPost2010Prop29
280
     1
102
RTVSPost2010PropOp29
 70
     0
102
RTVSPost2010Prop30
280
     1
102
RTVSPost2010PropOp30
 70
     0
102
RTVSPost2010Prop31
280
     0
102
RTVSPost2010PropOp31
 70
     0
102
RTVSPost2010Prop32
280
     0
102
RTVSPost2010PropOp32
 70
     0
102
RTVSPost2010Prop33
280
     0
102
RTVSPost2010PropOp33
 70
     0
102
RTVSPost2010Prop34
280
     0
102
RTVSPost2010PropOp34
 70
     0
102
RTVSPost2010Prop35
280
     0
102
RTVSPost2010PropOp35
 70
     0
102
RTVSPost2010Prop36
280
     0
102
RTVSPost2010PropOp36
 70
     0
102
RTVSPost2010Prop37
 90
       50
102
RTVSPost2010PropOp37
 70
     0
102
RTVSPost2010Prop38
140
0.0
102
RTVSPost2010PropOp38
 70
     0
102
RTVSPost2010Prop39
140
1.0
102
RTVSPost2010PropOp39
 70
     0
102
RTVSPost2010Prop40
 90
        0
102
RTVSPost2010PropOp40
 70
     0
102
RTVSPost2010Prop41ColorIndex
 90
       18
102
RTVSPost2010Prop41ColorRGB
 90
        0
102
RTVSPost2010PropOp41
 70
     0
102
RTVSPost2010Prop42
 90
       50
102
RTVSPost2010PropOp42
 70
     0
102
RTVSPost2010Prop43
 90
        3
102
RTVSPost2010PropOp43
 70
     0
102
RTVSPost2010Prop44ColorIndex
 90
        5
102
RTVSPost2010Prop44ColorRGB
 90
      255
102
RTVSPost2010PropOp44
 70
     0
102
RTVSPost2010Prop45
280
     0
102
RTVSPost2010PropOp45
 70
     0
102
RTVSPost2010Prop46
 90
       50
102
RTVSPost2010PropOp46
 70
     0
102
RTVSPost2010Prop47
 90
       50
102
RTVSPost2010PropOp47
 70
     0
102
RTVSPost2010Prop48
 90
       50
102
RTVSPost2010PropOp48
 70
     0
102
RTVSPost2010Prop49
280
     0
102
RTVSPost2010PropOp49
 70
     0
102
RTVSPost2010Prop50
 90
       50
102
RTVSPost2010PropOp50
 70
     0
102
RTVSPost2010Prop51ColorIndex
 90
      256
102
RTVSPost2010Prop51ColorRGB
 90
-16777216
102
RTVSPost2010PropOp51
 70
     0
102
RTVSPost2010Prop52
140
1.0
102
RTVSPost2010PropOp52
 70
     0
102
RTVSPost2010Prop53
 90
        2
102
RTVSPost2010PropOp53
 70
     0
102
RTVSPost2010Prop54
  1
strokes_ogs.tif
102
RTVSPost2010PropOp54
 70
     0
102
RTVSPost2010Prop55
280
     0
102
RTVSPost2010PropOp55
 70
     0
102
RTVSPost2010Prop56
140
1.0
102
RTVSPost2010PropOp56
 70
     0
102
RTVSPost2010Prop57
140
1.0
102
RTVSPost2010PropOp57
 70
     0
102
RTVSPropertyOp0
 70
     0
102
RTVSPropertyOp1
 70
     0
102
RTVSPropertyOp2
 70
     0
102
RTVSPropertyOp3
 70
     0
102
RTVSPropertyOp4
 70
     0
102
RTVSPropertyOp5
 70
     0
102
RTVSPropertyOp6
 70
     0
102
RTVSPropertyOp7
 70
     0
102
RTVSPropertyOp8
 70
     0
102
RTVSPropertyOp9
 70
     0
102
RTVSPropertyOp10
 70
     0
102
RTVSPropertyOp11
 70
     0
102
RTVSPropertyOp12
 70
     0
102
RTVSPropertyOp13
 70
     0
102
RTVSPropertyOp14
 70
     2
102
RTVSPropertyOp15
 70
     0
102
RTVSPropertyOp16
 70
     0
102
RTVSPropertyOp17
 70
     0
102
RTVSPropertyOp18
 70
     0
102
RTVSPropertyOp19
 70
     0
102
RTVSPropertyOp20
 70
     0
102
RTVSPropertyOp21
 70
     0
102
RTVSPropertyOp22
 70
     0
102
RTVSPropertyOp23
 70
     0
102
RTVSPropertyOp24
 70
     0
102
RTVSPropertyOp25
 70
     0
102
RTVSPropertyOp26
 70
     0
102
RTVSPropertyOp27
 70
     0
102
RTVSPropertyOp28
 70
     0
102
RTVSPropertyOp29
 70
     0
102
RTVSPropertyOp30
 70
     0
102
RTVSPropertyOp31
 70
     0
102
RTVSPropertyOp32
 70
     0
102
RTVSPropertyOp33
 70
     0
102
RTVSPropertyOp34
 70
     0
102
RTVSPropertyOp35
 70
     0
102
RTVSPropertyOp36
 70
     0
102
RTVSPropertyOp37
 70
     0
102
RTVSPropertyOp38
 70
     0
102
RTVSPropertyOp39
 70
     0
102
RTVSPropertyOp40
 70
     0
102
RTVSPropertyOp41
 70
     0
102
RTVSPropertyOp42
 70
     0
102
RTVSPropertyOp43
 70
     0
102
RTVSPropertyOp44
 70
     0
102
RTVSPropertyOp45
 70
     0
102
RTVSPropertyOp46
 70
     0
102
RTVSPropertyOp47
 70
     0
102
RTVSPropertyOp48
 70
     0
102
RTVSPropertyOp49
 70
     0
102
RTVSPropertyOp50
 70
     0
102
RTVSPropertyOp51
 70
     0
102
RTVSPropertyOp52
 70
     0
102
RTVSPropertyOp53
 70
     0
102
RTVSPropertyOp54
 70
     0
102
RTVSPropertyOp55
 70
     0
102
RTVSPropertyOp56
 70
     0
102
RTVSPropertyOp57
 70
     0
102
RTVSPropertyOp58
 70
     0
102
RTVSPropertyOp59
 70
     0
102
RTVSPropertyOp60
 70
     0
102
RTVSPropertyOp61
 70
     0
102
RTVSPropertyOp62
 70
     0
  0
XRECORD
  5
60A
102
{ACAD_REACTORS
330
609
102
}
330
609
100
AcDbXrecord
280
     1
102
RTVSPost2010Prop28
280
     0
102
RTVSPost2010PropOp28
 70
     1
102
RTVSPost2010Prop29
280
     1
102
RTVSPost2010PropOp29
 70
     1
102
RTVSPost2010Prop30
280
     1
102
RTVSPost2010PropOp30
 70
     1
102
RTVSPost2010Prop31
280
     0
102
RTVSPost2010PropOp31
 70
     1
102
RTVSPost2010Prop32
280
     0
102
RTVSPost2010PropOp32
 70
     1
102
RTVSPost2010Prop33
280
     0
102
RTVSPost2010PropOp33
 70
     1
102
RTVSPost2010Prop34
280
     0
102
RTVSPost2010PropOp34
 70
     1
102
RTVSPost2010Prop35
280
     0
102
RTVSPost2010PropOp35
 70
     1
102
RTVSPost2010Prop36
280
     0
102
RTVSPost2010PropOp36
 70
     1
102
RTVSPost2010Prop37
 90
       50
102
RTVSPost2010PropOp37
 70
     1
102
RTVSPost2010Prop38
140
0.0
102
RTVSPost2010PropOp38
 70
     1
102
RTVSPost2010Prop39
140
1.0
102
RTVSPost2010PropOp39
 70
     1
102
RTVSPost2010Prop40
 90
        0
102
RTVSPost2010PropOp40
 70
     1
102
RTVSPost2010Prop41ColorIndex
 90
       18
102
RTVSPost2010Prop41ColorRGB
 90
        0
102
RTVSPost2010PropOp41
 70
     1
102
RTVSPost2010Prop42
 90
       50
102
RTVSPost2010PropOp42
 70
     1
102
RTVSPost2010Prop43
 90
        3
102
RTVSPost2010PropOp43
 70
     1
102
RTVSPost2010Prop44ColorIndex
 90
        5
102
RTVSPost2010Prop44ColorRGB
 90
      255
102
RTVSPost2010PropOp44
 70
     1
102
RTVSPost2010Prop45
280
     0
102
RTVSPost2010PropOp45
 70
     1
102
RTVSPost2010Prop46
 90
       50
102
RTVSPost2010PropOp46
 70
     1
102
RTVSPost2010Prop47
 90
       50
102
RTVSPost2010PropOp47
 70
     1
102
RTVSPost2010Prop48
 90
       50
102
RTVSPost2010PropOp48
 70
     1
102
RTVSPost2010Prop49
280
     0
102
RTVSPost2010PropOp49
 70
     1
102
RTVSPost2010Prop50
 90
       50
102
RTVSPost2010PropOp50
 70
     1
102
RTVSPost2010Prop51ColorIndex
 90
      256
102
RTVSPost2010Prop51ColorRGB
 90
-16777216
102
RTVSPost2010PropOp51
 70
     0
102
RTVSPost2010Prop52
140
1.0
102
RTVSPost2010PropOp52
 70
     0
102
RTVSPost2010Prop53
 90
        2
102
RTVSPost2010PropOp53
 70
     1
102
RTVSPost2010Prop54
  1
strokes_ogs.tif
102
RTVSPost2010PropOp54
 70
     1
102
RTVSPost2010Prop55
280
     0
102
RTVSPost2010PropOp55
 70
     1
102
RTVSPost2010Prop56
140
1.0
102
RTVSPost2010PropOp56
 70
     1
102
RTVSPost2010Prop57
140
1.0
102
RTVSPost2010PropOp57
 70
     1
102
RTVSPropertyOp0
 70
     1
102
RTVSPropertyOp1
 70
     1
102
RTVSPropertyOp2
 70
     1
102
RTVSPropertyOp3
 70
     1
102
RTVSPropertyOp4
 70
     1
102
RTVSPropertyOp5
 70
     1
102
RTVSPropertyOp6
 70
     1
102
RTVSPropertyOp7
 70
     1
102
RTVSPropertyOp8
 70
     1
102
RTVSPropertyOp9
 70
     1
102
RTVSPropertyOp10
 70
     1
102
RTVSPropertyOp11
 70
     1
102
RTVSPropertyOp12
 70
     1
102
RTVSPropertyOp13
 70
     1
102
RTVSPropertyOp14
 70
     1
102
RTVSPropertyOp15
 70
     1
102
RTVSPropertyOp16
 70
     1
102
RTVSPropertyOp17
 70
     1
102
RTVSPropertyOp18
 70
     1
102
RTVSPropertyOp19
 70
     1
102
RTVSPropertyOp20
 70
     1
102
RTVSPropertyOp21
 70
     1
102
RTVSPropertyOp22
 70
     1
102
RTVSPropertyOp23
 70
     1
102
RTVSPropertyOp24
 70
     1
102
RTVSPropertyOp25
 70
     1
102
RTVSPropertyOp26
 70
     1
102
RTVSPropertyOp27
 70
     1
102
RTVSPropertyOp28
 70
     1
102
RTVSPropertyOp29
 70
     1
102
RTVSPropertyOp30
 70
     1
102
RTVSPropertyOp31
 70
     1
102
RTVSPropertyOp32
 70
     1
102
RTVSPropertyOp33
 70
     1
102
RTVSPropertyOp34
 70
     1
102
RTVSPropertyOp35
 70
     1
102
RTVSPropertyOp36
 70
     1
102
RTVSPropertyOp37
 70
     1
102
RTVSPropertyOp38
 70
     1
102
RTVSPropertyOp39
 70
     1
102
RTVSPropertyOp40
 70
     1
102
RTVSPropertyOp41
 70
     1
102
RTVSPropertyOp42
 70
     1
102
RTVSPropertyOp43
 70
     1
102
RTVSPropertyOp44
 70
     1
102
RTVSPropertyOp45
 70
     1
102
RTVSPropertyOp46
 70
     1
102
RTVSPropertyOp47
 70
     1
102
RTVSPropertyOp48
 70
     1
102
RTVSPropertyOp49
 70
     1
102
RTVSPropertyOp50
 70
     1
102
RTVSPropertyOp51
 70
     0
102
RTVSPropertyOp52
 70
     0
102
RTVSPropertyOp53
 70
     1
102
RTVSPropertyOp54
 70
     1
102
RTVSPropertyOp55
 70
     1
102
RTVSPropertyOp56
 70
     1
102
RTVSPropertyOp57
 70
     1
102
RTVSPropertyOp58
 70
     1
102
RTVSPropertyOp59
 70
     1
102
RTVSPropertyOp60
 70
     1
102
RTVSPropertyOp61
 70
     1
102
RTVSPropertyOp62
 70
     1
  0
XRECORD
  5
5EE
102
{ACAD_REACTORS
330
5ED
102
}
330
5ED
100
AcDbXrecord
280
     1
102
RTVSPost2010Prop28
280
     0
102
RTVSPost2010PropOp28
 70
     1
102
RTVSPost2010Prop29
280
     1
102
RTVSPost2010PropOp29
 70
     1
102
RTVSPost2010Prop30
280
     1
102
RTVSPost2010PropOp30
 70
     1
102
RTVSPost2010Prop31
280
     0
102
RTVSPost2010PropOp31
 70
     1
102
RTVSPost2010Prop32
280
     0
102
RTVSPost2010PropOp32
 70
     1
102
RTVSPost2010Prop33
280
     0
102
RTVSPost2010PropOp33
 70
     1
102
RTVSPost2010Prop34
280
     0
102
RTVSPost2010PropOp34
 70
     1
102
RTVSPost2010Prop35
280
     0
102
RTVSPost2010PropOp35
 70
     1
102
RTVSPost2010Prop36
280
     0
102
RTVSPost2010PropOp36
 70
     1
102
RTVSPost2010Prop37
 90
       50
102
RTVSPost2010PropOp37
 70
     1
102
RTVSPost2010Prop38
140
0.0
102
RTVSPost2010PropOp38
 70
     1
102
RTVSPost2010Prop39
140
1.0
102
RTVSPost2010PropOp39
 70
     1
102
RTVSPost2010Prop40
 90
        0
102
RTVSPost2010PropOp40
 70
     1
102
RTVSPost2010Prop41ColorIndex
 90
       18
102
RTVSPost2010Prop41ColorRGB
 90
        0
102
RTVSPost2010PropOp41
 70
     1
102
RTVSPost2010Prop42
 90
       50
102
RTVSPost2010PropOp42
 70
     1
102
RTVSPost2010Prop43
 90
        3
102
RTVSPost2010PropOp43
 70
     1
102
RTVSPost2010Prop44ColorIndex
 90
        5
102
RTVSPost2010Prop44ColorRGB
 90
      255
102
RTVSPost2010PropOp44
 70
     1
102
RTVSPost2010Prop45
280
     0
102
RTVSPost2010PropOp45
 70
     1
102
RTVSPost2010Prop46
 90
       50
102
RTVSPost2010PropOp46
 70
     1
102
RTVSPost2010Prop47
 90
       50
102
RTVSPost2010PropOp47
 70
     1
102
RTVSPost2010Prop48
 90
       50
102
RTVSPost2010PropOp48
 70
     1
102
RTVSPost2010Prop49
280
     0
102
RTVSPost2010PropOp49
 70
     1
102
RTVSPost2010Prop50
 90
       50
102
RTVSPost2010PropOp50
 70
     1
102
RTVSPost2010Prop51ColorIndex
 90
      256
102
RTVSPost2010Prop51ColorRGB
 90
-16777216
102
RTVSPost2010PropOp51
 70
     0
102
RTVSPost2010Prop52
140
1.0
102
RTVSPost2010PropOp52
 70
     0
102
RTVSPost2010Prop53
 90
        2
102
RTVSPost2010PropOp53
 70
     1
102
RTVSPost2010Prop54
  1
strokes_ogs.tif
102
RTVSPost2010PropOp54
 70
     1
102
RTVSPost2010Prop55
280
     0
102
RTVSPost2010PropOp55
 70
     1
102
RTVSPost2010Prop56
140
1.0
102
RTVSPost2010PropOp56
 70
     1
102
RTVSPost2010Prop57
140
1.0
102
RTVSPost2010PropOp57
 70
     1
102
RTVSPropertyOp0
 70
     1
102
RTVSPropertyOp1
 70
     1
102
RTVSPropertyOp2
 70
     1
102
RTVSPropertyOp3
 70
     1
102
RTVSPropertyOp4
 70
     1
102
RTVSPropertyOp5
 70
     1
102
RTVSPropertyOp6
 70
     1
102
RTVSPropertyOp7
 70
     1
102
RTVSPropertyOp8
 70
     1
102
RTVSPropertyOp9
 70
     1
102
RTVSPropertyOp10
 70
     1
102
RTVSPropertyOp11
 70
     1
102
RTVSPropertyOp12
 70
     1
102
RTVSPropertyOp13
 70
     1
102
RTVSPropertyOp14
 70
     1
102
RTVSPropertyOp15
 70
     1
102
RTVSPropertyOp16
 70
     1
102
RTVSPropertyOp17
 70
     1
102
RTVSPropertyOp18
 70
     1
102
RTVSPropertyOp19
 70
     1
102
RTVSPropertyOp20
 70
     1
102
RTVSPropertyOp21
 70
     1
102
RTVSPropertyOp22
 70
     1
102
RTVSPropertyOp23
 70
     1
102
RTVSPropertyOp24
 70
     1
102
RTVSPropertyOp25
 70
     1
102
RTVSPropertyOp26
 70
     1
102
RTVSPropertyOp27
 70
     1
102
RTVSPropertyOp28
 70
     1
102
RTVSPropertyOp29
 70
     1
102
RTVSPropertyOp30
 70
     1
102
RTVSPropertyOp31
 70
     1
102
RTVSPropertyOp32
 70
     1
102
RTVSPropertyOp33
 70
     1
102
RTVSPropertyOp34
 70
     1
102
RTVSPropertyOp35
 70
     1
102
RTVSPropertyOp36
 70
     1
102
RTVSPropertyOp37
 70
     1
102
RTVSPropertyOp38
 70
     1
102
RTVSPropertyOp39
 70
     1
102
RTVSPropertyOp40
 70
     1
102
RTVSPropertyOp41
 70
     1
102
RTVSPropertyOp42
 70
     1
102
RTVSPropertyOp43
 70
     1
102
RTVSPropertyOp44
 70
     1
102
RTVSPropertyOp45
 70
     1
102
RTVSPropertyOp46
 70
     1
102
RTVSPropertyOp47
 70
     1
102
RTVSPropertyOp48
 70
     1
102
RTVSPropertyOp49
 70
     1
102
RTVSPropertyOp50
 70
     1
102
RTVSPropertyOp51
 70
     0
102
RTVSPropertyOp52
 70
     0
102
RTVSPropertyOp53
 70
     1
102
RTVSPropertyOp54
 70
     1
102
RTVSPropertyOp55
 70
     1
102
RTVSPropertyOp56
 70
     1
102
RTVSPropertyOp57
 70
     1
102
RTVSPropertyOp58
 70
     1
102
RTVSPropertyOp59
 70
     1
102
RTVSPropertyOp60
 70
     1
102
RTVSPropertyOp61
 70
     1
102
RTVSPropertyOp62
 70
     1
  0
XRECORD
  5
5F0
102
{ACAD_REACTORS
330
5EF
102
}
330
5EF
100
AcDbXrecord
280
     1
102
RTVSPost2010Prop28
280
     0
102
RTVSPost2010PropOp28
 70
     1
102
RTVSPost2010Prop29
280
     1
102
RTVSPost2010PropOp29
 70
     1
102
RTVSPost2010Prop30
280
     1
102
RTVSPost2010PropOp30
 70
     1
102
RTVSPost2010Prop31
280
     0
102
RTVSPost2010PropOp31
 70
     1
102
RTVSPost2010Prop32
280
     0
102
RTVSPost2010PropOp32
 70
     1
102
RTVSPost2010Prop33
280
     0
102
RTVSPost2010PropOp33
 70
     1
102
RTVSPost2010Prop34
280
     0
102
RTVSPost2010PropOp34
 70
     1
102
RTVSPost2010Prop35
280
     0
102
RTVSPost2010PropOp35
 70
     1
102
RTVSPost2010Prop36
280
     0
102
RTVSPost2010PropOp36
 70
     1
102
RTVSPost2010Prop37
 90
       50
102
RTVSPost2010PropOp37
 70
     1
102
RTVSPost2010Prop38
140
0.0
102
RTVSPost2010PropOp38
 70
     1
102
RTVSPost2010Prop39
140
1.0
102
RTVSPost2010PropOp39
 70
     1
102
RTVSPost2010Prop40
 90
        0
102
RTVSPost2010PropOp40
 70
     1
102
RTVSPost2010Prop41ColorIndex
 90
       18
102
RTVSPost2010Prop41ColorRGB
 90
        0
102
RTVSPost2010PropOp41
 70
     1
102
RTVSPost2010Prop42
 90
       50
102
RTVSPost2010PropOp42
 70
     1
102
RTVSPost2010Prop43
 90
        3
102
RTVSPost2010PropOp43
 70
     1
102
RTVSPost2010Prop44ColorIndex
 90
        5
102
RTVSPost2010Prop44ColorRGB
 90
      255
102
RTVSPost2010PropOp44
 70
     1
102
RTVSPost2010Prop45
280
     0
102
RTVSPost2010PropOp45
 70
     1
102
RTVSPost2010Prop46
 90
       50
102
RTVSPost2010PropOp46
 70
     1
102
RTVSPost2010Prop47
 90
       50
102
RTVSPost2010PropOp47
 70
     1
102
RTVSPost2010Prop48
 90
       50
102
RTVSPost2010PropOp48
 70
     1
102
RTVSPost2010Prop49
280
     0
102
RTVSPost2010PropOp49
 70
     1
102
RTVSPost2010Prop50
 90
       50
102
RTVSPost2010PropOp50
 70
     1
102
RTVSPost2010Prop51ColorIndex
 90
      256
102
RTVSPost2010Prop51ColorRGB
 90
-16777216
102
RTVSPost2010PropOp51
 70
     0
102
RTVSPost2010Prop52
140
1.0
102
RTVSPost2010PropOp52
 70
     0
102
RTVSPost2010Prop53
 90
        2
102
RTVSPost2010PropOp53
 70
     1
102
RTVSPost2010Prop54
  1
strokes_ogs.tif
102
RTVSPost2010PropOp54
 70
     1
102
RTVSPost2010Prop55
280
     0
102
RTVSPost2010PropOp55
 70
     1
102
RTVSPost2010Prop56
140
1.0
102
RTVSPost2010PropOp56
 70
     1
102
RTVSPost2010Prop57
140
1.0
102
RTVSPost2010PropOp57
 70
     1
102
RTVSPropertyOp0
 70
     1
102
RTVSPropertyOp1
 70
     1
102
RTVSPropertyOp2
 70
     1
102
RTVSPropertyOp3
 70
     1
102
RTVSPropertyOp4
 70
     1
102
RTVSPropertyOp5
 70
     1
102
RTVSPropertyOp6
 70
     1
102
RTVSPropertyOp7
 70
     1
102
RTVSPropertyOp8
 70
     1
102
RTVSPropertyOp9
 70
     1
102
RTVSPropertyOp10
 70
     1
102
RTVSPropertyOp11
 70
     1
102
RTVSPropertyOp12
 70
     1
102
RTVSPropertyOp13
 70
     1
102
RTVSPropertyOp14
 70
     1
102
RTVSPropertyOp15
 70
     1
102
RTVSPropertyOp16
 70
     1
102
RTVSPropertyOp17
 70
     1
102
RTVSPropertyOp18
 70
     1
102
RTVSPropertyOp19
 70
     1
102
RTVSPropertyOp20
 70
     1
102
RTVSPropertyOp21
 70
     1
102
RTVSPropertyOp22
 70
     1
102
RTVSPropertyOp23
 70
     1
102
RTVSPropertyOp24
 70
     1
102
RTVSPropertyOp25
 70
     1
102
RTVSPropertyOp26
 70
     1
102
RTVSPropertyOp27
 70
     1
102
RTVSPropertyOp28
 70
     1
102
RTVSPropertyOp29
 70
     1
102
RTVSPropertyOp30
 70
     1
102
RTVSPropertyOp31
 70
     1
102
RTVSPropertyOp32
 70
     1
102
RTVSPropertyOp33
 70
     1
102
RTVSPropertyOp34
 70
     1
102
RTVSPropertyOp35
 70
     1
102
RTVSPropertyOp36
 70
     1
102
RTVSPropertyOp37
 70
     1
102
RTVSPropertyOp38
 70
     1
102
RTVSPropertyOp39
 70
     1
102
RTVSPropertyOp40
 70
     1
102
RTVSPropertyOp41
 70
     1
102
RTVSPropertyOp42
 70
     1
102
RTVSPropertyOp43
 70
     1
102
RTVSPropertyOp44
 70
     1
102
RTVSPropertyOp45
 70
     1
102
RTVSPropertyOp46
 70
     1
102
RTVSPropertyOp47
 70
     1
102
RTVSPropertyOp48
 70
     1
102
RTVSPropertyOp49
 70
     1
102
RTVSPropertyOp50
 70
     1
102
RTVSPropertyOp51
 70
     0
102
RTVSPropertyOp52
 70
     0
102
RTVSPropertyOp53
 70
     1
102
RTVSPropertyOp54
 70
     1
102
RTVSPropertyOp55
 70
     1
102
RTVSPropertyOp56
 70
     1
102
RTVSPropertyOp57
 70
     1
102
RTVSPropertyOp58
 70
     1
102
RTVSPropertyOp59
 70
     1
102
RTVSPropertyOp60
 70
     1
102
RTVSPropertyOp61
 70
     1
102
RTVSPropertyOp62
 70
     1
  0
XRECORD
  5
5F2
102
{ACAD_REACTORS
330
5F1
102
}
330
5F1
100
AcDbXrecord
280
     1
102
RTVSPost2010Prop28
280
     0
102
RTVSPost2010PropOp28
 70
     1
102
RTVSPost2010Prop29
280
     1
102
RTVSPost2010PropOp29
 70
     1
102
RTVSPost2010Prop30
280
     1
102
RTVSPost2010PropOp30
 70
     1
102
RTVSPost2010Prop31
280
     0
102
RTVSPost2010PropOp31
 70
     1
102
RTVSPost2010Prop32
280
     0
102
RTVSPost2010PropOp32
 70
     1
102
RTVSPost2010Prop33
280
     0
102
RTVSPost2010PropOp33
 70
     1
102
RTVSPost2010Prop34
280
     0
102
RTVSPost2010PropOp34
 70
     1
102
RTVSPost2010Prop35
280
     0
102
RTVSPost2010PropOp35
 70
     1
102
RTVSPost2010Prop36
280
     0
102
RTVSPost2010PropOp36
 70
     1
102
RTVSPost2010Prop37
 90
       50
102
RTVSPost2010PropOp37
 70
     1
102
RTVSPost2010Prop38
140
0.0
102
RTVSPost2010PropOp38
 70
     1
102
RTVSPost2010Prop39
140
1.0
102
RTVSPost2010PropOp39
 70
     1
102
RTVSPost2010Prop40
 90
        0
102
RTVSPost2010PropOp40
 70
     1
102
RTVSPost2010Prop41ColorIndex
 90
       18
102
RTVSPost2010Prop41ColorRGB
 90
        0
102
RTVSPost2010PropOp41
 70
     1
102
RTVSPost2010Prop42
 90
       50
102
RTVSPost2010PropOp42
 70
     1
102
RTVSPost2010Prop43
 90
        3
102
RTVSPost2010PropOp43
 70
     1
102
RTVSPost2010Prop44ColorIndex
 90
        5
102
RTVSPost2010Prop44ColorRGB
 90
      255
102
RTVSPost2010PropOp44
 70
     1
102
RTVSPost2010Prop45
280
     0
102
RTVSPost2010PropOp45
 70
     1
102
RTVSPost2010Prop46
 90
       50
102
RTVSPost2010PropOp46
 70
     1
102
RTVSPost2010Prop47
 90
       50
102
RTVSPost2010PropOp47
 70
     1
102
RTVSPost2010Prop48
 90
       50
102
RTVSPost2010PropOp48
 70
     1
102
RTVSPost2010Prop49
280
     0
102
RTVSPost2010PropOp49
 70
     1
102
RTVSPost2010Prop50
 90
       50
102
RTVSPost2010PropOp50
 70
     1
102
RTVSPost2010Prop51ColorIndex
 90
      256
102
RTVSPost2010Prop51ColorRGB
 90
-16777216
102
RTVSPost2010PropOp51
 70
     0
102
RTVSPost2010Prop52
140
1.0
102
RTVSPost2010PropOp52
 70
     0
102
RTVSPost2010Prop53
 90
        2
102
RTVSPost2010PropOp53
 70
     1
102
RTVSPost2010Prop54
  1
strokes_ogs.tif
102
RTVSPost2010PropOp54
 70
     1
102
RTVSPost2010Prop55
280
     0
102
RTVSPost2010PropOp55
 70
     1
102
RTVSPost2010Prop56
140
1.0
102
RTVSPost2010PropOp56
 70
     1
102
RTVSPost2010Prop57
140
1.0
102
RTVSPost2010PropOp57
 70
     1
102
RTVSPropertyOp0
 70
     1
102
RTVSPropertyOp1
 70
     1
102
RTVSPropertyOp2
 70
     1
102
RTVSPropertyOp3
 70
     1
102
RTVSPropertyOp4
 70
     1
102
RTVSPropertyOp5
 70
     1
102
RTVSPropertyOp6
 70
     1
102
RTVSPropertyOp7
 70
     1
102
RTVSPropertyOp8
 70
     1
102
RTVSPropertyOp9
 70
     1
102
RTVSPropertyOp10
 70
     1
102
RTVSPropertyOp11
 70
     1
102
RTVSPropertyOp12
 70
     1
102
RTVSPropertyOp13
 70
     1
102
RTVSPropertyOp14
 70
     1
102
RTVSPropertyOp15
 70
     1
102
RTVSPropertyOp16
 70
     1
102
RTVSPropertyOp17
 70
     1
102
RTVSPropertyOp18
 70
     1
102
RTVSPropertyOp19
 70
     1
102
RTVSPropertyOp20
 70
     1
102
RTVSPropertyOp21
 70
     1
102
RTVSPropertyOp22
 70
     1
102
RTVSPropertyOp23
 70
     1
102
RTVSPropertyOp24
 70
     1
102
RTVSPropertyOp25
 70
     1
102
RTVSPropertyOp26
 70
     1
102
RTVSPropertyOp27
 70
     1
102
RTVSPropertyOp28
 70
     1
102
RTVSPropertyOp29
 70
     1
102
RTVSPropertyOp30
 70
     1
102
RTVSPropertyOp31
 70
     1
102
RTVSPropertyOp32
 70
     1
102
RTVSPropertyOp33
 70
     1
102
RTVSPropertyOp34
 70
     1
102
RTVSPropertyOp35
 70
     1
102
RTVSPropertyOp36
 70
     1
102
RTVSPropertyOp37
 70
     1
102
RTVSPropertyOp38
 70
     1
102
RTVSPropertyOp39
 70
     1
102
RTVSPropertyOp40
 70
     1
102
RTVSPropertyOp41
 70
     1
102
RTVSPropertyOp42
 70
     1
102
RTVSPropertyOp43
 70
     1
102
RTVSPropertyOp44
 70
     1
102
RTVSPropertyOp45
 70
     1
102
RTVSPropertyOp46
 70
     1
102
RTVSPropertyOp47
 70
     1
102
RTVSPropertyOp48
 70
     1
102
RTVSPropertyOp49
 70
     1
102
RTVSPropertyOp50
 70
     1
102
RTVSPropertyOp51
 70
     0
102
RTVSPropertyOp52
 70
     0
102
RTVSPropertyOp53
 70
     1
102
RTVSPropertyOp54
 70
     1
102
RTVSPropertyOp55
 70
     1
102
RTVSPropertyOp56
 70
     1
102
RTVSPropertyOp57
 70
     1
102
RTVSPropertyOp58
 70
     1
102
RTVSPropertyOp59
 70
     1
102
RTVSPropertyOp60
 70
     1
102
RTVSPropertyOp61
 70
     1
102
RTVSPropertyOp62
 70
     1
  0
XRECORD
  5
5F4
102
{ACAD_REACTORS
330
5F3
102
}
330
5F3
100
AcDbXrecord
280
     1
102
RTVSPost2010Prop28
280
     0
102
RTVSPost2010PropOp28
 70
     1
102
RTVSPost2010Prop29
280
     1
102
RTVSPost2010PropOp29
 70
     1
102
RTVSPost2010Prop30
280
     1
102
RTVSPost2010PropOp30
 70
     1
102
RTVSPost2010Prop31
280
     0
102
RTVSPost2010PropOp31
 70
     1
102
RTVSPost2010Prop32
280
     0
102
RTVSPost2010PropOp32
 70
     1
102
RTVSPost2010Prop33
280
     0
102
RTVSPost2010PropOp33
 70
     1
102
RTVSPost2010Prop34
280
     0
102
RTVSPost2010PropOp34
 70
     1
102
RTVSPost2010Prop35
280
     0
102
RTVSPost2010PropOp35
 70
     1
102
RTVSPost2010Prop36
280
     0
102
RTVSPost2010PropOp36
 70
     1
102
RTVSPost2010Prop37
 90
       50
102
RTVSPost2010PropOp37
 70
     1
102
RTVSPost2010Prop38
140
0.0
102
RTVSPost2010PropOp38
 70
     1
102
RTVSPost2010Prop39
140
1.0
102
RTVSPost2010PropOp39
 70
     1
102
RTVSPost2010Prop40
 90
        0
102
RTVSPost2010PropOp40
 70
     1
102
RTVSPost2010Prop41ColorIndex
 90
       18
102
RTVSPost2010Prop41ColorRGB
 90
        0
102
RTVSPost2010PropOp41
 70
     1
102
RTVSPost2010Prop42
 90
       50
102
RTVSPost2010PropOp42
 70
     1
102
RTVSPost2010Prop43
 90
        3
102
RTVSPost2010PropOp43
 70
     1
102
RTVSPost2010Prop44ColorIndex
 90
        5
102
RTVSPost2010Prop44ColorRGB
 90
      255
102
RTVSPost2010PropOp44
 70
     1
102
RTVSPost2010Prop45
280
     0
102
RTVSPost2010PropOp45
 70
     1
102
RTVSPost2010Prop46
 90
       50
102
RTVSPost2010PropOp46
 70
     1
102
RTVSPost2010Prop47
 90
       50
102
RTVSPost2010PropOp47
 70
     1
102
RTVSPost2010Prop48
 90
       50
102
RTVSPost2010PropOp48
 70
     1
102
RTVSPost2010Prop49
280
     0
102
RTVSPost2010PropOp49
 70
     1
102
RTVSPost2010Prop50
 90
       50
102
RTVSPost2010PropOp50
 70
     1
102
RTVSPost2010Prop51ColorIndex
 90
      256
102
RTVSPost2010Prop51ColorRGB
 90
-16777216
102
RTVSPost2010PropOp51
 70
     0
102
RTVSPost2010Prop52
140
1.0
102
RTVSPost2010PropOp52
 70
     0
102
RTVSPost2010Prop53
 90
        2
102
RTVSPost2010PropOp53
 70
     1
102
RTVSPost2010Prop54
  1
strokes_ogs.tif
102
RTVSPost2010PropOp54
 70
     1
102
RTVSPost2010Prop55
280
     0
102
RTVSPost2010PropOp55
 70
     1
102
RTVSPost2010Prop56
140
1.0
102
RTVSPost2010PropOp56
 70
     1
102
RTVSPost2010Prop57
140
1.0
102
RTVSPost2010PropOp57
 70
     1
102
RTVSPropertyOp0
 70
     1
102
RTVSPropertyOp1
 70
     1
102
RTVSPropertyOp2
 70
     1
102
RTVSPropertyOp3
 70
     1
102
RTVSPropertyOp4
 70
     1
102
RTVSPropertyOp5
 70
     1
102
RTVSPropertyOp6
 70
     1
102
RTVSPropertyOp7
 70
     1
102
RTVSPropertyOp8
 70
     1
102
RTVSPropertyOp9
 70
     1
102
RTVSPropertyOp10
 70
     1
102
RTVSPropertyOp11
 70
     1
102
RTVSPropertyOp12
 70
     1
102
RTVSPropertyOp13
 70
     1
102
RTVSPropertyOp14
 70
     1
102
RTVSPropertyOp15
 70
     1
102
RTVSPropertyOp16
 70
     1
102
RTVSPropertyOp17
 70
     1
102
RTVSPropertyOp18
 70
     1
102
RTVSPropertyOp19
 70
     1
102
RTVSPropertyOp20
 70
     1
102
RTVSPropertyOp21
 70
     1
102
RTVSPropertyOp22
 70
     1
102
RTVSPropertyOp23
 70
     1
102
RTVSPropertyOp24
 70
     1
102
RTVSPropertyOp25
 70
     1
102
RTVSPropertyOp26
 70
     1
102
RTVSPropertyOp27
 70
     1
102
RTVSPropertyOp28
 70
     1
102
RTVSPropertyOp29
 70
     1
102
RTVSPropertyOp30
 70
     1
102
RTVSPropertyOp31
 70
     1
102
RTVSPropertyOp32
 70
     1
102
RTVSPropertyOp33
 70
     1
102
RTVSPropertyOp34
 70
     1
102
RTVSPropertyOp35
 70
     1
102
RTVSPropertyOp36
 70
     1
102
RTVSPropertyOp37
 70
     1
102
RTVSPropertyOp38
 70
     1
102
RTVSPropertyOp39
 70
     1
102
RTVSPropertyOp40
 70
     1
102
RTVSPropertyOp41
 70
     1
102
RTVSPropertyOp42
 70
     1
102
RTVSPropertyOp43
 70
     1
102
RTVSPropertyOp44
 70
     1
102
RTVSPropertyOp45
 70
     1
102
RTVSPropertyOp46
 70
     1
102
RTVSPropertyOp47
 70
     1
102
RTVSPropertyOp48
 70
     1
102
RTVSPropertyOp49
 70
     1
102
RTVSPropertyOp50
 70
     1
102
RTVSPropertyOp51
 70
     0
102
RTVSPropertyOp52
 70
     0
102
RTVSPropertyOp53
 70
     1
102
RTVSPropertyOp54
 70
     1
102
RTVSPropertyOp55
 70
     1
102
RTVSPropertyOp56
 70
     1
102
RTVSPropertyOp57
 70
     1
102
RTVSPropertyOp58
 70
     1
102
RTVSPropertyOp59
 70
     1
102
RTVSPropertyOp60
 70
     1
102
RTVSPropertyOp61
 70
     1
102
RTVSPropertyOp62
 70
     1
  0
XRECORD
  5
5FC
102
{ACAD_REACTORS
330
5FB
102
}
330
5FB
100
AcDbXrecord
280
     1
102
RTVSPost2010Prop28
280
     0
102
RTVSPost2010PropOp28
 70
     1
102
RTVSPost2010Prop29
280
     1
102
RTVSPost2010PropOp29
 70
     1
102
RTVSPost2010Prop30
280
     1
102
RTVSPost2010PropOp30
 70
     1
102
RTVSPost2010Prop31
280
     0
102
RTVSPost2010PropOp31
 70
     1
102
RTVSPost2010Prop32
280
     0
102
RTVSPost2010PropOp32
 70
     1
102
RTVSPost2010Prop33
280
     0
102
RTVSPost2010PropOp33
 70
     1
102
RTVSPost2010Prop34
280
     0
102
RTVSPost2010PropOp34
 70
     1
102
RTVSPost2010Prop35
280
     0
102
RTVSPost2010PropOp35
 70
     1
102
RTVSPost2010Prop36
280
     0
102
RTVSPost2010PropOp36
 70
     1
102
RTVSPost2010Prop37
 90
       50
102
RTVSPost2010PropOp37
 70
     1
102
RTVSPost2010Prop38
140
0.0
102
RTVSPost2010PropOp38
 70
     1
102
RTVSPost2010Prop39
140
1.0
102
RTVSPost2010PropOp39
 70
     1
102
RTVSPost2010Prop40
 90
        0
102
RTVSPost2010PropOp40
 70
     1
102
RTVSPost2010Prop41ColorIndex
 90
       18
102
RTVSPost2010Prop41ColorRGB
 90
        0
102
RTVSPost2010PropOp41
 70
     1
102
RTVSPost2010Prop42
 90
       50
102
RTVSPost2010PropOp42
 70
     1
102
RTVSPost2010Prop43
 90
        3
102
RTVSPost2010PropOp43
 70
     1
102
RTVSPost2010Prop44ColorIndex
 90
        5
102
RTVSPost2010Prop44ColorRGB
 90
      255
102
RTVSPost2010PropOp44
 70
     1
102
RTVSPost2010Prop45
280
     0
102
RTVSPost2010PropOp45
 70
     1
102
RTVSPost2010Prop46
 90
       50
102
RTVSPost2010PropOp46
 70
     1
102
RTVSPost2010Prop47
 90
       50
102
RTVSPost2010PropOp47
 70
     1
102
RTVSPost2010Prop48
 90
       50
102
RTVSPost2010PropOp48
 70
     1
102
RTVSPost2010Prop49
280
     0
102
RTVSPost2010PropOp49
 70
     1
102
RTVSPost2010Prop50
 90
       50
102
RTVSPost2010PropOp50
 70
     1
102
RTVSPost2010Prop51ColorIndex
 90
      256
102
RTVSPost2010Prop51ColorRGB
 90
-16777216
102
RTVSPost2010PropOp51
 70
     0
102
RTVSPost2010Prop52
140
1.0
102
RTVSPost2010PropOp52
 70
     0
102
RTVSPost2010Prop53
 90
        2
102
RTVSPost2010PropOp53
 70
     1
102
RTVSPost2010Prop54
  1
strokes_ogs.tif
102
RTVSPost2010PropOp54
 70
     1
102
RTVSPost2010Prop55
280
     0
102
RTVSPost2010PropOp55
 70
     1
102
RTVSPost2010Prop56
140
1.0
102
RTVSPost2010PropOp56
 70
     1
102
RTVSPost2010Prop57
140
1.0
102
RTVSPost2010PropOp57
 70
     1
102
RTVSPropertyOp0
 70
     1
102
RTVSPropertyOp1
 70
     1
102
RTVSPropertyOp2
 70
     1
102
RTVSPropertyOp3
 70
     1
102
RTVSPropertyOp4
 70
     1
102
RTVSPropertyOp5
 70
     1
102
RTVSPropertyOp6
 70
     1
102
RTVSPropertyOp7
 70
     1
102
RTVSPropertyOp8
 70
     1
102
RTVSPropertyOp9
 70
     1
102
RTVSPropertyOp10
 70
     1
102
RTVSPropertyOp11
 70
     1
102
RTVSPropertyOp12
 70
     1
102
RTVSPropertyOp13
 70
     1
102
RTVSPropertyOp14
 70
     1
102
RTVSPropertyOp15
 70
     1
102
RTVSPropertyOp16
 70
     1
102
RTVSPropertyOp17
 70
     1
102
RTVSPropertyOp18
 70
     1
102
RTVSPropertyOp19
 70
     1
102
RTVSPropertyOp20
 70
     1
102
RTVSPropertyOp21
 70
     1
102
RTVSPropertyOp22
 70
     1
102
RTVSPropertyOp23
 70
     1
102
RTVSPropertyOp24
 70
     1
102
RTVSPropertyOp25
 70
     1
102
RTVSPropertyOp26
 70
     1
102
RTVSPropertyOp27
 70
     1
102
RTVSPropertyOp28
 70
     1
102
RTVSPropertyOp29
 70
     1
102
RTVSPropertyOp30
 70
     1
102
RTVSPropertyOp31
 70
     1
102
RTVSPropertyOp32
 70
     1
102
RTVSPropertyOp33
 70
     1
102
RTVSPropertyOp34
 70
     1
102
RTVSPropertyOp35
 70
     1
102
RTVSPropertyOp36
 70
     1
102
RTVSPropertyOp37
 70
     1
102
RTVSPropertyOp38
 70
     1
102
RTVSPropertyOp39
 70
     1
102
RTVSPropertyOp40
 70
     1
102
RTVSPropertyOp41
 70
     1
102
RTVSPropertyOp42
 70
     1
102
RTVSPropertyOp43
 70
     1
102
RTVSPropertyOp44
 70
     1
102
RTVSPropertyOp45
 70
     1
102
RTVSPropertyOp46
 70
     1
102
RTVSPropertyOp47
 70
     1
102
RTVSPropertyOp48
 70
     1
102
RTVSPropertyOp49
 70
     1
102
RTVSPropertyOp50
 70
     1
102
RTVSPropertyOp51
 70
     0
102
RTVSPropertyOp52
 70
     0
102
RTVSPropertyOp53
 70
     1
102
RTVSPropertyOp54
 70
     1
102
RTVSPropertyOp55
 70
     1
102
RTVSPropertyOp56
 70
     1
102
RTVSPropertyOp57
 70
     1
102
RTVSPropertyOp58
 70
     1
102
RTVSPropertyOp59
 70
     1
102
RTVSPropertyOp60
 70
     1
102
RTVSPropertyOp61
 70
     1
102
RTVSPropertyOp62
 70
     1
  0
XRECORD
  5
618
102
{ACAD_REACTORS
330
617
102
}
330
617
100
AcDbXrecord
280
     1
102
RTVSPost2010Prop28
280
     0
102
RTVSPost2010PropOp28
 70
     0
102
RTVSPost2010Prop29
280
     1
102
RTVSPost2010PropOp29
 70
     0
102
RTVSPost2010Prop30
280
     1
102
RTVSPost2010PropOp30
 70
     0
102
RTVSPost2010Prop31
280
     0
102
RTVSPost2010PropOp31
 70
     0
102
RTVSPost2010Prop32
280
     0
102
RTVSPost2010PropOp32
 70
     0
102
RTVSPost2010Prop33
280
     0
102
RTVSPost2010PropOp33
 70
     0
102
RTVSPost2010Prop34
280
     0
102
RTVSPost2010PropOp34
 70
     0
102
RTVSPost2010Prop35
280
     0
102
RTVSPost2010PropOp35
 70
     0
102
RTVSPost2010Prop36
280
     0
102
RTVSPost2010PropOp36
 70
     0
102
RTVSPost2010Prop37
 90
       50
102
RTVSPost2010PropOp37
 70
     0
102
RTVSPost2010Prop38
140
0.0
102
RTVSPost2010PropOp38
 70
     0
102
RTVSPost2010Prop39
140
1.0
102
RTVSPost2010PropOp39
 70
     0
102
RTVSPost2010Prop40
 90
        0
102
RTVSPost2010PropOp40
 70
     0
102
RTVSPost2010Prop41ColorIndex
 90
       18
102
RTVSPost2010Prop41ColorRGB
 90
        0
102
RTVSPost2010PropOp41
 70
     0
102
RTVSPost2010Prop42
 90
       50
102
RTVSPost2010PropOp42
 70
     0
102
RTVSPost2010Prop43
 90
        3
102
RTVSPost2010PropOp43
 70
     0
102
RTVSPost2010Prop44ColorIndex
 90
        5
102
RTVSPost2010Prop44ColorRGB
 90
      255
102
RTVSPost2010PropOp44
 70
     0
102
RTVSPost2010Prop45
280
     0
102
RTVSPost2010PropOp45
 70
     0
102
RTVSPost2010Prop46
 90
       50
102
RTVSPost2010PropOp46
 70
     0
102
RTVSPost2010Prop47
 90
       50
102
RTVSPost2010PropOp47
 70
     0
102
RTVSPost2010Prop48
 90
       50
102
RTVSPost2010PropOp48
 70
     0
102
RTVSPost2010Prop49
280
     0
102
RTVSPost2010PropOp49
 70
     0
102
RTVSPost2010Prop50
 90
       50
102
RTVSPost2010PropOp50
 70
     0
102
RTVSPost2010Prop51ColorIndex
 90
      256
102
RTVSPost2010Prop51ColorRGB
 90
-16777216
102
RTVSPost2010PropOp51
 70
     0
102
RTVSPost2010Prop52
140
1.0
102
RTVSPost2010PropOp52
 70
     0
102
RTVSPost2010Prop53
 90
        2
102
RTVSPost2010PropOp53
 70
     0
102
RTVSPost2010Prop54
  1
strokes_ogs.tif
102
RTVSPost2010PropOp54
 70
     0
102
RTVSPost2010Prop55
280
     0
102
RTVSPost2010PropOp55
 70
     0
102
RTVSPost2010Prop56
140
1.0
102
RTVSPost2010PropOp56
 70
     0
102
RTVSPost2010Prop57
140
1.0
102
RTVSPost2010PropOp57
 70
     0
102
RTVSPropertyOp0
 70
     0
102
RTVSPropertyOp1
 70
     0
102
RTVSPropertyOp2
 70
     0
102
RTVSPropertyOp3
 70
     0
102
RTVSPropertyOp4
 70
     0
102
RTVSPropertyOp5
 70
     0
102
RTVSPropertyOp6
 70
     0
102
RTVSPropertyOp7
 70
     0
102
RTVSPropertyOp8
 70
     0
102
RTVSPropertyOp9
 70
     0
102
RTVSPropertyOp10
 70
     0
102
RTVSPropertyOp11
 70
     0
102
RTVSPropertyOp12
 70
     0
102
RTVSPropertyOp13
 70
     0
102
RTVSPropertyOp14
 70
     2
102
RTVSPropertyOp15
 70
     0
102
RTVSPropertyOp16
 70
     0
102
RTVSPropertyOp17
 70
     0
102
RTVSPropertyOp18
 70
     0
102
RTVSPropertyOp19
 70
     0
102
RTVSPropertyOp20
 70
     0
102
RTVSPropertyOp21
 70
     0
102
RTVSPropertyOp22
 70
     0
102
RTVSPropertyOp23
 70
     0
102
RTVSPropertyOp24
 70
     0
102
RTVSPropertyOp25
 70
     0
102
RTVSPropertyOp26
 70
     0
102
RTVSPropertyOp27
 70
     0
102
RTVSPropertyOp28
 70
     0
102
RTVSPropertyOp29
 70
     0
102
RTVSPropertyOp30
 70
     0
102
RTVSPropertyOp31
 70
     0
102
RTVSPropertyOp32
 70
     0
102
RTVSPropertyOp33
 70
     0
102
RTVSPropertyOp34
 70
     0
102
RTVSPropertyOp35
 70
     0
102
RTVSPropertyOp36
 70
     0
102
RTVSPropertyOp37
 70
     0
102
RTVSPropertyOp38
 70
     0
102
RTVSPropertyOp39
 70
     0
102
RTVSPropertyOp40
 70
     0
102
RTVSPropertyOp41
 70
     0
102
RTVSPropertyOp42
 70
     0
102
RTVSPropertyOp43
 70
     0
102
RTVSPropertyOp44
 70
     0
102
RTVSPropertyOp45
 70
     0
102
RTVSPropertyOp46
 70
     0
102
RTVSPropertyOp47
 70
     0
102
RTVSPropertyOp48
 70
     0
102
RTVSPropertyOp49
 70
     0
102
RTVSPropertyOp50
 70
     0
102
RTVSPropertyOp51
 70
     0
102
RTVSPropertyOp52
 70
     0
102
RTVSPropertyOp53
 70
     0
102
RTVSPropertyOp54
 70
     0
102
RTVSPropertyOp55
 70
     0
102
RTVSPropertyOp56
 70
     0
102
RTVSPropertyOp57
 70
     0
102
RTVSPropertyOp58
 70
     0
102
RTVSPropertyOp59
 70
     0
102
RTVSPropertyOp60
 70
     0
102
RTVSPropertyOp61
 70
     0
102
RTVSPropertyOp62
 70
     0
  0
XRECORD
  5
608
102
{ACAD_REACTORS
330
607
102
}
330
607
100
AcDbXrecord
280
     1
102
RTVSPost2010Prop28
280
     0
102
RTVSPost2010PropOp28
 70
     1
102
RTVSPost2010Prop29
280
     1
102
RTVSPost2010PropOp29
 70
     1
102
RTVSPost2010Prop30
280
     1
102
RTVSPost2010PropOp30
 70
     1
102
RTVSPost2010Prop31
280
     0
102
RTVSPost2010PropOp31
 70
     1
102
RTVSPost2010Prop32
280
     0
102
RTVSPost2010PropOp32
 70
     1
102
RTVSPost2010Prop33
280
     0
102
RTVSPost2010PropOp33
 70
     1
102
RTVSPost2010Prop34
280
     0
102
RTVSPost2010PropOp34
 70
     1
102
RTVSPost2010Prop35
280
     0
102
RTVSPost2010PropOp35
 70
     1
102
RTVSPost2010Prop36
280
     0
102
RTVSPost2010PropOp36
 70
     1
102
RTVSPost2010Prop37
 90
       50
102
RTVSPost2010PropOp37
 70
     1
102
RTVSPost2010Prop38
140
0.0
102
RTVSPost2010PropOp38
 70
     1
102
RTVSPost2010Prop39
140
1.0
102
RTVSPost2010PropOp39
 70
     1
102
RTVSPost2010Prop40
 90
        0
102
RTVSPost2010PropOp40
 70
     1
102
RTVSPost2010Prop41ColorIndex
 90
       18
102
RTVSPost2010Prop41ColorRGB
 90
        0
102
RTVSPost2010PropOp41
 70
     1
102
RTVSPost2010Prop42
 90
       50
102
RTVSPost2010PropOp42
 70
     1
102
RTVSPost2010Prop43
 90
        3
102
RTVSPost2010PropOp43
 70
     1
102
RTVSPost2010Prop44ColorIndex
 90
        5
102
RTVSPost2010Prop44ColorRGB
 90
      255
102
RTVSPost2010PropOp44
 70
     1
102
RTVSPost2010Prop45
280
     0
102
RTVSPost2010PropOp45
 70
     1
102
RTVSPost2010Prop46
 90
       50
102
RTVSPost2010PropOp46
 70
     1
102
RTVSPost2010Prop47
 90
       50
102
RTVSPost2010PropOp47
 70
     1
102
RTVSPost2010Prop48
 90
       50
102
RTVSPost2010PropOp48
 70
     1
102
RTVSPost2010Prop49
280
     0
102
RTVSPost2010PropOp49
 70
     1
102
RTVSPost2010Prop50
 90
       50
102
RTVSPost2010PropOp50
 70
     1
102
RTVSPost2010Prop51ColorIndex
 90
      256
102
RTVSPost2010Prop51ColorRGB
 90
-16777216
102
RTVSPost2010PropOp51
 70
     0
102
RTVSPost2010Prop52
140
1.0
102
RTVSPost2010PropOp52
 70
     0
102
RTVSPost2010Prop53
 90
        2
102
RTVSPost2010PropOp53
 70
     1
102
RTVSPost2010Prop54
  1
strokes_ogs.tif
102
RTVSPost2010PropOp54
 70
     1
102
RTVSPost2010Prop55
280
     0
102
RTVSPost2010PropOp55
 70
     1
102
RTVSPost2010Prop56
140
1.0
102
RTVSPost2010PropOp56
 70
     1
102
RTVSPost2010Prop57
140
1.0
102
RTVSPost2010PropOp57
 70
     1
102
RTVSPropertyOp0
 70
     1
102
RTVSPropertyOp1
 70
     1
102
RTVSPropertyOp2
 70
     1
102
RTVSPropertyOp3
 70
     1
102
RTVSPropertyOp4
 70
     1
102
RTVSPropertyOp5
 70
     1
102
RTVSPropertyOp6
 70
     1
102
RTVSPropertyOp7
 70
     1
102
RTVSPropertyOp8
 70
     1
102
RTVSPropertyOp9
 70
     1
102
RTVSPropertyOp10
 70
     1
102
RTVSPropertyOp11
 70
     1
102
RTVSPropertyOp12
 70
     1
102
RTVSPropertyOp13
 70
     1
102
RTVSPropertyOp14
 70
     1
102
RTVSPropertyOp15
 70
     1
102
RTVSPropertyOp16
 70
     1
102
RTVSPropertyOp17
 70
     1
102
RTVSPropertyOp18
 70
     1
102
RTVSPropertyOp19
 70
     1
102
RTVSPropertyOp20
 70
     1
102
RTVSPropertyOp21
 70
     1
102
RTVSPropertyOp22
 70
     1
102
RTVSPropertyOp23
 70
     1
102
RTVSPropertyOp24
 70
     1
102
RTVSPropertyOp25
 70
     1
102
RTVSPropertyOp26
 70
     1
102
RTVSPropertyOp27
 70
     1
102
RTVSPropertyOp28
 70
     1
102
RTVSPropertyOp29
 70
     1
102
RTVSPropertyOp30
 70
     1
102
RTVSPropertyOp31
 70
     1
102
RTVSPropertyOp32
 70
     1
102
RTVSPropertyOp33
 70
     1
102
RTVSPropertyOp34
 70
     1
102
RTVSPropertyOp35
 70
     1
102
RTVSPropertyOp36
 70
     1
102
RTVSPropertyOp37
 70
     1
102
RTVSPropertyOp38
 70
     1
102
RTVSPropertyOp39
 70
     1
102
RTVSPropertyOp40
 70
     1
102
RTVSPropertyOp41
 70
     1
102
RTVSPropertyOp42
 70
     1
102
RTVSPropertyOp43
 70
     1
102
RTVSPropertyOp44
 70
     1
102
RTVSPropertyOp45
 70
     1
102
RTVSPropertyOp46
 70
     1
102
RTVSPropertyOp47
 70
     1
102
RTVSPropertyOp48
 70
     1
102
RTVSPropertyOp49
 70
     1
102
RTVSPropertyOp50
 70
     1
102
RTVSPropertyOp51
 70
     0
102
RTVSPropertyOp52
 70
     0
102
RTVSPropertyOp53
 70
     1
102
RTVSPropertyOp54
 70
     1
102
RTVSPropertyOp55
 70
     1
102
RTVSPropertyOp56
 70
     1
102
RTVSPropertyOp57
 70
     1
102
RTVSPropertyOp58
 70
     1
102
RTVSPropertyOp59
 70
     1
102
RTVSPropertyOp60
 70
     1
102
RTVSPropertyOp61
 70
     1
102
RTVSPropertyOp62
 70
     1
  0
XRECORD
  5
61A
102
{ACAD_REACTORS
330
619
102
}
330
619
100
AcDbXrecord
280
     1
102
RTVSPost2010Prop28
280
     0
102
RTVSPost2010PropOp28
 70
     0
102
RTVSPost2010Prop29
280
     1
102
RTVSPost2010PropOp29
 70
     0
102
RTVSPost2010Prop30
280
     1
102
RTVSPost2010PropOp30
 70
     0
102
RTVSPost2010Prop31
280
     0
102
RTVSPost2010PropOp31
 70
     0
102
RTVSPost2010Prop32
280
     0
102
RTVSPost2010PropOp32
 70
     0
102
RTVSPost2010Prop33
280
     0
102
RTVSPost2010PropOp33
 70
     0
102
RTVSPost2010Prop34
280
     0
102
RTVSPost2010PropOp34
 70
     0
102
RTVSPost2010Prop35
280
     0
102
RTVSPost2010PropOp35
 70
     0
102
RTVSPost2010Prop36
280
     0
102
RTVSPost2010PropOp36
 70
     0
102
RTVSPost2010Prop37
 90
       50
102
RTVSPost2010PropOp37
 70
     0
102
RTVSPost2010Prop38
140
0.0
102
RTVSPost2010PropOp38
 70
     0
102
RTVSPost2010Prop39
140
1.0
102
RTVSPost2010PropOp39
 70
     0
102
RTVSPost2010Prop40
 90
        0
102
RTVSPost2010PropOp40
 70
     0
102
RTVSPost2010Prop41ColorIndex
 90
       18
102
RTVSPost2010Prop41ColorRGB
 90
        0
102
RTVSPost2010PropOp41
 70
     0
102
RTVSPost2010Prop42
 90
       50
102
RTVSPost2010PropOp42
 70
     0
102
RTVSPost2010Prop43
 90
        3
102
RTVSPost2010PropOp43
 70
     0
102
RTVSPost2010Prop44ColorIndex
 90
        5
102
RTVSPost2010Prop44ColorRGB
 90
      255
102
RTVSPost2010PropOp44
 70
     0
102
RTVSPost2010Prop45
280
     0
102
RTVSPost2010PropOp45
 70
     0
102
RTVSPost2010Prop46
 90
       50
102
RTVSPost2010PropOp46
 70
     0
102
RTVSPost2010Prop47
 90
       50
102
RTVSPost2010PropOp47
 70
     0
102
RTVSPost2010Prop48
 90
       50
102
RTVSPost2010PropOp48
 70
     0
102
RTVSPost2010Prop49
280
     0
102
RTVSPost2010PropOp49
 70
     0
102
RTVSPost2010Prop50
 90
       50
102
RTVSPost2010PropOp50
 70
     0
102
RTVSPost2010Prop51ColorIndex
 90
      256
102
RTVSPost2010Prop51ColorRGB
 90
-16777216
102
RTVSPost2010PropOp51
 70
     0
102
RTVSPost2010Prop52
140
1.0
102
RTVSPost2010PropOp52
 70
     0
102
RTVSPost2010Prop53
 90
        2
102
RTVSPost2010PropOp53
 70
     0
102
RTVSPost2010Prop54
  1
strokes_ogs.tif
102
RTVSPost2010PropOp54
 70
     0
102
RTVSPost2010Prop55
280
     0
102
RTVSPost2010PropOp55
 70
     0
102
RTVSPost2010Prop56
140
1.0
102
RTVSPost2010PropOp56
 70
     0
102
RTVSPost2010Prop57
140
1.0
102
RTVSPost2010PropOp57
 70
     0
102
RTVSPropertyOp0
 70
     0
102
RTVSPropertyOp1
 70
     0
102
RTVSPropertyOp2
 70
     0
102
RTVSPropertyOp3
 70
     0
102
RTVSPropertyOp4
 70
     0
102
RTVSPropertyOp5
 70
     0
102
RTVSPropertyOp6
 70
     0
102
RTVSPropertyOp7
 70
     0
102
RTVSPropertyOp8
 70
     0
102
RTVSPropertyOp9
 70
     0
102
RTVSPropertyOp10
 70
     0
102
RTVSPropertyOp11
 70
     0
102
RTVSPropertyOp12
 70
     0
102
RTVSPropertyOp13
 70
     0
102
RTVSPropertyOp14
 70
     2
102
RTVSPropertyOp15
 70
     0
102
RTVSPropertyOp16
 70
     0
102
RTVSPropertyOp17
 70
     0
102
RTVSPropertyOp18
 70
     0
102
RTVSPropertyOp19
 70
     0
102
RTVSPropertyOp20
 70
     0
102
RTVSPropertyOp21
 70
     0
102
RTVSPropertyOp22
 70
     0
102
RTVSPropertyOp23
 70
     0
102
RTVSPropertyOp24
 70
     0
102
RTVSPropertyOp25
 70
     0
102
RTVSPropertyOp26
 70
     0
102
RTVSPropertyOp27
 70
     0
102
RTVSPropertyOp28
 70
     0
102
RTVSPropertyOp29
 70
     0
102
RTVSPropertyOp30
 70
     0
102
RTVSPropertyOp31
 70
     0
102
RTVSPropertyOp32
 70
     0
102
RTVSPropertyOp33
 70
     0
102
RTVSPropertyOp34
 70
     0
102
RTVSPropertyOp35
 70
     0
102
RTVSPropertyOp36
 70
     0
102
RTVSPropertyOp37
 70
     0
102
RTVSPropertyOp38
 70
     0
102
RTVSPropertyOp39
 70
     0
102
RTVSPropertyOp40
 70
     0
102
RTVSPropertyOp41
 70
     0
102
RTVSPropertyOp42
 70
     0
102
RTVSPropertyOp43
 70
     0
102
RTVSPropertyOp44
 70
     0
102
RTVSPropertyOp45
 70
     0
102
RTVSPropertyOp46
 70
     0
102
RTVSPropertyOp47
 70
     0
102
RTVSPropertyOp48
 70
     0
102
RTVSPropertyOp49
 70
     0
102
RTVSPropertyOp50
 70
     0
102
RTVSPropertyOp51
 70
     0
102
RTVSPropertyOp52
 70
     0
102
RTVSPropertyOp53
 70
     0
102
RTVSPropertyOp54
 70
     0
102
RTVSPropertyOp55
 70
     0
102
RTVSPropertyOp56
 70
     0
102
RTVSPropertyOp57
 70
     0
102
RTVSPropertyOp58
 70
     0
102
RTVSPropertyOp59
 70
     0
102
RTVSPropertyOp60
 70
     0
102
RTVSPropertyOp61
 70
     0
102
RTVSPropertyOp62
 70
     0
  0
XRECORD
  5
600
102
{ACAD_REACTORS
330
5FF
102
}
330
5FF
100
AcDbXrecord
280
     1
102
RTVSPost2010Prop28
280
     0
102
RTVSPost2010PropOp28
 70
     1
102
RTVSPost2010Prop29
280
     1
102
RTVSPost2010PropOp29
 70
     1
102
RTVSPost2010Prop30
280
     1
102
RTVSPost2010PropOp30
 70
     1
102
RTVSPost2010Prop31
280
     0
102
RTVSPost2010PropOp31
 70
     1
102
RTVSPost2010Prop32
280
     0
102
RTVSPost2010PropOp32
 70
     1
102
RTVSPost2010Prop33
280
     0
102
RTVSPost2010PropOp33
 70
     1
102
RTVSPost2010Prop34
280
     0
102
RTVSPost2010PropOp34
 70
     1
102
RTVSPost2010Prop35
280
     0
102
RTVSPost2010PropOp35
 70
     1
102
RTVSPost2010Prop36
280
     0
102
RTVSPost2010PropOp36
 70
     1
102
RTVSPost2010Prop37
 90
       50
102
RTVSPost2010PropOp37
 70
     1
102
RTVSPost2010Prop38
140
0.0
102
RTVSPost2010PropOp38
 70
     1
102
RTVSPost2010Prop39
140
1.0
102
RTVSPost2010PropOp39
 70
     1
102
RTVSPost2010Prop40
 90
        0
102
RTVSPost2010PropOp40
 70
     1
102
RTVSPost2010Prop41ColorIndex
 90
       18
102
RTVSPost2010Prop41ColorRGB
 90
        0
102
RTVSPost2010PropOp41
 70
     1
102
RTVSPost2010Prop42
 90
       50
102
RTVSPost2010PropOp42
 70
     1
102
RTVSPost2010Prop43
 90
        3
102
RTVSPost2010PropOp43
 70
     1
102
RTVSPost2010Prop44ColorIndex
 90
        5
102
RTVSPost2010Prop44ColorRGB
 90
      255
102
RTVSPost2010PropOp44
 70
     1
102
RTVSPost2010Prop45
280
     0
102
RTVSPost2010PropOp45
 70
     1
102
RTVSPost2010Prop46
 90
       50
102
RTVSPost2010PropOp46
 70
     1
102
RTVSPost2010Prop47
 90
       50
102
RTVSPost2010PropOp47
 70
     1
102
RTVSPost2010Prop48
 90
       50
102
RTVSPost2010PropOp48
 70
     1
102
RTVSPost2010Prop49
280
     0
102
RTVSPost2010PropOp49
 70
     1
102
RTVSPost2010Prop50
 90
       50
102
RTVSPost2010PropOp50
 70
     1
102
RTVSPost2010Prop51ColorIndex
 90
      256
102
RTVSPost2010Prop51ColorRGB
 90
-16777216
102
RTVSPost2010PropOp51
 70
     0
102
RTVSPost2010Prop52
140
1.0
102
RTVSPost2010PropOp52
 70
     0
102
RTVSPost2010Prop53
 90
        2
102
RTVSPost2010PropOp53
 70
     1
102
RTVSPost2010Prop54
  1
strokes_ogs.tif
102
RTVSPost2010PropOp54
 70
     1
102
RTVSPost2010Prop55
280
     0
102
RTVSPost2010PropOp55
 70
     1
102
RTVSPost2010Prop56
140
1.0
102
RTVSPost2010PropOp56
 70
     1
102
RTVSPost2010Prop57
140
1.0
102
RTVSPost2010PropOp57
 70
     1
102
RTVSPropertyOp0
 70
     1
102
RTVSPropertyOp1
 70
     1
102
RTVSPropertyOp2
 70
     1
102
RTVSPropertyOp3
 70
     1
102
RTVSPropertyOp4
 70
     1
102
RTVSPropertyOp5
 70
     1
102
RTVSPropertyOp6
 70
     1
102
RTVSPropertyOp7
 70
     1
102
RTVSPropertyOp8
 70
     1
102
RTVSPropertyOp9
 70
     1
102
RTVSPropertyOp10
 70
     1
102
RTVSPropertyOp11
 70
     1
102
RTVSPropertyOp12
 70
     1
102
RTVSPropertyOp13
 70
     1
102
RTVSPropertyOp14
 70
     1
102
RTVSPropertyOp15
 70
     1
102
RTVSPropertyOp16
 70
     1
102
RTVSPropertyOp17
 70
     1
102
RTVSPropertyOp18
 70
     1
102
RTVSPropertyOp19
 70
     1
102
RTVSPropertyOp20
 70
     1
102
RTVSPropertyOp21
 70
     1
102
RTVSPropertyOp22
 70
     1
102
RTVSPropertyOp23
 70
     1
102
RTVSPropertyOp24
 70
     1
102
RTVSPropertyOp25
 70
     1
102
RTVSPropertyOp26
 70
     1
102
RTVSPropertyOp27
 70
     1
102
RTVSPropertyOp28
 70
     1
102
RTVSPropertyOp29
 70
     1
102
RTVSPropertyOp30
 70
     1
102
RTVSPropertyOp31
 70
     1
102
RTVSPropertyOp32
 70
     1
102
RTVSPropertyOp33
 70
     1
102
RTVSPropertyOp34
 70
     1
102
RTVSPropertyOp35
 70
     1
102
RTVSPropertyOp36
 70
     1
102
RTVSPropertyOp37
 70
     1
102
RTVSPropertyOp38
 70
     1
102
RTVSPropertyOp39
 70
     1
102
RTVSPropertyOp40
 70
     1
102
RTVSPropertyOp41
 70
     1
102
RTVSPropertyOp42
 70
     1
102
RTVSPropertyOp43
 70
     1
102
RTVSPropertyOp44
 70
     1
102
RTVSPropertyOp45
 70
     1
102
RTVSPropertyOp46
 70
     1
102
RTVSPropertyOp47
 70
     1
102
RTVSPropertyOp48
 70
     1
102
RTVSPropertyOp49
 70
     1
102
RTVSPropertyOp50
 70
     1
102
RTVSPropertyOp51
 70
     0
102
RTVSPropertyOp52
 70
     0
102
RTVSPropertyOp53
 70
     1
102
RTVSPropertyOp54
 70
     1
102
RTVSPropertyOp55
 70
     1
102
RTVSPropertyOp56
 70
     1
102
RTVSPropertyOp57
 70
     1
102
RTVSPropertyOp58
 70
     1
102
RTVSPropertyOp59
 70
     1
102
RTVSPropertyOp60
 70
     1
102
RTVSPropertyOp61
 70
     1
102
RTVSPropertyOp62
 70
     1
  0
XRECORD
  5
616
102
{ACAD_REACTORS
330
615
102
}
330
615
100
AcDbXrecord
280
     1
102
RTVSPost2010Prop28
280
     0
102
RTVSPost2010PropOp28
 70
     1
102
RTVSPost2010Prop29
280
     1
102
RTVSPost2010PropOp29
 70
     1
102
RTVSPost2010Prop30
280
     1
102
RTVSPost2010PropOp30
 70
     1
102
RTVSPost2010Prop31
280
     0
102
RTVSPost2010PropOp31
 70
     1
102
RTVSPost2010Prop32
280
     0
102
RTVSPost2010PropOp32
 70
     1
102
RTVSPost2010Prop33
280
     0
102
RTVSPost2010PropOp33
 70
     1
102
RTVSPost2010Prop34
280
     0
102
RTVSPost2010PropOp34
 70
     1
102
RTVSPost2010Prop35
280
     0
102
RTVSPost2010PropOp35
 70
     1
102
RTVSPost2010Prop36
280
     0
102
RTVSPost2010PropOp36
 70
     1
102
RTVSPost2010Prop37
 90
       50
102
RTVSPost2010PropOp37
 70
     1
102
RTVSPost2010Prop38
140
0.0
102
RTVSPost2010PropOp38
 70
     1
102
RTVSPost2010Prop39
140
1.0
102
RTVSPost2010PropOp39
 70
     1
102
RTVSPost2010Prop40
 90
        0
102
RTVSPost2010PropOp40
 70
     1
102
RTVSPost2010Prop41ColorIndex
 90
       18
102
RTVSPost2010Prop41ColorRGB
 90
        0
102
RTVSPost2010PropOp41
 70
     1
102
RTVSPost2010Prop42
 90
       50
102
RTVSPost2010PropOp42
 70
     1
102
RTVSPost2010Prop43
 90
        3
102
RTVSPost2010PropOp43
 70
     1
102
RTVSPost2010Prop44ColorIndex
 90
        5
102
RTVSPost2010Prop44ColorRGB
 90
      255
102
RTVSPost2010PropOp44
 70
     1
102
RTVSPost2010Prop45
280
     0
102
RTVSPost2010PropOp45
 70
     1
102
RTVSPost2010Prop46
 90
       50
102
RTVSPost2010PropOp46
 70
     1
102
RTVSPost2010Prop47
 90
       50
102
RTVSPost2010PropOp47
 70
     1
102
RTVSPost2010Prop48
 90
       50
102
RTVSPost2010PropOp48
 70
     1
102
RTVSPost2010Prop49
280
     0
102
RTVSPost2010PropOp49
 70
     1
102
RTVSPost2010Prop50
 90
       50
102
RTVSPost2010PropOp50
 70
     1
102
RTVSPost2010Prop51ColorIndex
 90
      256
102
RTVSPost2010Prop51ColorRGB
 90
-16777216
102
RTVSPost2010PropOp51
 70
     0
102
RTVSPost2010Prop52
140
1.0
102
RTVSPost2010PropOp52
 70
     0
102
RTVSPost2010Prop53
 90
        2
102
RTVSPost2010PropOp53
 70
     1
102
RTVSPost2010Prop54
  1
strokes_ogs.tif
102
RTVSPost2010PropOp54
 70
     1
102
RTVSPost2010Prop55
280
     0
102
RTVSPost2010PropOp55
 70
     1
102
RTVSPost2010Prop56
140
1.0
102
RTVSPost2010PropOp56
 70
     1
102
RTVSPost2010Prop57
140
1.0
102
RTVSPost2010PropOp57
 70
     1
102
RTVSPropertyOp0
 70
     1
102
RTVSPropertyOp1
 70
     1
102
RTVSPropertyOp2
 70
     1
102
RTVSPropertyOp3
 70
     1
102
RTVSPropertyOp4
 70
     1
102
RTVSPropertyOp5
 70
     1
102
RTVSPropertyOp6
 70
     1
102
RTVSPropertyOp7
 70
     1
102
RTVSPropertyOp8
 70
     1
102
RTVSPropertyOp9
 70
     1
102
RTVSPropertyOp10
 70
     1
102
RTVSPropertyOp11
 70
     1
102
RTVSPropertyOp12
 70
     1
102
RTVSPropertyOp13
 70
     1
102
RTVSPropertyOp14
 70
     1
102
RTVSPropertyOp15
 70
     1
102
RTVSPropertyOp16
 70
     1
102
RTVSPropertyOp17
 70
     1
102
RTVSPropertyOp18
 70
     1
102
RTVSPropertyOp19
 70
     1
102
RTVSPropertyOp20
 70
     1
102
RTVSPropertyOp21
 70
     1
102
RTVSPropertyOp22
 70
     1
102
RTVSPropertyOp23
 70
     1
102
RTVSPropertyOp24
 70
     1
102
RTVSPropertyOp25
 70
     1
102
RTVSPropertyOp26
 70
     1
102
RTVSPropertyOp27
 70
     1
102
RTVSPropertyOp28
 70
     1
102
RTVSPropertyOp29
 70
     1
102
RTVSPropertyOp30
 70
     1
102
RTVSPropertyOp31
 70
     1
102
RTVSPropertyOp32
 70
     1
102
RTVSPropertyOp33
 70
     1
102
RTVSPropertyOp34
 70
     1
102
RTVSPropertyOp35
 70
     1
102
RTVSPropertyOp36
 70
     1
102
RTVSPropertyOp37
 70
     1
102
RTVSPropertyOp38
 70
     1
102
RTVSPropertyOp39
 70
     1
102
RTVSPropertyOp40
 70
     1
102
RTVSPropertyOp41
 70
     1
102
RTVSPropertyOp42
 70
     1
102
RTVSPropertyOp43
 70
     1
102
RTVSPropertyOp44
 70
     1
102
RTVSPropertyOp45
 70
     1
102
RTVSPropertyOp46
 70
     1
102
RTVSPropertyOp47
 70
     1
102
RTVSPropertyOp48
 70
     1
102
RTVSPropertyOp49
 70
     1
102
RTVSPropertyOp50
 70
     1
102
RTVSPropertyOp51
 70
     0
102
RTVSPropertyOp52
 70
     0
102
RTVSPropertyOp53
 70
     1
102
RTVSPropertyOp54
 70
     1
102
RTVSPropertyOp55
 70
     1
102
RTVSPropertyOp56
 70
     1
102
RTVSPropertyOp57
 70
     1
102
RTVSPropertyOp58
 70
     1
102
RTVSPropertyOp59
 70
     1
102
RTVSPropertyOp60
 70
     1
102
RTVSPropertyOp61
 70
     1
102
RTVSPropertyOp62
 70
     1
  0
XRECORD
  5
614
102
{ACAD_REACTORS
330
613
102
}
330
613
100
AcDbXrecord
280
     1
102
RTVSPost2010Prop28
280
     0
102
RTVSPost2010PropOp28
 70
     1
102
RTVSPost2010Prop29
280
     1
102
RTVSPost2010PropOp29
 70
     1
102
RTVSPost2010Prop30
280
     1
102
RTVSPost2010PropOp30
 70
     1
102
RTVSPost2010Prop31
280
     0
102
RTVSPost2010PropOp31
 70
     1
102
RTVSPost2010Prop32
280
     0
102
RTVSPost2010PropOp32
 70
     1
102
RTVSPost2010Prop33
280
     0
102
RTVSPost2010PropOp33
 70
     1
102
RTVSPost2010Prop34
280
     0
102
RTVSPost2010PropOp34
 70
     1
102
RTVSPost2010Prop35
280
     0
102
RTVSPost2010PropOp35
 70
     1
102
RTVSPost2010Prop36
280
     0
102
RTVSPost2010PropOp36
 70
     1
102
RTVSPost2010Prop37
 90
       50
102
RTVSPost2010PropOp37
 70
     1
102
RTVSPost2010Prop38
140
0.0
102
RTVSPost2010PropOp38
 70
     1
102
RTVSPost2010Prop39
140
1.0
102
RTVSPost2010PropOp39
 70
     1
102
RTVSPost2010Prop40
 90
        0
102
RTVSPost2010PropOp40
 70
     1
102
RTVSPost2010Prop41ColorIndex
 90
       18
102
RTVSPost2010Prop41ColorRGB
 90
        0
102
RTVSPost2010PropOp41
 70
     1
102
RTVSPost2010Prop42
 90
       50
102
RTVSPost2010PropOp42
 70
     1
102
RTVSPost2010Prop43
 90
        3
102
RTVSPost2010PropOp43
 70
     1
102
RTVSPost2010Prop44ColorIndex
 90
        5
102
RTVSPost2010Prop44ColorRGB
 90
      255
102
RTVSPost2010PropOp44
 70
     1
102
RTVSPost2010Prop45
280
     0
102
RTVSPost2010PropOp45
 70
     1
102
RTVSPost2010Prop46
 90
       50
102
RTVSPost2010PropOp46
 70
     1
102
RTVSPost2010Prop47
 90
       50
102
RTVSPost2010PropOp47
 70
     1
102
RTVSPost2010Prop48
 90
       50
102
RTVSPost2010PropOp48
 70
     1
102
RTVSPost2010Prop49
280
     0
102
RTVSPost2010PropOp49
 70
     1
102
RTVSPost2010Prop50
 90
       50
102
RTVSPost2010PropOp50
 70
     1
102
RTVSPost2010Prop51ColorIndex
 90
      256
102
RTVSPost2010Prop51ColorRGB
 90
-16777216
102
RTVSPost2010PropOp51
 70
     0
102
RTVSPost2010Prop52
140
1.0
102
RTVSPost2010PropOp52
 70
     0
102
RTVSPost2010Prop53
 90
        2
102
RTVSPost2010PropOp53
 70
     1
102
RTVSPost2010Prop54
  1
strokes_ogs.tif
102
RTVSPost2010PropOp54
 70
     1
102
RTVSPost2010Prop55
280
     0
102
RTVSPost2010PropOp55
 70
     1
102
RTVSPost2010Prop56
140
1.0
102
RTVSPost2010PropOp56
 70
     1
102
RTVSPost2010Prop57
140
1.0
102
RTVSPost2010PropOp57
 70
     1
102
RTVSPropertyOp0
 70
     1
102
RTVSPropertyOp1
 70
     1
102
RTVSPropertyOp2
 70
     1
102
RTVSPropertyOp3
 70
     1
102
RTVSPropertyOp4
 70
     1
102
RTVSPropertyOp5
 70
     1
102
RTVSPropertyOp6
 70
     1
102
RTVSPropertyOp7
 70
     1
102
RTVSPropertyOp8
 70
     1
102
RTVSPropertyOp9
 70
     1
102
RTVSPropertyOp10
 70
     1
102
RTVSPropertyOp11
 70
     1
102
RTVSPropertyOp12
 70
     1
102
RTVSPropertyOp13
 70
     1
102
RTVSPropertyOp14
 70
     1
102
RTVSPropertyOp15
 70
     1
102
RTVSPropertyOp16
 70
     1
102
RTVSPropertyOp17
 70
     1
102
RTVSPropertyOp18
 70
     1
102
RTVSPropertyOp19
 70
     1
102
RTVSPropertyOp20
 70
     1
102
RTVSPropertyOp21
 70
     1
102
RTVSPropertyOp22
 70
     1
102
RTVSPropertyOp23
 70
     1
102
RTVSPropertyOp24
 70
     1
102
RTVSPropertyOp25
 70
     1
102
RTVSPropertyOp26
 70
     1
102
RTVSPropertyOp27
 70
     1
102
RTVSPropertyOp28
 70
     1
102
RTVSPropertyOp29
 70
     1
102
RTVSPropertyOp30
 70
     1
102
RTVSPropertyOp31
 70
     1
102
RTVSPropertyOp32
 70
     1
102
RTVSPropertyOp33
 70
     1
102
RTVSPropertyOp34
 70
     1
102
RTVSPropertyOp35
 70
     1
102
RTVSPropertyOp36
 70
     1
102
RTVSPropertyOp37
 70
     1
102
RTVSPropertyOp38
 70
     1
102
RTVSPropertyOp39
 70
     1
102
RTVSPropertyOp40
 70
     1
102
RTVSPropertyOp41
 70
     1
102
RTVSPropertyOp42
 70
     1
102
RTVSPropertyOp43
 70
     1
102
RTVSPropertyOp44
 70
     1
102
RTVSPropertyOp45
 70
     1
102
RTVSPropertyOp46
 70
     1
102
RTVSPropertyOp47
 70
     1
102
RTVSPropertyOp48
 70
     1
102
RTVSPropertyOp49
 70
     1
102
RTVSPropertyOp50
 70
     1
102
RTVSPropertyOp51
 70
     0
102
RTVSPropertyOp52
 70
     0
102
RTVSPropertyOp53
 70
     1
102
RTVSPropertyOp54
 70
     1
102
RTVSPropertyOp55
 70
     1
102
RTVSPropertyOp56
 70
     1
102
RTVSPropertyOp57
 70
     1
102
RTVSPropertyOp58
 70
     1
102
RTVSPropertyOp59
 70
     1
102
RTVSPropertyOp60
 70
     1
102
RTVSPropertyOp61
 70
     1
102
RTVSPropertyOp62
 70
     1
  0
XRECORD
  5
60E
102
{ACAD_REACTORS
330
60D
102
}
330
60D
100
AcDbXrecord
280
     1
102
RTVSPost2010Prop28
280
     0
102
RTVSPost2010PropOp28
 70
     1
102
RTVSPost2010Prop29
280
     1
102
RTVSPost2010PropOp29
 70
     1
102
RTVSPost2010Prop30
280
     1
102
RTVSPost2010PropOp30
 70
     1
102
RTVSPost2010Prop31
280
     0
102
RTVSPost2010PropOp31
 70
     1
102
RTVSPost2010Prop32
280
     0
102
RTVSPost2010PropOp32
 70
     1
102
RTVSPost2010Prop33
280
     0
102
RTVSPost2010PropOp33
 70
     1
102
RTVSPost2010Prop34
280
     0
102
RTVSPost2010PropOp34
 70
     1
102
RTVSPost2010Prop35
280
     0
102
RTVSPost2010PropOp35
 70
     1
102
RTVSPost2010Prop36
280
     0
102
RTVSPost2010PropOp36
 70
     1
102
RTVSPost2010Prop37
 90
       50
102
RTVSPost2010PropOp37
 70
     1
102
RTVSPost2010Prop38
140
0.0
102
RTVSPost2010PropOp38
 70
     1
102
RTVSPost2010Prop39
140
1.0
102
RTVSPost2010PropOp39
 70
     1
102
RTVSPost2010Prop40
 90
        0
102
RTVSPost2010PropOp40
 70
     1
102
RTVSPost2010Prop41ColorIndex
 90
       18
102
RTVSPost2010Prop41ColorRGB
 90
        0
102
RTVSPost2010PropOp41
 70
     1
102
RTVSPost2010Prop42
 90
       50
102
RTVSPost2010PropOp42
 70
     1
102
RTVSPost2010Prop43
 90
        3
102
RTVSPost2010PropOp43
 70
     1
102
RTVSPost2010Prop44ColorIndex
 90
        5
102
RTVSPost2010Prop44ColorRGB
 90
      255
102
RTVSPost2010PropOp44
 70
     1
102
RTVSPost2010Prop45
280
     0
102
RTVSPost2010PropOp45
 70
     1
102
RTVSPost2010Prop46
 90
       50
102
RTVSPost2010PropOp46
 70
     1
102
RTVSPost2010Prop47
 90
       50
102
RTVSPost2010PropOp47
 70
     1
102
RTVSPost2010Prop48
 90
       50
102
RTVSPost2010PropOp48
 70
     1
102
RTVSPost2010Prop49
280
     0
102
RTVSPost2010PropOp49
 70
     1
102
RTVSPost2010Prop50
 90
       50
102
RTVSPost2010PropOp50
 70
     1
102
RTVSPost2010Prop51ColorIndex
 90
      256
102
RTVSPost2010Prop51ColorRGB
 90
-16777216
102
RTVSPost2010PropOp51
 70
     0
102
RTVSPost2010Prop52
140
1.0
102
RTVSPost2010PropOp52
 70
     0
102
RTVSPost2010Prop53
 90
        2
102
RTVSPost2010PropOp53
 70
     1
102
RTVSPost2010Prop54
  1
strokes_ogs.tif
102
RTVSPost2010PropOp54
 70
     1
102
RTVSPost2010Prop55
280
     0
102
RTVSPost2010PropOp55
 70
     1
102
RTVSPost2010Prop56
140
1.0
102
RTVSPost2010PropOp56
 70
     1
102
RTVSPost2010Prop57
140
1.0
102
RTVSPost2010PropOp57
 70
     1
102
RTVSPropertyOp0
 70
     1
102
RTVSPropertyOp1
 70
     1
102
RTVSPropertyOp2
 70
     1
102
RTVSPropertyOp3
 70
     1
102
RTVSPropertyOp4
 70
     1
102
RTVSPropertyOp5
 70
     1
102
RTVSPropertyOp6
 70
     1
102
RTVSPropertyOp7
 70
     1
102
RTVSPropertyOp8
 70
     1
102
RTVSPropertyOp9
 70
     1
102
RTVSPropertyOp10
 70
     1
102
RTVSPropertyOp11
 70
     1
102
RTVSPropertyOp12
 70
     1
102
RTVSPropertyOp13
 70
     1
102
RTVSPropertyOp14
 70
     1
102
RTVSPropertyOp15
 70
     1
102
RTVSPropertyOp16
 70
     1
102
RTVSPropertyOp17
 70
     1
102
RTVSPropertyOp18
 70
     1
102
RTVSPropertyOp19
 70
     1
102
RTVSPropertyOp20
 70
     1
102
RTVSPropertyOp21
 70
     1
102
RTVSPropertyOp22
 70
     1
102
RTVSPropertyOp23
 70
     1
102
RTVSPropertyOp24
 70
     1
102
RTVSPropertyOp25
 70
     1
102
RTVSPropertyOp26
 70
     1
102
RTVSPropertyOp27
 70
     1
102
RTVSPropertyOp28
 70
     1
102
RTVSPropertyOp29
 70
     1
102
RTVSPropertyOp30
 70
     1
102
RTVSPropertyOp31
 70
     1
102
RTVSPropertyOp32
 70
     1
102
RTVSPropertyOp33
 70
     1
102
RTVSPropertyOp34
 70
     1
102
RTVSPropertyOp35
 70
     1
102
RTVSPropertyOp36
 70
     1
102
RTVSPropertyOp37
 70
     1
102
RTVSPropertyOp38
 70
     1
102
RTVSPropertyOp39
 70
     1
102
RTVSPropertyOp40
 70
     1
102
RTVSPropertyOp41
 70
     1
102
RTVSPropertyOp42
 70
     1
102
RTVSPropertyOp43
 70
     1
102
RTVSPropertyOp44
 70
     1
102
RTVSPropertyOp45
 70
     1
102
RTVSPropertyOp46
 70
     1
102
RTVSPropertyOp47
 70
     1
102
RTVSPropertyOp48
 70
     1
102
RTVSPropertyOp49
 70
     1
102
RTVSPropertyOp50
 70
     1
102
RTVSPropertyOp51
 70
     0
102
RTVSPropertyOp52
 70
     0
102
RTVSPropertyOp53
 70
     1
102
RTVSPropertyOp54
 70
     1
102
RTVSPropertyOp55
 70
     1
102
RTVSPropertyOp56
 70
     1
102
RTVSPropertyOp57
 70
     1
102
RTVSPropertyOp58
 70
     1
102
RTVSPropertyOp59
 70
     1
102
RTVSPropertyOp60
 70
     1
102
RTVSPropertyOp61
 70
     1
102
RTVSPropertyOp62
 70
     1
  0
XRECORD
  5
610
102
{ACAD_REACTORS
330
60F
102
}
330
60F
100
AcDbXrecord
280
     1
102
RTVSPost2010Prop28
280
     0
102
RTVSPost2010PropOp28
 70
     1
102
RTVSPost2010Prop29
280
     1
102
RTVSPost2010PropOp29
 70
     1
102
RTVSPost2010Prop30
280
     1
102
RTVSPost2010PropOp30
 70
     1
102
RTVSPost2010Prop31
280
     0
102
RTVSPost2010PropOp31
 70
     1
102
RTVSPost2010Prop32
280
     0
102
RTVSPost2010PropOp32
 70
     1
102
RTVSPost2010Prop33
280
     0
102
RTVSPost2010PropOp33
 70
     1
102
RTVSPost2010Prop34
280
     0
102
RTVSPost2010PropOp34
 70
     1
102
RTVSPost2010Prop35
280
     0
102
RTVSPost2010PropOp35
 70
     1
102
RTVSPost2010Prop36
280
     0
102
RTVSPost2010PropOp36
 70
     1
102
RTVSPost2010Prop37
 90
       50
102
RTVSPost2010PropOp37
 70
     1
102
RTVSPost2010Prop38
140
0.0
102
RTVSPost2010PropOp38
 70
     1
102
RTVSPost2010Prop39
140
1.0
102
RTVSPost2010PropOp39
 70
     1
102
RTVSPost2010Prop40
 90
        0
102
RTVSPost2010PropOp40
 70
     1
102
RTVSPost2010Prop41ColorIndex
 90
       18
102
RTVSPost2010Prop41ColorRGB
 90
        0
102
RTVSPost2010PropOp41
 70
     1
102
RTVSPost2010Prop42
 90
       50
102
RTVSPost2010PropOp42
 70
     1
102
RTVSPost2010Prop43
 90
        3
102
RTVSPost2010PropOp43
 70
     1
102
RTVSPost2010Prop44ColorIndex
 90
        5
102
RTVSPost2010Prop44ColorRGB
 90
      255
102
RTVSPost2010PropOp44
 70
     1
102
RTVSPost2010Prop45
280
     0
102
RTVSPost2010PropOp45
 70
     1
102
RTVSPost2010Prop46
 90
       50
102
RTVSPost2010PropOp46
 70
     1
102
RTVSPost2010Prop47
 90
       50
102
RTVSPost2010PropOp47
 70
     1
102
RTVSPost2010Prop48
 90
       50
102
RTVSPost2010PropOp48
 70
     1
102
RTVSPost2010Prop49
280
     0
102
RTVSPost2010PropOp49
 70
     1
102
RTVSPost2010Prop50
 90
       50
102
RTVSPost2010PropOp50
 70
     1
102
RTVSPost2010Prop51ColorIndex
 90
      256
102
RTVSPost2010Prop51ColorRGB
 90
-16777216
102
RTVSPost2010PropOp51
 70
     0
102
RTVSPost2010Prop52
140
1.0
102
RTVSPost2010PropOp52
 70
     0
102
RTVSPost2010Prop53
 90
        2
102
RTVSPost2010PropOp53
 70
     1
102
RTVSPost2010Prop54
  1
strokes_ogs.tif
102
RTVSPost2010PropOp54
 70
     1
102
RTVSPost2010Prop55
280
     0
102
RTVSPost2010PropOp55
 70
     1
102
RTVSPost2010Prop56
140
1.0
102
RTVSPost2010PropOp56
 70
     1
102
RTVSPost2010Prop57
140
1.0
102
RTVSPost2010PropOp57
 70
     1
102
RTVSPropertyOp0
 70
     1
102
RTVSPropertyOp1
 70
     1
102
RTVSPropertyOp2
 70
     1
102
RTVSPropertyOp3
 70
     1
102
RTVSPropertyOp4
 70
     1
102
RTVSPropertyOp5
 70
     1
102
RTVSPropertyOp6
 70
     1
102
RTVSPropertyOp7
 70
     1
102
RTVSPropertyOp8
 70
     1
102
RTVSPropertyOp9
 70
     1
102
RTVSPropertyOp10
 70
     1
102
RTVSPropertyOp11
 70
     1
102
RTVSPropertyOp12
 70
     1
102
RTVSPropertyOp13
 70
     1
102
RTVSPropertyOp14
 70
     1
102
RTVSPropertyOp15
 70
     1
102
RTVSPropertyOp16
 70
     1
102
RTVSPropertyOp17
 70
     1
102
RTVSPropertyOp18
 70
     1
102
RTVSPropertyOp19
 70
     1
102
RTVSPropertyOp20
 70
     1
102
RTVSPropertyOp21
 70
     1
102
RTVSPropertyOp22
 70
     1
102
RTVSPropertyOp23
 70
     1
102
RTVSPropertyOp24
 70
     1
102
RTVSPropertyOp25
 70
     1
102
RTVSPropertyOp26
 70
     1
102
RTVSPropertyOp27
 70
     1
102
RTVSPropertyOp28
 70
     1
102
RTVSPropertyOp29
 70
     1
102
RTVSPropertyOp30
 70
     1
102
RTVSPropertyOp31
 70
     1
102
RTVSPropertyOp32
 70
     1
102
RTVSPropertyOp33
 70
     1
102
RTVSPropertyOp34
 70
     1
102
RTVSPropertyOp35
 70
     1
102
RTVSPropertyOp36
 70
     1
102
RTVSPropertyOp37
 70
     1
102
RTVSPropertyOp38
 70
     1
102
RTVSPropertyOp39
 70
     1
102
RTVSPropertyOp40
 70
     1
102
RTVSPropertyOp41
 70
     1
102
RTVSPropertyOp42
 70
     1
102
RTVSPropertyOp43
 70
     1
102
RTVSPropertyOp44
 70
     1
102
RTVSPropertyOp45
 70
     1
102
RTVSPropertyOp46
 70
     1
102
RTVSPropertyOp47
 70
     1
102
RTVSPropertyOp48
 70
     1
102
RTVSPropertyOp49
 70
     1
102
RTVSPropertyOp50
 70
     1
102
RTVSPropertyOp51
 70
     0
102
RTVSPropertyOp52
 70
     0
102
RTVSPropertyOp53
 70
     1
102
RTVSPropertyOp54
 70
     1
102
RTVSPropertyOp55
 70
     1
102
RTVSPropertyOp56
 70
     1
102
RTVSPropertyOp57
 70
     1
102
RTVSPropertyOp58
 70
     1
102
RTVSPropertyOp59
 70
     1
102
RTVSPropertyOp60
 70
     1
102
RTVSPropertyOp61
 70
     1
102
RTVSPropertyOp62
 70
     1
  0
XRECORD
  5
606
102
{ACAD_REACTORS
330
605
102
}
330
605
100
AcDbXrecord
280
     1
102
RTVSPost2010Prop28
280
     0
102
RTVSPost2010PropOp28
 70
     1
102
RTVSPost2010Prop29
280
     1
102
RTVSPost2010PropOp29
 70
     1
102
RTVSPost2010Prop30
280
     1
102
RTVSPost2010PropOp30
 70
     1
102
RTVSPost2010Prop31
280
     0
102
RTVSPost2010PropOp31
 70
     1
102
RTVSPost2010Prop32
280
     0
102
RTVSPost2010PropOp32
 70
     1
102
RTVSPost2010Prop33
280
     0
102
RTVSPost2010PropOp33
 70
     1
102
RTVSPost2010Prop34
280
     0
102
RTVSPost2010PropOp34
 70
     1
102
RTVSPost2010Prop35
280
     0
102
RTVSPost2010PropOp35
 70
     1
102
RTVSPost2010Prop36
280
     0
102
RTVSPost2010PropOp36
 70
     1
102
RTVSPost2010Prop37
 90
       50
102
RTVSPost2010PropOp37
 70
     1
102
RTVSPost2010Prop38
140
0.0
102
RTVSPost2010PropOp38
 70
     1
102
RTVSPost2010Prop39
140
1.0
102
RTVSPost2010PropOp39
 70
     1
102
RTVSPost2010Prop40
 90
        0
102
RTVSPost2010PropOp40
 70
     1
102
RTVSPost2010Prop41ColorIndex
 90
       18
102
RTVSPost2010Prop41ColorRGB
 90
        0
102
RTVSPost2010PropOp41
 70
     1
102
RTVSPost2010Prop42
 90
       50
102
RTVSPost2010PropOp42
 70
     1
102
RTVSPost2010Prop43
 90
        3
102
RTVSPost2010PropOp43
 70
     1
102
RTVSPost2010Prop44ColorIndex
 90
        5
102
RTVSPost2010Prop44ColorRGB
 90
      255
102
RTVSPost2010PropOp44
 70
     1
102
RTVSPost2010Prop45
280
     0
102
RTVSPost2010PropOp45
 70
     1
102
RTVSPost2010Prop46
 90
       50
102
RTVSPost2010PropOp46
 70
     1
102
RTVSPost2010Prop47
 90
       50
102
RTVSPost2010PropOp47
 70
     1
102
RTVSPost2010Prop48
 90
       50
102
RTVSPost2010PropOp48
 70
     1
102
RTVSPost2010Prop49
280
     0
102
RTVSPost2010PropOp49
 70
     1
102
RTVSPost2010Prop50
 90
       50
102
RTVSPost2010PropOp50
 70
     1
102
RTVSPost2010Prop51ColorIndex
 90
      256
102
RTVSPost2010Prop51ColorRGB
 90
-16777216
102
RTVSPost2010PropOp51
 70
     0
102
RTVSPost2010Prop52
140
1.0
102
RTVSPost2010PropOp52
 70
     0
102
RTVSPost2010Prop53
 90
        2
102
RTVSPost2010PropOp53
 70
     1
102
RTVSPost2010Prop54
  1
strokes_ogs.tif
102
RTVSPost2010PropOp54
 70
     1
102
RTVSPost2010Prop55
280
     0
102
RTVSPost2010PropOp55
 70
     1
102
RTVSPost2010Prop56
140
1.0
102
RTVSPost2010PropOp56
 70
     1
102
RTVSPost2010Prop57
140
1.0
102
RTVSPost2010PropOp57
 70
     1
102
RTVSPropertyOp0
 70
     1
102
RTVSPropertyOp1
 70
     1
102
RTVSPropertyOp2
 70
     1
102
RTVSPropertyOp3
 70
     1
102
RTVSPropertyOp4
 70
     1
102
RTVSPropertyOp5
 70
     1
102
RTVSPropertyOp6
 70
     1
102
RTVSPropertyOp7
 70
     1
102
RTVSPropertyOp8
 70
     1
102
RTVSPropertyOp9
 70
     1
102
RTVSPropertyOp10
 70
     1
102
RTVSPropertyOp11
 70
     1
102
RTVSPropertyOp12
 70
     1
102
RTVSPropertyOp13
 70
     1
102
RTVSPropertyOp14
 70
     1
102
RTVSPropertyOp15
 70
     1
102
RTVSPropertyOp16
 70
     1
102
RTVSPropertyOp17
 70
     1
102
RTVSPropertyOp18
 70
     1
102
RTVSPropertyOp19
 70
     1
102
RTVSPropertyOp20
 70
     1
102
RTVSPropertyOp21
 70
     1
102
RTVSPropertyOp22
 70
     1
102
RTVSPropertyOp23
 70
     1
102
RTVSPropertyOp24
 70
     1
102
RTVSPropertyOp25
 70
     1
102
RTVSPropertyOp26
 70
     1
102
RTVSPropertyOp27
 70
     1
102
RTVSPropertyOp28
 70
     1
102
RTVSPropertyOp29
 70
     1
102
RTVSPropertyOp30
 70
     1
102
RTVSPropertyOp31
 70
     1
102
RTVSPropertyOp32
 70
     1
102
RTVSPropertyOp33
 70
     1
102
RTVSPropertyOp34
 70
     1
102
RTVSPropertyOp35
 70
     1
102
RTVSPropertyOp36
 70
     1
102
RTVSPropertyOp37
 70
     1
102
RTVSPropertyOp38
 70
     1
102
RTVSPropertyOp39
 70
     1
102
RTVSPropertyOp40
 70
     1
102
RTVSPropertyOp41
 70
     1
102
RTVSPropertyOp42
 70
     1
102
RTVSPropertyOp43
 70
     1
102
RTVSPropertyOp44
 70
     1
102
RTVSPropertyOp45
 70
     1
102
RTVSPropertyOp46
 70
     1
102
RTVSPropertyOp47
 70
     1
102
RTVSPropertyOp48
 70
     1
102
RTVSPropertyOp49
 70
     1
102
RTVSPropertyOp50
 70
     1
102
RTVSPropertyOp51
 70
     0
102
RTVSPropertyOp52
 70
     0
102
RTVSPropertyOp53
 70
     1
102
RTVSPropertyOp54
 70
     1
102
RTVSPropertyOp55
 70
     1
102
RTVSPropertyOp56
 70
     1
102
RTVSPropertyOp57
 70
     1
102
RTVSPropertyOp58
 70
     1
102
RTVSPropertyOp59
 70
     1
102
RTVSPropertyOp60
 70
     1
102
RTVSPropertyOp61
 70
     1
102
RTVSPropertyOp62
 70
     1
  0
XRECORD
  5
5FA
102
{ACAD_REACTORS
330
5F9
102
}
330
5F9
100
AcDbXrecord
280
     1
102
RTVSPost2010Prop28
280
     0
102
RTVSPost2010PropOp28
 70
     1
102
RTVSPost2010Prop29
280
     1
102
RTVSPost2010PropOp29
 70
     1
102
RTVSPost2010Prop30
280
     1
102
RTVSPost2010PropOp30
 70
     1
102
RTVSPost2010Prop31
280
     0
102
RTVSPost2010PropOp31
 70
     1
102
RTVSPost2010Prop32
280
     0
102
RTVSPost2010PropOp32
 70
     1
102
RTVSPost2010Prop33
280
     0
102
RTVSPost2010PropOp33
 70
     1
102
RTVSPost2010Prop34
280
     0
102
RTVSPost2010PropOp34
 70
     1
102
RTVSPost2010Prop35
280
     0
102
RTVSPost2010PropOp35
 70
     1
102
RTVSPost2010Prop36
280
     0
102
RTVSPost2010PropOp36
 70
     1
102
RTVSPost2010Prop37
 90
       50
102
RTVSPost2010PropOp37
 70
     1
102
RTVSPost2010Prop38
140
0.0
102
RTVSPost2010PropOp38
 70
     1
102
RTVSPost2010Prop39
140
1.0
102
RTVSPost2010PropOp39
 70
     1
102
RTVSPost2010Prop40
 90
        0
102
RTVSPost2010PropOp40
 70
     1
102
RTVSPost2010Prop41ColorIndex
 90
       18
102
RTVSPost2010Prop41ColorRGB
 90
        0
102
RTVSPost2010PropOp41
 70
     1
102
RTVSPost2010Prop42
 90
       50
102
RTVSPost2010PropOp42
 70
     1
102
RTVSPost2010Prop43
 90
        3
102
RTVSPost2010PropOp43
 70
     1
102
RTVSPost2010Prop44ColorIndex
 90
        5
102
RTVSPost2010Prop44ColorRGB
 90
      255
102
RTVSPost2010PropOp44
 70
     1
102
RTVSPost2010Prop45
280
     0
102
RTVSPost2010PropOp45
 70
     1
102
RTVSPost2010Prop46
 90
       50
102
RTVSPost2010PropOp46
 70
     1
102
RTVSPost2010Prop47
 90
       50
102
RTVSPost2010PropOp47
 70
     1
102
RTVSPost2010Prop48
 90
       50
102
RTVSPost2010PropOp48
 70
     1
102
RTVSPost2010Prop49
280
     0
102
RTVSPost2010PropOp49
 70
     1
102
RTVSPost2010Prop50
 90
       50
102
RTVSPost2010PropOp50
 70
     1
102
RTVSPost2010Prop51ColorIndex
 90
      256
102
RTVSPost2010Prop51ColorRGB
 90
-16777216
102
RTVSPost2010PropOp51
 70
     0
102
RTVSPost2010Prop52
140
1.0
102
RTVSPost2010PropOp52
 70
     0
102
RTVSPost2010Prop53
 90
        2
102
RTVSPost2010PropOp53
 70
     1
102
RTVSPost2010Prop54
  1
strokes_ogs.tif
102
RTVSPost2010PropOp54
 70
     1
102
RTVSPost2010Prop55
280
     0
102
RTVSPost2010PropOp55
 70
     1
102
RTVSPost2010Prop56
140
1.0
102
RTVSPost2010PropOp56
 70
     1
102
RTVSPost2010Prop57
140
1.0
102
RTVSPost2010PropOp57
 70
     1
102
RTVSPropertyOp0
 70
     1
102
RTVSPropertyOp1
 70
     1
102
RTVSPropertyOp2
 70
     1
102
RTVSPropertyOp3
 70
     1
102
RTVSPropertyOp4
 70
     1
102
RTVSPropertyOp5
 70
     1
102
RTVSPropertyOp6
 70
     1
102
RTVSPropertyOp7
 70
     1
102
RTVSPropertyOp8
 70
     1
102
RTVSPropertyOp9
 70
     1
102
RTVSPropertyOp10
 70
     1
102
RTVSPropertyOp11
 70
     1
102
RTVSPropertyOp12
 70
     1
102
RTVSPropertyOp13
 70
     1
102
RTVSPropertyOp14
 70
     1
102
RTVSPropertyOp15
 70
     1
102
RTVSPropertyOp16
 70
     1
102
RTVSPropertyOp17
 70
     1
102
RTVSPropertyOp18
 70
     1
102
RTVSPropertyOp19
 70
     1
102
RTVSPropertyOp20
 70
     1
102
RTVSPropertyOp21
 70
     1
102
RTVSPropertyOp22
 70
     1
102
RTVSPropertyOp23
 70
     1
102
RTVSPropertyOp24
 70
     1
102
RTVSPropertyOp25
 70
     1
102
RTVSPropertyOp26
 70
     1
102
RTVSPropertyOp27
 70
     1
102
RTVSPropertyOp28
 70
     1
102
RTVSPropertyOp29
 70
     1
102
RTVSPropertyOp30
 70
     1
102
RTVSPropertyOp31
 70
     1
102
RTVSPropertyOp32
 70
     1
102
RTVSPropertyOp33
 70
     1
102
RTVSPropertyOp34
 70
     1
102
RTVSPropertyOp35
 70
     1
102
RTVSPropertyOp36
 70
     1
102
RTVSPropertyOp37
 70
     1
102
RTVSPropertyOp38
 70
     1
102
RTVSPropertyOp39
 70
     1
102
RTVSPropertyOp40
 70
     1
102
RTVSPropertyOp41
 70
     1
102
RTVSPropertyOp42
 70
     1
102
RTVSPropertyOp43
 70
     1
102
RTVSPropertyOp44
 70
     1
102
RTVSPropertyOp45
 70
     1
102
RTVSPropertyOp46
 70
     1
102
RTVSPropertyOp47
 70
     1
102
RTVSPropertyOp48
 70
     1
102
RTVSPropertyOp49
 70
     1
102
RTVSPropertyOp50
 70
     1
102
RTVSPropertyOp51
 70
     0
102
RTVSPropertyOp52
 70
     0
102
RTVSPropertyOp53
 70
     1
102
RTVSPropertyOp54
 70
     1
102
RTVSPropertyOp55
 70
     1
102
RTVSPropertyOp56
 70
     1
102
RTVSPropertyOp57
 70
     1
102
RTVSPropertyOp58
 70
     1
102
RTVSPropertyOp59
 70
     1
102
RTVSPropertyOp60
 70
     1
102
RTVSPropertyOp61
 70
     1
102
RTVSPropertyOp62
 70
     1
  0
XRECORD
  5
612
102
{ACAD_REACTORS
330
611
102
}
330
611
100
AcDbXrecord
280
     1
102
RTVSPost2010Prop28
280
     0
102
RTVSPost2010PropOp28
 70
     1
102
RTVSPost2010Prop29
280
     1
102
RTVSPost2010PropOp29
 70
     1
102
RTVSPost2010Prop30
280
     1
102
RTVSPost2010PropOp30
 70
     1
102
RTVSPost2010Prop31
280
     0
102
RTVSPost2010PropOp31
 70
     1
102
RTVSPost2010Prop32
280
     0
102
RTVSPost2010PropOp32
 70
     1
102
RTVSPost2010Prop33
280
     0
102
RTVSPost2010PropOp33
 70
     1
102
RTVSPost2010Prop34
280
     0
102
RTVSPost2010PropOp34
 70
     1
102
RTVSPost2010Prop35
280
     0
102
RTVSPost2010PropOp35
 70
     1
102
RTVSPost2010Prop36
280
     0
102
RTVSPost2010PropOp36
 70
     1
102
RTVSPost2010Prop37
 90
       50
102
RTVSPost2010PropOp37
 70
     1
102
RTVSPost2010Prop38
140
0.0
102
RTVSPost2010PropOp38
 70
     1
102
RTVSPost2010Prop39
140
1.0
102
RTVSPost2010PropOp39
 70
     1
102
RTVSPost2010Prop40
 90
        0
102
RTVSPost2010PropOp40
 70
     1
102
RTVSPost2010Prop41ColorIndex
 90
       18
102
RTVSPost2010Prop41ColorRGB
 90
        0
102
RTVSPost2010PropOp41
 70
     1
102
RTVSPost2010Prop42
 90
       50
102
RTVSPost2010PropOp42
 70
     1
102
RTVSPost2010Prop43
 90
        3
102
RTVSPost2010PropOp43
 70
     1
102
RTVSPost2010Prop44ColorIndex
 90
        5
102
RTVSPost2010Prop44ColorRGB
 90
      255
102
RTVSPost2010PropOp44
 70
     1
102
RTVSPost2010Prop45
280
     0
102
RTVSPost2010PropOp45
 70
     1
102
RTVSPost2010Prop46
 90
       50
102
RTVSPost2010PropOp46
 70
     1
102
RTVSPost2010Prop47
 90
       50
102
RTVSPost2010PropOp47
 70
     1
102
RTVSPost2010Prop48
 90
       50
102
RTVSPost2010PropOp48
 70
     1
102
RTVSPost2010Prop49
280
     0
102
RTVSPost2010PropOp49
 70
     1
102
RTVSPost2010Prop50
 90
       50
102
RTVSPost2010PropOp50
 70
     1
102
RTVSPost2010Prop51ColorIndex
 90
      256
102
RTVSPost2010Prop51ColorRGB
 90
-16777216
102
RTVSPost2010PropOp51
 70
     0
102
RTVSPost2010Prop52
140
1.0
102
RTVSPost2010PropOp52
 70
     0
102
RTVSPost2010Prop53
 90
        2
102
RTVSPost2010PropOp53
 70
     1
102
RTVSPost2010Prop54
  1
strokes_ogs.tif
102
RTVSPost2010PropOp54
 70
     1
102
RTVSPost2010Prop55
280
     0
102
RTVSPost2010PropOp55
 70
     1
102
RTVSPost2010Prop56
140
1.0
102
RTVSPost2010PropOp56
 70
     1
102
RTVSPost2010Prop57
140
1.0
102
RTVSPost2010PropOp57
 70
     1
102
RTVSPropertyOp0
 70
     1
102
RTVSPropertyOp1
 70
     1
102
RTVSPropertyOp2
 70
     1
102
RTVSPropertyOp3
 70
     1
102
RTVSPropertyOp4
 70
     1
102
RTVSPropertyOp5
 70
     1
102
RTVSPropertyOp6
 70
     1
102
RTVSPropertyOp7
 70
     1
102
RTVSPropertyOp8
 70
     1
102
RTVSPropertyOp9
 70
     1
102
RTVSPropertyOp10
 70
     1
102
RTVSPropertyOp11
 70
     1
102
RTVSPropertyOp12
 70
     1
102
RTVSPropertyOp13
 70
     1
102
RTVSPropertyOp14
 70
     1
102
RTVSPropertyOp15
 70
     1
102
RTVSPropertyOp16
 70
     1
102
RTVSPropertyOp17
 70
     1
102
RTVSPropertyOp18
 70
     1
102
RTVSPropertyOp19
 70
     1
102
RTVSPropertyOp20
 70
     1
102
RTVSPropertyOp21
 70
     1
102
RTVSPropertyOp22
 70
     1
102
RTVSPropertyOp23
 70
     1
102
RTVSPropertyOp24
 70
     1
102
RTVSPropertyOp25
 70
     1
102
RTVSPropertyOp26
 70
     1
102
RTVSPropertyOp27
 70
     1
102
RTVSPropertyOp28
 70
     1
102
RTVSPropertyOp29
 70
     1
102
RTVSPropertyOp30
 70
     1
102
RTVSPropertyOp31
 70
     1
102
RTVSPropertyOp32
 70
     1
102
RTVSPropertyOp33
 70
     1
102
RTVSPropertyOp34
 70
     1
102
RTVSPropertyOp35
 70
     1
102
RTVSPropertyOp36
 70
     1
102
RTVSPropertyOp37
 70
     1
102
RTVSPropertyOp38
 70
     1
102
RTVSPropertyOp39
 70
     1
102
RTVSPropertyOp40
 70
     1
102
RTVSPropertyOp41
 70
     1
102
RTVSPropertyOp42
 70
     1
102
RTVSPropertyOp43
 70
     1
102
RTVSPropertyOp44
 70
     1
102
RTVSPropertyOp45
 70
     1
102
RTVSPropertyOp46
 70
     1
102
RTVSPropertyOp47
 70
     1
102
RTVSPropertyOp48
 70
     1
102
RTVSPropertyOp49
 70
     1
102
RTVSPropertyOp50
 70
     1
102
RTVSPropertyOp51
 70
     0
102
RTVSPropertyOp52
 70
     0
102
RTVSPropertyOp53
 70
     1
102
RTVSPropertyOp54
 70
     1
102
RTVSPropertyOp55
 70
     1
102
RTVSPropertyOp56
 70
     1
102
RTVSPropertyOp57
 70
     1
102
RTVSPropertyOp58
 70
     1
102
RTVSPropertyOp59
 70
     1
102
RTVSPropertyOp60
 70
     1
102
RTVSPropertyOp61
 70
     1
102
RTVSPropertyOp62
 70
     1
  0
ENDSEC
  0
EOF
