  0
SECTION
  2
HEADER
  9
$ACADVER
  1
AC1009
  9
$INSBASE
 10
0.0
 20
0.0
 30
0.0
  9
$EXTMIN
 10
-3.1909259982217768
 20
-0.235610500000012
 30
0.0
  9
$EXTMAX
 10
297.36058178551627
 20
397.21533210411963
 30
0.0
  9
$LIMMIN
 10
0.0
 20
0.0
  9
$LIMMAX
 10
12.0
 20
9.0
  9
$ORTHOMODE
 70
     0
  9
$REGENMODE
 70
     1
  9
$FILLMODE
 70
     1
  9
$QTEXTMODE
 70
     0
  9
$MIRRTEXT
 70
     1
  9
$DRAGMODE
 70
     2
  9
$LTSCALE
 40
1.0
  9
$OSMODE
 70
   957
  9
$ATTMODE
 70
     1
  9
$TEXTSIZE
 40
0.2
  9
$TRACEWID
 40
0.05
  9
$TEXTSTYLE
  7
STANDARD
  9
$CLAYER
  8
0
  9
$CELTYPE
  6
BYBLOCK
  9
$CECOLOR
 62
   256
  9
$DIMSCALE
 40
1.0
  9
$DIMASZ
 40
0.18
  9
$DIMEXO
 40
0.0625
  9
$DIMDLI
 40
0.38
  9
$DIMRND
 40
0.0
  9
$DIMDLE
 40
0.0
  9
$DIMEXE
 40
0.18
  9
$DIMTP
 40
0.0
  9
$DIMTM
 40
0.0
  9
$DIMTXT
 40
0.18
  9
$DIMCEN
 40
0.09
  9
$DIMTSZ
 40
0.0
  9
$DIMTOL
 70
     0
  9
$DIMLIM
 70
     0
  9
$DIMTIH
 70
     1
  9
$DIMTOH
 70
     1
  9
$DIMSE1
 70
     0
  9
$DIMSE2
 70
     0
  9
$DIMTAD
 70
     0
  9
$DIMZIN
 70
     0
  9
$DIMBLK
  1

  9
$DIMASO
 70
     1
  9
$DIMSHO
 70
     1
  9
$DIMPOST
  1

  9
$DIMAPOST
  1

  9
$DIMALT
 70
     0
  9
$DIMALTD
 70
     2
  9
$DIMALTF
 40
25.399999999999999
  9
$DIMLFAC
 40
1.0
  9
$DIMTOFL
 70
     0
  9
$DIMTVP
 40
0.0
  9
$DIMTIX
 70
     0
  9
$DIMSOXD
 70
     0
  9
$DIMSAH
 70
     0
  9
$DIMBLK1
  1

  9
$DIMBLK2
  1

  9
$DIMSTYLE
  2
STANDARD
  9
$DIMCLRD
 70
     0
  9
$DIMCLRE
 70
     0
  9
$DIMCLRT
 70
     0
  9
$DIMTFAC
 40
1.0
  9
$DIMGAP
 40
0.09
  9
$LUNITS
 70
     2
  9
$LUPREC
 70
     4
  9
$SKETCHINC
 40
0.1
  9
$FILLETRAD
 40
0.5
  9
$AUNITS
 70
     0
  9
$AUPREC
 70
     0
  9
$MENU
  1
.
  9
$ELEVATION
 40
0.0
  9
$PELEVATION
 40
0.0
  9
$THICKNESS
 40
0.0
  9
$LIMCHECK
 70
     0
  9
$BLIPMODE
 70
     0
  9
$CHAMFERA
 40
0.5
  9
$CHAMFERB
 40
0.5
  9
$SKPOLY
 70
     0
  9
$TDCREATE
 40
2456646.250000359
  9
$TDUPDATE
 40
2457011.619650926
  9
$TDINDWG
 40
0.0067508333
  9
$TDUSRTIMER
 40
0.0067508333
  9
$USRTIMER
 70
     1
  9
$ANGBASE
 50
0.0
  9
$ANGDIR
 70
     0
  9
$PDMODE
 70
     0
  9
$PDSIZE
 40
0.0
  9
$PLINEWID
 40
0.0
  9
$COORDS
 70
     1
  9
$SPLFRAME
 70
     0
  9
$SPLINETYPE
 70
     6
  9
$SPLINESEGS
 70
     8
  9
$ATTDIA
 70
     1
  9
$ATTREQ
 70
     1
  9
$HANDLING
 70
     1
  9
$HANDSEED
  5
FBA
  9
$SURFTAB1
 70
     6
  9
$SURFTAB2
 70
     6
  9
$SURFTYPE
 70
     6
  9
$SURFU
 70
     6
  9
$SURFV
 70
     6
  9
$UCSNAME
  2

  9
$UCSORG
 10
0.0
 20
0.0
 30
0.0
  9
$UCSXDIR
 10
1.0
 20
0.0
 30
0.0
  9
$UCSYDIR
 10
0.0
 20
1.0
 30
0.0
  9
$PUCSNAME
  2

  9
$PUCSORG
 10
0.0
 20
0.0
 30
0.0
  9
$PUCSXDIR
 10
1.0
 20
0.0
 30
0.0
  9
$PUCSYDIR
 10
0.0
 20
1.0
 30
0.0
  9
$USERI1
 70
     0
  9
$USERI2
 70
     0
  9
$USERI3
 70
     0
  9
$USERI4
 70
     0
  9
$USERI5
 70
     0
  9
$USERR1
 40
0.0
  9
$USERR2
 40
0.0
  9
$USERR3
 40
0.0
  9
$USERR4
 40
0.0
  9
$USERR5
 40
0.0
  9
$WORLDVIEW
 70
     1
  9
$SHADEDGE
 70
     3
  9
$SHADEDIF
 70
    70
  9
$TILEMODE
 70
     1
  9
$MAXACTVP
 70
    64
  9
$PLIMCHECK
 70
     0
  9
$PEXTMIN
 10
1.0000000000000000E+020
 20
1.0000000000000000E+020
 30
1.0000000000000000E+020
  9
$PEXTMAX
 10
-1.0000000000000000E+020
 20
-1.0000000000000000E+020
 30
-1.0000000000000000E+020
  9
$PLIMMIN
 10
0.0
 20
0.0
  9
$PLIMMAX
 10
12.0
 20
9.0
  9
$UNITMODE
 70
     0
  9
$VISRETAIN
 70
     1
  9
$PLINEGEN
 70
     0
  9
$PSLTSCALE
 70
     1
  0
ENDSEC
  0
SECTION
  2
TABLES
  0
TABLE
  2
VPORT
 70
     1
  0
VPORT
  2
*ACTIVE
 70
     0
 10
0.0
 20
0.0
 11
1.0
 21
1.0
 12
198.73570141121809
 22
221.86187451687729
 13
0.0
 23
0.0
 14
0.5
 24
0.5
 15
0.5
 25
0.5
 16
0.0
 26
0.0
 36
1.0
 17
0.0
 27
0.0
 37
0.0
 40
509.61197440436388
 41
1.681623931623931
 42
50.0
 43
0.0
 44
0.0
 50
0.0
 51
0.0
 71
    16
 72
   100
 73
     1
 74
     3
 75
     0
 76
     0
 77
     0
 78
     0
  0
ENDTAB
  0
TABLE
  2
LTYPE
 70
     8
  0
LTYPE
  2
CONTINUOUS
 70
     0
  3
Solid line
 72
    65
 73
     0
 40
0.0
  0
LTYPE
  2
PHANTOM2
 70
     0
  3
Phantom (.5x) ___ _ _ ___ _ _ ___ _ _ ___ _ _
 72
    65
 73
     6
 40
1.25
 49
0.625
 49
-0.125
 49
0.125
 49
-0.125
 49
0.125
 49
-0.125
  0
LTYPE
  2
HIDDEN
 70
     0
  3
Hidden __ __ __ __ __ __ __ __ __ __ __ __ __ _
 72
    65
 73
     2
 40
0.375
 49
0.25
 49
-0.125
  0
LTYPE
  2
CENTER
 70
     0
  3
Center ____ _ ____ _ ____ _ ____ _ ____ _ ____
 72
    65
 73
     4
 40
2.0
 49
1.25
 49
-0.25
 49
0.25
 49
-0.25
  0
LTYPE
  2
CENTER2
 70
     0
  3
Center (.5x) ___ _ ___ _ ___ _ ___ _ ___ _ ___
 72
    65
 73
     4
 40
1.125
 49
0.75
 49
-0.125
 49
0.125
 49
-0.125
  0
LTYPE
  2
HIDDEN2
 70
     0
  3
Hidden (.5x) _ _ _ _ _ _ _ _ _ _ _ _ _ _ _ _ _
 72
    65
 73
     2
 40
0.1875
 49
0.125
 49
-0.0625
  0
LTYPE
  2
ACANSTGB
 70
     0
  3
__ . . __ . .
 72
    65
 73
     6
 40
0.35433070866
 49
0.15748031496
 49
-0.03937007874
 49
0.03937007874
 49
-0.03937007874
 49
0.03937007874
 49
-0.03937007874
  0
LTYPE
  2
ACANSTGL
 70
     0
  3
_ _ _ _ _
 72
    65
 73
     2
 40
0.11811023622
 49
0.07874015748
 49
-0.03937007874
  0
ENDTAB
  0
TABLE
  2
LAYER
 70
     2
  0
LAYER
  2
0
 70
     0
 62
     7
  6
CONTINUOUS
  0
LAYER
  2
AM_CL
 70
     0
 62
     1
  6
CONTINUOUS
  0
ENDTAB
  0
TABLE
  2
STYLE
 70
     3
  0
STYLE
  2
STANDARD
 70
     0
 40
0.0
 41
1.0
 50
0.0
 71
     0
 42
0.2
  3
txt
  4

  0
STYLE
  2
ACANSTS
 70
     0
 40
1.0
 41
1.0
 50
0.0
 71
     0
 42
0.2
  3
romans.shx
  4
extfont.shx
  0
STYLE
  2
ACANSGDT
 70
     0
 40
0.0
 41
1.0
 50
0.0
 71
     0
 42
0.2
  3
amgdt.shx
  4

  0
ENDTAB
  0
TABLE
  2
VIEW
 70
     1
  0
ENDTAB
  0
TABLE
  2
UCS
 70
     0
  0
ENDTAB
  0
TABLE
  2
APPID
 70
    10
  0
APPID
  2
ACAD
 70
     0
  0
APPID
  2
MCAD_NO_VIS
 70
     0
  0
APPID
  2
ACAD_TEMP_GRAPHIC
 70
     0
  0
APPID
  2
ACATTRIBSERVICES
 70
     0
  0
APPID
  2
DESIGNERASSEMBLIES
 70
     0
  0
APPID
  2
ACAD_DSTYLE_DIMJAG
 70
     0
  0
APPID
  2
ACAD_DSTYLE_DIMBREAK
 70
     0
  0
APPID
  2
ACAD_NAV_VCDISPLAY
 70
     0
  0
APPID
  2
ACAECLAYERSTANDARD
 70
     0
  0
APPID
  2
ACAD_MLEADERVER
 70
     0
  0
ENDTAB
  0
TABLE
  2
DIMSTYLE
 70
     7
  0
DIMSTYLE
  2
STANDARD
 70
     0
  3

  4

  5

  6

  7

 40
1.0
 41
0.18
 42
0.0625
 43
0.38
 44
0.18
 45
0.0
 46
0.0
 47
0.0
 48
0.0
140
0.18
141
0.09
142
0.0
143
25.399999999999999
144
1.0
145
0.0
146
1.0
147
0.09
 71
     0
 72
     0
 73
     1
 74
     1
 75
     0
 76
     0
 77
     0
 78
     0
170
     0
171
     2
172
     0
173
     0
174
     0
175
     0
176
     0
177
     0
178
     0
  0
DIMSTYLE
  2
AM_ANSI
 70
     0
  3

  4
mm
  5

  6

  7

 40
1.0
 41
0.12
 42
0.05
 43
0.5
 44
0.1
 45
0.0
 46
0.0
 47
0.1
 48
0.1
140
0.12
141
0.0
142
0.0
143
25.399999999999999
144
1.0
145
0.0
146
0.71
147
0.06
 71
     0
 72
     0
 73
     1
 74
     1
 75
     0
 76
     0
 77
     0
 78
     7
170
     0
171
     2
172
     0
173
     0
174
     0
175
     0
176
   256
177
   256
178
     2
  0
DIMSTYLE
  2
AM_ANSI$3
 70
     0
  3

  4
mm
  5

  6

  7

 40
1.0
 41
0.12
 42
0.05
 43
0.5
 44
0.1
 45
0.0
 46
0.0
 47
0.1
 48
0.1
140
0.12
141
0.0
142
0.0
143
25.399999999999999
144
1.0
145
0.0
146
0.71
147
0.06
 71
     0
 72
     0
 73
     1
 74
     1
 75
     0
 76
     0
 77
     0
 78
     7
170
     0
171
     2
172
     0
173
     0
174
     0
175
     0
176
   256
177
   256
178
     2
  0
DIMSTYLE
  2
AM_ANSI$4
 70
     0
  3

  4
mm
  5

  6

  7

 40
1.0
 41
0.12
 42
0.05
 43
0.5
 44
0.1
 45
0.0
 46
0.0
 47
0.1
 48
0.1
140
0.12
141
0.0
142
0.0
143
25.399999999999999
144
1.0
145
0.0
146
0.71
147
0.06
 71
     0
 72
     0
 73
     1
 74
     1
 75
     0
 76
     0
 77
     0
 78
     7
170
     0
171
     2
172
     0
173
     0
174
     0
175
     0
176
   256
177
   256
178
     2
  0
DIMSTYLE
  2
AM_ANSI$7
 70
     0
  3

  4
mm
  5

  6

  7

 40
1.0
 41
0.12
 42
0.05
 43
0.5
 44
0.1
 45
0.0
 46
0.0
 47
0.1
 48
0.1
140
0.12
141
0.0
142
0.0
143
25.399999999999999
144
1.0
145
0.0
146
0.71
147
0.06
 71
     0
 72
     0
 73
     1
 74
     1
 75
     0
 76
     0
 77
     0
 78
     7
170
     0
171
     2
172
     0
173
     0
174
     0
175
     0
176
   256
177
   256
178
     2
  0
DIMSTYLE
  2
AM_ANSI$SF
 70
     0
  3

  4
mm
  5

  6

  7

 40
1.0
 41
0.12
 42
0.05
 43
0.5
 44
0.1
 45
0.0
 46
0.0
 47
0.1
 48
0.1
140
0.12
141
0.0
142
0.0
143
25.399999999999999
144
1.0
145
0.0
146
0.71
147
0.06
 71
     0
 72
     0
 73
     1
 74
     1
 75
     1
 76
     1
 77
     0
 78
     7
170
     0
171
     2
172
     0
173
     0
174
     0
175
     0
176
   256
177
   256
178
     2
  0
DIMSTYLE
  2
AM_ANSI$SH
 70
     0
  3

  4
mm
  5

  6
GENAXEH
  7

 40
1.0
 41
0.12
 42
0.05
 43
0.5
 44
0.1
 45
0.0
 46
0.0
 47
0.1
 48
0.1
140
0.12
141
0.0
142
0.0
143
25.399999999999999
144
1.0
145
0.0
146
0.71
147
0.06
 71
     0
 72
     0
 73
     1
 74
     1
 75
     1
 76
     1
 77
     0
 78
     7
170
     0
171
     2
172
     0
173
     1
174
     0
175
     0
176
   256
177
   256
178
     2
  0
ENDTAB
  0
ENDSEC
  0
SECTION
  2
BLOCKS
  0
BLOCK
  8
0
  2
$MODEL_SPACE
 70
     0
 10
0.0
 20
0.0
 30
0.0
  3
$MODEL_SPACE
  1

  0
ENDBLK
  5
259
  8
0
  0
BLOCK
 67
     1
  8
0
  2
$PAPER_SPACE
 70
     0
 10
0.0
 20
0.0
 30
0.0
  3
$PAPER_SPACE
  1

  0
ENDBLK
  5
257
 67
     1
  8
0
  0
BLOCK
  8
0
  2
GENAXEH
 70
     0
 10
0.0
 20
0.0
 30
0.0
  3
GENAXEH
  1

  0
LINE
  5
A44
  8
0
 10
-1.0
 20
0.0
 30
0.0
 11
1.0
 21
0.0
 31
0.0
  0
ENDBLK
  5
A46
  8
0
  0
ENDSEC
  0
SECTION
  2
ENTITIES
  0
LINE
  5
21
  8
0
 10
-0.0298
 20
-0.235389500000011
 30
0.0
 11
0.0535
 21
-0.235389500000011
 31
0.0
  0
LINE
  5
22
  8
0
 10
0.0535
 20
-0.235389500000011
 30
0.0
 11
0.4271
 21
-0.235389500000011
 31
0.0
  0
LINE
  5
23
  8
0
 10
0.0535
 20
-0.235389500000011
 30
0.0
 11
0.4271
 21
-0.235389500000011
 31
0.0
  0
LINE
  5
24
  8
0
 10
0.0023
 20
-0.235389500000011
 30
0.0
 11
0.2135
 21
-0.235389500000011
 31
0.0
  0
LINE
  5
25
  8
0
 10
-0.0298
 20
-0.235389500000011
 30
0.0
 11
0.0535
 21
-0.235389500000011
 31
0.0
  0
LINE
  5
26
  8
0
 10
0.4271
 20
-0.235389500000011
 30
0.0
 11
1.0014000000000001
 21
-0.235389500000011
 31
0.0
  0
LINE
  5
27
  8
0
 10
1.537199999999999
 20
-0.235389500000012
 30
0.0
 11
2.1880000000000002
 21
-0.235389500000012
 31
0.0
  0
LINE
  5
28
  8
0
 10
1.0014000000000001
 20
-0.235389500000011
 30
0.0
 11
1.537199999999999
 21
-0.235389500000012
 31
0.0
  0
LINE
  5
29
  8
0
 10
0.2135
 20
-0.235389500000011
 30
0.0
 11
0.5561
 21
-0.23538950000001
 31
0.0
  0
LINE
  5
2B
  8
0
 10
1.1108
 20
-0.23538950000001
 30
0.0
 11
1.5948999999999991
 21
-0.23538950000001
 31
0.0
  0
LINE
  5
31
  8
0
 10
0.5561
 20
-0.23538950000001
 30
0.0
 11
1.1108
 21
-0.23538950000001
 31
0.0
  0
LINE
  5
35
  8
0
 10
1.5948999999999991
 20
-0.23538950000001
 30
0.0
 11
2.7642999999999991
 21
-0.23538950000001
 31
0.0
  0
LINE
  5
36
  8
0
 10
0.0023
 20
-0.235389500000011
 30
0.0
 11
0.2135
 21
-0.235389500000011
 31
0.0
  0
LINE
  5
3D
  8
0
 10
2.9940000000000002
 20
-0.235389500000012
 30
0.0
 11
3.9599999999999991
 21
-0.235389500000012
 31
0.0
  0
LINE
  5
40
  8
0
 10
2.7642999999999991
 20
-0.23538950000001
 30
0.0
 11
3.5625
 21
-0.23538950000001
 31
0.0
  0
LINE
  5
41
  8
0
 10
3.5625
 20
-0.23538950000001
 30
0.0
 11
4.4854000000000003
 21
-0.23538950000001
 31
0.0
  0
LINE
  5
46
  8
0
 10
2.1880000000000002
 20
-0.235389500000012
 30
0.0
 11
2.9940000000000002
 21
-0.235389500000012
 31
0.0
  0
LINE
  5
47
  8
0
 10
3.9599999999999991
 20
-0.235389500000012
 30
0.0
 11
5.0023999999999988
 21
-0.235389500000012
 31
0.0
  0
LINE
  5
48
  8
0
 10
5.0023999999999988
 20
-0.235389500000012
 30
0.0
 11
6.3179999999999987
 21
-0.235389500000012
 31
0.0
  0
LINE
  5
49
  8
0
 10
4.4854000000000003
 20
-0.23538950000001
 30
0.0
 11
5.7934000000000001
 21
-0.23538950000001
 31
0.0
  0
LINE
  5
4A
  8
0
 10
5.7934000000000001
 20
-0.23538950000001
 30
0.0
 11
7.2907999999999991
 21
-0.23538950000001
 31
0.0
  0
LINE
  5
4B
  8
0
 10
8.1332000000000004
 20
-0.235389500000012
 30
0.0
 11
9.9997000000000007
 21
-0.235389500000012
 31
0.0
  0
LINE
  5
4C
  8
0
 10
9.9997000000000007
 20
-0.235389500000012
 30
0.0
 11
12.7601
 21
-0.235609500000012
 31
0.0
  0
LINE
  5
4D
  8
0
 10
12.7601
 20
-0.235609500000012
 30
0.0
 11
14.960000000000001
 21
-0.235576500000012
 31
0.0
  0
LINE
  5
4E
  8
0
 10
7.2907999999999991
 20
-0.23538950000001
 30
0.0
 11
9.2487999999999992
 21
-0.235389500000009
 31
0.0
  0
LINE
  5
4F
  8
0
 10
6.3179999999999987
 20
-0.235389500000012
 30
0.0
 11
8.1332000000000004
 21
-0.235389500000012
 31
0.0
  0
LINE
  5
50
  8
0
 10
11.4298
 20
-0.235389500000009
 30
0.0
 11
13.8064
 21
-0.235389500000009
 31
0.0
  0
LINE
  5
74
  8
0
 10
9.2487999999999992
 20
-0.235389500000009
 30
0.0
 11
11.4298
 21
-0.235389500000009
 31
0.0
  0
LINE
  5
B7
  8
0
 10
13.8064
 20
-0.235389500000009
 30
0.0
 11
15.4787
 21
-0.235389500000009
 31
0.0
  0
LINE
  5
BA
  8
0
 10
14.960000000000001
 20
-0.235576500000012
 30
0.0
 11
17.175899999999999
 21
-0.235609500000012
 31
0.0
  0
LINE
  5
D5
  8
0
 10
15.4787
 20
-0.235389500000009
 30
0.0
 11
17.209299999999999
 21
-0.235389500000009
 31
0.0
  0
LINE
  5
E4
  8
0
 10
17.175899999999999
 20
-0.235609500000012
 30
0.0
 11
19.383400000000002
 21
-0.235609500000012
 31
0.0
  0
LINE
  5
F8
  8
0
 10
18.9861
 20
-0.235389500000009
 30
0.0
 11
20.7959
 21
-0.235389500000009
 31
0.0
  0
LINE
  5
FB
  8
0
 10
17.209299999999999
 20
-0.235389500000009
 30
0.0
 11
18.9861
 21
-0.235389500000009
 31
0.0
  0
LINE
  5
FD
  8
0
 10
24.000299999999999
 20
-0.235610500000012
 30
0.0
 11
26.104399999999998
 21
-0.235526500000012
 31
0.0
  0
LINE
  5
FE
  8
0
 10
21.584299999999999
 20
-0.235609500000012
 30
0.0
 11
24.000299999999999
 21
-0.235610500000012
 31
0.0
  0
LINE
  5
FF
  8
0
 10
22.1935
 20
-0.235389500000009
 30
0.0
 11
24.0
 21
-0.235389500000009
 31
0.0
  0
LINE
  5
100
  8
0
 10
20.7959
 20
-0.235389500000009
 30
0.0
 11
22.1935
 21
-0.235389500000009
 31
0.0
  0
LINE
  5
101
  8
0
 10
25.968699999999998
 20
-0.235389500000009
 30
0.0
 11
27.480599999999999
 21
-0.235389500000009
 31
0.0
  0
LINE
  5
102
  8
0
 10
27.480599999999999
 20
-0.235389500000009
 30
0.0
 11
28.978000000000002
 21
-0.235389500000009
 31
0.0
  0
LINE
  5
103
  8
0
 10
26.104399999999998
 20
-0.235526500000012
 30
0.0
 11
29.613299999999999
 21
-0.235610500000012
 31
0.0
  0
LINE
  5
104
  8
0
 10
19.383400000000002
 20
-0.235609500000012
 30
0.0
 11
21.584299999999999
 21
-0.235609500000012
 31
0.0
  0
LINE
  5
165
  8
0
 10
24.0
 20
-0.235389500000009
 30
0.0
 11
25.968699999999998
 21
-0.235389500000009
 31
0.0
  0
LINE
  5
166
  8
0
 10
29.613299999999999
 20
-0.235610500000012
 30
0.0
 11
33.145600000000002
 21
-0.235574500000012
 31
0.0
  0
LINE
  5
167
  8
0
 10
30.452500000000001
 20
-0.235389500000009
 30
0.0
 11
31.896999999999998
 21
-0.235389500000009
 31
0.0
  0
LINE
  5
192
  8
0
 10
28.978000000000002
 20
-0.235389500000009
 30
0.0
 11
30.452500000000001
 21
-0.235389500000009
 31
0.0
  0
LINE
  5
1A0
  8
0
 10
33.145600000000002
 20
-0.235574500000012
 30
0.0
 11
35.594499999999996
 21
-0.235501500000012
 31
0.0
  0
LINE
  5
1C6
  8
0
 10
33.688899999999997
 20
-0.235389500000009
 30
0.0
 11
35.4056
 21
-0.235389500000009
 31
0.0
  0
LINE
  5
1C7
  8
0
 10
31.896999999999998
 20
-0.235389500000009
 30
0.0
 11
33.688899999999997
 21
-0.235389500000009
 31
0.0
  0
LINE
  5
1DF
  8
0
 10
35.4056
 20
-0.235389500000009
 30
0.0
 11
37.584800000000001
 21
-0.235389500000009
 31
0.0
  0
LINE
  5
1E7
  8
0
 10
35.594499999999996
 20
-0.235501500000012
 30
0.0
 11
38.0002
 21
-0.235610500000012
 31
0.0
  0
LINE
  5
1E8
  8
0
 10
38.0002
 20
-0.235610500000012
 30
0.0
 11
40.008600000000001
 21
-0.235389500000012
 31
0.0
  0
LINE
  5
1E9
  8
0
 10
40.008600000000001
 20
-0.235389500000012
 30
0.0
 11
41.54849999999999
 21
-0.235389500000012
 31
0.0
  0
LINE
  5
1EA
  8
0
 10
41.54849999999999
 20
-0.235389500000012
 30
0.0
 11
42.621200000000002
 21
-0.235391500000012
 31
0.0
  0
LINE
  5
1EB
  8
0
 10
42.621200000000002
 20
-0.235391500000012
 30
0.0
 11
43.650299999999987
 21
-0.235391500000012
 31
0.0
  0
LINE
  5
1EC
  8
0
 10
42.334600000000002
 20
-0.23538950000001
 30
0.0
 11
43.684099999999987
 21
-0.23538950000001
 31
0.0
  0
LINE
  5
1EE
  8
0
 10
39.573599999999999
 20
-0.235389500000009
 30
0.0
 11
41.351900000000001
 21
-0.23538950000001
 31
0.0
  0
LINE
  5
1F1
  8
0
 10
37.584800000000001
 20
-0.235389500000009
 30
0.0
 11
39.573599999999999
 21
-0.235389500000009
 31
0.0
  0
LINE
  5
1F2
  8
0
 10
41.351900000000001
 20
-0.23538950000001
 30
0.0
 11
42.334600000000002
 21
-0.23538950000001
 31
0.0
  0
LINE
  5
1F3
  8
0
 10
43.684099999999987
 20
-0.23538950000001
 30
0.0
 11
44.823399999999992
 21
-0.23538950000001
 31
0.0
  0
LINE
  5
1F5
  8
0
 10
43.650299999999987
 20
-0.235391500000012
 30
0.0
 11
44.61699999999999
 21
-0.235391500000012
 31
0.0
  0
LINE
  5
1FC
  8
0
 10
44.61699999999999
 20
-0.235391500000012
 30
0.0
 11
45.496099999999998
 21
-0.235389500000012
 31
0.0
  0
LINE
  5
203
  8
0
 10
44.823399999999992
 20
-0.23538950000001
 30
0.0
 11
45.895200000000003
 21
-0.23538950000001
 31
0.0
  0
LINE
  5
20F
  8
0
 10
45.496099999999998
 20
-0.235389500000012
 30
0.0
 11
46.370600000000003
 21
-0.235391500000011
 31
0.0
  0
LINE
  5
211
  8
0
 10
45.895200000000003
 20
-0.23538950000001
 30
0.0
 11
46.706600000000002
 21
-0.23538950000001
 31
0.0
  0
LINE
  5
226
  8
0
 10
47.45409999999999
 20
-0.235391500000011
 30
0.0
 11
47.734000000000002
 21
-0.235391500000011
 31
0.0
  0
LINE
  5
227
  8
0
 10
47.734000000000002
 20
-0.235391500000011
 30
0.0
 11
48.020499999999998
 21
-0.235389500000011
 31
0.0
  0
LINE
  5
228
  8
0
 10
47.060200000000002
 20
-0.235389500000011
 30
0.0
 11
47.45409999999999
 21
-0.235391500000011
 31
0.0
  0
LINE
  5
229
  8
0
 10
46.370600000000003
 20
-0.235391500000011
 30
0.0
 11
47.060200000000002
 21
-0.235389500000011
 31
0.0
  0
LINE
  5
22A
  8
0
 10
47.8063
 20
-0.235389500000011
 30
0.0
 11
48.016100000000002
 21
-0.235389500000011
 31
0.0
  0
LINE
  5
232
  8
0
 10
47.23619999999999
 20
-0.23538950000001
 30
0.0
 11
47.604899999999986
 21
-0.235389500000011
 31
0.0
  0
LINE
  5
233
  8
0
 10
46.706600000000002
 20
-0.23538950000001
 30
0.0
 11
47.23619999999999
 21
-0.23538950000001
 31
0.0
  0
LINE
  5
234
  8
0
 10
47.604899999999986
 20
-0.235389500000011
 30
0.0
 11
47.8063
 21
-0.235389500000011
 31
0.0
  0
LINE
  5
74F
  8
0
 10
0.0023
 20
-0.2353895000000108
 30
0.0
 11
1.394999999999996
 21
78.164463022140936
 31
0.0
  0
LINE
  5
751
  8
0
 10
0.0023
 20
-0.2353895000000108
 30
0.0
 11
1.394999999999996
 21
78.164463022140936
 31
0.0
  0
LINE
  5
76A
  8
0
 10
10.266999999999991
 20
87.571463022140946
 30
0.0
 11
11.217000000000001
 21
86.742463022140925
 31
0.0
  0
LINE
  5
76B
  8
0
 10
1.394999999999996
 20
78.164463022140936
 30
0.0
 11
1.471000000000003
 21
90.115463022140943
 31
0.0
  0
LINE
  5
76D
  8
0
 10
12.528999999999989
 20
85.761463022140944
 30
0.0
 11
13.944000000000001
 21
84.871463022140944
 31
0.0
  0
LINE
  5
76E
  8
0
 10
12.395099999999999
 20
87.467163022140937
 30
0.0
 11
12.68869999999999
 21
86.800163022140936
 31
0.0
  0
LINE
  5
76F
  8
0
 10
9.9530000000000012
 20
87.879463022140925
 30
0.0
 11
10.266999999999991
 21
87.571463022140946
 31
0.0
  0
LINE
  5
770
  8
0
 10
9.3829999999999956
 20
88.455463022140947
 30
0.0
 11
9.9530000000000012
 21
87.879463022140925
 31
0.0
  0
LINE
  5
771
  8
0
 10
12.152900000000001
 20
88.308163022140945
 30
0.0
 11
12.3416
 21
87.623163022140929
 31
0.0
  0
LINE
  5
772
  8
0
 10
12.3416
 20
87.623163022140929
 30
0.0
 11
12.395099999999999
 21
87.467163022140937
 31
0.0
  0
LINE
  5
775
  8
0
 10
13.582599999999999
 20
85.531163022140944
 30
0.0
 11
14.174799999999999
 21
84.942163022140946
 31
0.0
  0
LINE
  5
776
  8
0
 10
13.0862
 20
86.152163022140925
 30
0.0
 11
13.582599999999999
 21
85.531163022140944
 31
0.0
  0
LINE
  5
777
  8
0
 10
12.68869999999999
 20
86.800163022140936
 30
0.0
 11
13.0862
 21
86.152163022140925
 31
0.0
  0
LINE
  5
778
  8
0
 10
12.071199999999999
 20
89.001163022140943
 30
0.0
 11
12.152900000000001
 21
88.308163022140945
 31
0.0
  0
LINE
  5
779
  8
0
 10
12.071199999999999
 20
89.001163022140943
 30
0.0
 11
12.071199999999999
 21
93.859163022140947
 31
0.0
  0
LINE
  5
77A
  8
0
 10
13.851000000000001
 20
88.493163022140948
 30
0.0
 11
13.96299999999999
 21
87.865163022140933
 31
0.0
  0
LINE
  5
77B
  8
0
 10
13.906108280254999
 20
88.184163022140936
 30
0.0
 11
15.323000000000009
 21
88.184163022140936
 31
0.0
  0
LINE
  5
77C
  8
0
 10
13.918050159919
 20
88.117203196881945
 30
0.0
 11
14.081
 21
87.532163022140949
 31
0.0
  0
LINE
  5
77D
  8
0
 10
13.846999999999991
 20
88.848163022140938
 30
0.0
 11
13.851000000000001
 21
89.206163022140942
 31
0.0
  0
LINE
  5
77E
  8
0
 10
13.846999999999991
 20
88.848163022140938
 30
0.0
 11
13.851000000000001
 21
88.493163022140948
 31
0.0
  0
LINE
  5
77F
  8
0
 10
8.6779999999999973
 20
89.245463022140939
 30
0.0
 11
9.3829999999999956
 21
88.455463022140947
 31
0.0
  0
LINE
  5
780
  8
0
 10
11.986000000000001
 20
89.626463022140939
 30
0.0
 11
12.071199999999999
 21
89.464015022140941
 31
0.0
  0
LINE
  5
781
  8
0
 10
8.2729999999999961
 20
89.721463022140938
 30
0.0
 11
8.6779999999999973
 21
89.245463022140939
 31
0.0
  0
LINE
  5
782
  8
0
 10
12.071199999999999
 20
89.344163022140947
 30
0.0
 11
12.077999999999999
 21
89.172163022140936
 31
0.0
  0
LINE
  5
783
  8
0
 10
12.071199999999999
 20
89.344163022140947
 30
0.0
 11
12.071199999999999
 21
94.069707232666929
 31
0.0
  0
LINE
  5
784
  8
0
 10
13.851000000000001
 20
89.206163022140942
 30
0.0
 11
13.96299999999999
 21
89.832163022140946
 31
0.0
  0
LINE
  5
785
  8
0
 10
14.014992146707
 20
84.834213471198936
 30
0.0
 11
14.841937338465989
 21
84.400315660301942
 31
0.0
  0
LINE
  5
786
  8
0
 10
14.014992146707
 20
84.834213471198936
 30
0.0
 11
14.841937338465989
 21
84.400315660301942
 31
0.0
  0
LINE
  5
787
  8
0
 10
14.174799999999999
 20
84.942163022140946
 30
0.0
 11
14.856899999999991
 21
84.388163022140944
 31
0.0
  0
LINE
  5
788
  8
0
 10
14.17789999999999
 20
87.248163022140943
 30
0.0
 11
14.495699999999999
 21
86.649163022140925
 31
0.0
  0
LINE
  5
789
  8
0
 10
13.96299999999999
 20
87.865163022140933
 30
0.0
 11
14.17789999999999
 21
87.248163022140943
 31
0.0
  0
LINE
  5
78A
  8
0
 10
14.081
 20
87.532163022140949
 30
0.0
 11
14.373599999999991
 21
86.894163022140944
 31
0.0
  0
LINE
  5
78C
  8
0
 10
14.856899999999991
 20
84.388163022140944
 30
0.0
 11
15.621700000000001
 21
83.876163022140943
 31
0.0
  0
LINE
  5
78D
  8
0
 10
14.91039999999999
 20
86.070163022140946
 30
0.0
 11
15.4199
 21
85.522163022140944
 31
0.0
  0
LINE
  5
78E
  8
0
 10
15.2857
 20
85.695163022140946
 30
0.0
 11
15.8931
 21
85.147163022140944
 31
0.0
  0
LINE
  5
78F
  8
0
 10
14.495699999999999
 20
86.649163022140925
 30
0.0
 11
14.91039999999999
 21
86.070163022140946
 31
0.0
  0
LINE
  5
790
  8
0
 10
14.77719999999999
 20
86.28016302214094
 30
0.0
 11
15.2857
 21
85.695163022140946
 31
0.0
  0
LINE
  5
791
  8
0
 10
14.373599999999991
 20
86.894163022140944
 30
0.0
 11
14.77719999999999
 21
86.28016302214094
 31
0.0
  0
LINE
  5
792
  8
0
 10
15.323000000000009
 20
88.184163022140936
 30
0.0
 11
15.323000000000009
 21
89.594163022140947
 31
0.0
  0
LINE
  5
793
  8
0
 10
15.323000000000009
 20
88.184163022140936
 30
0.0
 11
15.4915
 21
87.634163022140939
 31
0.0
  0
LINE
  5
794
  8
0
 10
13.920418530351
 20
89.594163022140947
 30
0.0
 11
15.323000000000009
 21
89.594163022140947
 31
0.0
  0
LINE
  5
795
  8
0
 10
1.471000000000003
 20
90.115463022140943
 30
0.0
 11
1.534000000000006
 21
102.1124630221409
 31
0.0
  0
LINE
  5
796
  8
0
 10
11.676
 20
90.512463022140935
 30
0.0
 11
11.986000000000001
 21
89.626463022140939
 31
0.0
  0
LINE
  5
797
  8
0
 10
13.96299999999999
 20
89.832163022140946
 30
0.0
 11
14.17789999999999
 21
90.448163022140946
 31
0.0
  0
LINE
  5
798
  8
0
 10
14.17789999999999
 20
90.448163022140946
 30
0.0
 11
14.495699999999999
 21
91.050163022140936
 31
0.0
  0
LINE
  5
799
  8
0
 10
11.504
 20
91.633463022140944
 30
0.0
 11
11.58799999999999
 21
92.751463022140939
 31
0.0
  0
LINE
  5
79A
  8
0
 10
11.504
 20
91.633463022140944
 30
0.0
 11
11.676
 21
90.512463022140935
 31
0.0
  0
LINE
  5
79B
  8
0
 10
11.959
 20
93.885463022140925
 30
0.0
 11
12.62399999999999
 21
94.977463022140938
 31
0.0
  0
LINE
  5
79C
  8
0
 10
11.58799999999999
 20
92.751463022140939
 30
0.0
 11
11.959
 21
93.885463022140925
 31
0.0
  0
LINE
  5
79D
  8
0
 10
6.4470000000000018
 20
92.203463022140937
 30
0.0
 11
6.9489999999999981
 21
91.484463022140943
 31
0.0
  0
LINE
  5
79E
  8
0
 10
12.071199999999999
 20
93.859163022140947
 30
0.0
 11
12.071199999999999
 21
89.001163022140943
 31
0.0
  0
LINE
  5
79F
  8
0
 10
1.658000000000001
 20
117.7364630221409
 30
0.0
 11
1.7369999999999941
 21
117.99146302214091
 31
0.0
  0
LINE
  5
7A0
  8
0
 10
1.617000000000004
 20
117.1934630221409
 30
0.0
 11
1.658000000000001
 21
117.7364630221409
 31
0.0
  0
LINE
  5
7A1
  8
0
 10
1.534000000000006
 20
102.1124630221409
 30
0.0
 11
1.617000000000004
 21
117.1934630221409
 31
0.0
  0
LINE
  5
7A2
  8
0
 10
1.6791000000000049
 20
124.9404630221409
 30
0.0
 11
1.7561000000000031
 21
138.40046302214091
 31
0.0
  0
LINE
  5
7A3
  8
0
 10
1.6791000000000049
 20
124.9404630221409
 30
0.0
 11
1.694699999999997
 21
123.74446302214091
 31
0.0
  0
LINE
  5
7A4
  8
0
 10
1.668400000000005
 20
154.9934630221409
 30
0.0
 11
1.6771999999999989
 21
155.25846302214089
 31
0.0
  0
LINE
  5
7A5
  8
0
 10
1.668400000000005
 20
154.9934630221409
 30
0.0
 11
1.7603
 21
150.92446302214091
 31
0.0
  0
LINE
  5
7A6
  8
0
 10
1.694699999999997
 20
123.74446302214091
 30
0.0
 11
1.7737000000000049
 21
122.1024630221409
 31
0.0
  0
LINE
  5
7A7
  8
0
 10
1.7789999999999959
 20
118.1204630221409
 30
0.0
 11
1.9929999999999941
 21
118.4404630221409
 31
0.0
  0
LINE
  5
7A8
  8
0
 10
1.7369999999999941
 20
117.99146302214091
 30
0.0
 11
1.7789999999999959
 21
118.1204630221409
 31
0.0
  0
LINE
  5
7A9
  8
0
 10
1.7737000000000049
 20
122.1024630221409
 30
0.0
 11
1.838700000000002
 21
121.3144630221409
 31
0.0
  0
LINE
  5
7AA
  8
0
 10
2.164000000000001
 20
118.6334630221409
 30
0.0
 11
2.4789999999999992
 21
118.8444630221409
 31
0.0
  0
LINE
  5
7AB
  8
0
 10
1.9929999999999941
 20
118.4404630221409
 30
0.0
 11
2.164000000000001
 21
118.6334630221409
 31
0.0
  0
LINE
  5
7AC
  8
0
 10
2.4789999999999992
 20
118.8444630221409
 30
0.0
 11
2.825000000000002
 21
119.0314630221409
 31
0.0
  0
LINE
  5
7AD
  8
0
 10
2.3252999999999981
 20
119.5854630221409
 30
0.0
 11
2.741699999999994
 21
119.1784630221409
 31
0.0
  0
LINE
  5
7AE
  8
0
 10
1.9919000000000009
 20
120.1334630221409
 30
0.0
 11
2.0289999999999959
 21
119.94446302214089
 31
0.0
  0
LINE
  5
7AF
  8
0
 10
2.0289999999999959
 20
119.94446302214089
 30
0.0
 11
2.1431999999999931
 21
119.76546302214091
 31
0.0
  0
LINE
  5
7B0
  8
0
 10
2.1431999999999931
 20
119.76546302214091
 30
0.0
 11
2.3252999999999981
 21
119.5854630221409
 31
0.0
  0
LINE
  5
7B1
  8
0
 10
1.838700000000002
 20
121.3144630221409
 30
0.0
 11
1.9919000000000009
 21
120.1334630221409
 31
0.0
  0
LINE
  5
7B2
  8
0
 10
1.7603
 20
150.92446302214091
 30
0.0
 11
1.771237852983006
 21
140.22932688830889
 31
0.0
  0
LINE
  5
7B3
  8
0
 10
1.7330000000000041
 20
155.63746302214091
 30
0.0
 11
1.8896000000000011
 21
156.48446302214089
 31
0.0
  0
LINE
  5
7B4
  8
0
 10
1.7991503118909971
 20
155.9671065899129
 30
0.0
 11
1.8896000000000011
 21
156.48446302214089
 31
0.0
  0
LINE
  5
7B5
  8
0
 10
1.7282000000000011
 20
155.61046302214089
 30
0.0
 11
1.8896000000000011
 21
156.48446302214089
 31
0.0
  0
LINE
  5
7B6
  8
0
 10
2.1466999999999952
 20
157.3094630221409
 30
0.0
 11
2.6214999999999971
 21
158.92546302214089
 31
0.0
  0
LINE
  5
7B7
  8
0
 10
1.8896000000000011
 20
156.48446302214089
 30
0.0
 11
2.1466999999999952
 21
157.3094630221409
 31
0.0
  0
LINE
  5
7B8
  8
0
 10
3.4569999999999932
 20
117.4544630221409
 30
0.0
 11
3.6329999999999951
 21
117.86046302214091
 31
0.0
  0
LINE
  5
7B9
  8
0
 10
3.4569999999999932
 20
117.4544630221409
 30
0.0
 11
3.5799999999999979
 21
117.2424630221409
 31
0.0
  0
LINE
  5
7BA
  8
0
 10
3.5799999999999979
 20
117.2424630221409
 30
0.0
 11
3.852999999999994
 21
117.0444630221409
 31
0.0
  0
LINE
  5
7BB
  8
0
 10
5.784000000000006
 20
116.4964630221409
 30
0.0
 11
6.9759999999999991
 21
116.3274630221409
 31
0.0
  0
LINE
  5
7BC
  8
0
 10
4.8130000000000024
 20
116.6984630221409
 30
0.0
 11
5.784000000000006
 21
116.4964630221409
 31
0.0
  0
LINE
  5
7BD
  8
0
 10
3.852999999999994
 20
117.0444630221409
 30
0.0
 11
4.8130000000000024
 21
116.6984630221409
 31
0.0
  0
LINE
  5
7BE
  8
0
 10
3.6511841719169951
 20
117.1908349414099
 30
0.0
 11
3.6897000000000011
 21
118.05866302214091
 31
0.0
  0
LINE
  5
7BF
  8
0
 10
3.6329999999999951
 20
117.86046302214091
 30
0.0
 11
3.6822055991979989
 21
117.88980123758191
 31
0.0
  0
LINE
  5
7C0
  8
0
 10
3.6329999999999951
 20
117.86046302214091
 30
0.0
 11
3.6822055991979989
 21
117.88980123758191
 31
0.0
  0
LINE
  5
7C1
  8
0
 10
3.6897000000000011
 20
118.05866302214091
 30
0.0
 11
3.765954338727993
 21
118.62615515921991
 31
0.0
  0
LINE
  5
7C2
  8
0
 10
2.825000000000002
 20
119.0314630221409
 30
0.0
 11
2.9290758031650048
 21
119.0650558061329
 31
0.0
  0
LINE
  5
7C3
  8
0
 10
2.741699999999994
 20
119.1784630221409
 30
0.0
 11
3.4059000000000021
 21
118.7764630221409
 31
0.0
  0
LINE
  5
7C4
  8
0
 10
3.4059000000000021
 20
118.7764630221409
 30
0.0
 11
4.1527999999999992
 21
118.4646630221409
 31
0.0
  0
LINE
  5
7C5
  8
0
 10
4.1527999999999992
 20
118.4646630221409
 30
0.0
 11
5.121999999999999
 21
118.1647630221409
 31
0.0
  0
LINE
  5
7C6
  8
0
 10
5.121999999999999
 20
118.1647630221409
 30
0.0
 11
6.3289000000000044
 21
117.8816630221409
 31
0.0
  0
LINE
  5
7C7
  8
0
 10
6.3289000000000044
 20
117.8816630221409
 30
0.0
 11
6.5367999999999986
 21
117.8341630221409
 31
0.0
  0
LINE
  5
7C8
  8
0
 10
6.5367999999999986
 20
117.8341630221409
 30
0.0
 11
7.9783999999999926
 21
117.5744630221409
 31
0.0
  0
LINE
  5
7C9
  8
0
 10
2.6214999999999971
 20
158.92546302214089
 30
0.0
 11
2.8717000000000041
 21
159.91346302214089
 31
0.0
  0
LINE
  5
7CA
  8
0
 10
3.9711000000000061
 20
162.85846302214091
 30
0.0
 11
4.1524000000000001
 21
163.1544630221409
 31
0.0
  0
LINE
  5
7CB
  8
0
 10
4.1524000000000001
 20
163.1544630221409
 30
0.0
 11
4.3093999999999957
 21
163.3384630221409
 31
0.0
  0
LINE
  5
7CC
  8
0
 10
3.8644000000000029
 20
162.65046302214091
 30
0.0
 11
3.9711000000000061
 21
162.85846302214091
 31
0.0
  0
LINE
  5
7CD
  8
0
 10
4.3093999999999957
 20
163.3384630221409
 30
0.0
 11
4.4599999999999929
 21
163.4874630221409
 31
0.0
  0
LINE
  5
7CE
  8
0
 10
4.6625999999999967
 20
163.62546302214091
 30
0.0
 11
5.0031999999999917
 21
163.84246302214089
 31
0.0
  0
LINE
  5
7CF
  8
0
 10
4.4599999999999929
 20
163.4874630221409
 30
0.0
 11
4.6625999999999967
 21
163.62546302214091
 31
0.0
  0
LINE
  5
7D0
  8
0
 10
3.466899999999995
 20
161.73546302214089
 30
0.0
 11
3.8644000000000029
 21
162.65046302214091
 31
0.0
  0
LINE
  5
7D1
  8
0
 10
5.8441999999999998
 20
164.1354630221409
 30
0.0
 11
5.9408999999999992
 21
164.1724630221409
 31
0.0
  0
LINE
  5
7D2
  8
0
 10
5.5144999999999982
 20
164.04346302214091
 30
0.0
 11
5.8441999999999998
 21
164.1354630221409
 31
0.0
  0
LINE
  5
7D3
  8
0
 10
5.0031999999999917
 20
163.84246302214089
 30
0.0
 11
5.5144999999999982
 21
164.04346302214091
 31
0.0
  0
LINE
  5
7D4
  8
0
 10
3.1295999999999959
 20
160.75746302214091
 30
0.0
 11
3.466899999999995
 21
161.73546302214089
 31
0.0
  0
LINE
  5
7D5
  8
0
 10
2.8717000000000041
 20
159.91346302214089
 30
0.0
 11
3.1295999999999959
 21
160.75746302214091
 31
0.0
  0
LINE
  5
7D6
  8
0
 10
1.683300000000002
 20
155.30446302214091
 30
0.0
 11
1.7282000000000011
 21
155.61046302214089
 31
0.0
  0
LINE
  5
7D7
  8
0
 10
5.9408999999999992
 20
164.1724630221409
 30
0.0
 11
6.5404000000000053
 21
164.3094630221409
 31
0.0
  0
LINE
  5
7D8
  8
0
 10
6.9759999999999991
 20
116.3274630221409
 30
0.0
 11
8.6730000000000018
 21
116.1634630221409
 31
0.0
  0
LINE
  5
7D9
  8
0
 10
7.9783999999999926
 20
117.5744630221409
 30
0.0
 11
9.6449000000000051
 21
117.3422630221409
 31
0.0
  0
LINE
  5
7DA
  8
0
 10
6.5404000000000053
 20
164.3094630221409
 30
0.0
 11
7.2892999999999972
 21
164.43046302214091
 31
0.0
  0
LINE
  5
7DB
  8
0
 10
7.2892999999999972
 20
164.43046302214091
 30
0.0
 11
8.2248000000000019
 21
164.53746302214091
 31
0.0
  0
LINE
  5
7DC
  8
0
 10
8.6730000000000018
 20
116.1634630221409
 30
0.0
 11
10.651999999999999
 21
116.03646302214089
 31
0.0
  0
LINE
  5
7DD
  8
0
 10
9.6449000000000051
 20
117.3422630221409
 30
0.0
 11
11.510099999999991
 21
117.1414630221409
 31
0.0
  0
LINE
  5
7DE
  8
0
 10
8.2248000000000019
 20
164.53746302214091
 30
0.0
 11
9.2151000000000067
 21
164.6174630221409
 31
0.0
  0
LINE
  5
7DF
  8
0
 10
12.903999999999989
 20
115.9404630221409
 30
0.0
 11
15.49299999999999
 21
115.86946302214091
 31
0.0
  0
LINE
  5
7E0
  8
0
 10
12.62399999999999
 20
94.977463022140938
 30
0.0
 11
13.566000000000001
 21
95.995463022140925
 31
0.0
  0
LINE
  5
7E1
  8
0
 10
10.651999999999999
 20
116.03646302214089
 30
0.0
 11
12.903999999999989
 21
115.9404630221409
 31
0.0
  0
LINE
  5
7E2
  8
0
 10
13.566000000000001
 20
95.995463022140925
 30
0.0
 11
14.772999999999991
 21
96.930463022140941
 31
0.0
  0
LINE
  5
7E3
  8
0
 10
13.259499999999999
 20
116.9946630221409
 30
0.0
 11
15.107699999999991
 21
116.8736630221409
 31
0.0
  0
LINE
  5
7E4
  8
0
 10
11.510099999999991
 20
117.1414630221409
 30
0.0
 11
13.259499999999999
 21
116.9946630221409
 31
0.0
  0
LINE
  5
7E5
  8
0
 10
10.247949768777
 20
164.67695261751589
 30
0.0
 11
10.899200000000009
 21
164.7144630221409
 31
0.0
  0
LINE
  5
7E6
  8
0
 10
10.899200000000009
 20
164.7144630221409
 30
0.0
 11
11.990600000000001
 21
164.77446302214091
 31
0.0
  0
LINE
  5
7E7
  8
0
 10
10.247949768777
 20
164.67695261751589
 30
0.0
 11
10.899200000000009
 21
164.7144630221409
 31
0.0
  0
LINE
  5
7E8
  8
0
 10
13.178000000000001
 20
164.82346302214091
 30
0.0
 11
14.337899999999999
 21
164.87746302214089
 31
0.0
  0
LINE
  5
7E9
  8
0
 10
11.990600000000001
 20
164.77446302214091
 30
0.0
 11
13.178000000000001
 21
164.82346302214091
 31
0.0
  0
LINE
  5
7EA
  8
0
 10
14.772999999999991
 20
96.930463022140941
 30
0.0
 11
16.17499999999999
 21
97.731463022140943
 31
0.0
  0
LINE
  5
7EB
  8
0
 10
14.337899999999999
 20
164.87746302214089
 30
0.0
 11
15.4231
 21
164.91846302214091
 31
0.0
  0
LINE
  5
7EC
  8
0
 10
12.071199999999999
 20
94.069707232666929
 30
0.0
 11
12.071199999999999
 21
89.344163022140947
 31
0.0
  0
LINE
  5
7ED
  8
0
 10
14.91039999999999
 20
91.627163022140948
 30
0.0
 11
15.4199
 21
92.175163022140936
 31
0.0
  0
LINE
  5
7EE
  8
0
 10
14.495699999999999
 20
91.050163022140936
 30
0.0
 11
14.91039999999999
 21
91.627163022140948
 31
0.0
  0
LINE
  5
7EF
  8
0
 10
15.107699999999991
 20
116.8736630221409
 30
0.0
 11
17.032299999999989
 21
116.7785630221409
 31
0.0
  0
LINE
  5
7F0
  8
0
 10
13.95816933611399
 20
89.805163061493957
 30
0.0
 11
13.976340152641001
 21
89.870401896161937
 31
0.0
  0
LINE
  5
7F1
  8
0
 10
15.4199
 20
85.522163022140944
 30
0.0
 11
16.019199999999991
 21
85.007163022140944
 31
0.0
  0
LINE
  5
7F4
  8
0
 10
15.621700000000001
 20
83.876163022140943
 30
0.0
 11
16.46309999999999
 21
83.411163022140954
 31
0.0
  0
LINE
  5
7F5
  8
0
 10
15.8931
 20
85.147163022140944
 30
0.0
 11
16.593299999999999
 21
84.640163022140939
 31
0.0
  0
LINE
  5
7F6
  8
0
 10
15.752800000000009
 20
87.098163022140923
 30
0.0
 11
16.104900000000001
 21
86.581163022140956
 31
0.0
  0
LINE
  5
7F7
  8
0
 10
15.4915
 20
87.634163022140939
 30
0.0
 11
15.752800000000009
 21
87.098163022140923
 31
0.0
  0
LINE
  5
7F8
  8
0
 10
15.470148482409989
 20
90.074469641284949
 30
0.0
 11
15.60349999999999
 21
89.727163022140928
 31
0.0
  0
LINE
  5
7F9
  8
0
 10
15.60349999999999
 20
89.727163022140928
 30
0.0
 11
15.935499999999999
 21
89.160163022140935
 31
0.0
  0
LINE
  5
800
  8
0
 10
21.563300000000002
 20
81.884163022140925
 30
0.0
 11
22.671099999999999
 21
81.770163022140935
 31
0.0
  0
LINE
  5
801
  8
0
 10
20.477699999999999
 20
82.060163022140927
 30
0.0
 11
21.563300000000002
 21
81.884163022140925
 31
0.0
  0
LINE
  5
802
  8
0
 10
19.425399999999989
 20
82.299163022140945
 30
0.0
 11
20.477699999999999
 21
82.060163022140927
 31
0.0
  0
LINE
  5
803
  8
0
 10
18.415400000000002
 20
82.598163022140938
 30
0.0
 11
19.425399999999989
 21
82.299163022140945
 31
0.0
  0
LINE
  5
804
  8
0
 10
21.074999999999999
 20
82.899163022140925
 30
0.0
 11
22.079899999999999
 21
82.745163022140929
 31
0.0
  0
LINE
  5
805
  8
0
 10
22.079899999999999
 20
82.745163022140929
 30
0.0
 11
23.106999999999999
 21
82.654163022140935
 31
0.0
  0
LINE
  5
806
  8
0
 10
17.4559
 20
82.953163022140956
 30
0.0
 11
18.415400000000002
 21
82.598163022140938
 31
0.0
  0
LINE
  5
807
  8
0
 10
16.556899999999999
 20
83.362163022140948
 30
0.0
 11
17.4559
 21
82.953163022140956
 31
0.0
  0
LINE
  5
808
  8
0
 10
16.46309999999999
 20
83.411163022140954
 30
0.0
 11
16.556899999999999
 21
83.362163022140948
 31
0.0
  0
LINE
  5
809
  8
0
 10
20.099299999999999
 20
83.114163022140943
 30
0.0
 11
21.074999999999999
 21
82.899163022140925
 31
0.0
  0
LINE
  5
80A
  8
0
 10
19.165099999999988
 20
83.388163022140944
 30
0.0
 11
20.099299999999999
 21
83.114163022140943
 31
0.0
  0
LINE
  5
80B
  8
0
 10
18.281199999999998
 20
83.717163022140937
 30
0.0
 11
19.165099999999988
 21
83.388163022140944
 31
0.0
  0
LINE
  5
80C
  8
0
 10
19.165099999999988
 20
83.429163022140941
 30
0.0
 11
20.115500000000001
 21
83.151163022140949
 31
0.0
  0
LINE
  5
80D
  8
0
 10
20.115500000000001
 20
83.151163022140949
 30
0.0
 11
21.107299999999999
 21
82.933163022140945
 31
0.0
  0
LINE
  5
80E
  8
0
 10
21.107299999999999
 20
82.933163022140945
 30
0.0
 11
22.130300000000009
 21
82.78016302214094
 31
0.0
  0
LINE
  5
810
  8
0
 10
22.671099999999999
 20
81.770163022140935
 30
0.0
 11
23.7911
 21
81.721163022140942
 31
0.0
  0
LINE
  5
811
  8
0
 10
22.130300000000009
 20
82.78016302214094
 30
0.0
 11
23.175599999999999
 21
82.691163022140941
 31
0.0
  0
LINE
  5
812
  8
0
 10
17.4559
 20
84.100163022140947
 30
0.0
 11
18.281199999999998
 21
83.717163022140937
 31
0.0
  0
LINE
  5
813
  8
0
 10
17.378199999999989
 20
84.181163022140936
 30
0.0
 11
18.238900000000001
 21
83.776163022140949
 31
0.0
  0
LINE
  5
814
  8
0
 10
18.238900000000001
 20
83.776163022140949
 30
0.0
 11
19.165099999999988
 21
83.429163022140941
 31
0.0
  0
LINE
  5
815
  8
0
 10
16.699200000000001
 20
84.531163022140944
 30
0.0
 11
17.4559
 21
84.100163022140947
 31
0.0
  0
LINE
  5
816
  8
0
 10
16.593299999999999
 20
84.640163022140939
 30
0.0
 11
17.378199999999989
 21
84.181163022140936
 31
0.0
  0
LINE
  5
817
  8
0
 10
16.019199999999991
 20
85.007163022140944
 30
0.0
 11
16.699200000000001
 21
84.531163022140944
 31
0.0
  0
LINE
  5
818
  8
0
 10
17.0655
 20
85.628163022140924
 30
0.0
 11
17.661699999999989
 21
85.202163022140937
 31
0.0
  0
LINE
  5
819
  8
0
 10
17.661699999999989
 20
85.202163022140937
 30
0.0
 11
18.328699999999991
 21
84.816163022140941
 31
0.0
  0
LINE
  5
81A
  8
0
 10
18.328699999999991
 20
84.816163022140941
 30
0.0
 11
19.058099999999989
 21
84.475163022140947
 31
0.0
  0
LINE
  5
81B
  8
0
 10
19.058099999999989
 20
84.475163022140947
 30
0.0
 11
19.842099999999999
 21
84.181163022140936
 31
0.0
  0
LINE
  5
81C
  8
0
 10
19.842099999999999
 20
84.181163022140936
 30
0.0
 11
20.751100000000012
 21
83.919163022140935
 31
0.0
  0
LINE
  5
81D
  8
0
 10
20.751100000000012
 20
83.919163022140935
 30
0.0
 11
21.703600000000002
 21
83.722163022140947
 31
0.0
  0
LINE
  5
81E
  8
0
 10
21.703600000000002
 20
83.722163022140947
 30
0.0
 11
22.68729999999999
 21
83.592163022140923
 31
0.0
  0
LINE
  5
81F
  8
0
 10
23.106999999999999
 20
82.654163022140935
 30
0.0
 11
24.071200000000012
 21
82.628163022140939
 31
0.0
  0
LINE
  5
820
  8
0
 10
23.175599999999999
 20
82.691163022140941
 30
0.0
 11
24.071200000000012
 21
82.671163022140945
 31
0.0
  0
LINE
  5
821
  8
0
 10
22.68729999999999
 20
83.592163022140923
 30
0.0
 11
23.688199999999991
 21
83.530163022140925
 31
0.0
  0
LINE
  5
822
  8
0
 10
16.544899999999998
 20
86.089163022140937
 30
0.0
 11
17.0655
 21
85.628163022140924
 31
0.0
  0
LINE
  5
823
  8
0
 10
19.001599999999989
 20
86.846163022140928
 30
0.0
 11
19.842099999999999
 21
86.529163022140935
 31
0.0
  0
LINE
  5
824
  8
0
 10
19.842099999999999
 20
86.529163022140935
 30
0.0
 11
20.736000000000001
 21
86.271163022140939
 31
0.0
  0
LINE
  5
825
  8
0
 10
16.104900000000001
 20
86.581163022140956
 30
0.0
 11
16.544899999999998
 21
86.089163022140937
 31
0.0
  0
LINE
  5
826
  8
0
 10
20.736000000000001
 20
86.271163022140939
 30
0.0
 11
21.672300000000011
 21
86.075163022140941
 31
0.0
  0
LINE
  5
827
  8
0
 10
21.672300000000011
 20
86.075163022140941
 30
0.0
 11
22.63890000000001
 21
85.944163022140941
 31
0.0
  0
LINE
  5
828
  8
0
 10
22.63890000000001
 20
85.944163022140941
 30
0.0
 11
23.622599999999998
 21
85.879163022140943
 31
0.0
  0
LINE
  5
82B
  8
0
 10
23.7911
 20
81.721163022140942
 30
0.0
 11
24.071200000000012
 21
81.725163022140933
 31
0.0
  0
LINE
  5
852
  8
0
 10
23.688199999999991
 20
83.530163022140925
 30
0.0
 11
24.071200000000012
 21
83.533163022140954
 31
0.0
  0
LINE
  5
853
  8
0
 10
23.622599999999998
 20
85.879163022140943
 30
0.0
 11
24.071200000000012
 21
85.881163022140939
 31
0.0
  0
LINE
  5
854
  8
0
 10
16.369299999999988
 20
88.620163022140943
 30
0.0
 11
16.899999999999999
 21
88.112163022140948
 31
0.0
  0
LINE
  5
855
  8
0
 10
16.899999999999999
 20
88.112163022140948
 30
0.0
 11
17.520499999999998
 21
87.643163022140939
 31
0.0
  0
LINE
  5
856
  8
0
 10
17.520499999999998
 20
87.643163022140939
 30
0.0
 11
18.223700000000012
 21
87.220163022140923
 31
0.0
  0
LINE
  5
857
  8
0
 10
18.223700000000012
 20
87.220163022140923
 30
0.0
 11
19.001599999999989
 21
86.846163022140928
 31
0.0
  0
LINE
  5
858
  8
0
 10
15.935499999999999
 20
89.160163022140935
 30
0.0
 11
16.369299999999988
 21
88.620163022140943
 31
0.0
  0
LINE
  5
859
  8
0
 10
15.49299999999999
 20
115.86946302214091
 30
0.0
 11
18.350999999999999
 21
115.8204630221409
 31
0.0
  0
LINE
  5
85A
  8
0
 10
15.4231
 20
164.91846302214091
 30
0.0
 11
17.769300000000001
 21
164.98246302214091
 31
0.0
  0
LINE
  5
85B
  8
0
 10
15.4199
 20
92.175163022140936
 30
0.0
 11
16.019199999999991
 21
92.691163022140941
 31
0.0
  0
LINE
  5
85C
  8
0
 10
16.17499999999999
 20
97.731463022140943
 30
0.0
 11
18.007000000000001
 21
98.475463022140943
 31
0.0
  0
LINE
  5
85D
  8
0
 10
16.019199999999991
 20
92.691163022140941
 30
0.0
 11
16.699200000000001
 21
93.166163022140935
 31
0.0
  0
LINE
  5
85E
  8
0
 10
17.0655
 20
92.150163022140944
 30
0.0
 11
17.661699999999989
 21
92.577163022140937
 31
0.0
  0
LINE
  5
85F
  8
0
 10
17.661699999999989
 20
92.577163022140937
 30
0.0
 11
18.328699999999991
 21
92.962163022140942
 31
0.0
  0
LINE
  5
860
  8
0
 10
16.699200000000001
 20
93.166163022140935
 30
0.0
 11
17.4559
 21
93.597163022140947
 31
0.0
  0
LINE
  5
861
  8
0
 10
17.4559
 20
93.597163022140947
 30
0.0
 11
18.281199999999998
 21
93.979163022140938
 31
0.0
  0
LINE
  5
862
  8
0
 10
18.328699999999991
 20
92.962163022140942
 30
0.0
 11
19.058099999999989
 21
93.304163022140955
 31
0.0
  0
LINE
  5
863
  8
0
 10
19.058099999999989
 20
93.304163022140955
 30
0.0
 11
19.842099999999999
 21
93.597163022140947
 31
0.0
  0
LINE
  5
864
  8
0
 10
18.281199999999998
 20
93.979163022140938
 30
0.0
 11
19.165099999999988
 21
94.310163022140955
 31
0.0
  0
LINE
  5
865
  8
0
 10
19.842099999999999
 20
93.597163022140947
 30
0.0
 11
20.751100000000012
 21
93.860163022140924
 31
0.0
  0
LINE
  5
866
  8
0
 10
20.751100000000012
 20
93.860163022140924
 30
0.0
 11
21.703600000000002
 21
94.057163022140927
 31
0.0
  0
LINE
  5
867
  8
0
 10
21.703600000000002
 20
94.057163022140927
 30
0.0
 11
22.68729999999999
 21
94.187163022140936
 31
0.0
  0
LINE
  5
868
  8
0
 10
22.68729999999999
 20
94.187163022140936
 30
0.0
 11
23.688199999999991
 21
94.249163022140948
 31
0.0
  0
LINE
  5
869
  8
0
 10
18.007000000000001
 20
98.475463022140943
 30
0.0
 11
19.783999999999988
 21
98.959463022140937
 31
0.0
  0
LINE
  5
86A
  8
0
 10
18.350999999999999
 20
115.8204630221409
 30
0.0
 11
21.109999999999999
 21
115.7944630221409
 31
0.0
  0
LINE
  5
86B
  8
0
 10
17.032299999999989
 20
116.7785630221409
 30
0.0
 11
19.1538
 21
116.7045630221409
 31
0.0
  0
LINE
  5
86C
  8
0
 10
19.1538
 20
116.7045630221409
 30
0.0
 11
21.315799999999999
 21
116.6586630221409
 31
0.0
  0
LINE
  5
86D
  8
0
 10
17.769300000000001
 20
164.98246302214091
 30
0.0
 11
20.877800000000011
 21
165.03346302214089
 31
0.0
  0
LINE
  5
86E
  8
0
 10
20.099299999999999
 20
94.583163022140937
 30
0.0
 11
21.074999999999999
 21
94.798163022140955
 31
0.0
  0
LINE
  5
86F
  8
0
 10
21.074999999999999
 20
94.798163022140955
 30
0.0
 11
22.079899999999999
 21
94.953163022140942
 31
0.0
  0
LINE
  5
870
  8
0
 10
22.079899999999999
 20
94.953163022140942
 30
0.0
 11
23.106999999999999
 21
95.044163022140935
 31
0.0
  0
LINE
  5
871
  8
0
 10
21.109999999999999
 20
115.7944630221409
 30
0.0
 11
23.998999999999999
 21
115.7854630221409
 31
0.0
  0
LINE
  5
872
  8
0
 10
19.783999999999988
 20
98.959463022140937
 30
0.0
 11
21.666
 21
99.270463022140945
 31
0.0
  0
LINE
  5
873
  8
0
 10
21.3002
 20
125.9094630221409
 30
0.0
 11
21.312999999999999
 21
126.2304630221409
 31
0.0
  0
LINE
  5
874
  8
0
 10
21.3002
 20
125.9094630221409
 30
0.0
 11
21.32040000000001
 21
125.5894630221409
 31
0.0
  0
LINE
  5
875
  8
0
 10
21.312999999999999
 20
126.2304630221409
 30
0.0
 11
21.358699999999999
 21
126.5474630221409
 31
0.0
  0
LINE
  5
876
  8
0
 10
21.32040000000001
 20
125.5894630221409
 30
0.0
 11
21.3736
 21
125.2734630221409
 31
0.0
  0
LINE
  5
877
  8
0
 10
21.358699999999999
 20
126.5474630221409
 30
0.0
 11
21.437100000000001
 21
126.8594630221409
 31
0.0
  0
LINE
  5
878
  8
0
 10
21.315799999999999
 20
116.6586630221409
 30
0.0
 11
24.0
 21
116.6390630221409
 31
0.0
  0
LINE
  5
879
  8
0
 10
20.877800000000011
 20
165.03346302214089
 30
0.0
 11
21.6234
 21
165.04546302214089
 31
0.0
  0
LINE
  5
87A
  8
0
 10
21.666
 20
99.270463022140945
 30
0.0
 11
24.0
 21
99.403463022140954
 31
0.0
  0
LINE
  5
87B
  8
0
 10
21.437100000000001
 20
126.8594630221409
 30
0.0
 11
21.528500000000012
 21
127.1144630221409
 31
0.0
  0
LINE
  5
87C
  8
0
 10
21.528500000000012
 20
127.1144630221409
 30
0.0
 11
21.64279999999999
 21
127.3614630221409
 31
0.0
  0
LINE
  5
87D
  8
0
 10
21.6234
 20
165.04546302214089
 30
0.0
 11
24.0
 21
165.0654630221409
 31
0.0
  0
LINE
  5
87E
  8
0
 10
21.45900000000001
 20
124.95346302214089
 30
0.0
 11
21.544499999999999
 21
124.7204630221409
 31
0.0
  0
LINE
  5
87F
  8
0
 10
21.544499999999999
 20
124.7204630221409
 30
0.0
 11
21.649200000000011
 21
124.49446302214091
 31
0.0
  0
LINE
  5
880
  8
0
 10
21.649200000000011
 20
124.49446302214091
 30
0.0
 11
21.772600000000001
 21
124.2784630221409
 31
0.0
  0
LINE
  5
881
  8
0
 10
21.772600000000001
 20
124.2784630221409
 30
0.0
 11
21.914500000000011
 21
124.07246302214089
 31
0.0
  0
LINE
  5
882
  8
0
 10
21.914500000000011
 20
124.07246302214089
 30
0.0
 11
22.067800000000009
 21
123.8864630221409
 31
0.0
  0
LINE
  5
883
  8
0
 10
22.067800000000009
 20
123.8864630221409
 30
0.0
 11
22.212623183323998
 21
123.7382120711639
 31
0.0
  0
LINE
  5
884
  8
0
 10
22.647600000000001
 20
123.39646302214091
 30
0.0
 11
22.8828
 21
123.2634630221409
 31
0.0
  0
LINE
  5
885
  8
0
 10
22.8828
 20
123.2634630221409
 30
0.0
 11
23.131599999999992
 21
123.1544630221409
 31
0.0
  0
LINE
  5
886
  8
0
 10
23.131599999999992
 20
123.1544630221409
 30
0.0
 11
23.391300000000001
 21
123.0734630221409
 31
0.0
  0
LINE
  5
887
  8
0
 10
23.391300000000001
 20
123.0734630221409
 30
0.0
 11
23.658799999999999
 21
123.02146302214091
 31
0.0
  0
LINE
  5
888
  8
0
 10
23.658799999999999
 20
123.02146302214091
 30
0.0
 11
23.886399999999998
 21
122.9994630221409
 31
0.0
  0
LINE
  5
889
  8
0
 10
23.886399999999998
 20
122.9994630221409
 30
0.0
 11
24.115100000000002
 21
123.00046302214091
 31
0.0
  0
LINE
  5
88A
  8
0
 10
21.93760000000001
 20
127.81946302214089
 30
0.0
 11
22.104700000000008
 21
128.01346302214091
 31
0.0
  0
LINE
  5
88B
  8
0
 10
22.104700000000008
 20
128.01346302214091
 30
0.0
 11
22.289200000000001
 21
128.19146302214091
 31
0.0
  0
LINE
  5
88C
  8
0
 10
22.289200000000001
 20
128.19146302214091
 30
0.0
 11
22.489999999999998
 21
128.3514630221409
 31
0.0
  0
LINE
  5
88D
  8
0
 10
22.705500000000001
 20
128.4924630221409
 30
0.0
 11
22.943600000000011
 21
128.61646302214089
 31
0.0
  0
LINE
  5
88E
  8
0
 10
22.943600000000011
 20
128.61646302214089
 30
0.0
 11
23.1936
 21
128.71546302214091
 31
0.0
  0
LINE
  5
88F
  8
0
 10
23.1936
 20
128.71546302214091
 30
0.0
 11
23.452999999999999
 21
128.78846302214089
 31
0.0
  0
LINE
  5
890
  8
0
 10
23.452999999999999
 20
128.78846302214089
 30
0.0
 11
23.718800000000002
 21
128.8324630221409
 31
0.0
  0
LINE
  5
891
  8
0
 10
23.718800000000002
 20
128.8324630221409
 30
0.0
 11
23.95099999999999
 21
128.84746302214089
 31
0.0
  0
LINE
  5
892
  8
0
 10
22.489999999999998
 20
128.3514630221409
 30
0.0
 11
22.705500000000001
 21
128.4924630221409
 31
0.0
  0
LINE
  5
893
  8
0
 10
21.77930000000001
 20
127.5964630221409
 30
0.0
 11
21.93760000000001
 21
127.81946302214089
 31
0.0
  0
LINE
  5
894
  8
0
 10
21.64279999999999
 20
127.3614630221409
 30
0.0
 11
21.77930000000001
 21
127.5964630221409
 31
0.0
  0
LINE
  5
895
  8
0
 10
21.3736
 20
125.2734630221409
 30
0.0
 11
21.45900000000001
 21
124.95346302214089
 31
0.0
  0
LINE
  5
896
  8
0
 10
21.3736
 20
125.2734630221409
 30
0.0
 11
21.42063683117399
 21
125.1035164293209
 31
0.0
  0
LINE
  5
897
  8
0
 10
23.106999999999999
 20
95.044163022140935
 30
0.0
 11
24.071200000000012
 21
95.069163022140941
 31
0.0
  0
LINE
  5
898
  8
0
 10
19.165099999999988
 20
94.310163022140955
 30
0.0
 11
20.099299999999999
 21
94.583163022140937
 31
0.0
  0
LINE
  5
899
  8
0
 10
23.688199999999991
 20
94.249163022140948
 30
0.0
 11
24.071200000000012
 21
94.245163022140943
 31
0.0
  0
LINE
  5
89A
  8
0
 10
16.544899999999998
 20
91.689163022140946
 30
0.0
 11
17.0655
 21
92.150163022140944
 31
0.0
  0
LINE
  5
89B
  8
0
 10
16.104900000000001
 20
91.198163022140946
 30
0.0
 11
16.544899999999998
 21
91.689163022140946
 31
0.0
  0
LINE
  5
89C
  8
0
 10
15.752800000000009
 20
90.681163022140936
 30
0.0
 11
16.104900000000001
 21
91.198163022140946
 31
0.0
  0
LINE
  5
89D
  8
0
 10
15.4915
 20
90.144163022140944
 30
0.0
 11
15.752800000000009
 21
90.681163022140936
 31
0.0
  0
LINE
  5
89E
  8
0
 10
15.323000000000009
 20
89.594163022140947
 30
0.0
 11
15.4915
 21
90.144163022140944
 31
0.0
  0
LINE
  5
89F
  8
0
 10
15.323000000000009
 20
89.594163022140947
 30
0.0
 11
15.323000000000009
 21
88.184163022140936
 31
0.0
  0
LINE
  5
8A0
  8
0
 10
12.528999999999989
 20
85.761463022140944
 30
0.0
 11
11.217000000000001
 21
86.742463022140925
 31
0.0
  0
LINE
  5
8A1
  8
0
 10
8.2729999999999961
 20
89.721463022140938
 30
0.0
 11
6.9489999999999981
 21
91.484463022140943
 31
0.0
  0
LINE
  5
8A2
  8
0
 10
6.4470000000000018
 20
92.203463022140937
 30
0.0
 11
4.5639959257940026
 21
95.644715216194925
 31
0.0
  0
LINE
  5
8A3
  8
0
 10
4.5639959257940026
 20
95.644715216194925
 30
0.0
 11
2.7060804105120009
 21
100.3794031422369
 31
0.0
  0
LINE
  5
8A4
  8
0
 10
22.647600000000001
 20
123.39646302214091
 30
0.0
 11
22.212623183323998
 21
123.7382120711639
 31
0.0
  0
LINE
  5
8A5
  8
0
 10
1.7561000000000031
 20
138.40046302214091
 30
0.0
 11
1.771237852983006
 21
140.22932688830889
 31
0.0
  0
LINE
  5
8A6
  8
0
 10
9.2151000000000067
 20
164.6174630221409
 30
0.0
 11
10.247949768777
 21
164.67695261751589
 31
0.0
  0
LINE
  5
8A7
  8
0
 10
46.604999999999983
 20
78.164463022140936
 30
0.0
 11
46.528999999999989
 21
90.115463022140943
 31
0.0
  0
LINE
  5
8A8
  8
0
 10
38.61699999999999
 20
88.455463022140947
 30
0.0
 11
38.046999999999997
 21
87.879463022140925
 31
0.0
  0
LINE
  5
8A9
  8
0
 10
35.847099999999998
 20
88.308163022140945
 30
0.0
 11
35.6584
 21
87.623163022140929
 31
0.0
  0
LINE
  5
8AA
  8
0
 10
34.149000000000001
 20
88.493163022140948
 30
0.0
 11
34.037000000000013
 21
87.865163022140933
 31
0.0
  0
LINE
  5
8AB
  8
0
 10
34.081949840081002
 20
88.117203196881945
 30
0.0
 11
33.918999999999997
 21
87.532163022140949
 31
0.0
  0
LINE
  5
8AC
  8
0
 10
32.677
 20
88.184163022140936
 30
0.0
 11
32.508499999999998
 21
87.634163022140939
 31
0.0
  0
LINE
  5
8AD
  8
0
 10
31.099999999999991
 20
88.112163022140948
 30
0.0
 11
30.479500000000002
 21
87.643163022140939
 31
0.0
  0
LINE
  5
8AE
  8
0
 10
48.020499999999998
 20
-0.235389500000011
 30
0.0
 11
46.604999999999983
 21
78.164463022140936
 31
0.0
  0
LINE
  5
8AF
  8
0
 10
48.020499999999998
 20
-0.235389500000011
 30
0.0
 11
46.604999999999983
 21
78.164463022140936
 31
0.0
  0
LINE
  5
8B0
  8
0
 10
30.5441
 20
82.953163022140956
 30
0.0
 11
29.584599999999998
 21
82.598163022140938
 31
0.0
  0
LINE
  5
8B1
  8
0
 10
29.718800000000002
 20
83.717163022140937
 30
0.0
 11
28.834900000000001
 21
83.388163022140944
 31
0.0
  0
LINE
  5
8B2
  8
0
 10
29.761099999999999
 20
83.776163022140949
 30
0.0
 11
28.834900000000001
 21
83.429163022140941
 31
0.0
  0
LINE
  5
8B3
  8
0
 10
29.671299999999999
 20
84.816163022140941
 30
0.0
 11
28.9419
 21
84.475163022140947
 31
0.0
  0
LINE
  5
8B4
  8
0
 10
29.776299999999988
 20
87.220163022140923
 30
0.0
 11
28.998400000000011
 21
86.846163022140928
 31
0.0
  0
LINE
  5
8B5
  8
0
 10
34.417400000000001
 20
85.531163022140944
 30
0.0
 11
33.825199999999988
 21
84.942163022140946
 31
0.0
  0
LINE
  5
8B6
  8
0
 10
33.985007853292998
 20
84.834213471198936
 30
0.0
 11
33.15806266153399
 21
84.400315660301942
 31
0.0
  0
LINE
  5
8B7
  8
0
 10
33.985007853292998
 20
84.834213471198936
 30
0.0
 11
33.15806266153399
 21
84.400315660301942
 31
0.0
  0
LINE
  5
8B8
  8
0
 10
34.037000000000013
 20
87.865163022140933
 30
0.0
 11
33.822100000000013
 21
87.248163022140943
 31
0.0
  0
LINE
  5
8B9
  8
0
 10
37.733000000000011
 20
87.571463022140946
 30
0.0
 11
36.783000000000001
 21
86.742463022140925
 31
0.0
  0
LINE
  5
8BA
  8
0
 10
35.470999999999997
 20
85.761463022140944
 30
0.0
 11
34.055999999999997
 21
84.871463022140944
 31
0.0
  0
LINE
  5
8BB
  8
0
 10
35.604900000000001
 20
87.467163022140937
 30
0.0
 11
35.311300000000003
 21
86.800163022140936
 31
0.0
  0
LINE
  5
8BC
  8
0
 10
38.046999999999997
 20
87.879463022140925
 30
0.0
 11
37.733000000000011
 21
87.571463022140946
 31
0.0
  0
LINE
  5
8BD
  8
0
 10
35.6584
 20
87.623163022140929
 30
0.0
 11
35.604900000000001
 21
87.467163022140937
 31
0.0
  0
LINE
  5
8BE
  8
0
 10
34.913800000000009
 20
86.152163022140925
 30
0.0
 11
34.417400000000001
 21
85.531163022140944
 31
0.0
  0
LINE
  5
8BF
  8
0
 10
35.311300000000003
 20
86.800163022140936
 30
0.0
 11
34.913800000000009
 21
86.152163022140925
 31
0.0
  0
LINE
  5
8C0
  8
0
 10
35.470999999999997
 20
85.761463022140944
 30
0.0
 11
36.783000000000001
 21
86.742463022140925
 31
0.0
  0
LINE
  5
8C1
  8
0
 10
32.378300000000003
 20
83.876163022140943
 30
0.0
 11
31.536899999999999
 21
83.411163022140954
 31
0.0
  0
LINE
  5
8C2
  8
0
 10
31.443100000000001
 20
83.362163022140948
 30
0.0
 11
30.5441
 21
82.953163022140956
 31
0.0
  0
LINE
  5
8C3
  8
0
 10
31.536899999999999
 20
83.411163022140954
 30
0.0
 11
31.443100000000001
 21
83.362163022140948
 31
0.0
  0
LINE
  5
8C4
  8
0
 10
32.106900000000003
 20
85.147163022140944
 30
0.0
 11
31.406700000000001
 21
84.640163022140939
 31
0.0
  0
LINE
  5
8C5
  8
0
 10
31.980799999999999
 20
85.007163022140944
 30
0.0
 11
31.300799999999992
 21
84.531163022140944
 31
0.0
  0
LINE
  5
8C6
  8
0
 10
31.895099999999999
 20
86.581163022140956
 30
0.0
 11
31.455100000000002
 21
86.089163022140937
 31
0.0
  0
LINE
  5
8C7
  8
0
 10
33.825199999999988
 20
84.942163022140946
 30
0.0
 11
33.143100000000011
 21
84.388163022140944
 31
0.0
  0
LINE
  5
8C8
  8
0
 10
33.822100000000013
 20
87.248163022140943
 30
0.0
 11
33.504300000000001
 21
86.649163022140925
 31
0.0
  0
LINE
  5
8C9
  8
0
 10
33.918999999999997
 20
87.532163022140949
 30
0.0
 11
33.62639999999999
 21
86.894163022140944
 31
0.0
  0
LINE
  5
8CA
  8
0
 10
33.143100000000011
 20
84.388163022140944
 30
0.0
 11
32.378300000000003
 21
83.876163022140943
 31
0.0
  0
LINE
  5
8CB
  8
0
 10
33.08959999999999
 20
86.070163022140946
 30
0.0
 11
32.580100000000002
 21
85.522163022140944
 31
0.0
  0
LINE
  5
8CC
  8
0
 10
32.714300000000009
 20
85.695163022140946
 30
0.0
 11
32.106900000000003
 21
85.147163022140944
 31
0.0
  0
LINE
  5
8CD
  8
0
 10
33.504300000000001
 20
86.649163022140925
 30
0.0
 11
33.08959999999999
 21
86.070163022140946
 31
0.0
  0
LINE
  5
8CE
  8
0
 10
33.222800000000007
 20
86.28016302214094
 30
0.0
 11
32.714300000000009
 21
85.695163022140946
 31
0.0
  0
LINE
  5
8CF
  8
0
 10
33.62639999999999
 20
86.894163022140944
 30
0.0
 11
33.222800000000007
 21
86.28016302214094
 31
0.0
  0
LINE
  5
8D0
  8
0
 10
32.580100000000002
 20
85.522163022140944
 30
0.0
 11
31.980799999999999
 21
85.007163022140944
 31
0.0
  0
LINE
  5
8D1
  8
0
 10
32.247199999999999
 20
87.098163022140923
 30
0.0
 11
31.895099999999999
 21
86.581163022140956
 31
0.0
  0
LINE
  5
8D2
  8
0
 10
32.508499999999998
 20
87.634163022140939
 30
0.0
 11
32.247199999999999
 21
87.098163022140923
 31
0.0
  0
LINE
  5
8D3
  8
0
 10
30.5441
 20
84.100163022140947
 30
0.0
 11
29.718800000000002
 21
83.717163022140937
 31
0.0
  0
LINE
  5
8D4
  8
0
 10
30.621800000000011
 20
84.181163022140936
 30
0.0
 11
29.761099999999999
 21
83.776163022140949
 31
0.0
  0
LINE
  5
8D5
  8
0
 10
31.300799999999992
 20
84.531163022140944
 30
0.0
 11
30.5441
 21
84.100163022140947
 31
0.0
  0
LINE
  5
8D6
  8
0
 10
31.406700000000001
 20
84.640163022140939
 30
0.0
 11
30.621800000000011
 21
84.181163022140936
 31
0.0
  0
LINE
  5
8D7
  8
0
 10
30.9345
 20
85.628163022140924
 30
0.0
 11
30.3383
 21
85.202163022140937
 31
0.0
  0
LINE
  5
8D8
  8
0
 10
30.3383
 20
85.202163022140937
 30
0.0
 11
29.671299999999999
 21
84.816163022140941
 31
0.0
  0
LINE
  5
8D9
  8
0
 10
31.455100000000002
 20
86.089163022140937
 30
0.0
 11
30.9345
 21
85.628163022140924
 31
0.0
  0
LINE
  5
8DA
  8
0
 10
30.479500000000002
 20
87.643163022140939
 30
0.0
 11
29.776299999999988
 21
87.220163022140923
 31
0.0
  0
LINE
  5
8DB
  8
0
 10
26.436699999999998
 20
81.884163022140925
 30
0.0
 11
25.328900000000001
 21
81.770163022140935
 31
0.0
  0
LINE
  5
8DC
  8
0
 10
25.920100000000009
 20
82.745163022140929
 30
0.0
 11
24.893000000000001
 21
82.654163022140935
 31
0.0
  0
LINE
  5
8DD
  8
0
 10
25.869699999999991
 20
82.78016302214094
 30
0.0
 11
24.824400000000001
 21
82.691163022140941
 31
0.0
  0
LINE
  5
8DE
  8
0
 10
26.296400000000009
 20
83.722163022140947
 30
0.0
 11
25.31270000000001
 21
83.592163022140923
 31
0.0
  0
LINE
  5
8DF
  8
0
 10
25.36109999999999
 20
85.944163022140941
 30
0.0
 11
24.377400000000002
 21
85.879163022140943
 31
0.0
  0
LINE
  5
8E0
  8
0
 10
27.522300000000001
 20
82.060163022140927
 30
0.0
 11
26.436699999999998
 21
81.884163022140925
 31
0.0
  0
LINE
  5
8E1
  8
0
 10
28.574600000000011
 20
82.299163022140945
 30
0.0
 11
27.522300000000001
 21
82.060163022140927
 31
0.0
  0
LINE
  5
8E2
  8
0
 10
29.584599999999998
 20
82.598163022140938
 30
0.0
 11
28.574600000000011
 21
82.299163022140945
 31
0.0
  0
LINE
  5
8E3
  8
0
 10
26.925000000000001
 20
82.899163022140925
 30
0.0
 11
25.920100000000009
 21
82.745163022140929
 31
0.0
  0
LINE
  5
8E4
  8
0
 10
27.900700000000001
 20
83.114163022140943
 30
0.0
 11
26.925000000000001
 21
82.899163022140925
 31
0.0
  0
LINE
  5
8E5
  8
0
 10
28.834900000000001
 20
83.388163022140944
 30
0.0
 11
27.900700000000001
 21
83.114163022140943
 31
0.0
  0
LINE
  5
8E6
  8
0
 10
28.834900000000001
 20
83.429163022140941
 30
0.0
 11
27.884499999999999
 21
83.151163022140949
 31
0.0
  0
LINE
  5
8E7
  8
0
 10
27.884499999999999
 20
83.151163022140949
 30
0.0
 11
26.892700000000001
 21
82.933163022140945
 31
0.0
  0
LINE
  5
8E8
  8
0
 10
26.892700000000001
 20
82.933163022140945
 30
0.0
 11
25.869699999999991
 21
82.78016302214094
 31
0.0
  0
LINE
  5
8E9
  8
0
 10
28.9419
 20
84.475163022140947
 30
0.0
 11
28.157900000000001
 21
84.181163022140936
 31
0.0
  0
LINE
  5
8EA
  8
0
 10
28.157900000000001
 20
84.181163022140936
 30
0.0
 11
27.248899999999988
 21
83.919163022140935
 31
0.0
  0
LINE
  5
8EB
  8
0
 10
27.248899999999988
 20
83.919163022140935
 30
0.0
 11
26.296400000000009
 21
83.722163022140947
 31
0.0
  0
LINE
  5
8EC
  8
0
 10
28.998400000000011
 20
86.846163022140928
 30
0.0
 11
28.157900000000001
 21
86.529163022140935
 31
0.0
  0
LINE
  5
8ED
  8
0
 10
28.157900000000001
 20
86.529163022140935
 30
0.0
 11
27.263999999999999
 21
86.271163022140939
 31
0.0
  0
LINE
  5
8EE
  8
0
 10
27.263999999999999
 20
86.271163022140939
 30
0.0
 11
26.327699999999989
 21
86.075163022140941
 31
0.0
  0
LINE
  5
8EF
  8
0
 10
26.327699999999989
 20
86.075163022140941
 30
0.0
 11
25.36109999999999
 21
85.944163022140941
 31
0.0
  0
LINE
  5
8F0
  8
0
 10
25.31270000000001
 20
83.592163022140923
 30
0.0
 11
24.311800000000009
 21
83.530163022140925
 31
0.0
  0
LINE
  5
8F1
  8
0
 10
25.328900000000001
 20
81.770163022140935
 30
0.0
 11
24.2089
 21
81.721163022140942
 31
0.0
  0
LINE
  5
8F2
  8
0
 10
24.893000000000001
 20
82.654163022140935
 30
0.0
 11
23.928799999999988
 21
82.628163022140939
 31
0.0
  0
LINE
  5
8F3
  8
0
 10
24.824400000000001
 20
82.691163022140941
 30
0.0
 11
23.928799999999988
 21
82.671163022140945
 31
0.0
  0
LINE
  5
8F4
  8
0
 10
24.2089
 20
81.721163022140942
 30
0.0
 11
23.928799999999988
 21
81.725163022140933
 31
0.0
  0
LINE
  5
8F5
  8
0
 10
24.311800000000009
 20
83.530163022140925
 30
0.0
 11
23.928799999999988
 21
83.533163022140954
 31
0.0
  0
LINE
  5
8F6
  8
0
 10
24.377400000000002
 20
85.879163022140943
 30
0.0
 11
23.928799999999988
 21
85.881163022140939
 31
0.0
  0
LINE
  5
8F7
  8
0
 10
46.305300000000003
 20
123.74446302214091
 30
0.0
 11
46.226300000000002
 21
122.1024630221409
 31
0.0
  0
LINE
  5
8F8
  8
0
 10
32.507000000000012
 20
115.86946302214091
 30
0.0
 11
29.649000000000001
 21
115.8204630221409
 31
0.0
  0
LINE
  5
8F9
  8
0
 10
29.671299999999999
 20
92.962163022140942
 30
0.0
 11
28.9419
 21
93.304163022140955
 31
0.0
  0
LINE
  5
8FA
  8
0
 10
29.718800000000002
 20
93.979163022140938
 30
0.0
 11
28.834900000000001
 21
94.310163022140955
 31
0.0
  0
LINE
  5
8FB
  8
0
 10
29.992999999999999
 20
98.475463022140943
 30
0.0
 11
28.216000000000012
 21
98.959463022140937
 31
0.0
  0
LINE
  5
8FC
  8
0
 10
30.967700000000011
 20
116.7785630221409
 30
0.0
 11
28.8462
 21
116.7045630221409
 31
0.0
  0
LINE
  5
8FD
  8
0
 10
46.466000000000008
 20
102.1124630221409
 30
0.0
 11
46.383000000000003
 21
117.1934630221409
 31
0.0
  0
LINE
  5
8FE
  8
0
 10
39.322000000000003
 20
89.245463022140939
 30
0.0
 11
38.61699999999999
 21
88.455463022140947
 31
0.0
  0
LINE
  5
8FF
  8
0
 10
39.727000000000011
 20
89.721463022140938
 30
0.0
 11
39.322000000000003
 21
89.245463022140939
 31
0.0
  0
LINE
  5
900
  8
0
 10
46.528999999999989
 20
90.115463022140943
 30
0.0
 11
46.466000000000008
 21
102.1124630221409
 31
0.0
  0
LINE
  5
901
  8
0
 10
41.55299999999999
 20
92.203463022140937
 30
0.0
 11
41.051000000000002
 21
91.484463022140943
 31
0.0
  0
LINE
  5
902
  8
0
 10
39.727000000000011
 20
89.721463022140938
 30
0.0
 11
41.051000000000002
 21
91.484463022140943
 31
0.0
  0
LINE
  5
903
  8
0
 10
41.55299999999999
 20
92.203463022140937
 30
0.0
 11
43.436004074205989
 21
95.644715216194925
 31
0.0
  0
LINE
  5
904
  8
0
 10
43.436004074205989
 20
95.644715216194925
 30
0.0
 11
45.293919589487992
 21
100.3794031422369
 31
0.0
  0
LINE
  5
905
  8
0
 10
34.433999999999997
 20
95.995463022140925
 30
0.0
 11
33.227000000000011
 21
96.930463022140941
 31
0.0
  0
LINE
  5
906
  8
0
 10
34.093891719745002
 20
88.184163022140936
 30
0.0
 11
32.677
 21
88.184163022140936
 31
0.0
  0
LINE
  5
907
  8
0
 10
34.079581469649
 20
89.594163022140947
 30
0.0
 11
32.677
 21
89.594163022140947
 31
0.0
  0
LINE
  5
908
  8
0
 10
34.037000000000013
 20
89.832163022140946
 30
0.0
 11
33.822100000000013
 21
90.448163022140946
 31
0.0
  0
LINE
  5
909
  8
0
 10
35.928800000000003
 20
89.001163022140943
 30
0.0
 11
35.928800000000003
 21
93.859163022140947
 31
0.0
  0
LINE
  5
90A
  8
0
 10
35.928800000000003
 20
89.344163022140947
 30
0.0
 11
35.928800000000003
 21
94.069707232666929
 31
0.0
  0
LINE
  5
90B
  8
0
 10
36.496000000000009
 20
91.633463022140944
 30
0.0
 11
36.412000000000013
 21
92.751463022140939
 31
0.0
  0
LINE
  5
90C
  8
0
 10
35.928800000000003
 20
93.859163022140947
 30
0.0
 11
35.928800000000003
 21
89.001163022140943
 31
0.0
  0
LINE
  5
90D
  8
0
 10
35.928800000000003
 20
94.069707232666929
 30
0.0
 11
35.928800000000003
 21
89.344163022140947
 31
0.0
  0
LINE
  5
90E
  8
0
 10
35.928800000000003
 20
89.001163022140943
 30
0.0
 11
35.847099999999998
 21
88.308163022140945
 31
0.0
  0
LINE
  5
90F
  8
0
 10
34.152999999999992
 20
88.848163022140938
 30
0.0
 11
34.149000000000001
 21
89.206163022140942
 31
0.0
  0
LINE
  5
910
  8
0
 10
34.152999999999992
 20
88.848163022140938
 30
0.0
 11
34.149000000000001
 21
88.493163022140948
 31
0.0
  0
LINE
  5
911
  8
0
 10
36.01400000000001
 20
89.626463022140939
 30
0.0
 11
35.928800000000003
 21
89.464015022140941
 31
0.0
  0
LINE
  5
912
  8
0
 10
35.928800000000003
 20
89.344163022140947
 30
0.0
 11
35.921999999999997
 21
89.172163022140936
 31
0.0
  0
LINE
  5
913
  8
0
 10
34.149000000000001
 20
89.206163022140942
 30
0.0
 11
34.037000000000013
 21
89.832163022140946
 31
0.0
  0
LINE
  5
914
  8
0
 10
36.323999999999998
 20
90.512463022140935
 30
0.0
 11
36.01400000000001
 21
89.626463022140939
 31
0.0
  0
LINE
  5
915
  8
0
 10
36.496000000000009
 20
91.633463022140944
 30
0.0
 11
36.323999999999998
 21
90.512463022140935
 31
0.0
  0
LINE
  5
916
  8
0
 10
34.04183066388601
 20
89.805163061493957
 30
0.0
 11
34.023659847358999
 21
89.870401896161937
 31
0.0
  0
LINE
  5
917
  8
0
 10
36.040999999999997
 20
93.885463022140925
 30
0.0
 11
35.376000000000012
 21
94.977463022140938
 31
0.0
  0
LINE
  5
918
  8
0
 10
36.412000000000013
 20
92.751463022140939
 30
0.0
 11
36.040999999999997
 21
93.885463022140925
 31
0.0
  0
LINE
  5
919
  8
0
 10
35.376000000000012
 20
94.977463022140938
 30
0.0
 11
34.433999999999997
 21
95.995463022140925
 31
0.0
  0
LINE
  5
91A
  8
0
 10
32.677
 20
88.184163022140936
 30
0.0
 11
32.677
 21
89.594163022140947
 31
0.0
  0
LINE
  5
91B
  8
0
 10
33.822100000000013
 20
90.448163022140946
 30
0.0
 11
33.504300000000001
 21
91.050163022140936
 31
0.0
  0
LINE
  5
91C
  8
0
 10
33.08959999999999
 20
91.627163022140948
 30
0.0
 11
32.580100000000002
 21
92.175163022140936
 31
0.0
  0
LINE
  5
91D
  8
0
 10
33.504300000000001
 20
91.050163022140936
 30
0.0
 11
33.08959999999999
 21
91.627163022140948
 31
0.0
  0
LINE
  5
91E
  8
0
 10
32.529851517589009
 20
90.074469641284949
 30
0.0
 11
32.39650000000001
 21
89.727163022140928
 31
0.0
  0
LINE
  5
91F
  8
0
 10
32.39650000000001
 20
89.727163022140928
 30
0.0
 11
32.064500000000002
 21
89.160163022140935
 31
0.0
  0
LINE
  5
920
  8
0
 10
31.630700000000012
 20
88.620163022140943
 30
0.0
 11
31.099999999999991
 21
88.112163022140948
 31
0.0
  0
LINE
  5
921
  8
0
 10
32.064500000000002
 20
89.160163022140935
 30
0.0
 11
31.630700000000012
 21
88.620163022140943
 31
0.0
  0
LINE
  5
922
  8
0
 10
32.580100000000002
 20
92.175163022140936
 30
0.0
 11
31.980799999999999
 21
92.691163022140941
 31
0.0
  0
LINE
  5
923
  8
0
 10
31.980799999999999
 20
92.691163022140941
 30
0.0
 11
31.300799999999992
 21
93.166163022140935
 31
0.0
  0
LINE
  5
924
  8
0
 10
30.9345
 20
92.150163022140944
 30
0.0
 11
30.3383
 21
92.577163022140937
 31
0.0
  0
LINE
  5
925
  8
0
 10
30.3383
 20
92.577163022140937
 30
0.0
 11
29.671299999999999
 21
92.962163022140942
 31
0.0
  0
LINE
  5
926
  8
0
 10
31.300799999999992
 20
93.166163022140935
 30
0.0
 11
30.5441
 21
93.597163022140947
 31
0.0
  0
LINE
  5
927
  8
0
 10
30.5441
 20
93.597163022140947
 30
0.0
 11
29.718800000000002
 21
93.979163022140938
 31
0.0
  0
LINE
  5
928
  8
0
 10
31.455100000000002
 20
91.689163022140946
 30
0.0
 11
30.9345
 21
92.150163022140944
 31
0.0
  0
LINE
  5
929
  8
0
 10
31.895099999999999
 20
91.198163022140946
 30
0.0
 11
31.455100000000002
 21
91.689163022140946
 31
0.0
  0
LINE
  5
92A
  8
0
 10
32.247199999999999
 20
90.681163022140936
 30
0.0
 11
31.895099999999999
 21
91.198163022140946
 31
0.0
  0
LINE
  5
92B
  8
0
 10
32.508499999999998
 20
90.144163022140944
 30
0.0
 11
32.247199999999999
 21
90.681163022140936
 31
0.0
  0
LINE
  5
92C
  8
0
 10
32.677
 20
89.594163022140947
 30
0.0
 11
32.508499999999998
 21
90.144163022140944
 31
0.0
  0
LINE
  5
92D
  8
0
 10
32.677
 20
89.594163022140947
 30
0.0
 11
32.677
 21
88.184163022140936
 31
0.0
  0
LINE
  5
92E
  8
0
 10
33.227000000000011
 20
96.930463022140941
 30
0.0
 11
31.824999999999999
 21
97.731463022140943
 31
0.0
  0
LINE
  5
92F
  8
0
 10
31.824999999999999
 20
97.731463022140943
 30
0.0
 11
29.992999999999999
 21
98.475463022140943
 31
0.0
  0
LINE
  5
930
  8
0
 10
39.326999999999998
 20
116.1634630221409
 30
0.0
 11
37.347999999999999
 21
116.03646302214089
 31
0.0
  0
LINE
  5
931
  8
0
 10
38.355099999999993
 20
117.3422630221409
 30
0.0
 11
36.489900000000013
 21
117.1414630221409
 31
0.0
  0
LINE
  5
932
  8
0
 10
43.186999999999991
 20
116.6984630221409
 30
0.0
 11
42.216000000000008
 21
116.4964630221409
 31
0.0
  0
LINE
  5
933
  8
0
 10
42.877999999999993
 20
118.1647630221409
 30
0.0
 11
41.671100000000003
 21
117.8816630221409
 31
0.0
  0
LINE
  5
934
  8
0
 10
46.220999999999997
 20
118.1204630221409
 30
0.0
 11
46.006999999999998
 21
118.4404630221409
 31
0.0
  0
LINE
  5
935
  8
0
 10
44.310299999999991
 20
118.05866302214091
 30
0.0
 11
44.234045661271999
 21
118.62615515921991
 31
0.0
  0
LINE
  5
936
  8
0
 10
46.341999999999992
 20
117.7364630221409
 30
0.0
 11
46.262999999999998
 21
117.99146302214091
 31
0.0
  0
LINE
  5
937
  8
0
 10
46.383000000000003
 20
117.1934630221409
 30
0.0
 11
46.341999999999992
 21
117.7364630221409
 31
0.0
  0
LINE
  5
938
  8
0
 10
46.262999999999998
 20
117.99146302214091
 30
0.0
 11
46.220999999999997
 21
118.1204630221409
 31
0.0
  0
LINE
  5
939
  8
0
 10
44.542999999999999
 20
117.4544630221409
 30
0.0
 11
44.36699999999999
 21
117.86046302214091
 31
0.0
  0
LINE
  5
93A
  8
0
 10
44.542999999999999
 20
117.4544630221409
 30
0.0
 11
44.420000000000002
 21
117.2424630221409
 31
0.0
  0
LINE
  5
93B
  8
0
 10
44.420000000000002
 20
117.2424630221409
 30
0.0
 11
44.146999999999977
 21
117.0444630221409
 31
0.0
  0
LINE
  5
93C
  8
0
 10
44.146999999999977
 20
117.0444630221409
 30
0.0
 11
43.186999999999991
 21
116.6984630221409
 31
0.0
  0
LINE
  5
93D
  8
0
 10
44.348815828082991
 20
117.1908349414099
 30
0.0
 11
44.310299999999991
 21
118.05866302214091
 31
0.0
  0
LINE
  5
93E
  8
0
 10
44.36699999999999
 20
117.86046302214091
 30
0.0
 11
44.317794400802001
 21
117.88980123758191
 31
0.0
  0
LINE
  5
93F
  8
0
 10
44.36699999999999
 20
117.86046302214091
 30
0.0
 11
44.317794400802001
 21
117.88980123758191
 31
0.0
  0
LINE
  5
940
  8
0
 10
46.226300000000002
 20
122.1024630221409
 30
0.0
 11
46.161299999999997
 21
121.3144630221409
 31
0.0
  0
LINE
  5
941
  8
0
 10
45.835999999999991
 20
118.6334630221409
 30
0.0
 11
45.521000000000001
 21
118.8444630221409
 31
0.0
  0
LINE
  5
942
  8
0
 10
46.006999999999998
 20
118.4404630221409
 30
0.0
 11
45.835999999999991
 21
118.6334630221409
 31
0.0
  0
LINE
  5
943
  8
0
 10
45.521000000000001
 20
118.8444630221409
 30
0.0
 11
45.174999999999997
 21
119.0314630221409
 31
0.0
  0
LINE
  5
944
  8
0
 10
45.674700000000001
 20
119.5854630221409
 30
0.0
 11
45.258299999999991
 21
119.1784630221409
 31
0.0
  0
LINE
  5
945
  8
0
 10
46.008099999999999
 20
120.1334630221409
 30
0.0
 11
45.970999999999997
 21
119.94446302214089
 31
0.0
  0
LINE
  5
946
  8
0
 10
45.970999999999997
 20
119.94446302214089
 30
0.0
 11
45.856799999999993
 21
119.76546302214091
 31
0.0
  0
LINE
  5
947
  8
0
 10
45.856799999999993
 20
119.76546302214091
 30
0.0
 11
45.674700000000001
 21
119.5854630221409
 31
0.0
  0
LINE
  5
948
  8
0
 10
46.161299999999997
 20
121.3144630221409
 30
0.0
 11
46.008099999999999
 21
120.1334630221409
 31
0.0
  0
LINE
  5
949
  8
0
 10
45.174999999999997
 20
119.0314630221409
 30
0.0
 11
45.070924196834987
 21
119.0650558061329
 31
0.0
  0
LINE
  5
94A
  8
0
 10
45.258299999999991
 20
119.1784630221409
 30
0.0
 11
44.594099999999997
 21
118.7764630221409
 31
0.0
  0
LINE
  5
94B
  8
0
 10
44.594099999999997
 20
118.7764630221409
 30
0.0
 11
43.847200000000001
 21
118.4646630221409
 31
0.0
  0
LINE
  5
94C
  8
0
 10
43.847200000000001
 20
118.4646630221409
 30
0.0
 11
42.877999999999993
 21
118.1647630221409
 31
0.0
  0
LINE
  5
94D
  8
0
 10
42.216000000000008
 20
116.4964630221409
 30
0.0
 11
41.024000000000001
 21
116.3274630221409
 31
0.0
  0
LINE
  5
94E
  8
0
 10
41.671100000000003
 20
117.8816630221409
 30
0.0
 11
41.463200000000001
 21
117.8341630221409
 31
0.0
  0
LINE
  5
94F
  8
0
 10
41.463200000000001
 20
117.8341630221409
 30
0.0
 11
40.021599999999999
 21
117.5744630221409
 31
0.0
  0
LINE
  5
950
  8
0
 10
41.024000000000001
 20
116.3274630221409
 30
0.0
 11
39.326999999999998
 21
116.1634630221409
 31
0.0
  0
LINE
  5
951
  8
0
 10
40.021599999999999
 20
117.5744630221409
 30
0.0
 11
38.355099999999993
 21
117.3422630221409
 31
0.0
  0
LINE
  5
952
  8
0
 10
35.096000000000011
 20
115.9404630221409
 30
0.0
 11
32.507000000000012
 21
115.86946302214091
 31
0.0
  0
LINE
  5
953
  8
0
 10
37.347999999999999
 20
116.03646302214089
 30
0.0
 11
35.096000000000011
 21
115.9404630221409
 31
0.0
  0
LINE
  5
954
  8
0
 10
34.740499999999997
 20
116.9946630221409
 30
0.0
 11
32.892300000000013
 21
116.8736630221409
 31
0.0
  0
LINE
  5
955
  8
0
 10
36.489900000000013
 20
117.1414630221409
 30
0.0
 11
34.740499999999997
 21
116.9946630221409
 31
0.0
  0
LINE
  5
956
  8
0
 10
32.892300000000013
 20
116.8736630221409
 30
0.0
 11
30.967700000000011
 21
116.7785630221409
 31
0.0
  0
LINE
  5
957
  8
0
 10
26.296400000000009
 20
94.057163022140927
 30
0.0
 11
25.31270000000001
 21
94.187163022140936
 31
0.0
  0
LINE
  5
958
  8
0
 10
25.920100000000009
 20
94.953163022140942
 30
0.0
 11
24.893000000000001
 21
95.044163022140935
 31
0.0
  0
LINE
  5
959
  8
0
 10
28.9419
 20
93.304163022140955
 30
0.0
 11
28.157900000000001
 21
93.597163022140947
 31
0.0
  0
LINE
  5
95A
  8
0
 10
28.157900000000001
 20
93.597163022140947
 30
0.0
 11
27.248899999999988
 21
93.860163022140924
 31
0.0
  0
LINE
  5
95B
  8
0
 10
27.248899999999988
 20
93.860163022140924
 30
0.0
 11
26.296400000000009
 21
94.057163022140927
 31
0.0
  0
LINE
  5
95C
  8
0
 10
27.900700000000001
 20
94.583163022140937
 30
0.0
 11
26.925000000000001
 21
94.798163022140955
 31
0.0
  0
LINE
  5
95D
  8
0
 10
26.925000000000001
 20
94.798163022140955
 30
0.0
 11
25.920100000000009
 21
94.953163022140942
 31
0.0
  0
LINE
  5
95E
  8
0
 10
28.834900000000001
 20
94.310163022140955
 30
0.0
 11
27.900700000000001
 21
94.583163022140937
 31
0.0
  0
LINE
  5
95F
  8
0
 10
25.31270000000001
 20
94.187163022140936
 30
0.0
 11
24.311800000000009
 21
94.249163022140948
 31
0.0
  0
LINE
  5
960
  8
0
 10
24.893000000000001
 20
95.044163022140935
 30
0.0
 11
23.928799999999988
 21
95.069163022140941
 31
0.0
  0
LINE
  5
961
  8
0
 10
24.311800000000009
 20
94.249163022140948
 30
0.0
 11
23.928799999999988
 21
94.245163022140943
 31
0.0
  0
LINE
  5
962
  8
0
 10
28.216000000000012
 20
98.959463022140937
 30
0.0
 11
26.334
 21
99.270463022140945
 31
0.0
  0
LINE
  5
963
  8
0
 10
26.334
 20
99.270463022140945
 30
0.0
 11
24.0
 21
99.403463022140954
 31
0.0
  0
LINE
  5
964
  8
0
 10
29.649000000000001
 20
115.8204630221409
 30
0.0
 11
26.890000000000001
 21
115.7944630221409
 31
0.0
  0
LINE
  5
965
  8
0
 10
28.8462
 20
116.7045630221409
 30
0.0
 11
26.684200000000011
 21
116.6586630221409
 31
0.0
  0
LINE
  5
966
  8
0
 10
26.890000000000001
 20
115.7944630221409
 30
0.0
 11
24.001000000000008
 21
115.7854630221409
 31
0.0
  0
LINE
  5
967
  8
0
 10
26.684200000000011
 20
116.6586630221409
 30
0.0
 11
24.0
 21
116.6390630221409
 31
0.0
  0
LINE
  5
968
  8
0
 10
30.230699999999999
 20
164.98246302214091
 30
0.0
 11
27.122199999999989
 21
165.03346302214089
 31
0.0
  0
LINE
  5
969
  8
0
 10
46.243899999999996
 20
138.40046302214091
 30
0.0
 11
46.228762147016987
 21
140.22932688830889
 31
0.0
  0
LINE
  5
96A
  8
0
 10
46.320899999999988
 20
124.9404630221409
 30
0.0
 11
46.243899999999996
 21
138.40046302214091
 31
0.0
  0
LINE
  5
96B
  8
0
 10
46.320899999999988
 20
124.9404630221409
 30
0.0
 11
46.305300000000003
 21
123.74446302214091
 31
0.0
  0
LINE
  5
96C
  8
0
 10
38.784899999999993
 20
164.6174630221409
 30
0.0
 11
37.752050231223002
 21
164.67695261751589
 31
0.0
  0
LINE
  5
96D
  8
0
 10
46.266999999999989
 20
155.63746302214091
 30
0.0
 11
46.110399999999998
 21
156.48446302214089
 31
0.0
  0
LINE
  5
96E
  8
0
 10
46.200849688109002
 20
155.9671065899129
 30
0.0
 11
46.110399999999998
 21
156.48446302214089
 31
0.0
  0
LINE
  5
96F
  8
0
 10
46.271799999999999
 20
155.61046302214089
 30
0.0
 11
46.110399999999998
 21
156.48446302214089
 31
0.0
  0
LINE
  5
970
  8
0
 10
46.331600000000009
 20
154.9934630221409
 30
0.0
 11
46.322800000000001
 21
155.25846302214089
 31
0.0
  0
LINE
  5
971
  8
0
 10
46.331600000000009
 20
154.9934630221409
 30
0.0
 11
46.239699999999992
 21
150.92446302214091
 31
0.0
  0
LINE
  5
972
  8
0
 10
46.239699999999992
 20
150.92446302214091
 30
0.0
 11
46.228762147016987
 21
140.22932688830889
 31
0.0
  0
LINE
  5
973
  8
0
 10
46.31669999999999
 20
155.30446302214091
 30
0.0
 11
46.271799999999999
 21
155.61046302214089
 31
0.0
  0
LINE
  5
974
  8
0
 10
45.85329999999999
 20
157.3094630221409
 30
0.0
 11
45.378500000000003
 21
158.92546302214089
 31
0.0
  0
LINE
  5
975
  8
0
 10
46.110399999999998
 20
156.48446302214089
 30
0.0
 11
45.85329999999999
 21
157.3094630221409
 31
0.0
  0
LINE
  5
976
  8
0
 10
45.378500000000003
 20
158.92546302214089
 30
0.0
 11
45.128300000000003
 21
159.91346302214089
 31
0.0
  0
LINE
  5
977
  8
0
 10
44.028899999999993
 20
162.85846302214091
 30
0.0
 11
43.847599999999993
 21
163.1544630221409
 31
0.0
  0
LINE
  5
978
  8
0
 10
43.847599999999993
 20
163.1544630221409
 30
0.0
 11
43.690600000000003
 21
163.3384630221409
 31
0.0
  0
LINE
  5
979
  8
0
 10
44.13559999999999
 20
162.65046302214091
 30
0.0
 11
44.028899999999993
 21
162.85846302214091
 31
0.0
  0
LINE
  5
97A
  8
0
 10
43.690600000000003
 20
163.3384630221409
 30
0.0
 11
43.539999999999992
 21
163.4874630221409
 31
0.0
  0
LINE
  5
97B
  8
0
 10
43.337400000000002
 20
163.62546302214091
 30
0.0
 11
42.996800000000007
 21
163.84246302214089
 31
0.0
  0
LINE
  5
97C
  8
0
 10
43.539999999999992
 20
163.4874630221409
 30
0.0
 11
43.337400000000002
 21
163.62546302214091
 31
0.0
  0
LINE
  5
97D
  8
0
 10
44.53309999999999
 20
161.73546302214089
 30
0.0
 11
44.13559999999999
 21
162.65046302214091
 31
0.0
  0
LINE
  5
97E
  8
0
 10
42.155799999999999
 20
164.1354630221409
 30
0.0
 11
42.059100000000001
 21
164.1724630221409
 31
0.0
  0
LINE
  5
97F
  8
0
 10
42.485500000000002
 20
164.04346302214091
 30
0.0
 11
42.155799999999999
 21
164.1354630221409
 31
0.0
  0
LINE
  5
980
  8
0
 10
42.996800000000007
 20
163.84246302214089
 30
0.0
 11
42.485500000000002
 21
164.04346302214091
 31
0.0
  0
LINE
  5
981
  8
0
 10
44.870399999999989
 20
160.75746302214091
 30
0.0
 11
44.53309999999999
 21
161.73546302214089
 31
0.0
  0
LINE
  5
982
  8
0
 10
45.128300000000003
 20
159.91346302214089
 30
0.0
 11
44.870399999999989
 21
160.75746302214091
 31
0.0
  0
LINE
  5
983
  8
0
 10
42.059100000000001
 20
164.1724630221409
 30
0.0
 11
41.459599999999988
 21
164.3094630221409
 31
0.0
  0
LINE
  5
984
  8
0
 10
41.459599999999988
 20
164.3094630221409
 30
0.0
 11
40.710700000000003
 21
164.43046302214091
 31
0.0
  0
LINE
  5
985
  8
0
 10
40.710700000000003
 20
164.43046302214091
 30
0.0
 11
39.775199999999998
 21
164.53746302214091
 31
0.0
  0
LINE
  5
986
  8
0
 10
39.775199999999998
 20
164.53746302214091
 30
0.0
 11
38.784899999999993
 21
164.6174630221409
 31
0.0
  0
LINE
  5
987
  8
0
 10
37.752050231223002
 20
164.67695261751589
 30
0.0
 11
37.1008
 21
164.7144630221409
 31
0.0
  0
LINE
  5
988
  8
0
 10
37.1008
 20
164.7144630221409
 30
0.0
 11
36.009399999999999
 21
164.77446302214091
 31
0.0
  0
LINE
  5
989
  8
0
 10
37.752050231223002
 20
164.67695261751589
 30
0.0
 11
37.1008
 21
164.7144630221409
 31
0.0
  0
LINE
  5
98A
  8
0
 10
34.82200000000001
 20
164.82346302214091
 30
0.0
 11
33.662100000000009
 21
164.87746302214089
 31
0.0
  0
LINE
  5
98B
  8
0
 10
36.009399999999999
 20
164.77446302214091
 30
0.0
 11
34.82200000000001
 21
164.82346302214091
 31
0.0
  0
LINE
  5
98C
  8
0
 10
33.662100000000009
 20
164.87746302214089
 30
0.0
 11
32.576900000000002
 21
164.91846302214091
 31
0.0
  0
LINE
  5
98D
  8
0
 10
32.576900000000002
 20
164.91846302214091
 30
0.0
 11
30.230699999999999
 21
164.98246302214091
 31
0.0
  0
LINE
  5
98E
  8
0
 10
25.352399999999999
 20
123.39646302214091
 30
0.0
 11
25.1172
 21
123.2634630221409
 31
0.0
  0
LINE
  5
98F
  8
0
 10
25.510000000000009
 20
128.3514630221409
 30
0.0
 11
25.294499999999999
 21
128.4924630221409
 31
0.0
  0
LINE
  5
990
  8
0
 10
26.641300000000001
 20
126.5474630221409
 30
0.0
 11
26.562899999999999
 21
126.8594630221409
 31
0.0
  0
LINE
  5
991
  8
0
 10
26.6998
 20
125.9094630221409
 30
0.0
 11
26.687000000000001
 21
126.2304630221409
 31
0.0
  0
LINE
  5
992
  8
0
 10
26.6998
 20
125.9094630221409
 30
0.0
 11
26.67959999999999
 21
125.5894630221409
 31
0.0
  0
LINE
  5
993
  8
0
 10
26.687000000000001
 20
126.2304630221409
 30
0.0
 11
26.641300000000001
 21
126.5474630221409
 31
0.0
  0
LINE
  5
994
  8
0
 10
26.67959999999999
 20
125.5894630221409
 30
0.0
 11
26.626400000000011
 21
125.2734630221409
 31
0.0
  0
LINE
  5
995
  8
0
 10
26.541
 20
124.95346302214089
 30
0.0
 11
26.455500000000001
 21
124.7204630221409
 31
0.0
  0
LINE
  5
996
  8
0
 10
26.455500000000001
 20
124.7204630221409
 30
0.0
 11
26.350799999999989
 21
124.49446302214091
 31
0.0
  0
LINE
  5
997
  8
0
 10
26.350799999999989
 20
124.49446302214091
 30
0.0
 11
26.227399999999999
 21
124.2784630221409
 31
0.0
  0
LINE
  5
998
  8
0
 10
26.227399999999999
 20
124.2784630221409
 30
0.0
 11
26.0855
 21
124.07246302214089
 31
0.0
  0
LINE
  5
999
  8
0
 10
26.0855
 20
124.07246302214089
 30
0.0
 11
25.932200000000002
 21
123.8864630221409
 31
0.0
  0
LINE
  5
99A
  8
0
 10
25.932200000000002
 20
123.8864630221409
 30
0.0
 11
25.787376816676002
 21
123.7382120711639
 31
0.0
  0
LINE
  5
99B
  8
0
 10
26.626400000000011
 20
125.2734630221409
 30
0.0
 11
26.541
 21
124.95346302214089
 31
0.0
  0
LINE
  5
99C
  8
0
 10
26.626400000000011
 20
125.2734630221409
 30
0.0
 11
26.57936316882601
 21
125.1035164293209
 31
0.0
  0
LINE
  5
99D
  8
0
 10
25.352399999999999
 20
123.39646302214091
 30
0.0
 11
25.787376816676002
 21
123.7382120711639
 31
0.0
  0
LINE
  5
99E
  8
0
 10
26.562899999999999
 20
126.8594630221409
 30
0.0
 11
26.471499999999988
 21
127.1144630221409
 31
0.0
  0
LINE
  5
99F
  8
0
 10
26.471499999999988
 20
127.1144630221409
 30
0.0
 11
26.35720000000001
 21
127.3614630221409
 31
0.0
  0
LINE
  5
9A0
  8
0
 10
26.0624
 20
127.81946302214089
 30
0.0
 11
25.895299999999992
 21
128.01346302214091
 31
0.0
  0
LINE
  5
9A1
  8
0
 10
25.895299999999992
 20
128.01346302214091
 30
0.0
 11
25.71080000000001
 21
128.19146302214091
 31
0.0
  0
LINE
  5
9A2
  8
0
 10
25.71080000000001
 20
128.19146302214091
 30
0.0
 11
25.510000000000009
 21
128.3514630221409
 31
0.0
  0
LINE
  5
9A3
  8
0
 10
26.22069999999999
 20
127.5964630221409
 30
0.0
 11
26.0624
 21
127.81946302214089
 31
0.0
  0
LINE
  5
9A4
  8
0
 10
26.35720000000001
 20
127.3614630221409
 30
0.0
 11
26.22069999999999
 21
127.5964630221409
 31
0.0
  0
LINE
  5
9A5
  8
0
 10
25.1172
 20
123.2634630221409
 30
0.0
 11
24.868400000000008
 21
123.1544630221409
 31
0.0
  0
LINE
  5
9A6
  8
0
 10
24.868400000000008
 20
123.1544630221409
 30
0.0
 11
24.608699999999999
 21
123.0734630221409
 31
0.0
  0
LINE
  5
9A7
  8
0
 10
24.608699999999999
 20
123.0734630221409
 30
0.0
 11
24.341200000000001
 21
123.02146302214091
 31
0.0
  0
LINE
  5
9A8
  8
0
 10
24.341200000000001
 20
123.02146302214091
 30
0.0
 11
24.113600000000009
 21
122.9994630221409
 31
0.0
  0
LINE
  5
9AA
  8
0
 10
25.294499999999999
 20
128.4924630221409
 30
0.0
 11
25.0564
 21
128.61646302214089
 31
0.0
  0
LINE
  5
9AB
  8
0
 10
25.0564
 20
128.61646302214089
 30
0.0
 11
24.8064
 21
128.71546302214091
 31
0.0
  0
LINE
  5
9AC
  8
0
 10
24.8064
 20
128.71546302214091
 30
0.0
 11
24.547000000000001
 21
128.78846302214089
 31
0.0
  0
LINE
  5
9AD
  8
0
 10
24.547000000000001
 20
128.78846302214089
 30
0.0
 11
24.281199999999998
 21
128.8324630221409
 31
0.0
  0
LINE
  5
9AE
  8
0
 10
24.281199999999998
 20
128.8324630221409
 30
0.0
 11
24.04900000000001
 21
128.84746302214089
 31
0.0
  0
LINE
  5
9AF
  8
0
 10
27.122199999999989
 20
165.03346302214089
 30
0.0
 11
26.3766
 21
165.04546302214089
 31
0.0
  0
LINE
  5
9B0
  8
0
 10
26.3766
 20
165.04546302214089
 30
0.0
 11
24.0
 21
165.0654630221409
 31
0.0
  0
LINE
  5
B96
  8
0
 10
4.858114341386826
 20
236.32133210411959
 30
0.0
 11
5.3259143413868273
 21
235.44333210411961
 31
0.0
  0
LINE
  5
B97
  8
0
 10
3.3583143413868268
 20
243.6803321041196
 30
0.0
 11
3.4524143413868269
 21
242.26733210411959
 31
0.0
  0
LINE
  5
B98
  8
0
 10
3.6971143413868268
 20
240.2243321041197
 30
0.0
 11
4.148814341386827
 21
238.2033321041196
 31
0.0
  0
LINE
  5
B99
  8
0
 10
3.4524143413868269
 20
242.26733210411959
 30
0.0
 11
3.6971143413868268
 21
240.2243321041197
 31
0.0
  0
LINE
  5
B9A
  8
0
 10
3.2547143413868271
 20
246.71733210411969
 30
0.0
 11
3.3583143413868268
 21
243.6803321041196
 31
0.0
  0
LINE
  5
B9B
  8
0
 10
4.148814341386827
 20
238.2033321041196
 30
0.0
 11
4.8086143413868268
 21
236.4533321041196
 31
0.0
  0
LINE
  5
B9C
  8
0
 10
4.8086143413868268
 20
236.4533321041196
 30
0.0
 11
4.858114341386826
 21
236.32133210411959
 31
0.0
  0
LINE
  5
B9D
  8
0
 10
5.3259143413868273
 20
235.44333210411961
 30
0.0
 11
5.883614341386826
 21
234.6273321041196
 31
0.0
  0
LINE
  5
B9E
  8
0
 10
5.883614341386826
 20
234.6273321041196
 30
0.0
 11
6.529214341386826
 21
233.88633210411959
 31
0.0
  0
LINE
  5
B9F
  8
0
 10
6.529214341386826
 20
233.88633210411959
 30
0.0
 11
7.2534143413868266
 21
233.23433210411969
 31
0.0
  0
LINE
  5
BA0
  8
0
 10
7.2534143413868266
 20
233.23433210411969
 30
0.0
 11
8.8807143413868275
 21
232.1913321041196
 31
0.0
  0
LINE
  5
BA1
  8
0
 10
10.64251434138682
 20
231.49333210411959
 30
0.0
 11
12.43641434138682
 21
231.04233210411959
 31
0.0
  0
LINE
  5
BA2
  8
0
 10
8.8807143413868275
 20
232.1913321041196
 30
0.0
 11
10.64251434138682
 21
231.49333210411959
 31
0.0
  0
LINE
  5
BA3
  8
0
 10
8.8807143413868275
 20
232.1913321041196
 30
0.0
 11
10.64251434138682
 21
231.49333210411959
 31
0.0
  0
LINE
  5
BA4
  8
0
 10
2.911414341386827
 20
263.22013210411961
 30
0.0
 11
3.2547143413868271
 21
246.71733210411969
 31
0.0
  0
LINE
  5
BA5
  8
0
 10
20.081414341386829
 20
230.35733210411959
 30
0.0
 11
24.013214341386831
 21
230.3113321041196
 31
0.0
  0
LINE
  5
BA6
  8
0
 10
16.147514341386831
 20
230.58633210411961
 30
0.0
 11
20.081414341386829
 21
230.35733210411959
 31
0.0
  0
LINE
  5
BA7
  8
0
 10
13.663414341386829
 20
230.84233210411961
 30
0.0
 11
16.147514341386831
 21
230.58633210411961
 31
0.0
  0
LINE
  5
BA8
  8
0
 10
12.43641434138682
 20
231.04233210411959
 30
0.0
 11
13.663414341386829
 21
230.84233210411961
 31
0.0
  0
LINE
  5
BA9
  8
0
 10
0.2269143413868271
 20
353.43133210411958
 30
0.0
 11
0.5695143413868271
 21
350.29933210411963
 31
0.0
  0
LINE
  5
BAA
  8
0
 10
1.1242143413868271
 20
347.1973321041196
 30
0.0
 11
1.6083143413868271
 21
345.25433210411961
 31
0.0
  0
LINE
  5
BAB
  8
0
 10
0.5695143413868271
 20
350.29933210411963
 30
0.0
 11
1.1242143413868271
 21
347.1973321041196
 31
0.0
  0
LINE
  5
BAC
  8
0
 10
1.6083143413868271
 20
345.25433210411961
 30
0.0
 11
1.7913034938122869
 21
344.71932277271662
 31
0.0
  0
LINE
  5
BAD
  8
0
 10
1.6083143413868271
 20
345.25433210411961
 30
0.0
 11
1.7913034938122869
 21
344.71932277271662
 31
0.0
  0
LINE
  5
BAE
  8
0
 10
1.816614341386827
 20
349.43833210411958
 30
0.0
 11
1.9082143413868271
 21
346.49033210411972
 31
0.0
  0
LINE
  5
BAF
  8
0
 10
1.741714341386827
 20
352.71133210411961
 30
0.0
 11
1.816614341386827
 21
349.43833210411958
 31
0.0
  0
LINE
  5
BB0
  8
0
 10
1.648914341386827
 20
356.87633210411963
 30
0.0
 11
1.9248143413868271
 21
333.32033210411959
 31
0.0
  0
LINE
  5
BB1
  8
0
 10
0.0157143413868273
 20
357.30933210411962
 30
0.0
 11
0.2269143413868271
 21
353.43133210411958
 31
0.0
  0
LINE
  5
BB2
  8
0
 10
-0.0163856586131726
 20
361.38133210411962
 30
0.0
 11
0.0669143413868274
 21
362.4833321041196
 31
0.0
  0
LINE
  5
BB3
  8
0
 10
0.0669143413868274
 20
362.4833321041196
 30
0.0
 11
0.4405143413868271
 21
364.44333210411958
 31
0.0
  0
LINE
  5
BB4
  8
0
 10
0.0669143413868274
 20
362.4833321041196
 30
0.0
 11
0.4405143413868271
 21
364.44333210411958
 31
0.0
  0
LINE
  5
BB5
  8
0
 10
-0.0163856586131726
 20
361.38133210411962
 30
0.0
 11
0.0669143413868274
 21
362.4833321041196
 31
0.0
  0
LINE
  5
BB6
  8
0
 10
-0.0253856586131729
 20
358.86733210411961
 30
0.0
 11
-0.0163856586131726
 21
361.38133210411962
 31
0.0
  0
LINE
  5
BB7
  8
0
 10
-0.0253856586131729
 20
358.86733210411961
 30
0.0
 11
0.0157143413868273
 21
357.30933210411962
 31
0.0
  0
LINE
  5
BB8
  8
0
 10
-0.0253856586131729
 20
358.86733210411961
 30
0.0
 11
0.0157143413868273
 21
357.30933210411962
 31
0.0
  0
LINE
  5
BB9
  8
0
 10
1.550614341386827
 20
366.87333210411958
 30
0.0
 11
2.201414341386827
 21
367.72933210411958
 31
0.0
  0
LINE
  5
BBA
  8
0
 10
1.0148143413868269
 20
365.94133210411962
 30
0.0
 11
1.550614341386827
 21
366.87333210411958
 31
0.0
  0
LINE
  5
BBB
  8
0
 10
0.4405143413868271
 20
364.44333210411958
 30
0.0
 11
1.0148143413868269
 21
365.94133210411962
 31
0.0
  0
LINE
  5
BBC
  8
0
 10
0.0157143413868273
 20
357.30933210411962
 30
0.0
 11
0.2269143413868271
 21
353.43133210411958
 31
0.0
  0
LINE
  5
BBD
  8
0
 10
1.6906143413868271
 20
355.71233210411958
 30
0.0
 11
1.6967143413868271
 21
355.3203321041197
 31
0.0
  0
LINE
  5
BBE
  8
0
 10
1.7273773078947769
 20
359.1566017057666
 30
0.0
 11
1.799914341386827
 21
360.50333210411958
 31
0.0
  0
LINE
  5
BBF
  8
0
 10
1.799914341386827
 20
360.50333210411958
 30
0.0
 11
1.9442143413868269
 21
361.57333210411957
 31
0.0
  0
LINE
  5
BC0
  8
0
 10
1.6818143413868269
 20
358.04233210411962
 30
0.0
 11
1.6906143413868271
 21
355.71233210411958
 31
0.0
  0
LINE
  5
BC1
  8
0
 10
1.6818143413868269
 20
358.04233210411962
 30
0.0
 11
1.725414341386827
 21
359.13733210411959
 31
0.0
  0
LINE
  5
BC2
  8
0
 10
1.6967143413868271
 20
355.3203321041197
 30
0.0
 11
1.741714341386827
 21
352.71133210411961
 31
0.0
  0
LINE
  5
BC3
  8
0
 10
1.9258143413868269
 20
333.23233210411962
 30
0.0
 11
2.1604143413868271
 21
312.95573210411959
 31
0.0
  0
LINE
  5
BC4
  8
0
 10
1.9248143413868271
 20
333.32033210411959
 30
0.0
 11
1.9258143413868269
 21
333.23233210411962
 31
0.0
  0
LINE
  5
BC5
  8
0
 10
2.1604143413868271
 20
312.95573210411959
 30
0.0
 11
2.2416044250568872
 21
307.0560083231133
 31
0.0
  0
LINE
  5
BC6
  8
0
 10
2.1604143413868271
 20
312.95573210411959
 30
0.0
 11
2.911414341386827
 21
263.22013210411961
 31
0.0
  0
LINE
  5
BC7
  8
0
 10
2.1604143413868271
 20
312.95573210411959
 30
0.0
 11
2.2416044250568872
 21
307.0560083231133
 31
0.0
  0
LINE
  5
BC8
  8
0
 10
12.44611434138683
 20
283.00493210411958
 30
0.0
 11
13.61571434138683
 21
282.77473210411961
 31
0.0
  0
LINE
  5
BC9
  8
0
 10
4.1466143413868268
 20
292.42573210411962
 30
0.0
 11
4.497514341386827
 21
290.59803210411962
 31
0.0
  0
LINE
  5
BCA
  8
0
 10
4.497514341386827
 20
290.59803210411962
 30
0.0
 11
5.0302143413868272
 21
288.90743210411961
 31
0.0
  0
LINE
  5
BCB
  8
0
 10
5.0302143413868272
 20
288.90743210411961
 30
0.0
 11
5.3753143413868267
 21
288.12213210411971
 31
0.0
  0
LINE
  5
BCC
  8
0
 10
5.3753143413868267
 20
288.12213210411971
 30
0.0
 11
5.7746143413868261
 21
287.3855321041197
 31
0.0
  0
LINE
  5
BCD
  8
0
 10
6.2238143413868272
 20
286.70743210411962
 30
0.0
 11
6.7265143413868271
 21
286.08083210411962
 31
0.0
  0
LINE
  5
BCE
  8
0
 10
5.7746143413868261
 20
287.3855321041197
 30
0.0
 11
6.2238143413868272
 21
286.70743210411962
 31
0.0
  0
LINE
  5
BCF
  8
0
 10
3.8113143413868271
 20
296.23773210411957
 30
0.0
 11
3.993714341386827
 21
293.69613210411961
 31
0.0
  0
LINE
  5
BD0
  8
0
 10
3.993714341386827
 20
293.69613210411961
 30
0.0
 11
4.1466143413868268
 21
292.42573210411962
 31
0.0
  0
LINE
  5
BD1
  8
0
 10
6.7412143413868266
 20
286.06223210411957
 30
0.0
 11
7.4821143413868274
 21
285.33223210411961
 31
0.0
  0
LINE
  5
BD2
  8
0
 10
7.4821143413868274
 20
285.33223210411961
 30
0.0
 11
8.3267143413868272
 21
284.68153210411958
 31
0.0
  0
LINE
  5
BD3
  8
0
 10
8.3267143413868272
 20
284.68153210411958
 30
0.0
 11
9.2537143413868268
 21
284.12933210411961
 31
0.0
  0
LINE
  5
BD4
  8
0
 10
9.2537143413868268
 20
284.12933210411961
 30
0.0
 11
9.9984143413868267
 21
283.77723210411961
 31
0.0
  0
LINE
  5
BD5
  8
0
 10
9.9984143413868267
 20
283.77723210411961
 30
0.0
 11
10.781314341386819
 21
283.47513210411961
 31
0.0
  0
LINE
  5
BD6
  8
0
 10
10.781314341386819
 20
283.47513210411961
 30
0.0
 11
12.44611434138683
 21
283.00493210411958
 31
0.0
  0
LINE
  5
BD7
  8
0
 10
13.61571434138683
 20
282.77473210411961
 30
0.0
 11
16.050014341386831
 21
282.45373210411958
 31
0.0
  0
LINE
  5
BD8
  8
0
 10
16.050014341386831
 20
282.45373210411958
 30
0.0
 11
20.026514341386829
 21
282.13093210411961
 31
0.0
  0
LINE
  5
BD9
  8
0
 10
3.4277143413868272
 20
303.7007321041196
 30
0.0
 11
3.8113143413868271
 21
296.23773210411957
 31
0.0
  0
LINE
  5
BDA
  8
0
 10
2.8619143413868269
 20
318.47033210411962
 30
0.0
 11
3.1232143413868272
 21
311.12153210411958
 31
0.0
  0
LINE
  5
BDB
  8
0
 10
3.1232143413868272
 20
311.12153210411958
 30
0.0
 11
3.4277143413868272
 21
303.7007321041196
 31
0.0
  0
LINE
  5
BDC
  8
0
 10
2.0195143413868268
 20
343.55133210411958
 30
0.0
 11
2.8619143413868269
 21
318.47033210411962
 31
0.0
  0
LINE
  5
BDD
  8
0
 10
1.9442143413868269
 20
361.57333210411957
 30
0.0
 11
2.1519143413868269
 21
362.55733210411972
 31
0.0
  0
LINE
  5
BDE
  8
0
 10
2.1519143413868269
 20
362.55733210411972
 30
0.0
 11
2.4465143413868269
 21
363.5293321041197
 31
0.0
  0
LINE
  5
BDF
  8
0
 10
2.4465143413868269
 20
363.5293321041197
 30
0.0
 11
2.7566143413868271
 21
364.29633210411959
 31
0.0
  0
LINE
  5
BE0
  8
0
 10
2.201414341386827
 20
367.72933210411958
 30
0.0
 11
3.0074143413868271
 21
368.55133210411958
 31
0.0
  0
LINE
  5
BE1
  8
0
 10
2.7566143413868271
 20
364.29633210411959
 30
0.0
 11
3.136614341386827
 21
365.03933210411958
 31
0.0
  0
LINE
  5
BE2
  8
0
 10
3.136614341386827
 20
365.03933210411958
 30
0.0
 11
3.5306143413868272
 21
365.66633210411959
 31
0.0
  0
LINE
  5
BE3
  8
0
 10
3.979814341386827
 20
366.26133210411962
 30
0.0
 11
4.7097143413868272
 21
367.04233210411962
 31
0.0
  0
LINE
  5
BE4
  8
0
 10
4.7097143413868272
 20
367.04233210411962
 30
0.0
 11
5.5291143413868271
 21
367.73733210411962
 31
0.0
  0
LINE
  5
BE5
  8
0
 10
5.5291143413868271
 20
367.73733210411962
 30
0.0
 11
6.4315143413868272
 21
368.35033210411962
 31
0.0
  0
LINE
  5
BE6
  8
0
 10
3.9734143413868268
 20
369.32333210411957
 30
0.0
 11
5.015814341386827
 21
369.98933210411963
 31
0.0
  0
LINE
  5
BE7
  8
0
 10
5.015814341386827
 20
369.98933210411963
 30
0.0
 11
6.331414341386826
 21
370.66233210411963
 31
0.0
  0
LINE
  5
BE8
  8
0
 10
3.0074143413868271
 20
368.55133210411958
 30
0.0
 11
3.9734143413868268
 21
369.32333210411957
 31
0.0
  0
LINE
  5
BE9
  8
0
 10
6.4315143413868272
 20
368.35033210411962
 30
0.0
 11
7.3867143413868268
 21
368.87533210411959
 31
0.0
  0
LINE
  5
BEA
  8
0
 10
7.3867143413868268
 20
368.87533210411959
 30
0.0
 11
8.4761143413868272
 21
369.36333210411959
 31
0.0
  0
LINE
  5
BEB
  8
0
 10
3.5306143413868272
 20
365.66633210411959
 30
0.0
 11
3.979814341386827
 21
366.26133210411962
 31
0.0
  0
LINE
  5
BEC
  8
0
 10
9.5924143413868261
 20
369.77333210411962
 30
0.0
 11
10.603214341386829
 21
370.08933210411959
 31
0.0
  0
LINE
  5
BED
  8
0
 10
8.4761143413868272
 20
369.36333210411959
 30
0.0
 11
9.5924143413868261
 21
369.77333210411962
 31
0.0
  0
LINE
  5
BEE
  8
0
 10
8.1466143413868277
 20
371.38933210411972
 30
0.0
 11
10.01311434138683
 21
371.97333210411961
 31
0.0
  0
LINE
  5
BEF
  8
0
 10
10.01311434138683
 20
371.97333210411961
 30
0.0
 11
12.77351434138682
 21
372.6323321041196
 31
0.0
  0
LINE
  5
BF0
  8
0
 10
12.77351434138682
 20
372.6323321041196
 30
0.0
 11
14.973414341386819
 21
373.01233210411959
 31
0.0
  0
LINE
  5
BF1
  8
0
 10
6.331414341386826
 20
370.66233210411963
 30
0.0
 11
8.1466143413868277
 21
371.38933210411972
 31
0.0
  0
LINE
  5
BF2
  8
0
 10
17.189314341386819
 20
373.28533210411962
 30
0.0
 11
19.396814341386829
 21
373.46633210411972
 31
0.0
  0
LINE
  5
BF3
  8
0
 10
14.973414341386819
 20
373.01233210411959
 30
0.0
 11
17.189314341386819
 21
373.28533210411962
 31
0.0
  0
LINE
  5
BF4
  8
0
 10
19.396814341386829
 20
373.46633210411972
 30
0.0
 11
21.59771434138683
 21
373.56833210411969
 31
0.0
  0
LINE
  5
BF5
  8
0
 10
17.537414341386832
 20
371.43133210411958
 30
0.0
 11
19.603714341386819
 21
371.61833210411959
 31
0.0
  0
LINE
  5
BF6
  8
0
 10
15.479814341386829
 20
371.15933210411958
 30
0.0
 11
17.537414341386832
 21
371.43133210411958
 31
0.0
  0
LINE
  5
BF7
  8
0
 10
13.172614341386829
 20
370.73633210411958
 30
0.0
 11
15.479814341386829
 21
371.15933210411958
 31
0.0
  0
LINE
  5
BF8
  8
0
 10
12.02961434138682
 20
370.47433210411958
 30
0.0
 11
13.172614341386829
 21
370.73633210411958
 31
0.0
  0
LINE
  5
BF9
  8
0
 10
21.514114341386829
 20
373.11733210411961
 30
0.0
 11
21.677714341386832
 21
373.15233210411958
 31
0.0
  0
LINE
  5
BFA
  8
0
 10
21.514114341386829
 20
373.11733210411961
 30
0.0
 11
21.595814341386831
 21
373.09533210411962
 31
0.0
  0
LINE
  5
BFB
  8
0
 10
21.59771434138683
 20
373.56833210411969
 30
0.0
 11
22.013414341386831
 21
373.57452630941771
 31
0.0
  0
LINE
  5
BFC
  8
0
 10
21.677714341386832
 20
373.15233210411958
 30
0.0
 11
22.013414341386831
 21
373.18374263043557
 31
0.0
  0
LINE
  5
BFD
  8
0
 10
22.00291434138683
 20
373.07633210411961
 30
0.0
 11
22.303014341386831
 21
373.07133210411962
 31
0.0
  0
LINE
  5
BFE
  8
0
 10
21.595814341386831
 20
373.09533210411962
 30
0.0
 11
22.00291434138683
 21
373.07633210411961
 31
0.0
  0
LINE
  5
BFF
  8
0
 10
21.675114341386831
 20
371.7283321041196
 30
0.0
 11
24.013514341386831
 21
371.76833210411962
 31
0.0
  0
LINE
  5
C00
  8
0
 10
19.603714341386819
 20
371.61833210411959
 30
0.0
 11
21.675114341386831
 21
371.7283321041196
 31
0.0
  0
LINE
  5
C01
  8
0
 10
10.603214341386829
 20
370.08933210411959
 30
0.0
 11
12.02961434138682
 21
370.47433210411958
 31
0.0
  0
LINE
  5
C02
  8
0
 10
1.9082143413868271
 20
346.49033210411972
 30
0.0
 11
2.0195143413868268
 21
343.55133210411958
 31
0.0
  0
LINE
  5
C03
  8
0
 10
20.026514341386829
 20
282.13093210411961
 30
0.0
 11
24.013514341386831
 21
282.03033210411962
 31
0.0
  0
LINE
  5
C04
  8
0
 10
24.013214341386831
 20
230.3113321041196
 30
0.0
 11
24.277121824837931
 21
230.3181517644642
 31
0.0
  0
LINE
  5
C05
  8
0
 10
24.013114341386832
 20
230.31533210411959
 30
0.0
 11
27.945614341386829
 21
230.35733210411959
 31
0.0
  0
LINE
  5
C06
  8
0
 10
24.013214341386831
 20
230.3113321041196
 30
0.0
 11
24.277121824837931
 21
230.3181517644642
 31
0.0
  0
LINE
  5
C07
  8
0
 10
24.013514341386831
 20
373.06533210411959
 30
0.0
 11
24.329914341386829
 21
373.06533210411959
 31
0.0
  0
LINE
  5
C08
  8
0
 10
23.69691434138683
 20
373.06533210411959
 30
0.0
 11
24.013514341386831
 21
373.06533210411959
 31
0.0
  0
LINE
  5
C09
  8
0
 10
23.26381434138683
 20
373.06533210411959
 30
0.0
 11
23.69691434138683
 21
373.06533210411959
 31
0.0
  0
LINE
  5
C0A
  8
0
 10
22.814914341386832
 20
373.06733210411971
 30
0.0
 11
23.26381434138683
 21
373.06533210411959
 31
0.0
  0
LINE
  5
C0B
  8
0
 10
22.303014341386831
 20
373.07133210411962
 30
0.0
 11
22.814914341386832
 21
373.06733210411971
 31
0.0
  0
LINE
  5
C0C
  8
0
 10
24.329914341386829
 20
373.06533210411959
 30
0.0
 11
24.762914341386828
 21
373.06533210411959
 31
0.0
  0
LINE
  5
C0D
  8
0
 10
25.565914341386829
 20
373.06933210411961
 30
0.0
 11
25.968514341386829
 21
373.07433210411961
 31
0.0
  0
LINE
  5
C0E
  8
0
 10
25.16161434138683
 20
373.06633210411962
 30
0.0
 11
25.565914341386829
 21
373.06933210411961
 31
0.0
  0
LINE
  5
C0F
  8
0
 10
24.762914341386828
 20
373.06533210411959
 30
0.0
 11
25.16161434138683
 21
373.06633210411962
 31
0.0
  0
LINE
  5
C10
  8
0
 10
25.968514341386829
 20
373.07433210411961
 30
0.0
 11
26.325914341386831
 21
373.0873321041197
 31
0.0
  0
LINE
  5
C11
  8
0
 10
24.013514341386831
 20
371.76833210411962
 30
0.0
 11
26.97401434138683
 21
371.70333210411962
 31
0.0
  0
LINE
  5
C12
  8
0
 10
24.013514341386831
 20
282.03033210411962
 30
0.0
 11
28.000514341386829
 21
282.13093210411961
 31
0.0
  0
LINE
  5
C13
  8
0
 10
22.013414341386831
 20
373.07615716243362
 30
0.0
 11
22.013414341386831
 21
378.33833210411962
 31
0.0
  0
LINE
  5
C14
  8
0
 10
22.01391434138683
 20
378.54933210411963
 30
0.0
 11
22.01391434138683
 21
378.7043321041196
 31
0.0
  0
LINE
  5
C15
  8
0
 10
22.01391434138683
 20
378.96533210411963
 30
0.0
 11
22.01391434138683
 21
378.7043321041196
 31
0.0
  0
LINE
  5
C16
  8
0
 10
22.01391434138683
 20
378.7043321041196
 30
0.0
 11
22.01391434138683
 21
378.96533210411963
 31
0.0
  0
LINE
  5
C17
  8
0
 10
22.01391434138683
 20
378.7043321041196
 30
0.0
 11
22.01391434138683
 21
378.54933210411963
 31
0.0
  0
LINE
  5
C18
  8
0
 10
22.017814341386831
 20
379.54633210411959
 30
0.0
 11
22.017814341386831
 21
379.95133210411961
 31
0.0
  0
LINE
  5
C19
  8
0
 10
22.017814341386831
 20
379.95133210411961
 30
0.0
 11
22.017814341386831
 21
379.54633210411959
 31
0.0
  0
LINE
  5
C1A
  8
0
 10
22.017814341386831
 20
379.95133210411961
 30
0.0
 11
22.017814341386831
 21
380.39033210411958
 31
0.0
  0
LINE
  5
C1B
  8
0
 10
22.013414341386831
 20
379.29133210411959
 30
0.0
 11
22.017814341386831
 21
379.54633210411959
 31
0.0
  0
LINE
  5
C1C
  8
0
 10
22.013414341386831
 20
379.29133210411959
 30
0.0
 11
22.01391434138683
 21
378.96533210411963
 31
0.0
  0
LINE
  5
C1D
  8
0
 10
26.00901434138683
 20
380.39033210411958
 30
0.0
 11
26.00901434138683
 21
379.95133210411961
 31
0.0
  0
LINE
  5
C1E
  8
0
 10
26.00901434138683
 20
379.95133210411961
 30
0.0
 11
26.00901434138683
 21
379.54633210411959
 31
0.0
  0
LINE
  5
C1F
  8
0
 10
26.00901434138683
 20
379.95133210411961
 30
0.0
 11
26.00901434138683
 21
380.39033210411958
 31
0.0
  0
LINE
  5
C20
  8
0
 10
22.017814341386831
 20
380.39033210411958
 30
0.0
 11
22.019414341386831
 21
380.84533210411962
 31
0.0
  0
LINE
  5
C21
  8
0
 10
22.017814341386831
 20
380.39033210411958
 30
0.0
 11
22.017814341386831
 21
379.95133210411961
 31
0.0
  0
LINE
  5
C22
  8
0
 10
22.013414341386831
 20
378.33833210411962
 30
0.0
 11
22.01391434138683
 21
378.54933210411963
 31
0.0
  0
LINE
  5
C23
  8
0
 10
22.013414341386831
 20
378.33833210411962
 30
0.0
 11
22.013414341386831
 21
373.07615716243362
 31
0.0
  0
LINE
  5
C24
  8
0
 10
26.012914341386828
 20
378.7043321041196
 30
0.0
 11
26.012914341386828
 21
378.54933210411963
 31
0.0
  0
LINE
  5
C25
  8
0
 10
26.012914341386828
 20
378.7043321041196
 30
0.0
 11
26.012914341386828
 21
378.96533210411963
 31
0.0
  0
LINE
  5
C26
  8
0
 10
26.012914341386828
 20
378.96533210411963
 30
0.0
 11
26.013414341386831
 21
379.29133210411959
 31
0.0
  0
LINE
  5
C27
  8
0
 10
26.012914341386828
 20
378.96533210411963
 30
0.0
 11
26.012914341386828
 21
378.7043321041196
 31
0.0
  0
LINE
  5
C28
  8
0
 10
26.00901434138683
 20
379.54633210411959
 30
0.0
 11
26.013414341386831
 21
379.29133210411959
 31
0.0
  0
LINE
  5
C29
  8
0
 10
26.00901434138683
 20
379.54633210411959
 30
0.0
 11
26.00901434138683
 21
379.95133210411961
 31
0.0
  0
LINE
  5
C2A
  8
0
 10
21.169814341386829
 20
394.06333210411958
 30
0.0
 11
21.24241434138683
 21
395.0263321041196
 31
0.0
  0
LINE
  5
C2B
  8
0
 10
21.169814341386829
 20
394.06333210411958
 30
0.0
 11
21.196014341386832
 21
393.1033321041196
 31
0.0
  0
LINE
  5
C2C
  8
0
 10
21.404914341386831
 20
395.97233210411957
 30
0.0
 11
21.487214341386832
 21
396.20233210411971
 31
0.0
  0
LINE
  5
C2D
  8
0
 10
21.487214341386832
 20
396.20233210411971
 30
0.0
 11
21.623014341386831
 21
396.40533210411962
 31
0.0
  0
LINE
  5
C2E
  8
0
 10
21.54411434138683
 20
388.03633210411959
 30
0.0
 11
21.67521434138683
 21
386.24333210411959
 31
0.0
  0
LINE
  5
C2F
  8
0
 10
21.24241434138683
 20
395.0263321041196
 30
0.0
 11
21.404914341386831
 21
395.97233210411957
 31
0.0
  0
LINE
  5
C30
  8
0
 10
21.623014341386831
 20
396.40533210411962
 30
0.0
 11
21.94981434138683
 21
396.70733210411959
 31
0.0
  0
LINE
  5
C31
  8
0
 10
21.196014341386832
 20
393.1033321041196
 30
0.0
 11
21.54411434138683
 21
388.03633210411959
 31
0.0
  0
LINE
  5
C32
  8
0
 10
21.670214341386831
 20
386.23533210411972
 30
0.0
 11
21.724614341386829
 21
385.52733210411958
 31
0.0
  0
LINE
  5
C33
  8
0
 10
21.999114341386829
 20
381.99233210411961
 30
0.0
 11
22.011514341386832
 21
381.45133210411961
 31
0.0
  0
LINE
  5
C34
  8
0
 10
21.970414341386832
 20
382.55733210411972
 30
0.0
 11
21.999114341386829
 21
381.99233210411961
 31
0.0
  0
LINE
  5
C35
  8
0
 10
21.925014341386831
 20
383.14233210411959
 30
0.0
 11
21.970414341386832
 21
382.55733210411972
 31
0.0
  0
LINE
  5
C36
  8
0
 10
21.874814341386831
 20
383.67833210411959
 30
0.0
 11
21.925014341386831
 21
383.14233210411959
 31
0.0
  0
LINE
  5
C37
  8
0
 10
21.77301434138683
 20
384.78033210411962
 30
0.0
 11
21.822014341386829
 21
384.22533210411962
 31
0.0
  0
LINE
  5
C38
  8
0
 10
21.822014341386829
 20
384.22533210411962
 30
0.0
 11
21.874814341386831
 21
383.67833210411959
 31
0.0
  0
LINE
  5
C39
  8
0
 10
22.011514341386832
 20
381.45133210411961
 30
0.0
 11
22.019414341386831
 21
380.84533210411962
 31
0.0
  0
LINE
  5
C3A
  8
0
 10
21.71971434138683
 20
385.5383321041196
 30
0.0
 11
21.732914341386831
 21
385.34733210411957
 31
0.0
  0
LINE
  5
C3B
  8
0
 10
21.94981434138683
 20
396.70733210411959
 30
0.0
 11
21.991914341386831
 21
396.73633210411958
 31
0.0
  0
LINE
  5
C3C
  8
0
 10
21.991914341386831
 20
396.73633210411958
 30
0.0
 11
22.344360336036932
 21
396.93312434018958
 31
0.0
  0
LINE
  5
C3D
  8
0
 10
22.397014341386829
 20
396.9663321041196
 30
0.0
 11
22.593614341386829
 21
397.03633210411959
 31
0.0
  0
LINE
  5
C3E
  8
0
 10
23.016014341386828
 20
397.14333210411962
 30
0.0
 11
23.826814341386829
 21
397.21533210411963
 31
0.0
  0
LINE
  5
C3F
  8
0
 10
23.826814341386829
 20
397.21533210411963
 30
0.0
 11
24.641214341386831
 21
397.18833210411958
 31
0.0
  0
LINE
  5
C40
  8
0
 10
24.641214341386831
 20
397.18833210411958
 30
0.0
 11
25.01081434138683
 21
397.14333210411962
 31
0.0
  0
LINE
  5
C41
  8
0
 10
22.593614341386829
 20
397.03633210411959
 30
0.0
 11
23.016014341386828
 21
397.14333210411962
 31
0.0
  0
LINE
  5
C42
  8
0
 10
25.760193056278428
 20
396.87673394171162
 30
0.0
 11
26.03491434138683
 21
396.73633210411958
 31
0.0
  0
LINE
  5
C43
  8
0
 10
25.721414341386829
 20
396.90433210411959
 30
0.0
 11
26.03491434138683
 21
396.73633210411958
 31
0.0
  0
LINE
  5
C44
  8
0
 10
25.118514341386831
 20
397.11733210411961
 30
0.0
 11
25.23699703287383
 21
397.08234112736562
 31
0.0
  0
LINE
  5
C45
  8
0
 10
25.53401838556583
 20
396.99372448567061
 30
0.0
 11
25.62981434138683
 21
396.9663321041196
 31
0.0
  0
LINE
  5
C46
  8
0
 10
25.529072715624931
 20
396.99608368927562
 30
0.0
 11
25.62981434138683
 21
396.9663321041196
 31
0.0
  0
LINE
  5
C47
  8
0
 10
25.53401838556583
 20
396.99372448567061
 30
0.0
 11
25.62981434138683
 21
396.9663321041196
 31
0.0
  0
LINE
  5
C48
  8
0
 10
25.492914341386829
 20
397.01333210411963
 30
0.0
 11
25.721414341386829
 21
396.90433210411959
 31
0.0
  0
LINE
  5
C49
  8
0
 10
25.492914341386829
 20
397.01333210411963
 30
0.0
 11
25.62981434138683
 21
396.9663321041196
 31
0.0
  0
LINE
  5
C4A
  8
0
 10
25.62981434138683
 20
396.9663321041196
 30
0.0
 11
26.03491434138683
 21
396.73633210411958
 31
0.0
  0
LINE
  5
C4B
  8
0
 10
25.01081434138683
 20
397.14333210411962
 30
0.0
 11
25.492914341386829
 21
397.01333210411963
 31
0.0
  0
LINE
  5
C4C
  8
0
 10
25.01081434138683
 20
397.14333210411962
 30
0.0
 11
25.118514341386831
 21
397.11733210411961
 31
0.0
  0
LINE
  5
C4D
  8
0
 10
21.732914341386831
 20
385.34733210411957
 30
0.0
 11
21.77301434138683
 21
384.78033210411962
 31
0.0
  0
LINE
  5
C4E
  8
0
 10
21.717642973624319
 20
385.6180624051467
 30
0.0
 11
21.71971434138683
 21
385.5383321041196
 31
0.0
  0
LINE
  5
C4F
  8
0
 10
26.007414341386831
 20
380.84533210411962
 30
0.0
 11
26.00901434138683
 21
380.39033210411958
 31
0.0
  0
LINE
  5
C50
  8
0
 10
26.007414341386831
 20
380.84533210411962
 30
0.0
 11
26.01531434138683
 21
381.45133210411961
 31
0.0
  0
LINE
  5
C51
  8
0
 10
26.013414341386831
 20
373.57772139170072
 30
0.0
 11
26.117814341386829
 21
373.57633210411961
 31
0.0
  0
LINE
  5
C52
  8
0
 10
26.013414341386831
 20
373.18361864388862
 30
0.0
 11
26.26391434138683
 21
373.16233210411963
 31
0.0
  0
LINE
  5
C53
  8
0
 10
26.013414341386831
 20
378.33833210411962
 30
0.0
 11
26.013414341386831
 21
373.0759652882266
 31
0.0
  0
LINE
  5
C54
  8
0
 10
26.013414341386831
 20
373.0759652882266
 30
0.0
 11
26.013414341386831
 21
378.33833210411962
 31
0.0
  0
LINE
  5
C55
  8
0
 10
26.01531434138683
 20
381.45133210411961
 30
0.0
 11
26.027714341386829
 21
381.99233210411961
 31
0.0
  0
LINE
  5
C56
  8
0
 10
26.027714341386829
 20
381.99233210411961
 30
0.0
 11
26.05641434138683
 21
382.55733210411972
 31
0.0
  0
LINE
  5
C57
  8
0
 10
26.05641434138683
 20
382.55733210411972
 30
0.0
 11
26.101814341386831
 21
383.14233210411959
 31
0.0
  0
LINE
  5
C58
  8
0
 10
26.117814341386829
 20
373.57633210411961
 30
0.0
 11
29.626714341386819
 21
373.39533210411957
 31
0.0
  0
LINE
  5
C59
  8
0
 10
27.945614341386829
 20
230.35733210411959
 30
0.0
 11
31.885414341386831
 21
230.5903321041196
 31
0.0
  0
LINE
  5
C5A
  8
0
 10
31.885414341386831
 20
230.5903321041196
 30
0.0
 11
34.363414341386829
 21
230.84233210411961
 31
0.0
  0
LINE
  5
C5B
  8
0
 10
28.000514341386829
 20
282.13093210411961
 30
0.0
 11
31.977314341386819
 21
282.45723210411961
 31
0.0
  0
LINE
  5
C5C
  8
0
 10
34.363414341386829
 20
230.84233210411961
 30
0.0
 11
35.590414341386833
 21
231.04233210411959
 31
0.0
  0
LINE
  5
C5D
  8
0
 10
35.590414341386833
 20
231.04233210411959
 30
0.0
 11
37.38421434138683
 21
231.49333210411959
 31
0.0
  0
LINE
  5
C5E
  8
0
 10
34.411014341386817
 20
282.77473210411961
 30
0.0
 11
35.580614341386827
 21
283.0048321041196
 31
0.0
  0
LINE
  5
C5F
  8
0
 10
31.977314341386819
 20
282.45723210411961
 30
0.0
 11
34.411014341386817
 21
282.77473210411961
 31
0.0
  0
LINE
  5
C60
  8
0
 10
35.580614341386827
 20
283.0048321041196
 30
0.0
 11
37.245414341386827
 21
283.47513210411961
 31
0.0
  0
LINE
  5
C61
  8
0
 10
37.38421434138683
 20
231.49333210411959
 30
0.0
 11
39.14041434138683
 21
232.1873321041196
 31
0.0
  0
LINE
  5
C62
  8
0
 10
37.245414341386827
 20
283.47513210411961
 30
0.0
 11
38.028514341386831
 21
283.77723210411961
 31
0.0
  0
LINE
  5
C63
  8
0
 10
38.028514341386831
 20
283.77723210411961
 30
0.0
 11
38.77311434138683
 21
284.12933210411961
 31
0.0
  0
LINE
  5
C64
  8
0
 10
40.773414341386818
 20
233.23433210411969
 30
0.0
 11
41.497714341386818
 21
233.88633210411959
 31
0.0
  0
LINE
  5
C65
  8
0
 10
39.14041434138683
 20
232.1873321041196
 30
0.0
 11
40.773414341386818
 21
233.23433210411969
 31
0.0
  0
LINE
  5
C66
  8
0
 10
38.77311434138683
 20
284.12933210411961
 30
0.0
 11
39.700214341386832
 21
284.68153210411958
 31
0.0
  0
LINE
  5
C67
  8
0
 10
40.544714341386822
 20
285.33223210411961
 30
0.0
 11
41.28331434138682
 21
286.06243210411958
 31
0.0
  0
LINE
  5
C68
  8
0
 10
39.700214341386832
 20
284.68153210411958
 30
0.0
 11
40.544714341386822
 21
285.33223210411961
 31
0.0
  0
LINE
  5
C69
  8
0
 10
42.14321434138683
 20
234.6273321041196
 30
0.0
 11
42.700914341386827
 21
235.44333210411961
 31
0.0
  0
LINE
  5
C6A
  8
0
 10
41.497714341386818
 20
233.88633210411959
 30
0.0
 11
42.14321434138683
 21
234.6273321041196
 31
0.0
  0
LINE
  5
C6B
  8
0
 10
41.803014341386827
 20
286.70753210411971
 30
0.0
 11
42.252314341386828
 21
287.38563210411962
 31
0.0
  0
LINE
  5
C6C
  8
0
 10
41.28331434138682
 20
286.06243210411958
 30
0.0
 11
41.803014341386827
 21
286.70753210411971
 31
0.0
  0
LINE
  5
C6D
  8
0
 10
42.252314341386828
 20
287.38563210411962
 30
0.0
 11
42.651514341386822
 21
288.12223210411958
 31
0.0
  0
LINE
  5
C6E
  8
0
 10
43.218214341386833
 20
236.45233210411959
 30
0.0
 11
43.900714341386831
 21
238.3533321041196
 31
0.0
  0
LINE
  5
C6F
  8
0
 10
43.168714341386817
 20
236.32133210411959
 30
0.0
 11
43.218214341386833
 21
236.45233210411959
 31
0.0
  0
LINE
  5
C70
  8
0
 10
42.700914341386827
 20
235.44333210411961
 30
0.0
 11
43.168714341386817
 21
236.32133210411959
 31
0.0
  0
LINE
  5
C71
  8
0
 10
44.329714341386818
 20
240.2243321041197
 30
0.0
 11
44.574514341386831
 21
242.26733210411959
 31
0.0
  0
LINE
  5
C72
  8
0
 10
43.900714341386831
 20
238.3533321041196
 30
0.0
 11
44.329714341386818
 21
240.2243321041197
 31
0.0
  0
LINE
  5
C73
  8
0
 10
44.668514341386818
 20
243.6803321041196
 30
0.0
 11
44.771814341386829
 21
246.70533210411961
 31
0.0
  0
LINE
  5
C74
  8
0
 10
44.771814341386829
 20
246.70533210411961
 30
0.0
 11
45.115414341386817
 21
263.21933210411959
 31
0.0
  0
LINE
  5
C75
  8
0
 10
44.574514341386831
 20
242.26733210411959
 30
0.0
 11
44.668514341386818
 21
243.6803321041196
 31
0.0
  0
LINE
  5
C76
  8
0
 10
45.115414341386817
 20
263.21933210411959
 30
0.0
 11
45.654014341386819
 21
296.3764321041196
 31
0.0
  0
LINE
  5
C77
  8
0
 10
42.651514341386822
 20
288.12223210411958
 30
0.0
 11
42.996614341386817
 21
288.90743210411961
 31
0.0
  0
LINE
  5
C78
  8
0
 10
40.560014341386818
 20
368.91433210411958
 30
0.0
 11
41.55501434138683
 21
368.37433210411962
 31
0.0
  0
LINE
  5
C79
  8
0
 10
41.55501434138683
 20
368.37433210411962
 30
0.0
 11
42.44321434138682
 21
367.77833210411961
 31
0.0
  0
LINE
  5
C7A
  8
0
 10
39.527114341386827
 20
369.37233210411961
 30
0.0
 11
40.560014341386818
 21
368.91433210411958
 31
0.0
  0
LINE
  5
C7B
  8
0
 10
42.44321434138682
 20
367.77833210411961
 30
0.0
 11
43.262914341386818
 21
367.09433210411959
 31
0.0
  0
LINE
  5
C7C
  8
0
 10
42.634614341386822
 20
370.19833210411957
 30
0.0
 11
43.663714341386829
 21
369.58833210411962
 31
0.0
  0
LINE
  5
C7D
  8
0
 10
38.311514341386818
 20
369.81433210411961
 30
0.0
 11
39.527114341386827
 21
369.37233210411961
 31
0.0
  0
LINE
  5
C7E
  8
0
 10
37.423714341386827
 20
370.08933210411959
 30
0.0
 11
38.311514341386818
 21
369.81433210411961
 31
0.0
  0
LINE
  5
C7F
  8
0
 10
26.325914341386831
 20
373.0873321041197
 30
0.0
 11
26.51061434138683
 21
373.11133210411958
 31
0.0
  0
LINE
  5
C80
  8
0
 10
26.44521434138683
 20
373.13833210411963
 30
0.0
 11
26.51061434138683
 21
373.11133210411958
 31
0.0
  0
LINE
  5
C81
  8
0
 10
26.26391434138683
 20
373.16233210411963
 30
0.0
 11
26.44521434138683
 21
373.13833210411963
 31
0.0
  0
LINE
  5
C82
  8
0
 10
29.626714341386819
 20
373.39533210411957
 30
0.0
 11
33.159014341386829
 21
372.99633210411957
 31
0.0
  0
LINE
  5
C83
  8
0
 10
26.97401434138683
 20
371.70333210411962
 30
0.0
 11
29.211514341386831
 21
371.55633210411958
 31
0.0
  0
LINE
  5
C84
  8
0
 10
29.211514341386831
 20
371.55633210411958
 30
0.0
 11
31.441614341386831
 21
371.31633210411962
 31
0.0
  0
LINE
  5
C85
  8
0
 10
41.561914341386817
 20
370.72333210411961
 30
0.0
 11
42.634614341386822
 21
370.19833210411957
 31
0.0
  0
LINE
  5
C86
  8
0
 10
33.159014341386829
 20
372.99633210411957
 30
0.0
 11
35.607914341386817
 21
372.55933210411962
 31
0.0
  0
LINE
  5
C87
  8
0
 10
38.013614341386827
 20
371.97333210411961
 30
0.0
 11
40.022014341386821
 21
371.33933210411959
 31
0.0
  0
LINE
  5
C88
  8
0
 10
40.022014341386821
 20
371.33933210411959
 30
0.0
 11
41.561914341386817
 21
370.72333210411961
 31
0.0
  0
LINE
  5
C89
  8
0
 10
35.607914341386817
 20
372.55933210411962
 30
0.0
 11
38.013614341386827
 21
371.97333210411961
 31
0.0
  0
LINE
  5
C8A
  8
0
 10
33.33071434138683
 20
371.03033210411962
 30
0.0
 11
35.205414341386827
 21
370.65933210411958
 31
0.0
  0
LINE
  5
C8B
  8
0
 10
31.441614341386831
 20
371.31633210411962
 30
0.0
 11
33.33071434138683
 21
371.03033210411962
 31
0.0
  0
LINE
  5
C8C
  8
0
 10
35.205414341386827
 20
370.65933210411958
 30
0.0
 11
37.423714341386827
 21
370.08933210411959
 31
0.0
  0
LINE
  5
C8D
  8
0
 10
43.663714341386829
 20
369.58833210411962
 30
0.0
 11
44.630414341386818
 21
368.88433210411972
 31
0.0
  0
LINE
  5
C8E
  8
0
 10
43.262914341386818
 20
367.09433210411959
 30
0.0
 11
44.219914341386819
 21
366.04433210411958
 31
0.0
  0
LINE
  5
C8F
  8
0
 10
43.529414341386818
 20
290.59803210411962
 30
0.0
 11
43.880314341386828
 21
292.42573210411962
 31
0.0
  0
LINE
  5
C90
  8
0
 10
44.219914341386819
 20
366.04433210411958
 30
0.0
 11
44.998014341386821
 21
364.84533210411962
 31
0.0
  0
LINE
  5
C91
  8
0
 10
44.90511434138682
 20
311.1242321041197
 30
0.0
 11
45.164914341386819
 21
318.47033210411962
 31
0.0
  0
LINE
  5
C92
  8
0
 10
44.59911434138683
 20
303.70083210411963
 30
0.0
 11
44.90511434138682
 21
311.1242321041197
 31
0.0
  0
LINE
  5
C93
  8
0
 10
45.164914341386819
 20
318.47033210411962
 30
0.0
 11
45.794629933722632
 21
338.43654361566462
 31
0.0
  0
LINE
  5
C94
  8
0
 10
45.654014341386819
 20
296.3764321041196
 30
0.0
 11
45.875114341386819
 21
312.95603210411957
 31
0.0
  0
LINE
  5
C95
  8
0
 10
45.875114341386819
 20
312.95603210411957
 30
0.0
 11
46.237579459332018
 21
344.73877683075261
 31
0.0
  0
LINE
  5
C96
  8
0
 10
46.101014341386829
 20
333.23233210411962
 30
0.0
 11
46.102014341386827
 21
333.32033210411959
 31
0.0
  0
LINE
  5
C97
  8
0
 10
45.884914341386818
 20
340.60533210411961
 30
0.0
 11
45.987414341386817
 21
343.0603321041196
 31
0.0
  0
LINE
  5
C98
  8
0
 10
46.08381434138682
 20
345.51433210411972
 30
0.0
 11
46.16761434138683
 21
347.96733210411958
 31
0.0
  0
LINE
  5
C99
  8
0
 10
45.987414341386817
 20
343.0603321041196
 30
0.0
 11
46.08381434138682
 21
345.51433210411972
 31
0.0
  0
LINE
  5
C9A
  8
0
 10
46.237579459332018
 20
344.73877683075261
 30
0.0
 11
46.720014341386829
 21
346.40833210411961
 31
0.0
  0
LINE
  5
C9B
  8
0
 10
46.16761434138683
 20
347.96733210411958
 30
0.0
 11
46.235414341386821
 21
350.41933210411958
 31
0.0
  0
LINE
  5
C9C
  8
0
 10
44.630414341386818
 20
368.88433210411972
 30
0.0
 11
45.509514341386819
 21
368.07633210411961
 31
0.0
  0
LINE
  5
C9D
  8
0
 10
45.785614341386818
 20
362.88833210411963
 30
0.0
 11
46.040014341386829
 21
361.80933210411962
 31
0.0
  0
LINE
  5
C9E
  8
0
 10
45.509514341386819
 20
368.07633210411961
 30
0.0
 11
46.38401434138683
 21
367.00933210411972
 31
0.0
  0
LINE
  5
C9F
  8
0
 10
45.44691434138683
 20
363.88333210411957
 30
0.0
 11
45.785614341386818
 21
362.88833210411963
 31
0.0
  0
LINE
  5
CA0
  8
0
 10
44.998014341386821
 20
364.84533210411962
 30
0.0
 11
45.44691434138683
 21
363.88333210411957
 31
0.0
  0
LINE
  5
CA1
  8
0
 10
46.040014341386829
 20
361.80933210411962
 30
0.0
 11
46.203114341386829
 21
360.72533210411962
 31
0.0
  0
LINE
  5
CA2
  8
0
 10
46.203114341386829
 20
360.72533210411962
 30
0.0
 11
46.280214341386831
 21
359.87133210411957
 31
0.0
  0
LINE
  5
CA3
  8
0
 10
46.235414341386821
 20
350.41933210411958
 30
0.0
 11
46.336214341386821
 21
355.71233210411958
 31
0.0
  0
LINE
  5
CA4
  8
0
 10
47.249614341386817
 20
348.97133210411971
 30
0.0
 11
47.618314341386828
 21
351.56333210411958
 31
0.0
  0
LINE
  5
CA5
  8
0
 10
46.720014341386829
 20
346.40833210411961
 30
0.0
 11
47.249614341386817
 21
348.97133210411971
 31
0.0
  0
LINE
  5
CA6
  8
0
 10
47.81971434138682
 20
353.6803321041196
 30
0.0
 11
48.029514341386829
 21
357.9303321041196
 31
0.0
  0
LINE
  5
CA7
  8
0
 10
47.618314341386828
 20
351.56333210411958
 30
0.0
 11
47.81971434138682
 21
353.6803321041196
 31
0.0
  0
LINE
  5
CA8
  8
0
 10
46.280214341386831
 20
359.87133210411957
 30
0.0
 11
46.32587555225593
 21
358.52919321964771
 31
0.0
  0
LINE
  5
CA9
  8
0
 10
47.467514341386817
 20
364.82833210411962
 30
0.0
 11
47.747414341386822
 21
363.80333210411959
 31
0.0
  0
LINE
  5
CAA
  8
0
 10
47.747414341386822
 20
363.80333210411959
 30
0.0
 11
48.033914341386819
 21
361.5633321041197
 31
0.0
  0
LINE
  5
CAB
  8
0
 10
48.033914341386819
 20
361.5633321041197
 30
0.0
 11
48.052214341386829
 21
358.86833210411959
 31
0.0
  0
LINE
  5
CAC
  8
0
 10
47.073614341386822
 20
365.81433210411961
 30
0.0
 11
47.467514341386817
 21
364.82833210411962
 31
0.0
  0
LINE
  5
CAD
  8
0
 10
46.38401434138683
 20
367.00933210411972
 30
0.0
 11
47.073614341386822
 21
365.81433210411961
 31
0.0
  0
LINE
  5
CAE
  8
0
 10
48.029514341386829
 20
357.9303321041196
 30
0.0
 11
48.052214341386829
 21
358.86833210411959
 31
0.0
  0
LINE
  5
CAF
  8
0
 10
46.336214341386821
 20
355.71233210411958
 30
0.0
 11
46.32587555225593
 21
358.52919321964771
 31
0.0
  0
LINE
  5
CB0
  8
0
 10
45.794629933722632
 20
338.43654361566462
 30
0.0
 11
45.884914341386818
 21
340.60533210411961
 31
0.0
  0
LINE
  5
CB1
  8
0
 10
44.220014341386829
 20
296.27993210411961
 30
0.0
 11
44.59911434138683
 21
303.70083210411963
 31
0.0
  0
LINE
  5
CB2
  8
0
 10
44.03311434138682
 20
293.69623210411959
 30
0.0
 11
44.220014341386829
 21
296.27993210411961
 31
0.0
  0
LINE
  5
CB3
  8
0
 10
43.880314341386828
 20
292.42573210411962
 30
0.0
 11
44.03311434138682
 21
293.69623210411959
 31
0.0
  0
LINE
  5
CB4
  8
0
 10
42.996614341386817
 20
288.90743210411961
 30
0.0
 11
43.529414341386818
 21
290.59803210411962
 31
0.0
  0
LINE
  5
CB5
  8
0
 10
26.152014341386831
 20
383.67833210411959
 30
0.0
 11
26.204814341386829
 21
384.22533210411962
 31
0.0
  0
LINE
  5
CB6
  8
0
 10
26.204814341386829
 20
384.22533210411962
 30
0.0
 11
26.253814341386828
 21
384.78033210411962
 31
0.0
  0
LINE
  5
CB7
  8
0
 10
26.101814341386831
 20
383.14233210411959
 30
0.0
 11
26.152014341386831
 21
383.67833210411959
 31
0.0
  0
LINE
  5
CB8
  8
0
 10
26.293914341386831
 20
385.34733210411957
 30
0.0
 11
26.307114341386828
 21
385.5383321041196
 31
0.0
  0
LINE
  5
CB9
  8
0
 10
26.077014341386828
 20
396.70733210411959
 30
0.0
 11
26.40381434138683
 21
396.40533210411962
 31
0.0
  0
LINE
  5
CBA
  8
0
 10
26.03491434138683
 20
396.73633210411958
 30
0.0
 11
26.077014341386828
 21
396.70733210411959
 31
0.0
  0
LINE
  5
CBB
  8
0
 10
26.302214341386829
 20
385.52733210411958
 30
0.0
 11
26.35661434138683
 21
386.23533210411972
 31
0.0
  0
LINE
  5
CBC
  8
0
 10
26.40381434138683
 20
396.40533210411962
 30
0.0
 11
26.53961434138683
 21
396.20233210411971
 31
0.0
  0
LINE
  5
CBD
  8
0
 10
26.83081434138683
 20
393.1033321041196
 30
0.0
 11
26.857014341386829
 21
394.06333210411958
 31
0.0
  0
LINE
  5
CBE
  8
0
 10
26.53961434138683
 20
396.20233210411971
 30
0.0
 11
26.62191434138683
 21
395.97233210411957
 31
0.0
  0
LINE
  5
CBF
  8
0
 10
26.62191434138683
 20
395.97233210411957
 30
0.0
 11
26.784414341386832
 21
395.0263321041196
 31
0.0
  0
LINE
  5
CC0
  8
0
 10
26.784414341386832
 20
395.0263321041196
 30
0.0
 11
26.857014341386829
 21
394.06333210411958
 31
0.0
  0
LINE
  5
CC1
  8
0
 10
26.482714341386831
 20
388.03633210411959
 30
0.0
 11
26.83081434138683
 21
393.1033321041196
 31
0.0
  0
LINE
  5
CC2
  8
0
 10
26.351614341386831
 20
386.24333210411959
 30
0.0
 11
26.482714341386831
 21
388.03633210411959
 31
0.0
  0
LINE
  5
CC3
  8
0
 10
26.307114341386828
 20
385.5383321041196
 30
0.0
 11
26.309185709149329
 21
385.6180624051467
 31
0.0
  0
LINE
  5
CC4
  8
0
 10
26.253814341386828
 20
384.78033210411962
 30
0.0
 11
26.293914341386831
 21
385.34733210411957
 31
0.0
  0
LINE
  5
CC5
  8
0
 10
26.012914341386828
 20
378.54933210411963
 30
0.0
 11
26.013414341386831
 21
378.33833210411962
 31
0.0
  0
LINE
  5
CC6
  8
0
 10
26.012914341386828
 20
378.54933210411963
 30
0.0
 11
26.012914341386828
 21
378.7043321041196
 31
0.0
  0
LINE
  5
E06
  8
0
 10
253.79758178551629
 20
-0.2351685000000074
 30
0.0
 11
257.4265817855163
 21
-0.2351685000000074
 31
0.0
  0
LINE
  5
E07
  8
0
 10
258.9845817855163
 20
-0.2351685000000074
 30
0.0
 11
261.49858178551631
 21
-0.2351685000000074
 31
0.0
  0
LINE
  5
E08
  8
0
 10
261.49858178551631
 20
-0.2351685000000074
 30
0.0
 11
261.68058178551621
 21
-0.2351685000000074
 31
0.0
  0
LINE
  5
E09
  8
0
 10
258.98558178551627
 20
-0.2351685000000074
 30
0.0
 11
261.68058178551621
 21
-0.2351685000000074
 31
0.0
  0
LINE
  5
E0A
  8
0
 10
261.68058178551621
 20
-0.2351685000000074
 30
0.0
 11
263.92058178551622
 21
-0.2351705000000095
 31
0.0
  0
LINE
  5
E0B
  8
0
 10
257.4265817855163
 20
-0.2351685000000074
 30
0.0
 11
258.9845817855163
 21
-0.2351685000000074
 31
0.0
  0
LINE
  5
E0C
  8
0
 10
258.04758178551629
 20
-0.2351685000000074
 30
0.0
 11
258.98558178551627
 21
-0.2351685000000074
 31
0.0
  0
LINE
  5
E0D
  8
0
 10
253.79758178551629
 20
-0.2351685000000074
 30
0.0
 11
258.04758178551629
 21
-0.2351685000000074
 31
0.0
  0
LINE
  5
E0E
  8
0
 10
232.6655817855162
 20
-0.2351685000000074
 30
0.0
 11
234.61358178551629
 21
-0.2351685000000074
 31
0.0
  0
LINE
  5
E0F
  8
0
 10
234.61358178551629
 20
-0.2351685000000074
 30
0.0
 11
236.47458178551619
 21
-0.2351685000000074
 31
0.0
  0
LINE
  5
E10
  8
0
 10
233.42658178551619
 20
-0.2351685000000074
 30
0.0
 11
235.3665817855163
 21
-0.2351685000000074
 31
0.0
  0
LINE
  5
E11
  8
0
 10
228.79868178551621
 20
-0.2351685000000074
 30
0.0
 11
229.56298178551631
 21
-0.2351685000000074
 31
0.0
  0
LINE
  5
E12
  8
0
 10
229.31428178551619
 20
-0.2351685000000074
 30
0.0
 11
230.23008178551621
 21
-0.2351685000000074
 31
0.0
  0
LINE
  5
E13
  8
0
 10
230.23008178551621
 20
-0.2351685000000074
 30
0.0
 11
231.7045817855163
 21
-0.2351685000000074
 31
0.0
  0
LINE
  5
E14
  8
0
 10
228.07598178551621
 20
-0.2351685000000074
 30
0.0
 11
228.55628178551629
 21
-0.2351685000000074
 31
0.0
  0
LINE
  5
E15
  8
0
 10
228.55628178551629
 20
-0.2351685000000074
 30
0.0
 11
229.31428178551619
 21
-0.2351685000000074
 31
0.0
  0
LINE
  5
E16
  8
0
 10
227.7058817855162
 20
-0.2351685000000074
 30
0.0
 11
228.07598178551621
 21
-0.2351685000000074
 31
0.0
  0
LINE
  5
E17
  8
0
 10
227.23278178551621
 20
-0.2351685000000074
 30
0.0
 11
227.38158178551629
 21
-0.2351685000000074
 31
0.0
  0
LINE
  5
E18
  8
0
 10
227.38158178551629
 20
-0.2351685000000074
 30
0.0
 11
227.7058817855162
 21
-0.2351685000000074
 31
0.0
  0
LINE
  5
E19
  8
0
 10
227.2454817855162
 20
-0.2351685000000074
 30
0.0
 11
227.42098178551629
 21
-0.2351685000000074
 31
0.0
  0
LINE
  5
E1A
  8
0
 10
227.42098178551629
 20
-0.2351685000000074
 30
0.0
 11
227.69808178551631
 21
-0.2351685000000074
 31
0.0
  0
LINE
  5
E1B
  8
0
 10
227.1645817855163
 20
-0.2351685000000074
 30
0.0
 11
227.2454817855162
 21
-0.2351685000000074
 31
0.0
  0
LINE
  5
E1C
  8
0
 10
227.1645817855163
 20
-0.2351685000000074
 30
0.0
 11
227.23278178551621
 21
-0.2351685000000074
 31
0.0
  0
LINE
  5
E1D
  8
0
 10
227.69808178551631
 20
-0.2351685000000074
 30
0.0
 11
228.07598178551621
 21
-0.2351685000000074
 31
0.0
  0
LINE
  5
E1E
  8
0
 10
230.97058178551629
 20
-0.2351685000000074
 30
0.0
 11
232.6655817855162
 21
-0.2351685000000074
 31
0.0
  0
LINE
  5
E1F
  8
0
 10
231.7045817855163
 20
-0.2351685000000074
 30
0.0
 11
233.42658178551619
 21
-0.2351685000000074
 31
0.0
  0
LINE
  5
E20
  8
0
 10
245.3715817855163
 20
-0.2351685000000074
 30
0.0
 11
247.3145817855162
 21
-0.2351685000000074
 31
0.0
  0
LINE
  5
E21
  8
0
 10
243.7175817855163
 20
-0.2351685000000074
 30
0.0
 11
246.52558178551621
 21
-0.2351685000000074
 31
0.0
  0
LINE
  5
E22
  8
0
 10
246.52558178551621
 20
-0.2351685000000074
 30
0.0
 11
249.08858178551631
 21
-0.2351685000000074
 31
0.0
  0
LINE
  5
E23
  8
0
 10
249.08858178551631
 20
-0.2351685000000074
 30
0.0
 11
251.6805817855163
 21
-0.2351685000000074
 31
0.0
  0
LINE
  5
E24
  8
0
 10
236.47458178551619
 20
-0.2351685000000074
 30
0.0
 11
238.47258178551621
 21
-0.2351685000000074
 31
0.0
  0
LINE
  5
E25
  8
0
 10
236.65258178551619
 20
-0.2351685000000074
 30
0.0
 11
238.76558178551619
 21
-0.2351685000000074
 31
0.0
  0
LINE
  5
E26
  8
0
 10
238.76558178551619
 20
-0.2351685000000074
 30
0.0
 11
240.9975817855163
 21
-0.2351685000000074
 31
0.0
  0
LINE
  5
E27
  8
0
 10
240.9975817855163
 20
-0.2351685000000074
 30
0.0
 11
243.7175817855163
 21
-0.2351685000000074
 31
0.0
  0
LINE
  5
E28
  8
0
 10
241.95258178551629
 20
-0.2351685000000074
 30
0.0
 11
245.3715817855163
 21
-0.2351685000000074
 31
0.0
  0
LINE
  5
E29
  8
0
 10
235.3665817855163
 20
-0.2351685000000074
 30
0.0
 11
236.65258178551619
 21
-0.2351685000000074
 31
0.0
  0
LINE
  5
E2A
  8
0
 10
251.6805817855163
 20
-0.2351685000000074
 30
0.0
 11
253.79758178551629
 21
-0.2351685000000074
 31
0.0
  0
LINE
  5
E2B
  8
0
 10
251.6805817855163
 20
-0.2351685000000074
 30
0.0
 11
253.54858178551629
 21
-0.2351685000000074
 31
0.0
  0
LINE
  5
E2C
  8
0
 10
263.92058178551622
 20
-0.2351705000000095
 30
0.0
 11
264.9455817855162
 21
-0.2351705000000095
 31
0.0
  0
LINE
  5
E2D
  8
0
 10
270.3155817855162
 20
-0.2351705000000095
 30
0.0
 11
270.84058178551629
 21
-0.2351685000000074
 31
0.0
  0
LINE
  5
E2E
  8
0
 10
269.70558178551619
 20
-0.2351705000000095
 30
0.0
 11
270.3155817855162
 21
-0.2351705000000095
 31
0.0
  0
LINE
  5
E2F
  8
0
 10
273.12958178551628
 20
-0.2353555000000114
 30
0.0
 11
273.4025817855163
 21
-0.2353885000000062
 31
0.0
  0
LINE
  5
E30
  8
0
 10
273.11358178551632
 20
-0.2353535000000093
 30
0.0
 11
273.51258178551632
 21
-0.2353895000000108
 31
0.0
  0
LINE
  5
E31
  8
0
 10
272.6765817855163
 20
-0.2352805000000089
 30
0.0
 11
273.11358178551632
 21
-0.2353535000000093
 31
0.0
  0
LINE
  5
E32
  8
0
 10
272.5157077076783
 20
-0.2353104236766015
 30
0.0
 11
272.74958178551628
 21
-0.2353885000000062
 31
0.0
  0
LINE
  5
E33
  8
0
 10
272.74958178551628
 20
-0.2353885000000062
 30
0.0
 11
273.12958178551628
 21
-0.2353555000000114
 31
0.0
  0
LINE
  5
E34
  8
0
 10
272.09058178551629
 20
-0.2353895000000108
 30
0.0
 11
272.6765817855163
 21
-0.2352805000000089
 31
0.0
  0
LINE
  5
E35
  8
0
 10
264.9455817855162
 20
-0.2351705000000095
 30
0.0
 11
265.9315817855163
 21
-0.2351685000000074
 31
0.0
  0
LINE
  5
E36
  8
0
 10
265.9315817855163
 20
-0.2351685000000074
 30
0.0
 11
267.12658178551618
 21
-0.2351705000000095
 31
0.0
  0
LINE
  5
E37
  8
0
 10
271.45658178551628
 20
-0.2351685000000074
 30
0.0
 11
272.09058178551629
 21
-0.2353895000000108
 31
0.0
  0
LINE
  5
E38
  8
0
 10
270.84058178551629
 20
-0.2351685000000074
 30
0.0
 11
271.45658178551628
 21
-0.2351685000000074
 31
0.0
  0
LINE
  5
E39
  8
0
 10
268.19358178551619
 20
-0.2351685000000074
 30
0.0
 11
269.00158178551618
 21
-0.2351705000000095
 31
0.0
  0
LINE
  5
E3A
  8
0
 10
267.12658178551618
 20
-0.2351705000000095
 30
0.0
 11
268.19358178551619
 21
-0.2351685000000074
 31
0.0
  0
LINE
  5
E3B
  8
0
 10
269.00158178551618
 20
-0.2351705000000095
 30
0.0
 11
269.70558178551619
 21
-0.2351705000000095
 31
0.0
  0
LINE
  5
E3C
  8
0
 10
273.20458178551621
 20
37.669931500000011
 30
0.0
 11
273.22858178551633
 21
35.302431499999997
 31
0.0
  0
LINE
  5
E3D
  8
0
 10
273.22858178551633
 20
35.302431499999997
 30
0.0
 11
273.25558178551631
 21
33.338731500000002
 31
0.0
  0
LINE
  5
E3E
  8
0
 10
273.1865817855163
 20
40.573531499999987
 30
0.0
 11
273.19158178551629
 21
39.414931500000002
 31
0.0
  0
LINE
  5
E3F
  8
0
 10
273.19158178551629
 20
39.414931500000002
 30
0.0
 11
273.20458178551621
 21
37.669931500000011
 31
0.0
  0
LINE
  5
E40
  8
0
 10
273.30458178551618
 20
30.616731500000011
 30
0.0
 11
273.32758178551632
 21
29.504731499999998
 31
0.0
  0
LINE
  5
E41
  8
0
 10
273.32758178551632
 20
29.504731499999998
 30
0.0
 11
273.34158178551633
 21
28.857331500000011
 31
0.0
  0
LINE
  5
E42
  8
0
 10
273.27958178551631
 20
31.916731500000012
 30
0.0
 11
273.30458178551618
 21
30.616731500000011
 31
0.0
  0
LINE
  5
E43
  8
0
 10
273.25558178551631
 20
33.338731500000002
 30
0.0
 11
273.27958178551631
 21
31.916731500000012
 31
0.0
  0
LINE
  5
E44
  8
0
 10
225.18908178551621
 20
72.613631499999997
 30
0.0
 11
225.96758178551619
 21
69.77353149999999
 31
0.0
  0
LINE
  5
E45
  8
0
 10
135.13821178551621
 20
102.79583150000001
 30
0.0
 11
136.76796830164861
 21
105.266442528223
 31
0.0
  0
LINE
  5
E46
  8
0
 10
135.1115917855162
 20
102.3898315
 30
0.0
 11
135.2502117855162
 21
102.23383149999999
 31
0.0
  0
LINE
  5
E47
  8
0
 10
135.0704117855162
 20
102.59683149999999
 30
0.0
 11
135.13821178551621
 21
102.79583150000001
 31
0.0
  0
LINE
  5
E48
  8
0
 10
135.0704117855162
 20
102.59683149999999
 30
0.0
 11
135.1115917855162
 21
102.3898315
 31
0.0
  0
LINE
  5
E49
  8
0
 10
139.87258178551619
 20
103.08783149999999
 30
0.0
 11
140.88358178551621
 21
102.4168315
 31
0.0
  0
LINE
  5
E4A
  8
0
 10
154.8094817855162
 20
89.396631500000012
 30
0.0
 11
155.01538178551621
 21
89.44023150000001
 31
0.0
  0
LINE
  5
E4B
  8
0
 10
155.17218178551619
 20
89.580531500000006
 30
0.0
 11
156.63625632588099
 21
91.799899839024022
 31
0.0
  0
LINE
  5
E4C
  8
0
 10
154.61058178551619
 20
89.462831499999993
 30
0.0
 11
154.8094817855162
 21
89.396631500000012
 31
0.0
  0
LINE
  5
E4D
  8
0
 10
155.01538178551621
 20
89.44023150000001
 30
0.0
 11
155.17218178551619
 21
89.580531500000006
 31
0.0
  0
LINE
  5
E4E
  8
0
 10
149.18858178551619
 20
97.16643150000003
 30
0.0
 11
151.02058178551621
 21
95.915231500000004
 31
0.0
  0
LINE
  5
E4F
  8
0
 10
151.02058178551621
 20
95.915231500000004
 30
0.0
 11
152.4682817855163
 21
94.883631500000007
 31
0.0
  0
LINE
  5
E50
  8
0
 10
152.4682817855163
 20
94.883631500000007
 30
0.0
 11
153.7591817855162
 21
93.937431500000002
 31
0.0
  0
LINE
  5
E51
  8
0
 10
153.7591817855162
 20
93.937431500000002
 30
0.0
 11
154.78528178551619
 21
93.174331499999994
 31
0.0
  0
LINE
  5
E52
  8
0
 10
154.78528178551619
 20
93.174331499999994
 30
0.0
 11
155.82118178551619
 21
92.402231500000028
 31
0.0
  0
LINE
  5
E53
  8
0
 10
155.82118178551619
 20
92.402231500000028
 30
0.0
 11
156.41278178551619
 21
91.964131500000008
 31
0.0
  0
LINE
  5
E54
  8
0
 10
146.89158178551619
 20
98.653731499999992
 30
0.0
 11
149.18858178551619
 21
97.16643150000003
 31
0.0
  0
LINE
  5
E55
  8
0
 10
161.7033817855162
 20
89.271531499999995
 30
0.0
 11
162.66808178551619
 21
88.991131499999995
 31
0.0
  0
LINE
  5
E56
  8
0
 10
162.84278178551619
 20
88.98133150000001
 30
0.0
 11
164.25178178551619
 21
88.737131500000004
 31
0.0
  0
LINE
  5
E57
  8
0
 10
162.66808178551619
 20
88.991131499999995
 30
0.0
 11
162.84278178551619
 21
88.98133150000001
 31
0.0
  0
LINE
  5
E58
  8
0
 10
158.87518178551619
 20
90.528431500000011
 30
0.0
 11
160.0346817855162
 21
89.942631500000005
 31
0.0
  0
LINE
  5
E59
  8
0
 10
141.9935817855162
 20
101.70383150000001
 30
0.0
 11
143.2685817855162
 21
100.9048315
 31
0.0
  0
LINE
  5
E5A
  8
0
 10
143.2685817855162
 20
100.9048315
 30
0.0
 11
144.60858178551629
 21
100.0748315
 31
0.0
  0
LINE
  5
E5B
  8
0
 10
144.60858178551629
 20
100.0748315
 30
0.0
 11
146.89158178551619
 21
98.653731499999992
 31
0.0
  0
LINE
  5
E5C
  8
0
 10
140.88358178551621
 20
102.4168315
 30
0.0
 11
141.9935817855162
 21
101.70383150000001
 31
0.0
  0
LINE
  5
E5D
  8
0
 10
131.38258178551621
 20
110.1368315
 30
0.0
 11
133.82258178551621
 21
107.7818315
 31
0.0
  0
LINE
  5
E5E
  8
0
 10
133.82258178551621
 20
107.7818315
 30
0.0
 11
136.3755817855162
 21
105.5508315
 31
0.0
  0
LINE
  5
E5F
  8
0
 10
136.3755817855162
 20
105.5508315
 30
0.0
 11
136.5305817855162
 21
105.4378315
 31
0.0
  0
LINE
  5
E60
  8
0
 10
130.61758178551619
 20
111.1228315
 30
0.0
 11
130.8455817855162
 21
110.7498315
 31
0.0
  0
LINE
  5
E61
  8
0
 10
130.8455817855162
 20
110.7498315
 30
0.0
 11
131.38258178551621
 21
110.1368315
 31
0.0
  0
LINE
  5
E62
  8
0
 10
130.65858178551619
 20
112.8358315
 30
0.0
 11
131.06358178551619
 21
113.2698315
 31
0.0
  0
LINE
  5
E63
  8
0
 10
131.6195817855162
 20
113.58483150000001
 30
0.0
 11
132.51658178551619
 21
113.8328315
 31
0.0
  0
LINE
  5
E64
  8
0
 10
135.4115817855162
 20
114.3538315
 30
0.0
 11
138.31858178551619
 21
114.75783149999999
 31
0.0
  0
LINE
  5
E65
  8
0
 10
132.51658178551619
 20
113.8328315
 30
0.0
 11
135.4115817855162
 21
114.3538315
 31
0.0
  0
LINE
  5
E66
  8
0
 10
130.4285817855162
 20
111.68283150000001
 30
0.0
 11
130.43258178551619
 21
112.2798315
 31
0.0
  0
LINE
  5
E67
  8
0
 10
131.38258178551621
 20
110.1368315
 30
0.0
 11
133.82258178551621
 21
107.7818315
 31
0.0
  0
LINE
  5
E68
  8
0
 10
136.5305817855162
 20
105.4378315
 30
0.0
 11
136.9945817855162
 21
105.10283149999999
 31
0.0
  0
LINE
  5
E69
  8
0
 10
136.9945817855162
 20
105.10283149999999
 30
0.0
 11
137.75458178551619
 21
104.56083150000001
 31
0.0
  0
LINE
  5
E6A
  8
0
 10
137.75458178551619
 20
104.56083150000001
 30
0.0
 11
138.32858178551621
 21
104.1548315
 31
0.0
  0
LINE
  5
E6B
  8
0
 10
138.31858178551619
 20
114.75783149999999
 30
0.0
 11
144.1655817855162
 21
115.2728315
 31
0.0
  0
LINE
  5
E6C
  8
0
 10
144.1725817855162
 20
115.2688315
 30
0.0
 11
146.2625817855162
 21
115.3788315
 31
0.0
  0
LINE
  5
E6D
  8
0
 10
146.2625817855162
 20
115.3788315
 30
0.0
 11
149.4215817855162
 21
115.47783149999999
 31
0.0
  0
LINE
  5
E6E
  8
0
 10
149.4215817855162
 20
115.47783149999999
 30
0.0
 11
155.39568178551619
 21
115.5388315
 31
0.0
  0
LINE
  5
E6F
  8
0
 10
155.39568178551619
 20
115.5388315
 30
0.0
 11
183.7582817855162
 21
115.5218315
 31
0.0
  0
LINE
  5
E70
  8
0
 10
138.32858178551621
 20
104.1548315
 30
0.0
 11
139.87258178551619
 21
103.08783149999999
 31
0.0
  0
LINE
  5
E71
  8
0
 10
183.7582817855162
 20
115.5218315
 30
0.0
 11
208.88418178551629
 21
115.2948315
 31
0.0
  0
LINE
  5
E72
  8
0
 10
164.25178178551619
 20
88.737131500000004
 30
0.0
 11
208.25158178551629
 21
84.106031500000029
 31
0.0
  0
LINE
  5
E73
  8
0
 10
208.25158178551629
 20
84.106031500000029
 30
0.0
 11
211.65578178551621
 21
83.696531499999992
 31
0.0
  0
LINE
  5
E74
  8
0
 10
213.24708178551629
 20
83.415431500000011
 30
0.0
 11
214.8637817855163
 21
83.020431500000015
 31
0.0
  0
LINE
  5
E75
  8
0
 10
214.8637817855163
 20
83.020431500000015
 30
0.0
 11
216.39428178551631
 21
82.504931499999998
 31
0.0
  0
LINE
  5
E76
  8
0
 10
216.39428178551631
 20
82.504931499999998
 30
0.0
 11
218.1545817855162
 21
81.679831500000006
 31
0.0
  0
LINE
  5
E77
  8
0
 10
219.77378178551621
 20
80.627231499999994
 30
0.0
 11
221.44808178551631
 21
79.122031499999991
 31
0.0
  0
LINE
  5
E78
  8
0
 10
221.44808178551631
 20
79.122031499999991
 30
0.0
 11
222.91058178551631
 21
77.297831500000015
 31
0.0
  0
LINE
  5
E79
  8
0
 10
218.1545817855162
 20
81.679831500000006
 30
0.0
 11
219.77378178551621
 21
80.627231499999994
 31
0.0
  0
LINE
  5
E7A
  8
0
 10
222.91058178551631
 20
77.297831500000015
 30
0.0
 11
224.1477817855162
 21
75.162331499999993
 31
0.0
  0
LINE
  5
E7B
  8
0
 10
211.65578178551621
 20
83.696531499999992
 30
0.0
 11
213.24708178551629
 21
83.415431500000011
 31
0.0
  0
LINE
  5
E7C
  8
0
 10
224.1477817855162
 20
75.162331499999993
 30
0.0
 11
225.18908178551621
 21
72.613631499999997
 31
0.0
  0
LINE
  5
E7D
  8
0
 10
225.96758178551619
 20
69.77353149999999
 30
0.0
 11
226.34528178551631
 21
67.734431499999999
 31
0.0
  0
LINE
  5
E7E
  8
0
 10
226.34528178551631
 20
67.734431499999999
 30
0.0
 11
226.61788178551629
 21
65.589331500000014
 31
0.0
  0
LINE
  5
E7F
  8
0
 10
226.61788178551629
 20
65.589331500000014
 30
0.0
 11
226.83928178551631
 21
62.574631500000002
 31
0.0
  0
LINE
  5
E80
  8
0
 10
226.83928178551631
 20
62.574631500000002
 30
0.0
 11
226.91408178551629
 21
60.472831500000012
 31
0.0
  0
LINE
  5
E81
  8
0
 10
226.9596817855163
 20
56.049431499999997
 30
0.0
 11
227.1645817855163
 21
-0.2351685000000074
 31
0.0
  0
LINE
  5
E82
  8
0
 10
226.9596817855163
 20
56.049431499999997
 30
0.0
 11
227.1645817855163
 21
-0.2351685000000074
 31
0.0
  0
LINE
  5
E83
  8
0
 10
226.91408178551629
 20
60.472831500000012
 30
0.0
 11
226.9596817855163
 21
56.049431499999997
 31
0.0
  0
LINE
  5
E84
  8
0
 10
186.12398178551621
 20
158.5588315
 30
0.0
 11
188.13878178551619
 21
157.4108315
 31
0.0
  0
LINE
  5
E85
  8
0
 10
190.2319817855163
 20
156.42583149999999
 30
0.0
 11
191.65908178551621
 21
155.83683149999999
 31
0.0
  0
LINE
  5
E86
  8
0
 10
188.13878178551619
 20
157.4108315
 30
0.0
 11
190.2319817855163
 21
156.42583149999999
 31
0.0
  0
LINE
  5
E87
  8
0
 10
185.15318178551621
 20
159.20983150000001
 30
0.0
 11
186.12398178551621
 21
158.5588315
 31
0.0
  0
LINE
  5
E88
  8
0
 10
184.21088178551619
 20
159.91983149999999
 30
0.0
 11
185.15318178551621
 21
159.20983150000001
 31
0.0
  0
LINE
  5
E89
  8
0
 10
215.4113817855162
 20
147.53383149999999
 30
0.0
 11
217.8587817855163
 21
146.6378315
 31
0.0
  0
LINE
  5
E8A
  8
0
 10
212.6687817855163
 20
148.48583149999999
 30
0.0
 11
215.4113817855162
 21
147.53383149999999
 31
0.0
  0
LINE
  5
E8B
  8
0
 10
224.0782817855162
 20
143.2628315
 30
0.0
 11
225.0632817855163
 21
142.2738315
 31
0.0
  0
LINE
  5
E8C
  8
0
 10
223.35078178551629
 20
143.84883149999999
 30
0.0
 11
224.0782817855162
 21
143.2628315
 31
0.0
  0
LINE
  5
E8D
  8
0
 10
220.69878178551619
 20
145.4228315
 30
0.0
 11
222.54578178551631
 21
144.40083150000001
 31
0.0
  0
LINE
  5
E8E
  8
0
 10
219.34698178551631
 20
146.03683150000001
 30
0.0
 11
220.69878178551619
 21
145.4228315
 31
0.0
  0
LINE
  5
E8F
  8
0
 10
217.8587817855163
 20
146.6378315
 30
0.0
 11
219.34698178551631
 21
146.03683150000001
 31
0.0
  0
LINE
  5
E90
  8
0
 10
210.0471817855163
 20
158.6908315
 30
0.0
 11
217.36458178551621
 21
156.9578315
 31
0.0
  0
LINE
  5
E91
  8
0
 10
217.36458178551621
 20
156.9578315
 30
0.0
 11
225.0600817855163
 21
155.05183149999999
 31
0.0
  0
LINE
  5
E92
  8
0
 10
203.2038817855163
 20
160.20583149999999
 30
0.0
 11
210.0471817855163
 21
158.6908315
 31
0.0
  0
LINE
  5
E93
  8
0
 10
183.3000817855162
 20
160.6958315
 30
0.0
 11
184.21088178551619
 21
159.91983149999999
 31
0.0
  0
LINE
  5
E94
  8
0
 10
198.16418178551621
 20
161.22783150000001
 30
0.0
 11
203.10988178551619
 21
160.22983149999999
 31
0.0
  0
LINE
  5
E95
  8
0
 10
182.42358178551621
 20
161.5418315
 30
0.0
 11
183.3000817855162
 21
160.6958315
 31
0.0
  0
LINE
  5
E96
  8
0
 10
182.24568178551621
 20
161.78783150000001
 30
0.0
 11
182.42358178551621
 21
161.5418315
 31
0.0
  0
LINE
  5
E97
  8
0
 10
182.2332817855162
 20
162.65783149999999
 30
0.0
 11
182.4011817855162
 21
162.91283150000001
 31
0.0
  0
LINE
  5
E98
  8
0
 10
188.2274817855162
 20
162.7788315
 30
0.0
 11
193.2083817855162
 21
162.09383149999999
 31
0.0
  0
LINE
  5
E99
  8
0
 10
193.2083817855162
 20
162.09383149999999
 30
0.0
 11
198.16418178551621
 21
161.22783150000001
 31
0.0
  0
LINE
  5
E9A
  8
0
 10
182.14758178551619
 20
162.3638315
 30
0.0
 11
182.1545817855162
 21
162.05483150000001
 31
0.0
  0
LINE
  5
E9B
  8
0
 10
182.14758178551619
 20
162.3638315
 30
0.0
 11
182.2332817855162
 21
162.65783149999999
 31
0.0
  0
LINE
  5
E9C
  8
0
 10
203.10988178551619
 20
160.22983149999999
 30
0.0
 11
203.2038817855163
 21
160.20583149999999
 31
0.0
  0
LINE
  5
E9D
  8
0
 10
226.51178178551629
 20
139.9998315
 30
0.0
 11
226.9923817855163
 21
138.7208315
 31
0.0
  0
LINE
  5
E9E
  8
0
 10
226.9923817855163
 20
138.7208315
 30
0.0
 11
227.2584817855163
 21
137.70383150000001
 31
0.0
  0
LINE
  5
E9F
  8
0
 10
227.2584817855163
 20
137.70383150000001
 30
0.0
 11
227.45318178551619
 21
136.6428315
 31
0.0
  0
LINE
  5
EA0
  8
0
 10
227.45318178551619
 20
136.6428315
 30
0.0
 11
227.6662817855163
 21
134.40783149999999
 31
0.0
  0
LINE
  5
EA1
  8
0
 10
225.87228178551621
 20
141.18583150000001
 30
0.0
 11
226.51178178551629
 21
139.9998315
 31
0.0
  0
LINE
  5
EA2
  8
0
 10
225.0632817855163
 20
142.2738315
 30
0.0
 11
225.87228178551621
 21
141.18583150000001
 31
0.0
  0
LINE
  5
EA3
  8
0
 10
225.0600817855163
 20
155.05183149999999
 30
0.0
 11
233.13058178551631
 21
152.9828315
 31
0.0
  0
LINE
  5
EA4
  8
0
 10
183.20578178551619
 20
163.23583149999999
 30
0.0
 11
185.72248178551621
 21
163.03883149999999
 31
0.0
  0
LINE
  5
EA5
  8
0
 10
185.72248178551621
 20
163.03883149999999
 30
0.0
 11
188.2274817855162
 21
162.7788315
 31
0.0
  0
LINE
  5
EA6
  8
0
 10
228.2488817855162
 20
116.3608315
 30
0.0
 11
228.5720817855163
 21
116.3608315
 31
0.0
  0
LINE
  5
EA7
  8
0
 10
228.5720817855163
 20
116.3608315
 30
0.0
 11
229.11848178551631
 21
116.3608315
 31
0.0
  0
LINE
  5
EA8
  8
0
 10
228.14008178551629
 20
116.3608315
 30
0.0
 11
228.2488817855162
 21
116.3608315
 31
0.0
  0
LINE
  5
EA9
  8
0
 10
229.57828178551631
 20
114.9248315
 30
0.0
 11
230.49658178551621
 21
114.8218315
 31
0.0
  0
LINE
  5
EAA
  8
0
 10
229.26908178551631
 20
114.9588315
 30
0.0
 11
229.5170817855163
 21
114.9318315
 31
0.0
  0
LINE
  5
EAB
  8
0
 10
229.26908178551631
 20
114.9588315
 30
0.0
 11
229.57828178551631
 21
114.9248315
 31
0.0
  0
LINE
  5
EAC
  8
0
 10
229.53988734185771
 20
114.929053398721
 30
0.0
 11
229.72979903270729
 21
116.3608315
 31
0.0
  0
LINE
  5
EAD
  8
0
 10
230.49658178551621
 20
114.8218315
 30
0.0
 11
231.7845817855162
 21
114.6818315
 31
0.0
  0
LINE
  5
EAE
  8
0
 10
231.7845817855162
 20
114.6818315
 30
0.0
 11
233.31958178551631
 21
114.5268315
 31
0.0
  0
LINE
  5
EAF
  8
0
 10
233.31958178551631
 20
114.5268315
 30
0.0
 11
235.17158178551631
 21
114.3608315
 31
0.0
  0
LINE
  5
EB0
  8
0
 10
235.17158178551631
 20
114.3608315
 30
0.0
 11
237.9135817855163
 21
114.15883150000001
 31
0.0
  0
LINE
  5
EB1
  8
0
 10
237.9135817855163
 20
114.15883150000001
 30
0.0
 11
241.02358178551631
 21
113.99283149999999
 31
0.0
  0
LINE
  5
EB2
  8
0
 10
235.02258178551631
 20
116.3608315
 30
0.0
 11
236.89758178551619
 21
116.3608315
 31
0.0
  0
LINE
  5
EB3
  8
0
 10
236.89758178551619
 20
116.3608315
 30
0.0
 11
238.6725817855162
 21
116.3608315
 31
0.0
  0
LINE
  5
EB4
  8
0
 10
241.02358178551631
 20
113.99283149999999
 30
0.0
 11
243.18358178551631
 21
113.91483150000001
 31
0.0
  0
LINE
  5
EB5
  8
0
 10
245.43158178551619
 20
113.8638315
 30
0.0
 11
246.9855817855163
 21
113.8428315
 31
0.0
  0
LINE
  5
EB6
  8
0
 10
243.18358178551631
 20
113.91483150000001
 30
0.0
 11
245.43158178551619
 21
113.8638315
 31
0.0
  0
LINE
  5
EB7
  8
0
 10
273.18258178551628
 20
42.141531499999999
 30
0.0
 11
273.18258178551628
 21
42.083531500000007
 31
0.0
  0
LINE
  5
EB8
  8
0
 10
273.18258178551628
 20
42.083531500000007
 30
0.0
 11
273.18258178551628
 21
42.141531499999999
 31
0.0
  0
LINE
  5
EB9
  8
0
 10
273.18258178551628
 20
42.083531500000007
 30
0.0
 11
273.18258178551628
 21
41.807831500000013
 31
0.0
  0
LINE
  5
EBA
  8
0
 10
273.18258178551628
 20
41.807831500000013
 30
0.0
 11
273.1835817855162
 21
41.330431499999989
 31
0.0
  0
LINE
  5
EBB
  8
0
 10
273.18258178551628
 20
41.807831500000013
 30
0.0
 11
273.18258178551628
 21
42.083531500000007
 31
0.0
  0
LINE
  5
EBC
  8
0
 10
272.14958178551632
 20
112.5128315
 30
0.0
 11
272.29458178551619
 21
111.8598315
 31
0.0
  0
LINE
  5
EBD
  8
0
 10
272.29458178551619
 20
111.8598315
 30
0.0
 11
273.18258178551628
 21
42.141531499999999
 31
0.0
  0
LINE
  5
EBE
  8
0
 10
273.1835817855162
 20
41.330431499999989
 30
0.0
 11
273.1865817855163
 21
40.573531499999987
 31
0.0
  0
LINE
  5
EBF
  8
0
 10
273.18258328514128
 20
41.807115578980202
 30
0.0
 11
273.18458178551629
 21
41.252831499999999
 31
0.0
  0
LINE
  5
EC0
  8
0
 10
273.18458178551629
 20
41.252831499999999
 30
0.0
 11
273.18689004995622
 21
40.633697270538889
 31
0.0
  0
LINE
  5
EC1
  8
0
 10
249.92458178551621
 20
113.8308315
 30
0.0
 11
252.4335817855162
 21
113.8448315
 31
0.0
  0
LINE
  5
EC2
  8
0
 10
252.4335817855162
 20
113.8448315
 30
0.0
 11
254.95558178551619
 21
113.8718315
 31
0.0
  0
LINE
  5
EC3
  8
0
 10
256.94758178551632
 20
113.8978315
 30
0.0
 11
259.06258178551627
 21
113.9248315
 31
0.0
  0
LINE
  5
EC4
  8
0
 10
259.06258178551627
 20
113.9248315
 30
0.0
 11
261.0615817855163
 21
113.9468315
 31
0.0
  0
LINE
  5
EC5
  8
0
 10
254.95558178551619
 20
113.8718315
 30
0.0
 11
256.94758178551632
 21
113.8978315
 31
0.0
  0
LINE
  5
EC6
  8
0
 10
261.0615817855163
 20
113.9468315
 30
0.0
 11
263.12858178551619
 21
113.9608315
 31
0.0
  0
LINE
  5
EC7
  8
0
 10
263.12858178551619
 20
113.9608315
 30
0.0
 11
264.98558178551627
 21
113.9638315
 31
0.0
  0
LINE
  5
EC8
  8
0
 10
264.98558178551627
 20
113.9638315
 30
0.0
 11
266.56358178551631
 21
113.9558315
 31
0.0
  0
LINE
  5
EC9
  8
0
 10
266.56358178551631
 20
113.9558315
 30
0.0
 11
267.89258178551631
 21
113.9408315
 31
0.0
  0
LINE
  5
ECA
  8
0
 10
268.95058178551631
 20
113.9218315
 30
0.0
 11
269.80558178551632
 21
113.9028315
 31
0.0
  0
LINE
  5
ECB
  8
0
 10
269.80558178551632
 20
113.9028315
 30
0.0
 11
270.27558178551618
 21
113.8898315
 31
0.0
  0
LINE
  5
ECC
  8
0
 10
267.89258178551631
 20
113.9408315
 30
0.0
 11
268.95058178551631
 21
113.9218315
 31
0.0
  0
LINE
  5
ECD
  8
0
 10
246.9855817855163
 20
113.8428315
 30
0.0
 11
249.92458178551621
 21
113.8308315
 31
0.0
  0
LINE
  5
ECE
  8
0
 10
270.27558178551618
 20
113.8898315
 30
0.0
 11
270.36858178551631
 21
113.8878315
 31
0.0
  0
LINE
  5
ECF
  8
0
 10
271.01858178551629
 20
113.80483150000001
 30
0.0
 11
271.22458178551619
 21
113.70383150000001
 31
0.0
  0
LINE
  5
ED0
  8
0
 10
271.22458178551619
 20
113.70383150000001
 30
0.0
 11
271.70958178551632
 21
113.3668315
 31
0.0
  0
LINE
  5
ED1
  8
0
 10
271.70958178551632
 20
113.3668315
 30
0.0
 11
271.95358178551618
 21
113.17983150000001
 31
0.0
  0
LINE
  5
ED2
  8
0
 10
270.36858178551631
 20
113.8878315
 30
0.0
 11
271.01858178551629
 21
113.80483150000001
 31
0.0
  0
LINE
  5
ED3
  8
0
 10
271.95358178551618
 20
113.17983150000001
 30
0.0
 11
272.14958178551632
 21
112.5128315
 31
0.0
  0
LINE
  5
ED4
  8
0
 10
270.13358178551618
 20
114.6538315
 30
0.0
 11
270.16711161325429
 21
113.892831738807
 31
0.0
  0
LINE
  5
ED5
  8
0
 10
245.96258178551631
 20
116.3608315
 30
0.0
 11
247.73058178551631
 21
116.3608315
 31
0.0
  0
LINE
  5
ED6
  8
0
 10
247.73058178551631
 20
116.3608315
 30
0.0
 11
249.72158178551629
 21
116.3608315
 31
0.0
  0
LINE
  5
ED7
  8
0
 10
242.4845817855163
 20
116.3608315
 30
0.0
 11
244.21058178551621
 21
116.3608315
 31
0.0
  0
LINE
  5
ED8
  8
0
 10
244.21058178551621
 20
116.3608315
 30
0.0
 11
245.96258178551631
 21
116.3608315
 31
0.0
  0
LINE
  5
ED9
  8
0
 10
238.6725817855162
 20
116.3608315
 30
0.0
 11
240.5435817855163
 21
116.3608315
 31
0.0
  0
LINE
  5
EDA
  8
0
 10
240.5435817855163
 20
116.3608315
 30
0.0
 11
242.4845817855163
 21
116.3608315
 31
0.0
  0
LINE
  5
EDB
  8
0
 10
231.88258178551629
 20
116.3608315
 30
0.0
 11
233.34258178551619
 21
116.3608315
 31
0.0
  0
LINE
  5
EDC
  8
0
 10
233.34258178551619
 20
116.3608315
 30
0.0
 11
235.02258178551631
 21
116.3608315
 31
0.0
  0
LINE
  5
EDD
  8
0
 10
229.8351817855162
 20
116.3608315
 30
0.0
 11
230.75658178551629
 21
116.3608315
 31
0.0
  0
LINE
  5
EDE
  8
0
 10
230.75658178551629
 20
116.3608315
 30
0.0
 11
231.88258178551629
 21
116.3608315
 31
0.0
  0
LINE
  5
EDF
  8
0
 10
229.11848178551631
 20
116.3608315
 30
0.0
 11
229.8351817855162
 21
116.3608315
 31
0.0
  0
LINE
  5
EE0
  8
0
 10
227.88898178551631
 20
116.4278315
 30
0.0
 11
228.14008178551629
 21
116.3608315
 31
0.0
  0
LINE
  5
EE1
  8
0
 10
227.70608178551629
 20
116.6128315
 30
0.0
 11
227.88898178551631
 21
116.4278315
 31
0.0
  0
LINE
  5
EE2
  8
0
 10
249.69858178551621
 20
116.4278315
 30
0.0
 11
249.72158178551629
 21
116.3608315
 31
0.0
  0
LINE
  5
EE3
  8
0
 10
249.9085817855163
 20
116.3968315
 30
0.0
 11
252.13558178551619
 21
117.2968315
 31
0.0
  0
LINE
  5
EE4
  8
0
 10
269.89758178551631
 20
116.4338315
 30
0.0
 11
270.13358178551618
 21
114.6538315
 31
0.0
  0
LINE
  5
EE5
  8
0
 10
269.50558178551631
 20
118.1848315
 30
0.0
 11
269.89758178551631
 21
116.4338315
 31
0.0
  0
LINE
  5
EE6
  8
0
 10
268.96158178551627
 20
119.8958315
 30
0.0
 11
269.50558178551631
 21
118.1848315
 31
0.0
  0
LINE
  5
EE7
  8
0
 10
252.13558178551619
 20
117.2968315
 30
0.0
 11
260.14358178551629
 21
120.5318315
 31
0.0
  0
LINE
  5
EE8
  8
0
 10
268.26858178551629
 20
121.55183150000001
 30
0.0
 11
268.96158178551627
 21
119.8958315
 31
0.0
  0
LINE
  5
EE9
  8
0
 10
267.39458178551621
 20
123.1398315
 30
0.0
 11
268.26858178551629
 21
121.55183150000001
 31
0.0
  0
LINE
  5
EEA
  8
0
 10
267.23531694571432
 20
123.39786788208301
 30
0.0
 11
267.39458178551621
 21
123.1398315
 31
0.0
  0
LINE
  5
EEB
  8
0
 10
271.36258178551032
 20
125.06483149999799
 30
0.0
 11
271.42458178551618
 21
125.0898315
 31
0.0
  0
LINE
  5
EEC
  8
0
 10
271.57358178551618
 20
125.1498315
 30
0.0
 11
271.80258178551628
 21
125.3368315
 31
0.0
  0
LINE
  5
EED
  8
0
 10
271.80258178551628
 20
125.3368315
 30
0.0
 11
271.88558178551631
 21
125.6198315
 31
0.0
  0
LINE
  5
EEE
  8
0
 10
271.12358178551619
 20
124.9678315
 30
0.0
 11
271.57358178551618
 21
125.1498315
 31
0.0
  0
LINE
  5
EEF
  8
0
 10
260.14358178551629
 20
120.5318315
 30
0.0
 11
262.02358178551628
 21
121.2918315
 31
0.0
  0
LINE
  5
EF0
  8
0
 10
249.72158178551629
 20
116.3608315
 30
0.0
 11
249.9085817855163
 21
116.3968315
 31
0.0
  0
LINE
  5
EF1
  8
0
 10
227.63998178551631
 20
116.8638315
 30
0.0
 11
227.70608178551629
 21
116.6128315
 31
0.0
  0
LINE
  5
EF2
  8
0
 10
227.63998178551631
 20
116.8638315
 30
0.0
 11
227.7165817855163
 21
129.59883149999999
 31
0.0
  0
LINE
  5
EF3
  8
0
 10
227.6662817855163
 20
134.40783149999999
 30
0.0
 11
227.71598178551619
 21
132.84783150000001
 31
0.0
  0
LINE
  5
EF4
  8
0
 10
227.71598178551619
 20
132.84783150000001
 30
0.0
 11
227.7165817855163
 21
129.59883149999999
 31
0.0
  0
LINE
  5
EF5
  8
0
 10
267.92258178551629
 20
142.26583149999999
 30
0.0
 11
269.5855817855163
 21
141.40883149999999
 31
0.0
  0
LINE
  5
EF6
  8
0
 10
271.71258178551619
 20
139.63383150000001
 30
0.0
 11
271.88558178551631
 21
125.6198315
 31
0.0
  0
LINE
  5
EF7
  8
0
 10
271.22358178551622
 20
140.4818315
 30
0.0
 11
271.42558178551621
 21
140.32383150000001
 31
0.0
  0
LINE
  5
EF8
  8
0
 10
269.5855817855163
 20
141.40883149999999
 30
0.0
 11
271.22358178551622
 21
140.4818315
 31
0.0
  0
LINE
  5
EF9
  8
0
 10
262.23058178551628
 20
144.6968315
 30
0.0
 11
264.53258178551619
 21
143.79483149999999
 31
0.0
  0
LINE
  5
EFA
  8
0
 10
250.38358178551621
 20
148.35583149999999
 30
0.0
 11
254.6425817855162
 21
147.15883149999999
 31
0.0
  0
LINE
  5
EFB
  8
0
 10
254.6425817855162
 20
147.15883149999999
 30
0.0
 11
256.75758178551632
 21
146.53083150000001
 31
0.0
  0
LINE
  5
EFC
  8
0
 10
256.75758178551632
 20
146.53083150000001
 30
0.0
 11
259.90058178551618
 21
145.5228315
 31
0.0
  0
LINE
  5
EFD
  8
0
 10
259.90058178551618
 20
145.5228315
 30
0.0
 11
262.23058178551628
 21
144.6968315
 31
0.0
  0
LINE
  5
EFE
  8
0
 10
264.53258178551619
 20
143.79483149999999
 30
0.0
 11
266.10561689568522
 21
143.085341622877
 31
0.0
  0
LINE
  5
EFF
  8
0
 10
266.17908964719419
 20
143.05220302787399
 30
0.0
 11
267.92258178551629
 21
142.26583149999999
 31
0.0
  0
LINE
  5
F00
  8
0
 10
273.1863488609373
 20
40.632298371194402
 30
0.0
 11
276.42158178551631
 21
48.9949315
 31
0.0
  0
LINE
  5
F01
  8
0
 10
273.51473654742131
 20
-0.2353885000000062
 30
0.0
 11
273.58358178551617
 21
-0.2353885000000062
 31
0.0
  0
LINE
  5
F02
  8
0
 10
273.4025817855163
 20
-0.2353885000000062
 30
0.0
 11
273.50149845218323
 21
-0.2353885000000062
 31
0.0
  0
LINE
  5
F03
  8
0
 10
273.36058178551627
 20
28.076231499999999
 30
0.0
 11
273.72158178551632
 21
-0.2353895000000108
 31
0.0
  0
LINE
  5
F04
  8
0
 10
273.36058178551627
 20
28.076231499999999
 30
0.0
 11
273.72158178551632
 21
-0.2353895000000108
 31
0.0
  0
LINE
  5
F05
  8
0
 10
273.36058178551627
 20
28.076231499999999
 30
0.0
 11
273.36158178551631
 21
28.016431499999999
 31
0.0
  0
LINE
  5
F06
  8
0
 10
273.51258178551632
 20
-0.2353895000000108
 30
0.0
 11
273.6935817855163
 21
-0.2353055000000097
 31
0.0
  0
LINE
  5
F07
  8
0
 10
273.58358178551617
 20
-0.2353885000000062
 30
0.0
 11
273.68558178551621
 21
-0.2353885000000062
 31
0.0
  0
LINE
  5
F08
  8
0
 10
273.34158178551633
 20
28.857331500000011
 30
0.0
 11
273.35358178551621
 21
28.355131499999999
 31
0.0
  0
LINE
  5
F09
  8
0
 10
273.32968646980828
 20
29.413724547752899
 30
0.0
 11
273.3425817855163
 21
28.837531500000001
 31
0.0
  0
LINE
  5
F0A
  8
0
 10
273.3425817855163
 20
28.837531500000001
 30
0.0
 11
273.35358178551621
 21
28.355131499999999
 31
0.0
  0
LINE
  5
F0B
  8
0
 10
273.35358178551621
 20
28.355131499999999
 30
0.0
 11
273.36058178551627
 21
28.076331499999998
 31
0.0
  0
LINE
  5
F0C
  8
0
 10
273.35358178551621
 20
28.355131499999999
 30
0.0
 11
273.36058178551627
 21
28.076231499999999
 31
0.0
  0
LINE
  5
F0D
  8
0
 10
273.36058178551627
 20
28.076331499999998
 30
0.0
 11
273.36158178551631
 21
28.016431499999999
 31
0.0
  0
LINE
  5
F0E
  8
0
 10
276.42158178551631
 20
48.9949315
 30
0.0
 11
277.0155817855163
 21
50.219231499999999
 31
0.0
  0
LINE
  5
F0F
  8
0
 10
277.0155817855163
 20
50.219231499999999
 30
0.0
 11
277.74658178551618
 21
51.365331500000003
 31
0.0
  0
LINE
  5
F10
  8
0
 10
277.74658178551618
 20
51.365331500000003
 30
0.0
 11
278.62258178551622
 21
52.4050315
 31
0.0
  0
LINE
  5
F11
  8
0
 10
278.62258178551622
 20
52.4050315
 30
0.0
 11
279.62758178551633
 21
53.319931500000003
 31
0.0
  0
LINE
  5
F12
  8
0
 10
280.18058178551632
 20
48.798431500000007
 30
0.0
 11
280.41858178551632
 21
49.390831500000012
 31
0.0
  0
LINE
  5
F13
  8
0
 10
280.41858178551632
 20
49.390831500000012
 30
0.0
 11
280.72858178551633
 21
49.948131500000009
 31
0.0
  0
LINE
  5
F14
  8
0
 10
280.14958178551632
 20
48.703331500000012
 30
0.0
 11
280.18058178551632
 21
48.798431500000007
 31
0.0
  0
LINE
  5
F15
  8
0
 10
281.06758178551621
 20
50.439131499999988
 30
0.0
 11
281.45058178551631
 21
50.895331500000012
 31
0.0
  0
LINE
  5
F16
  8
0
 10
282.0325817855163
 20
51.408631500000013
 30
0.0
 11
282.6865817855163
 21
51.825831500000007
 31
0.0
  0
LINE
  5
F17
  8
0
 10
284.09358178551622
 20
52.397431500000003
 30
0.0
 11
284.82658178551628
 21
52.573631499999991
 31
0.0
  0
LINE
  5
F18
  8
0
 10
283.37458178551628
 20
52.149331500000009
 30
0.0
 11
284.09358178551622
 21
52.397431500000003
 31
0.0
  0
LINE
  5
F19
  8
0
 10
286.25758178551632
 20
52.677431500000012
 30
0.0
 11
288.06058178551632
 21
52.698031500000013
 31
0.0
  0
LINE
  5
F1A
  8
0
 10
285.57558178551631
 20
52.656431499999997
 30
0.0
 11
286.25758178551632
 21
52.677431500000012
 31
0.0
  0
LINE
  5
F1B
  8
0
 10
296.94958178551622
 20
52.803131499999999
 30
0.0
 11
297.15358178551628
 21
52.88673150000001
 31
0.0
  0
LINE
  5
F1C
  8
0
 10
297.15358178551628
 20
52.88673150000001
 30
0.0
 11
297.24558178551632
 21
53.087331499999998
 31
0.0
  0
LINE
  5
F1D
  8
0
 10
297.24558178551632
 20
53.087331499999998
 30
0.0
 11
297.33258178551631
 21
54.698831500000011
 31
0.0
  0
LINE
  5
F1E
  8
0
 10
288.06058178551632
 20
52.698031500000013
 30
0.0
 11
296.94958178551622
 21
52.803131499999999
 31
0.0
  0
LINE
  5
F1F
  8
0
 10
284.83721174472328
 20
52.575102356654902
 30
0.0
 11
285.57558178551631
 21
52.656431499999997
 31
0.0
  0
LINE
  5
F20
  8
0
 10
282.6865817855163
 20
51.825831500000007
 30
0.0
 11
283.37458178551628
 21
52.149331500000009
 31
0.0
  0
LINE
  5
F21
  8
0
 10
281.45058178551631
 20
50.895331500000012
 30
0.0
 11
282.0325817855163
 21
51.408631500000013
 31
0.0
  0
LINE
  5
F22
  8
0
 10
280.72858178551633
 20
49.948131500000009
 30
0.0
 11
281.06758178551621
 21
50.439131499999988
 31
0.0
  0
LINE
  5
F23
  8
0
 10
297.30058178551621
 20
54.850631500000013
 30
0.0
 11
297.33258178551631
 21
54.698831500000011
 31
0.0
  0
LINE
  5
F24
  8
0
 10
297.04858178551632
 20
55.014031500000009
 30
0.0
 11
297.19658178551629
 21
54.966031500000007
 31
0.0
  0
LINE
  5
F25
  8
0
 10
297.19658178551629
 20
54.966031500000007
 30
0.0
 11
297.30058178551621
 21
54.850631500000013
 31
0.0
  0
LINE
  5
F26
  8
0
 10
281.95358178551618
 20
54.714431500000011
 30
0.0
 11
283.2345817855163
 21
55.169531499999991
 31
0.0
  0
LINE
  5
F27
  8
0
 10
280.74458178551629
 20
54.094231499999999
 30
0.0
 11
281.95358178551618
 21
54.714431500000011
 31
0.0
  0
LINE
  5
F28
  8
0
 10
279.62758178551633
 20
53.319931500000003
 30
0.0
 11
280.74458178551629
 21
54.094231499999999
 31
0.0
  0
LINE
  5
F29
  8
0
 10
285.91958178551619
 20
55.555831499999996
 30
0.0
 11
286.3755817855162
 21
55.551531500000003
 31
0.0
  0
LINE
  5
F2A
  8
0
 10
286.3755817855162
 20
55.551531500000003
 30
0.0
 11
297.04858178551632
 21
55.014031500000009
 31
0.0
  0
LINE
  5
F2B
  8
0
 10
284.56458178551622
 20
55.451631500000012
 30
0.0
 11
285.91958178551619
 21
55.555831499999996
 31
0.0
  0
LINE
  5
F2C
  8
0
 10
283.2345817855163
 20
55.169531499999991
 30
0.0
 11
284.56458178551622
 21
55.451631500000012
 31
0.0
  0
LINE
  5
F2D
  8
0
 10
273.32955745941422
 20
29.4133706941758
 30
0.0
 11
280.14958178551632
 21
48.703331500000012
 31
0.0
  0
LINE
  5
F2E
  8
0
 10
161.7033817855162
 20
89.271531499999995
 30
0.0
 11
160.0346817855162
 21
89.942631500000005
 31
0.0
  0
LINE
  5
F2F
  8
0
 10
158.87518178551619
 20
90.528431500000011
 30
0.0
 11
156.63625632588099
 21
91.799899839024022
 31
0.0
  0
LINE
  5
F30
  8
0
 10
156.63625632588099
 20
91.799899839024022
 30
0.0
 11
156.41278178551619
 21
91.964131500000008
 31
0.0
  0
LINE
  5
F31
  8
0
 10
130.61758178551619
 20
111.1228315
 30
0.0
 11
130.4285817855162
 21
111.68283150000001
 31
0.0
  0
LINE
  5
F32
  8
0
 10
130.43258178551619
 20
112.2798315
 30
0.0
 11
130.65858178551619
 21
112.8358315
 31
0.0
  0
LINE
  5
F33
  8
0
 10
131.06358178551619
 20
113.2698315
 30
0.0
 11
131.6195817855162
 21
113.58483150000001
 31
0.0
  0
LINE
  5
F34
  8
0
 10
135.2502117855162
 20
102.23383149999999
 30
0.0
 11
154.61058178551619
 21
89.462831499999993
 31
0.0
  0
LINE
  5
F35
  8
0
 10
208.88418178551629
 20
115.2948315
 30
0.0
 11
229.26908178551631
 21
114.9588315
 31
0.0
  0
LINE
  5
F36
  8
0
 10
262.02358178551628
 20
121.2918315
 30
0.0
 11
271.12358178551619
 21
124.9678315
 31
0.0
  0
LINE
  5
F37
  8
0
 10
222.54578178551631
 20
144.40083150000001
 30
0.0
 11
223.35078178551629
 21
143.84883149999999
 31
0.0
  0
LINE
  5
F38
  8
0
 10
191.65908178551621
 20
155.83683149999999
 30
0.0
 11
212.6687817855163
 21
148.48583149999999
 31
0.0
  0
LINE
  5
F39
  8
0
 10
271.71258178551619
 20
139.63383150000001
 30
0.0
 11
271.6377457703083
 21
139.9459794751676
 31
0.0
  0
LINE
  5
F3A
  8
0
 10
271.6377457703083
 20
139.9459794751676
 30
0.0
 11
271.53401511362591
 21
140.17551114101801
 31
0.0
  0
LINE
  5
F3B
  8
0
 10
271.53401511362591
 20
140.17551114101801
 30
0.0
 11
271.42558178551621
 21
140.32383150000001
 31
0.0
  0
LINE
  5
F3C
  8
0
 10
250.38358178551621
 20
148.35583149999999
 30
0.0
 11
233.13058178551631
 21
152.9828315
 31
0.0
  0
LINE
  5
F3D
  8
0
 10
182.4011817855162
 20
162.91283150000001
 30
0.0
 11
182.7492315145349
 21
163.1494235233728
 31
0.0
  0
LINE
  5
F3E
  8
0
 10
182.7492315145349
 20
163.1494235233728
 30
0.0
 11
183.20578178551619
 21
163.23583149999999
 31
0.0
  0
LINE
  5
F3F
  8
0
 10
182.24568178551621
 20
161.78783150000001
 30
0.0
 11
182.1545817855162
 21
162.05483150000001
 31
0.0
  0
ENDSEC
  0
EOF
