  0
SECTION
  2
HEADER
  9
$ACADVER
  1
AC1009
  9
$INSBASE
 10
0.0
 20
0.0
 30
0.0
  9
$EXTMIN
 10
0.0549999999999997
 20
-0.1675000000000182
 30
0.0
  9
$EXTMAX
 10
292.22759083819108
 20
338.86825550398981
 30
0.0
  9
$LIMMIN
 10
0.0
 20
0.0
  9
$LIMMAX
 10
12.0
 20
9.0
  9
$ORTHOMODE
 70
     0
  9
$REGENMODE
 70
     1
  9
$FILLMODE
 70
     1
  9
$QTEXTMODE
 70
     0
  9
$MIRRTEXT
 70
     1
  9
$DRAGMODE
 70
     2
  9
$LTSCALE
 40
1.0
  9
$OSMODE
 70
   957
  9
$ATTMODE
 70
     1
  9
$TEXTSIZE
 40
0.2
  9
$TRACEWID
 40
0.05
  9
$TEXTSTYLE
  7
STANDARD
  9
$CLAYER
  8
0
  9
$CELTYPE
  6
BYBLOCK
  9
$CECOLOR
 62
   256
  9
$DIMSCALE
 40
1.0
  9
$DIMASZ
 40
0.18
  9
$DIMEXO
 40
0.0625
  9
$DIMDLI
 40
0.38
  9
$DIMRND
 40
0.0
  9
$DIMDLE
 40
0.0
  9
$DIMEXE
 40
0.18
  9
$DIMTP
 40
0.0
  9
$DIMTM
 40
0.0
  9
$DIMTXT
 40
0.18
  9
$DIMCEN
 40
0.09
  9
$DIMTSZ
 40
0.0
  9
$DIMTOL
 70
     0
  9
$DIMLIM
 70
     0
  9
$DIMTIH
 70
     1
  9
$DIMTOH
 70
     1
  9
$DIMSE1
 70
     0
  9
$DIMSE2
 70
     0
  9
$DIMTAD
 70
     0
  9
$DIMZIN
 70
     0
  9
$DIMBLK
  1

  9
$DIMASO
 70
     1
  9
$DIMSHO
 70
     1
  9
$DIMPOST
  1

  9
$DIMAPOST
  1

  9
$DIMALT
 70
     0
  9
$DIMALTD
 70
     2
  9
$DIMALTF
 40
25.399999999999999
  9
$DIMLFAC
 40
1.0
  9
$DIMTOFL
 70
     0
  9
$DIMTVP
 40
0.0
  9
$DIMTIX
 70
     0
  9
$DIMSOXD
 70
     0
  9
$DIMSAH
 70
     0
  9
$DIMBLK1
  1

  9
$DIMBLK2
  1

  9
$DIMSTYLE
  2
STANDARD
  9
$DIMCLRD
 70
     0
  9
$DIMCLRE
 70
     0
  9
$DIMCLRT
 70
     0
  9
$DIMTFAC
 40
1.0
  9
$DIMGAP
 40
0.09
  9
$LUNITS
 70
     2
  9
$LUPREC
 70
     4
  9
$SKETCHINC
 40
0.1
  9
$FILLETRAD
 40
0.5
  9
$AUNITS
 70
     0
  9
$AUPREC
 70
     0
  9
$MENU
  1
.
  9
$ELEVATION
 40
0.0
  9
$PELEVATION
 40
0.0
  9
$THICKNESS
 40
0.0
  9
$LIMCHECK
 70
     0
  9
$BLIPMODE
 70
     0
  9
$CHAMFERA
 40
0.5
  9
$CHAMFERB
 40
0.5
  9
$SKPOLY
 70
     0
  9
$TDCREATE
 40
2456646.2457161462
  9
$TDUPDATE
 40
2457011.6142815738
  9
$TDINDWG
 40
0.0024131944
  9
$TDUSRTIMER
 40
0.0024131944
  9
$USRTIMER
 70
     1
  9
$ANGBASE
 50
0.0
  9
$ANGDIR
 70
     0
  9
$PDMODE
 70
     0
  9
$PDSIZE
 40
0.0
  9
$PLINEWID
 40
0.0
  9
$COORDS
 70
     1
  9
$SPLFRAME
 70
     0
  9
$SPLINETYPE
 70
     6
  9
$SPLINESEGS
 70
     8
  9
$ATTDIA
 70
     1
  9
$ATTREQ
 70
     1
  9
$HANDLING
 70
     1
  9
$HANDSEED
  5
8C4
  9
$SURFTAB1
 70
     6
  9
$SURFTAB2
 70
     6
  9
$SURFTYPE
 70
     6
  9
$SURFU
 70
     6
  9
$SURFV
 70
     6
  9
$UCSNAME
  2

  9
$UCSORG
 10
0.0
 20
0.0
 30
0.0
  9
$UCSXDIR
 10
1.0
 20
0.0
 30
0.0
  9
$UCSYDIR
 10
0.0
 20
1.0
 30
0.0
  9
$PUCSNAME
  2

  9
$PUCSORG
 10
0.0
 20
0.0
 30
0.0
  9
$PUCSXDIR
 10
1.0
 20
0.0
 30
0.0
  9
$PUCSYDIR
 10
0.0
 20
1.0
 30
0.0
  9
$USERI1
 70
     0
  9
$USERI2
 70
     0
  9
$USERI3
 70
     0
  9
$USERI4
 70
     0
  9
$USERI5
 70
     0
  9
$USERR1
 40
0.0
  9
$USERR2
 40
0.0
  9
$USERR3
 40
0.0
  9
$USERR4
 40
0.0
  9
$USERR5
 40
0.0
  9
$WORLDVIEW
 70
     1
  9
$SHADEDGE
 70
     3
  9
$SHADEDIF
 70
    70
  9
$TILEMODE
 70
     1
  9
$MAXACTVP
 70
    64
  9
$PLIMCHECK
 70
     0
  9
$PEXTMIN
 10
1.0000000000000000E+020
 20
1.0000000000000000E+020
 30
1.0000000000000000E+020
  9
$PEXTMAX
 10
-1.0000000000000000E+020
 20
-1.0000000000000000E+020
 30
-1.0000000000000000E+020
  9
$PLIMMIN
 10
0.0
 20
0.0
  9
$PLIMMAX
 10
12.0
 20
9.0
  9
$UNITMODE
 70
     0
  9
$VISRETAIN
 70
     1
  9
$PLINEGEN
 70
     0
  9
$PSLTSCALE
 70
     1
  0
ENDSEC
  0
SECTION
  2
TABLES
  0
TABLE
  2
VPORT
 70
     1
  0
VPORT
  2
*ACTIVE
 70
     0
 10
0.0
 20
0.0
 11
1.0
 21
1.0
 12
140.51473343381119
 22
197.66799829641619
 13
0.0
 23
0.0
 14
0.5
 24
0.5
 15
0.5
 25
0.5
 16
0.0
 26
0.0
 36
1.0
 17
0.0
 27
0.0
 37
0.0
 40
504.8967954524386
 41
1.681623931623931
 42
50.0
 43
0.0
 44
0.0
 50
0.0
 51
0.0
 71
    16
 72
   100
 73
     1
 74
     3
 75
     0
 76
     0
 77
     0
 78
     0
  0
ENDTAB
  0
TABLE
  2
LTYPE
 70
     8
  0
LTYPE
  2
CONTINUOUS
 70
     0
  3
Solid line
 72
    65
 73
     0
 40
0.0
  0
LTYPE
  2
PHANTOM2
 70
     0
  3
Phantom (.5x) ___ _ _ ___ _ _ ___ _ _ ___ _ _
 72
    65
 73
     6
 40
1.25
 49
0.625
 49
-0.125
 49
0.125
 49
-0.125
 49
0.125
 49
-0.125
  0
LTYPE
  2
HIDDEN
 70
     0
  3
Hidden __ __ __ __ __ __ __ __ __ __ __ __ __ _
 72
    65
 73
     2
 40
0.375
 49
0.25
 49
-0.125
  0
LTYPE
  2
CENTER
 70
     0
  3
Center ____ _ ____ _ ____ _ ____ _ ____ _ ____
 72
    65
 73
     4
 40
2.0
 49
1.25
 49
-0.25
 49
0.25
 49
-0.25
  0
LTYPE
  2
CENTER2
 70
     0
  3
Center (.5x) ___ _ ___ _ ___ _ ___ _ ___ _ ___
 72
    65
 73
     4
 40
1.125
 49
0.75
 49
-0.125
 49
0.125
 49
-0.125
  0
LTYPE
  2
HIDDEN2
 70
     0
  3
Hidden (.5x) _ _ _ _ _ _ _ _ _ _ _ _ _ _ _ _ _
 72
    65
 73
     2
 40
0.1875
 49
0.125
 49
-0.0625
  0
LTYPE
  2
ACANSTGB
 70
     0
  3
__ . . __ . .
 72
    65
 73
     6
 40
0.35433070866
 49
0.15748031496
 49
-0.03937007874
 49
0.03937007874
 49
-0.03937007874
 49
0.03937007874
 49
-0.03937007874
  0
LTYPE
  2
ACANSTGL
 70
     0
  3
_ _ _ _ _
 72
    65
 73
     2
 40
0.11811023622
 49
0.07874015748
 49
-0.03937007874
  0
ENDTAB
  0
TABLE
  2
LAYER
 70
     2
  0
LAYER
  2
0
 70
     0
 62
     7
  6
CONTINUOUS
  0
LAYER
  2
AM_CL
 70
     0
 62
     1
  6
CONTINUOUS
  0
ENDTAB
  0
TABLE
  2
STYLE
 70
     3
  0
STYLE
  2
STANDARD
 70
     0
 40
0.0
 41
1.0
 50
0.0
 71
     0
 42
0.2
  3
txt
  4

  0
STYLE
  2
ACANSTS
 70
     0
 40
1.0
 41
1.0
 50
0.0
 71
     0
 42
0.2
  3
romans.shx
  4
extfont.shx
  0
STYLE
  2
ACANSGDT
 70
     0
 40
0.0
 41
1.0
 50
0.0
 71
     0
 42
0.2
  3
amgdt.shx
  4

  0
ENDTAB
  0
TABLE
  2
VIEW
 70
     1
  0
ENDTAB
  0
TABLE
  2
UCS
 70
     0
  0
ENDTAB
  0
TABLE
  2
APPID
 70
    10
  0
APPID
  2
ACAD
 70
     0
  0
APPID
  2
MCAD_NO_VIS
 70
     0
  0
APPID
  2
ACAD_TEMP_GRAPHIC
 70
     0
  0
APPID
  2
ACATTRIBSERVICES
 70
     0
  0
APPID
  2
DESIGNERASSEMBLIES
 70
     0
  0
APPID
  2
ACAD_DSTYLE_DIMJAG
 70
     0
  0
APPID
  2
ACAD_DSTYLE_DIMBREAK
 70
     0
  0
APPID
  2
ACAD_NAV_VCDISPLAY
 70
     0
  0
APPID
  2
ACAECLAYERSTANDARD
 70
     0
  0
APPID
  2
ACAD_MLEADERVER
 70
     0
  0
ENDTAB
  0
TABLE
  2
DIMSTYLE
 70
     7
  0
DIMSTYLE
  2
STANDARD
 70
     0
  3

  4

  5

  6

  7

 40
1.0
 41
0.18
 42
0.0625
 43
0.38
 44
0.18
 45
0.0
 46
0.0
 47
0.0
 48
0.0
140
0.18
141
0.09
142
0.0
143
25.399999999999999
144
1.0
145
0.0
146
1.0
147
0.09
 71
     0
 72
     0
 73
     1
 74
     1
 75
     0
 76
     0
 77
     0
 78
     0
170
     0
171
     2
172
     0
173
     0
174
     0
175
     0
176
     0
177
     0
178
     0
  0
DIMSTYLE
  2
AM_ANSI
 70
     0
  3

  4
mm
  5

  6

  7

 40
1.0
 41
0.12
 42
0.05
 43
0.5
 44
0.1
 45
0.0
 46
0.0
 47
0.1
 48
0.1
140
0.12
141
0.0
142
0.0
143
25.399999999999999
144
1.0
145
0.0
146
0.71
147
0.06
 71
     0
 72
     0
 73
     1
 74
     1
 75
     0
 76
     0
 77
     0
 78
     7
170
     0
171
     2
172
     0
173
     0
174
     0
175
     0
176
   256
177
   256
178
     2
  0
DIMSTYLE
  2
AM_ANSI$3
 70
     0
  3

  4
mm
  5

  6

  7

 40
1.0
 41
0.12
 42
0.05
 43
0.5
 44
0.1
 45
0.0
 46
0.0
 47
0.1
 48
0.1
140
0.12
141
0.0
142
0.0
143
25.399999999999999
144
1.0
145
0.0
146
0.71
147
0.06
 71
     0
 72
     0
 73
     1
 74
     1
 75
     0
 76
     0
 77
     0
 78
     7
170
     0
171
     2
172
     0
173
     0
174
     0
175
     0
176
   256
177
   256
178
     2
  0
DIMSTYLE
  2
AM_ANSI$4
 70
     0
  3

  4
mm
  5

  6

  7

 40
1.0
 41
0.12
 42
0.05
 43
0.5
 44
0.1
 45
0.0
 46
0.0
 47
0.1
 48
0.1
140
0.12
141
0.0
142
0.0
143
25.399999999999999
144
1.0
145
0.0
146
0.71
147
0.06
 71
     0
 72
     0
 73
     1
 74
     1
 75
     0
 76
     0
 77
     0
 78
     7
170
     0
171
     2
172
     0
173
     0
174
     0
175
     0
176
   256
177
   256
178
     2
  0
DIMSTYLE
  2
AM_ANSI$7
 70
     0
  3

  4
mm
  5

  6

  7

 40
1.0
 41
0.12
 42
0.05
 43
0.5
 44
0.1
 45
0.0
 46
0.0
 47
0.1
 48
0.1
140
0.12
141
0.0
142
0.0
143
25.399999999999999
144
1.0
145
0.0
146
0.71
147
0.06
 71
     0
 72
     0
 73
     1
 74
     1
 75
     0
 76
     0
 77
     0
 78
     7
170
     0
171
     2
172
     0
173
     0
174
     0
175
     0
176
   256
177
   256
178
     2
  0
DIMSTYLE
  2
AM_ANSI$SF
 70
     0
  3

  4
mm
  5

  6

  7

 40
1.0
 41
0.12
 42
0.05
 43
0.5
 44
0.1
 45
0.0
 46
0.0
 47
0.1
 48
0.1
140
0.12
141
0.0
142
0.0
143
25.399999999999999
144
1.0
145
0.0
146
0.71
147
0.06
 71
     0
 72
     0
 73
     1
 74
     1
 75
     1
 76
     1
 77
     0
 78
     7
170
     0
171
     2
172
     0
173
     0
174
     0
175
     0
176
   256
177
   256
178
     2
  0
DIMSTYLE
  2
AM_ANSI$SH
 70
     0
  3

  4
mm
  5

  6
GENAXEH
  7

 40
1.0
 41
0.12
 42
0.05
 43
0.5
 44
0.1
 45
0.0
 46
0.0
 47
0.1
 48
0.1
140
0.12
141
0.0
142
0.0
143
25.399999999999999
144
1.0
145
0.0
146
0.71
147
0.06
 71
     0
 72
     0
 73
     1
 74
     1
 75
     1
 76
     1
 77
     0
 78
     7
170
     0
171
     2
172
     0
173
     1
174
     0
175
     0
176
   256
177
   256
178
     2
  0
ENDTAB
  0
ENDSEC
  0
SECTION
  2
BLOCKS
  0
BLOCK
  8
0
  2
$MODEL_SPACE
 70
     0
 10
0.0
 20
0.0
 30
0.0
  3
$MODEL_SPACE
  1

  0
ENDBLK
  5
2B9
  8
0
  0
BLOCK
 67
     1
  8
0
  2
$PAPER_SPACE
 70
     0
 10
0.0
 20
0.0
 30
0.0
  3
$PAPER_SPACE
  1

  0
ENDBLK
  5
2B7
 67
     1
  8
0
  0
BLOCK
  8
0
  2
GENAXEH
 70
     0
 10
0.0
 20
0.0
 30
0.0
  3
GENAXEH
  1

  0
LINE
  5
480
  8
0
 10
-1.0
 20
0.0
 30
0.0
 11
1.0
 21
0.0
 31
0.0
  0
ENDBLK
  5
482
  8
0
  0
ENDSEC
  0
SECTION
  2
ENTITIES
  0
LINE
  5
21
  8
0
 10
0.108
 20
-0.167500000000017
 30
0.0
 11
0.301
 21
-0.167500000000017
 31
0.0
  0
LINE
  5
22
  8
0
 10
0.301
 20
-0.167500000000017
 30
0.0
 11
0.6790000000000001
 21
-0.167500000000017
 31
0.0
  0
LINE
  5
23
  8
0
 10
0.6790000000000001
 20
-0.167500000000017
 30
0.0
 11
1.458
 21
-0.167500000000017
 31
0.0
  0
LINE
  5
24
  8
0
 10
0.055
 20
-0.167500000000017
 30
0.0
 11
0.395
 21
59.266500000000001
 31
0.0
  0
LINE
  5
25
  8
0
 10
0.055
 20
-0.167500000000017
 30
0.0
 11
0.108
 21
-0.167500000000017
 31
0.0
  0
LINE
  5
26
  8
0
 10
0.055
 20
-0.167500000000017
 30
0.0
 11
0.395
 21
59.266500000000001
 31
0.0
  0
LINE
  5
27
  8
0
 10
9.9770000000000003
 20
-0.167500000000017
 30
0.0
 11
12.035
 21
-0.167500000000017
 31
0.0
  0
LINE
  5
28
  8
0
 10
1.458
 20
-0.167500000000017
 30
0.0
 11
2.605999999999999
 21
-0.167500000000017
 31
0.0
  0
LINE
  5
29
  8
0
 10
2.605999999999999
 20
-0.167500000000017
 30
0.0
 11
3.8170000000000002
 21
-0.167500000000017
 31
0.0
  0
LINE
  5
2A
  8
0
 10
3.8170000000000002
 20
-0.167500000000017
 30
0.0
 11
5.214999999999999
 21
-0.167500000000017
 31
0.0
  0
LINE
  5
2B
  8
0
 10
5.214999999999999
 20
-0.167500000000017
 30
0.0
 11
6.5599999999999987
 21
-0.167500000000017
 31
0.0
  0
LINE
  5
2C
  8
0
 10
6.5599999999999987
 20
-0.167500000000017
 30
0.0
 11
7.9679999999999991
 21
-0.167500000000017
 31
0.0
  0
LINE
  5
2D
  8
0
 10
7.9679999999999991
 20
-0.167500000000017
 30
0.0
 11
9.9770000000000003
 21
-0.167500000000017
 31
0.0
  0
LINE
  5
2E
  8
0
 10
0.6790000000000001
 20
-0.167500000000017
 30
0.0
 11
1.458
 21
-0.167500000000017
 31
0.0
  0
LINE
  5
2F
  8
0
 10
0.29
 20
-0.167500000000016
 30
0.0
 11
0.4610000000000001
 21
-0.167500000000016
 31
0.0
  0
LINE
  5
30
  8
0
 10
0.179
 20
-0.167500000000016
 30
0.0
 11
0.29
 21
-0.167500000000016
 31
0.0
  0
LINE
  5
31
  8
0
 10
2.923999999999999
 20
-0.167500000000015
 30
0.0
 11
3.7090000000000001
 21
-0.167500000000015
 31
0.0
  0
LINE
  5
32
  8
0
 10
2.2570000000000001
 20
-0.167500000000015
 30
0.0
 11
2.923999999999999
 21
-0.167500000000015
 31
0.0
  0
LINE
  5
33
  8
0
 10
1.7019999999999991
 20
-0.167500000000016
 30
0.0
 11
2.2570000000000001
 21
-0.167500000000015
 31
0.0
  0
LINE
  5
34
  8
0
 10
1.25
 20
-0.167500000000016
 30
0.0
 11
1.7019999999999991
 21
-0.167500000000016
 31
0.0
  0
LINE
  5
35
  8
0
 10
0.707
 20
-0.167500000000016
 30
0.0
 11
1.25
 21
-0.167500000000016
 31
0.0
  0
LINE
  5
36
  8
0
 10
0.4610000000000001
 20
-0.167500000000016
 30
0.0
 11
0.707
 21
-0.167500000000016
 31
0.0
  0
LINE
  5
37
  8
0
 10
10.946999999999999
 20
-0.167497000000015
 30
0.0
 11
12.194000000000001
 21
-0.167498000000015
 31
0.0
  0
LINE
  5
38
  8
0
 10
9.7669999999999995
 20
-0.167498000000015
 30
0.0
 11
10.946999999999999
 21
-0.167497000000015
 31
0.0
  0
LINE
  5
39
  8
0
 10
8.6560000000000006
 20
-0.167500000000015
 30
0.0
 11
9.7669999999999995
 21
-0.167498000000015
 31
0.0
  0
LINE
  5
3A
  8
0
 10
7.6180000000000003
 20
-0.167500000000015
 30
0.0
 11
8.6560000000000006
 21
-0.167500000000015
 31
0.0
  0
LINE
  5
3B
  8
0
 10
6.4820000000000002
 20
-0.167500000000015
 30
0.0
 11
7.6180000000000003
 21
-0.167500000000015
 31
0.0
  0
LINE
  5
3C
  8
0
 10
5.4530000000000003
 20
-0.167500000000015
 30
0.0
 11
6.4820000000000002
 21
-0.167500000000015
 31
0.0
  0
LINE
  5
3D
  8
0
 10
4.528999999999999
 20
-0.167500000000015
 30
0.0
 11
5.4530000000000003
 21
-0.167500000000015
 31
0.0
  0
LINE
  5
3E
  8
0
 10
3.7090000000000001
 20
-0.167500000000015
 30
0.0
 11
4.528999999999999
 21
-0.167500000000015
 31
0.0
  0
LINE
  5
3F
  8
0
 10
9.2669999999999995
 20
68.673500000000004
 30
0.0
 11
10.217000000000001
 21
67.844499999999996
 31
0.0
  0
LINE
  5
40
  8
0
 10
0.395
 20
59.266500000000001
 30
0.0
 11
0.471
 21
71.217500000000001
 31
0.0
  0
LINE
  5
41
  8
0
 10
0.063
 20
-0.167500000000017
 30
0.0
 11
0.179
 21
-0.167500000000016
 31
0.0
  0
LINE
  5
42
  8
0
 10
11.529
 20
66.863500000000002
 30
0.0
 11
12.944000000000001
 21
65.973500000000001
 31
0.0
  0
LINE
  5
43
  8
0
 10
11.395099999999999
 20
68.569199999999995
 30
0.0
 11
11.688700000000001
 21
67.902199999999993
 31
0.0
  0
LINE
  5
44
  8
0
 10
8.9529999999999994
 20
68.981499999999997
 30
0.0
 11
9.2669999999999995
 21
68.673500000000004
 31
0.0
  0
LINE
  5
45
  8
0
 10
8.3829999999999991
 20
69.557500000000005
 30
0.0
 11
8.9529999999999994
 21
68.981499999999997
 31
0.0
  0
LINE
  5
46
  8
0
 10
11.152900000000001
 20
69.410200000000003
 30
0.0
 11
11.3416
 21
68.725200000000001
 31
0.0
  0
LINE
  5
47
  8
0
 10
11.3416
 20
68.725200000000001
 30
0.0
 11
11.395099999999999
 21
68.569199999999995
 31
0.0
  0
LINE
  5
48
  8
0
 10
12.035
 20
-0.167500000000017
 30
0.0
 11
14.695
 21
-0.167500000000017
 31
0.0
  0
LINE
  5
49
  8
0
 10
12.194000000000001
 20
-0.167498000000015
 30
0.0
 11
13.503
 21
-0.167500000000015
 31
0.0
  0
LINE
  5
4A
  8
0
 10
12.582599999999999
 20
66.633200000000002
 30
0.0
 11
13.174799999999999
 21
66.044200000000004
 31
0.0
  0
LINE
  5
4B
  8
0
 10
12.0862
 20
67.254199999999983
 30
0.0
 11
12.582599999999999
 21
66.633200000000002
 31
0.0
  0
LINE
  5
4C
  8
0
 10
11.688700000000001
 20
67.902199999999993
 30
0.0
 11
12.0862
 21
67.254199999999983
 31
0.0
  0
LINE
  5
4F
  8
0
 10
11.071199999999999
 20
70.103200000000001
 30
0.0
 11
11.152900000000001
 21
69.410200000000003
 31
0.0
  0
LINE
  5
50
  8
0
 10
11.071199999999999
 20
70.103200000000001
 30
0.0
 11
11.071199999999999
 21
74.961200000000005
 31
0.0
  0
LINE
  5
54
  8
0
 10
12.851000000000001
 20
69.595200000000006
 30
0.0
 11
12.962999999999999
 21
68.967200000000005
 31
0.0
  0
LINE
  5
55
  8
0
 10
12.9061082802548
 20
69.286199999999994
 30
0.0
 11
14.323
 21
69.286199999999994
 31
0.0
  0
LINE
  5
56
  8
0
 10
12.9180501599189
 20
69.219240174740605
 30
0.0
 11
13.081
 21
68.634200000000007
 31
0.0
  0
LINE
  5
57
  8
0
 10
12.847
 20
69.950199999999995
 30
0.0
 11
12.851000000000001
 21
70.308199999999999
 31
0.0
  0
LINE
  5
58
  8
0
 10
12.847
 20
69.950199999999995
 30
0.0
 11
12.851000000000001
 21
69.595200000000006
 31
0.0
  0
LINE
  5
59
  8
0
 10
7.677999999999999
 20
70.347499999999997
 30
0.0
 11
8.3829999999999991
 21
69.557500000000005
 31
0.0
  0
LINE
  5
5B
  8
0
 10
10.986000000000001
 20
70.728499999999997
 30
0.0
 11
11.071199999999999
 21
70.566051999999985
 31
0.0
  0
LINE
  5
5C
  8
0
 10
7.2729999999999988
 20
70.823499999999996
 30
0.0
 11
7.677999999999999
 21
70.347499999999997
 31
0.0
  0
LINE
  5
5D
  8
0
 10
11.071199999999999
 20
70.446200000000005
 30
0.0
 11
11.077999999999999
 21
70.274199999999993
 31
0.0
  0
LINE
  5
5E
  8
0
 10
11.071199999999999
 20
70.446200000000005
 30
0.0
 11
11.071199999999999
 21
75.171744210526285
 31
0.0
  0
LINE
  5
5F
  8
0
 10
12.851000000000001
 20
70.308199999999999
 30
0.0
 11
12.962999999999999
 21
70.934200000000004
 31
0.0
  0
LINE
  5
64
  8
0
 10
13.014992146706501
 20
65.936250449057894
 30
0.0
 11
13.841937338465801
 21
65.502352638161398
 31
0.0
  0
LINE
  5
65
  8
0
 10
13.014992146706501
 20
65.936250449057894
 30
0.0
 11
13.841937338465801
 21
65.502352638161398
 31
0.0
  0
LINE
  5
66
  8
0
 10
13.174799999999999
 20
66.044200000000004
 30
0.0
 11
13.8569
 21
65.490200000000002
 31
0.0
  0
LINE
  5
67
  8
0
 10
13.177899999999999
 20
68.350200000000001
 30
0.0
 11
13.495699999999999
 21
67.751199999999997
 31
0.0
  0
LINE
  5
68
  8
0
 10
12.962999999999999
 20
68.967200000000005
 30
0.0
 11
13.177899999999999
 21
68.350200000000001
 31
0.0
  0
LINE
  5
69
  8
0
 10
13.081
 20
68.634200000000007
 30
0.0
 11
13.3736
 21
67.996200000000002
 31
0.0
  0
LINE
  5
6A
  8
0
 10
13.503
 20
-0.167500000000015
 30
0.0
 11
14.871
 21
-0.167500000000015
 31
0.0
  0
LINE
  5
6B
  8
0
 10
13.8569
 20
65.490200000000002
 30
0.0
 11
14.621700000000001
 21
64.978200000000001
 31
0.0
  0
LINE
  5
6C
  8
0
 10
13.910399999999999
 20
67.172200000000004
 30
0.0
 11
14.4199
 21
66.624200000000002
 31
0.0
  0
LINE
  5
6D
  8
0
 10
14.2857
 20
66.797200000000004
 30
0.0
 11
14.8931
 21
66.249200000000002
 31
0.0
  0
LINE
  5
6E
  8
0
 10
13.495699999999999
 20
67.751199999999997
 30
0.0
 11
13.910399999999999
 21
67.172200000000004
 31
0.0
  0
LINE
  5
6F
  8
0
 10
13.777200000000001
 20
67.382199999999997
 30
0.0
 11
14.2857
 21
66.797200000000004
 31
0.0
  0
LINE
  5
70
  8
0
 10
13.3736
 20
67.996200000000002
 30
0.0
 11
13.777200000000001
 21
67.382199999999997
 31
0.0
  0
LINE
  5
71
  8
0
 10
14.323
 20
69.286199999999994
 30
0.0
 11
14.323
 21
70.696200000000005
 31
0.0
  0
LINE
  5
72
  8
0
 10
14.323
 20
69.286199999999994
 30
0.0
 11
14.4915
 21
68.736199999999997
 31
0.0
  0
LINE
  5
73
  8
0
 10
12.9204185303514
 20
70.696200000000005
 30
0.0
 11
14.323
 21
70.696200000000005
 31
0.0
  0
LINE
  5
74
  8
0
 10
0.471
 20
71.217500000000001
 30
0.0
 11
0.534
 21
83.214500000000001
 31
0.0
  0
LINE
  5
75
  8
0
 10
10.676
 20
71.614500000000007
 30
0.0
 11
10.986000000000001
 21
70.728499999999997
 31
0.0
  0
LINE
  5
76
  8
0
 10
12.962999999999999
 20
70.934200000000004
 30
0.0
 11
13.177899999999999
 21
71.550200000000004
 31
0.0
  0
LINE
  5
77
  8
0
 10
13.177899999999999
 20
71.550200000000004
 30
0.0
 11
13.495699999999999
 21
72.152199999999993
 31
0.0
  0
LINE
  5
79
  8
0
 10
10.504
 20
72.735500000000002
 30
0.0
 11
10.587999999999999
 21
73.853499999999997
 31
0.0
  0
LINE
  5
7A
  8
0
 10
10.504
 20
72.735500000000002
 30
0.0
 11
10.676
 21
71.614500000000007
 31
0.0
  0
LINE
  5
7C
  8
0
 10
10.959
 20
74.987499999999997
 30
0.0
 11
11.624000000000001
 21
76.079499999999996
 31
0.0
  0
LINE
  5
7D
  8
0
 10
10.587999999999999
 20
73.853499999999997
 30
0.0
 11
10.959
 21
74.987499999999997
 31
0.0
  0
LINE
  5
7E
  8
0
 10
5.4470000000000001
 20
73.305499999999995
 30
0.0
 11
5.948999999999999
 21
72.586500000000001
 31
0.0
  0
LINE
  5
80
  8
0
 10
11.071199999999999
 20
74.961200000000005
 30
0.0
 11
11.071199999999999
 21
70.103200000000001
 31
0.0
  0
LINE
  5
81
  8
0
 10
0.658
 20
98.838499999999996
 30
0.0
 11
0.737
 21
99.093500000000006
 31
0.0
  0
LINE
  5
82
  8
0
 10
0.617
 20
98.295500000000004
 30
0.0
 11
0.658
 21
98.838499999999996
 31
0.0
  0
LINE
  5
83
  8
0
 10
0.534
 20
83.214500000000001
 30
0.0
 11
0.617
 21
98.295500000000004
 31
0.0
  0
LINE
  5
84
  8
0
 10
0.6791000000000002
 20
106.0425
 30
0.0
 11
0.7561
 21
119.5025
 31
0.0
  0
LINE
  5
85
  8
0
 10
0.6791000000000002
 20
106.0425
 30
0.0
 11
0.6947
 21
104.84650000000001
 31
0.0
  0
LINE
  5
86
  8
0
 10
0.6684000000000001
 20
128.09549999999999
 30
0.0
 11
0.6772000000000001
 21
128.3605
 31
0.0
  0
LINE
  5
87
  8
0
 10
0.6684000000000001
 20
128.09549999999999
 30
0.0
 11
0.7603
 21
124.0265
 31
0.0
  0
LINE
  5
88
  8
0
 10
0.6947
 20
104.84650000000001
 30
0.0
 11
0.7737000000000001
 21
103.2045
 31
0.0
  0
LINE
  5
89
  8
0
 10
0.779
 20
99.222499999999997
 30
0.0
 11
0.9929999999999999
 21
99.542500000000004
 31
0.0
  0
LINE
  5
8A
  8
0
 10
0.737
 20
99.093500000000006
 30
0.0
 11
0.779
 21
99.222499999999997
 31
0.0
  0
LINE
  5
8B
  8
0
 10
0.7737000000000001
 20
103.2045
 30
0.0
 11
0.8387
 21
102.4165
 31
0.0
  0
LINE
  5
8C
  8
0
 10
1.163999999999999
 20
99.735500000000016
 30
0.0
 11
1.4790000000000001
 21
99.9465
 31
0.0
  0
LINE
  5
8D
  8
0
 10
0.9929999999999999
 20
99.542500000000004
 30
0.0
 11
1.163999999999999
 21
99.735500000000016
 31
0.0
  0
LINE
  5
8E
  8
0
 10
1.4790000000000001
 20
99.9465
 30
0.0
 11
1.825
 21
100.1335
 31
0.0
  0
LINE
  5
8F
  8
0
 10
1.325299999999999
 20
100.6875
 30
0.0
 11
1.7416999999999989
 21
100.2805
 31
0.0
  0
LINE
  5
90
  8
0
 10
0.9919
 20
101.2355
 30
0.0
 11
1.028999999999999
 21
101.04649999999999
 31
0.0
  0
LINE
  5
91
  8
0
 10
1.028999999999999
 20
101.04649999999999
 30
0.0
 11
1.1431999999999991
 21
100.86750000000001
 31
0.0
  0
LINE
  5
92
  8
0
 10
1.1431999999999991
 20
100.86750000000001
 30
0.0
 11
1.325299999999999
 21
100.6875
 31
0.0
  0
LINE
  5
93
  8
0
 10
0.8387
 20
102.4165
 30
0.0
 11
0.9919
 21
101.2355
 31
0.0
  0
LINE
  5
94
  8
0
 10
0.7603
 20
124.0265
 30
0.0
 11
0.77123785298272
 21
121.331363866168
 31
0.0
  0
LINE
  5
95
  8
0
 10
0.733
 20
128.73949999999999
 30
0.0
 11
0.8896
 21
129.5865
 31
0.0
  0
LINE
  5
96
  8
0
 10
0.7991503118910521
 20
129.06914356777199
 30
0.0
 11
0.8896
 21
129.5865
 31
0.0
  0
LINE
  5
97
  8
0
 10
0.7282
 20
128.71250000000001
 30
0.0
 11
0.8896
 21
129.5865
 31
0.0
  0
LINE
  5
98
  8
0
 10
1.1467000000000001
 20
130.41149999999999
 30
0.0
 11
1.6214999999999991
 21
132.0275
 31
0.0
  0
LINE
  5
99
  8
0
 10
0.8896
 20
129.5865
 30
0.0
 11
1.1467000000000001
 21
130.41149999999999
 31
0.0
  0
LINE
  5
9A
  8
0
 10
2.456999999999999
 20
98.5565
 30
0.0
 11
2.633
 21
98.962500000000006
 31
0.0
  0
LINE
  5
9B
  8
0
 10
2.456999999999999
 20
98.5565
 30
0.0
 11
2.5800000000000001
 21
98.344499999999996
 31
0.0
  0
LINE
  5
9C
  8
0
 10
2.5800000000000001
 20
98.344499999999996
 30
0.0
 11
2.8530000000000002
 21
98.146500000000003
 31
0.0
  0
LINE
  5
9D
  8
0
 10
4.7839999999999989
 20
97.598500000000001
 30
0.0
 11
5.9759999999999991
 21
97.429500000000004
 31
0.0
  0
LINE
  5
9E
  8
0
 10
3.8130000000000002
 20
97.800500000000014
 30
0.0
 11
4.7839999999999989
 21
97.598500000000001
 31
0.0
  0
LINE
  5
9F
  8
0
 10
2.8530000000000002
 20
98.146500000000003
 30
0.0
 11
3.8130000000000002
 21
97.800500000000014
 31
0.0
  0
LINE
  5
A0
  8
0
 10
2.6511841719168689
 20
98.292871919269103
 30
0.0
 11
2.6897000000000002
 21
99.160700000000006
 31
0.0
  0
LINE
  5
A1
  8
0
 10
2.633
 20
98.962500000000006
 30
0.0
 11
2.6822055991983991
 21
98.991838215441007
 31
0.0
  0
LINE
  5
A2
  8
0
 10
2.633
 20
98.962500000000006
 30
0.0
 11
2.6822055991983991
 21
98.991838215441007
 31
0.0
  0
LINE
  5
A3
  8
0
 10
2.6897000000000002
 20
99.160700000000006
 30
0.0
 11
2.76595433872839
 21
99.728192137079205
 31
0.0
  0
LINE
  5
A4
  8
0
 10
1.825
 20
100.1335
 30
0.0
 11
1.92907580316544
 21
100.167092783992
 31
0.0
  0
LINE
  5
A5
  8
0
 10
1.7416999999999989
 20
100.2805
 30
0.0
 11
2.405899999999999
 21
99.878500000000017
 31
0.0
  0
LINE
  5
A6
  8
0
 10
2.405899999999999
 20
99.878500000000017
 30
0.0
 11
3.1528
 21
99.566699999999997
 31
0.0
  0
LINE
  5
A7
  8
0
 10
3.1528
 20
99.566699999999997
 30
0.0
 11
4.121999999999999
 21
99.266800000000003
 31
0.0
  0
LINE
  5
A8
  8
0
 10
4.121999999999999
 20
99.266800000000003
 30
0.0
 11
5.3288999999999991
 21
98.983699999999985
 31
0.0
  0
LINE
  5
A9
  8
0
 10
5.3288999999999991
 20
98.983699999999985
 30
0.0
 11
5.5368000000000004
 21
98.936199999999999
 31
0.0
  0
LINE
  5
AA
  8
0
 10
5.5368000000000004
 20
98.936199999999999
 30
0.0
 11
6.9783999999999988
 21
98.676500000000004
 31
0.0
  0
LINE
  5
AB
  8
0
 10
1.6214999999999991
 20
132.0275
 30
0.0
 11
1.871699999999999
 21
133.0155
 31
0.0
  0
LINE
  5
AC
  8
0
 10
2.971099999999999
 20
135.9605
 30
0.0
 11
3.1524000000000001
 21
136.25649999999999
 31
0.0
  0
LINE
  5
AD
  8
0
 10
3.1524000000000001
 20
136.25649999999999
 30
0.0
 11
3.3094000000000001
 21
136.44049999999999
 31
0.0
  0
LINE
  5
AE
  8
0
 10
2.8643999999999989
 20
135.7525
 30
0.0
 11
2.971099999999999
 21
135.9605
 31
0.0
  0
LINE
  5
AF
  8
0
 10
3.3094000000000001
 20
136.44049999999999
 30
0.0
 11
3.4599999999999991
 21
136.58949999999999
 31
0.0
  0
LINE
  5
B0
  8
0
 10
3.662599999999999
 20
136.72749999999999
 30
0.0
 11
4.0031999999999988
 21
136.94450000000001
 31
0.0
  0
LINE
  5
B1
  8
0
 10
3.4599999999999991
 20
136.58949999999999
 30
0.0
 11
3.662599999999999
 21
136.72749999999999
 31
0.0
  0
LINE
  5
B2
  8
0
 10
2.466899999999999
 20
134.83750000000001
 30
0.0
 11
2.8643999999999989
 21
135.7525
 31
0.0
  0
LINE
  5
B3
  8
0
 10
4.844199999999999
 20
137.23750000000001
 30
0.0
 11
4.9409000000000001
 21
137.27449999999999
 31
0.0
  0
LINE
  5
B4
  8
0
 10
4.5144999999999991
 20
137.1455
 30
0.0
 11
4.844199999999999
 21
137.23750000000001
 31
0.0
  0
LINE
  5
B5
  8
0
 10
4.0031999999999988
 20
136.94450000000001
 30
0.0
 11
4.5144999999999991
 21
137.1455
 31
0.0
  0
LINE
  5
B6
  8
0
 10
2.129599999999999
 20
133.8595
 30
0.0
 11
2.466899999999999
 21
134.83750000000001
 31
0.0
  0
LINE
  5
B7
  8
0
 10
1.871699999999999
 20
133.0155
 30
0.0
 11
2.129599999999999
 21
133.8595
 31
0.0
  0
LINE
  5
B8
  8
0
 10
0.6833000000000001
 20
128.40649999999999
 30
0.0
 11
0.7282
 21
128.71250000000001
 31
0.0
  0
LINE
  5
B9
  8
0
 10
4.9409000000000001
 20
137.27449999999999
 30
0.0
 11
5.5403999999999991
 21
137.41149999999999
 31
0.0
  0
LINE
  5
BA
  8
0
 10
5.9759999999999991
 20
97.429500000000004
 30
0.0
 11
7.673
 21
97.265500000000003
 31
0.0
  0
LINE
  5
BB
  8
0
 10
6.9783999999999988
 20
98.676500000000004
 30
0.0
 11
8.6448999999999998
 21
98.444299999999998
 31
0.0
  0
LINE
  5
BC
  8
0
 10
5.5403999999999991
 20
137.41149999999999
 30
0.0
 11
6.289299999999999
 21
137.5325
 31
0.0
  0
LINE
  5
BD
  8
0
 10
6.289299999999999
 20
137.5325
 30
0.0
 11
7.2248000000000001
 21
137.6395
 31
0.0
  0
LINE
  5
BE
  8
0
 10
7.673
 20
97.265500000000003
 30
0.0
 11
9.6519999999999992
 21
97.138499999999993
 31
0.0
  0
LINE
  5
BF
  8
0
 10
8.6448999999999998
 20
98.444299999999998
 30
0.0
 11
10.5101
 21
98.243499999999997
 31
0.0
  0
LINE
  5
C0
  8
0
 10
7.2248000000000001
 20
137.6395
 30
0.0
 11
8.2150999999999996
 21
137.71950000000001
 31
0.0
  0
LINE
  5
C1
  8
0
 10
11.904
 20
97.042500000000004
 30
0.0
 11
14.493
 21
96.971500000000006
 31
0.0
  0
LINE
  5
C2
  8
0
 10
11.624000000000001
 20
76.079499999999996
 30
0.0
 11
12.566000000000001
 21
77.097499999999997
 31
0.0
  0
LINE
  5
C3
  8
0
 10
9.6519999999999992
 20
97.138499999999993
 30
0.0
 11
11.904
 21
97.042500000000004
 31
0.0
  0
LINE
  5
C4
  8
0
 10
12.566000000000001
 20
77.097499999999997
 30
0.0
 11
13.773
 21
78.032499999999999
 31
0.0
  0
LINE
  5
C5
  8
0
 10
12.259499999999999
 20
98.096699999999998
 30
0.0
 11
14.107699999999999
 21
97.975700000000003
 31
0.0
  0
LINE
  5
C6
  8
0
 10
10.5101
 20
98.243499999999997
 30
0.0
 11
12.259499999999999
 21
98.096699999999998
 31
0.0
  0
LINE
  5
C7
  8
0
 10
9.2479497687772803
 20
137.77898959537501
 30
0.0
 11
9.8992000000000004
 21
137.81649999999999
 31
0.0
  0
LINE
  5
C8
  8
0
 10
9.8992000000000004
 20
137.81649999999999
 30
0.0
 11
10.990600000000001
 21
137.87649999999999
 31
0.0
  0
LINE
  5
C9
  8
0
 10
9.2479497687772696
 20
137.77898959537501
 30
0.0
 11
9.8992000000000004
 21
137.81649999999999
 31
0.0
  0
LINE
  5
CA
  8
0
 10
12.178000000000001
 20
137.9255
 30
0.0
 11
13.337899999999999
 21
137.9795
 31
0.0
  0
LINE
  5
CB
  8
0
 10
10.990600000000001
 20
137.87649999999999
 30
0.0
 11
12.178000000000001
 21
137.9255
 31
0.0
  0
LINE
  5
CC
  8
0
 10
13.773
 20
78.032499999999999
 30
0.0
 11
15.175000000000001
 21
78.833500000000001
 31
0.0
  0
LINE
  5
CD
  8
0
 10
13.337899999999999
 20
137.9795
 30
0.0
 11
14.4231
 21
138.0205
 31
0.0
  0
LINE
  5
CE
  8
0
 10
11.071199999999999
 20
75.171744210526285
 30
0.0
 11
11.071199999999999
 21
70.446200000000005
 31
0.0
  0
LINE
  5
CF
  8
0
 10
13.910399999999999
 20
72.729200000000006
 30
0.0
 11
14.4199
 21
73.277199999999993
 31
0.0
  0
LINE
  5
D0
  8
0
 10
13.495699999999999
 20
72.152199999999993
 30
0.0
 11
13.910399999999999
 21
72.729200000000006
 31
0.0
  0
LINE
  5
D1
  8
0
 10
14.107699999999999
 20
97.975700000000003
 30
0.0
 11
16.032299999999999
 21
97.880600000000015
 31
0.0
  0
LINE
  5
D2
  8
0
 10
12.958169336114301
 20
70.907200039353
 30
0.0
 11
12.9763401526415
 21
70.972438874021194
 31
0.0
  0
LINE
  5
D3
  8
0
 10
14.4199
 20
66.624200000000002
 30
0.0
 11
15.0192
 21
66.109200000000001
 31
0.0
  0
LINE
  5
D4
  8
0
 10
14.695
 20
-0.167500000000017
 30
0.0
 11
17.416
 21
-0.167500000000017
 31
0.0
  0
LINE
  5
D5
  8
0
 10
14.871
 20
-0.167500000000015
 30
0.0
 11
16.143000000000001
 21
-0.167500000000015
 31
0.0
  0
LINE
  5
D6
  8
0
 10
14.621700000000001
 20
64.978200000000001
 30
0.0
 11
15.463100000000001
 21
64.513199999999983
 31
0.0
  0
LINE
  5
D7
  8
0
 10
14.8931
 20
66.249200000000002
 30
0.0
 11
15.593299999999999
 21
65.742199999999997
 31
0.0
  0
LINE
  5
D8
  8
0
 10
14.752800000000001
 20
68.200199999999995
 30
0.0
 11
15.104900000000001
 21
67.683199999999999
 31
0.0
  0
LINE
  5
D9
  8
0
 10
14.4915
 20
68.736199999999997
 30
0.0
 11
14.752800000000001
 21
68.200199999999995
 31
0.0
  0
LINE
  5
DA
  8
0
 10
14.470148482410499
 20
71.176506619144106
 30
0.0
 11
14.6035
 21
70.8292
 31
0.0
  0
LINE
  5
DB
  8
0
 10
14.6035
 20
70.8292
 30
0.0
 11
14.935499999999999
 21
70.262200000000007
 31
0.0
  0
LINE
  5
DC
  8
0
 10
16.143000000000001
 20
-0.167500000000015
 30
0.0
 11
17.454000000000001
 21
-0.167500000000015
 31
0.0
  0
LINE
  5
DD
  8
0
 10
17.416
 20
-0.167500000000017
 30
0.0
 11
20.187999999999999
 21
-0.167500000000017
 31
0.0
  0
LINE
  5
DE
  8
0
 10
18.798999999999999
 20
-0.167500000000015
 30
0.0
 11
20.175000000000001
 21
-0.167500000000015
 31
0.0
  0
LINE
  5
DF
  8
0
 10
17.454000000000001
 20
-0.167500000000015
 30
0.0
 11
18.798999999999999
 21
-0.167500000000015
 31
0.0
  0
LINE
  5
E0
  8
0
 10
20.187999999999999
 20
-0.167500000000017
 30
0.0
 11
23.0001
 21
-0.167500000000017
 31
0.0
  0
LINE
  5
E1
  8
0
 10
20.175000000000001
 20
-0.167500000000015
 30
0.0
 11
21.577000000000002
 21
-0.167500000000015
 31
0.0
  0
LINE
  5
E2
  8
0
 10
20.563300000000002
 20
62.98619999999999
 30
0.0
 11
21.671099999999999
 21
62.872199999999999
 31
0.0
  0
LINE
  5
E3
  8
0
 10
19.477699999999999
 20
63.162199999999999
 30
0.0
 11
20.563300000000002
 21
62.98619999999999
 31
0.0
  0
LINE
  5
E4
  8
0
 10
18.4254
 20
63.401200000000003
 30
0.0
 11
19.477699999999999
 21
63.162199999999999
 31
0.0
  0
LINE
  5
E5
  8
0
 10
17.415400000000002
 20
63.700200000000002
 30
0.0
 11
18.4254
 21
63.401200000000003
 31
0.0
  0
LINE
  5
E6
  8
0
 10
20.074999999999999
 20
64.001199999999997
 30
0.0
 11
21.079899999999999
 21
63.847200000000001
 31
0.0
  0
LINE
  5
E7
  8
0
 10
21.079899999999999
 20
63.847200000000001
 30
0.0
 11
22.106999999999999
 21
63.7562
 31
0.0
  0
LINE
  5
E8
  8
0
 10
16.4559
 20
64.055199999999999
 30
0.0
 11
17.415400000000002
 21
63.700200000000002
 31
0.0
  0
LINE
  5
E9
  8
0
 10
15.556900000000001
 20
64.464200000000005
 30
0.0
 11
16.4559
 21
64.055199999999999
 31
0.0
  0
LINE
  5
EA
  8
0
 10
15.463100000000001
 20
64.513199999999983
 30
0.0
 11
15.556900000000001
 21
64.464200000000005
 31
0.0
  0
LINE
  5
EB
  8
0
 10
19.099299999999999
 20
64.216200000000001
 30
0.0
 11
20.074999999999999
 21
64.001199999999997
 31
0.0
  0
LINE
  5
EC
  8
0
 10
18.165099999999999
 20
64.490200000000002
 30
0.0
 11
19.099299999999999
 21
64.216200000000001
 31
0.0
  0
LINE
  5
ED
  8
0
 10
17.281199999999998
 20
64.819199999999995
 30
0.0
 11
18.165099999999999
 21
64.490200000000002
 31
0.0
  0
LINE
  5
EE
  8
0
 10
18.165099999999999
 20
64.531199999999998
 30
0.0
 11
19.115500000000001
 21
64.253200000000007
 31
0.0
  0
LINE
  5
EF
  8
0
 10
19.115500000000001
 20
64.253200000000007
 30
0.0
 11
20.107299999999999
 21
64.035200000000003
 31
0.0
  0
LINE
  5
F0
  8
0
 10
20.107299999999999
 20
64.035200000000003
 30
0.0
 11
21.130299999999998
 21
63.882199999999997
 31
0.0
  0
LINE
  5
F1
  8
0
 10
21.577000000000002
 20
-0.167500000000015
 30
0.0
 11
23.0
 21
-0.167500000000015
 31
0.0
  0
LINE
  5
F2
  8
0
 10
21.671099999999999
 20
62.872199999999999
 30
0.0
 11
22.7911
 21
62.8232
 31
0.0
  0
LINE
  5
F3
  8
0
 10
21.130299999999998
 20
63.882199999999997
 30
0.0
 11
22.175599999999999
 21
63.793199999999992
 31
0.0
  0
LINE
  5
F4
  8
0
 10
16.4559
 20
65.202200000000005
 30
0.0
 11
17.281199999999998
 21
64.819199999999995
 31
0.0
  0
LINE
  5
F5
  8
0
 10
16.3782
 20
65.283199999999994
 30
0.0
 11
17.238900000000001
 21
64.878200000000007
 31
0.0
  0
LINE
  5
F6
  8
0
 10
17.238900000000001
 20
64.878200000000007
 30
0.0
 11
18.165099999999999
 21
64.531199999999998
 31
0.0
  0
LINE
  5
F7
  8
0
 10
15.699199999999999
 20
65.633200000000002
 30
0.0
 11
16.4559
 21
65.202200000000005
 31
0.0
  0
LINE
  5
F8
  8
0
 10
15.593299999999999
 20
65.742199999999997
 30
0.0
 11
16.3782
 21
65.283199999999994
 31
0.0
  0
LINE
  5
F9
  8
0
 10
15.0192
 20
66.109200000000001
 30
0.0
 11
15.699199999999999
 21
65.633200000000002
 31
0.0
  0
LINE
  5
FA
  8
0
 10
16.0655
 20
66.730199999999996
 30
0.0
 11
16.6617
 21
66.304199999999994
 31
0.0
  0
LINE
  5
FB
  8
0
 10
16.6617
 20
66.304199999999994
 30
0.0
 11
17.328700000000001
 21
65.918199999999999
 31
0.0
  0
LINE
  5
FC
  8
0
 10
17.328700000000001
 20
65.918199999999999
 30
0.0
 11
18.0581
 21
65.577200000000005
 31
0.0
  0
LINE
  5
FD
  8
0
 10
18.0581
 20
65.577200000000005
 30
0.0
 11
18.842099999999999
 21
65.283199999999994
 31
0.0
  0
LINE
  5
FE
  8
0
 10
18.842099999999999
 20
65.283199999999994
 30
0.0
 11
19.751100000000001
 21
65.021199999999993
 31
0.0
  0
LINE
  5
FF
  8
0
 10
19.751100000000001
 20
65.021199999999993
 30
0.0
 11
20.703600000000002
 21
64.824200000000005
 31
0.0
  0
LINE
  5
100
  8
0
 10
20.703600000000002
 20
64.824200000000005
 30
0.0
 11
21.6873
 21
64.694199999999995
 31
0.0
  0
LINE
  5
102
  8
0
 10
22.106999999999999
 20
63.7562
 30
0.0
 11
23.071200000000001
 21
63.730200000000004
 31
0.0
  0
LINE
  5
103
  8
0
 10
22.175599999999999
 20
63.793199999999992
 30
0.0
 11
23.071200000000001
 21
63.773200000000003
 31
0.0
  0
LINE
  5
105
  8
0
 10
21.6873
 20
64.694199999999995
 30
0.0
 11
22.688199999999998
 21
64.632199999999983
 31
0.0
  0
LINE
  5
106
  8
0
 10
15.5449
 20
67.191199999999995
 30
0.0
 11
16.0655
 21
66.730199999999996
 31
0.0
  0
LINE
  5
107
  8
0
 10
18.0016
 20
67.9482
 30
0.0
 11
18.842099999999999
 21
67.631200000000007
 31
0.0
  0
LINE
  5
108
  8
0
 10
18.842099999999999
 20
67.631200000000007
 30
0.0
 11
19.736000000000001
 21
67.373199999999997
 31
0.0
  0
LINE
  5
109
  8
0
 10
15.104900000000001
 20
67.683199999999999
 30
0.0
 11
15.5449
 21
67.191199999999995
 31
0.0
  0
LINE
  5
10A
  8
0
 10
19.736000000000001
 20
67.373199999999997
 30
0.0
 11
20.6723
 21
67.177199999999985
 31
0.0
  0
LINE
  5
10B
  8
0
 10
20.6723
 20
67.177199999999985
 30
0.0
 11
21.6389
 21
67.046199999999999
 31
0.0
  0
LINE
  5
10C
  8
0
 10
21.6389
 20
67.046199999999999
 30
0.0
 11
22.622599999999998
 21
66.981200000000001
 31
0.0
  0
LINE
  5
10D
  8
0
 10
23.0001
 20
-0.167500000000017
 30
0.0
 11
25.812000000000001
 21
-0.167500000000017
 31
0.0
  0
LINE
  5
10E
  8
0
 10
23.0
 20
-0.167500000000015
 30
0.0
 11
24.422999999999998
 21
-0.167500000000015
 31
0.0
  0
LINE
  5
115
  8
0
 10
22.7911
 20
62.8232
 30
0.0
 11
23.071200000000001
 21
62.827199999999998
 31
0.0
  0
LINE
  5
117
  8
0
 10
24.422999999999998
 20
-0.167500000000015
 30
0.0
 11
25.824999999999999
 21
-0.167500000000015
 31
0.0
  0
LINE
  5
119
  8
0
 10
25.812000000000001
 20
-0.167500000000017
 30
0.0
 11
28.584
 21
-0.167500000000017
 31
0.0
  0
LINE
  5
11A
  8
0
 10
27.201000000000001
 20
-0.167500000000015
 30
0.0
 11
28.545999999999999
 21
-0.167500000000015
 31
0.0
  0
LINE
  5
11B
  8
0
 10
25.824999999999999
 20
-0.167500000000015
 30
0.0
 11
27.201000000000001
 21
-0.167500000000015
 31
0.0
  0
LINE
  5
11E
  8
0
 10
33.965000000000003
 20
-0.167500000000017
 30
0.0
 11
36.023000000000003
 21
-0.167500000000017
 31
0.0
  0
LINE
  5
11F
  8
0
 10
31.305
 20
-0.167500000000017
 30
0.0
 11
33.965000000000003
 21
-0.167500000000017
 31
0.0
  0
LINE
  5
120
  8
0
 10
28.584
 20
-0.167500000000017
 30
0.0
 11
31.305
 21
-0.167500000000017
 31
0.0
  0
LINE
  5
121
  8
0
 10
38.031999999999996
 20
-0.167500000000017
 30
0.0
 11
39.439999999999998
 21
-0.167500000000017
 31
0.0
  0
LINE
  5
122
  8
0
 10
39.439999999999998
 20
-0.167500000000017
 30
0.0
 11
40.784999999999997
 21
-0.167500000000017
 31
0.0
  0
LINE
  5
123
  8
0
 10
42.183
 20
-0.167500000000017
 30
0.0
 11
43.393999999999998
 21
-0.167500000000017
 31
0.0
  0
LINE
  5
124
  8
0
 10
40.784999999999997
 20
-0.167500000000017
 30
0.0
 11
42.183
 21
-0.167500000000017
 31
0.0
  0
LINE
  5
125
  8
0
 10
43.393999999999998
 20
-0.167500000000017
 30
0.0
 11
44.542000000000002
 21
-0.167500000000017
 31
0.0
  0
LINE
  5
126
  8
0
 10
44.298000000000002
 20
-0.167500000000016
 30
0.0
 11
44.75
 21
-0.167500000000016
 31
0.0
  0
LINE
  5
127
  8
0
 10
43.743000000000002
 20
-0.167500000000015
 30
0.0
 11
44.298000000000002
 21
-0.167500000000016
 31
0.0
  0
LINE
  5
128
  8
0
 10
43.075999999999993
 20
-0.167500000000015
 30
0.0
 11
43.743000000000002
 21
-0.167500000000015
 31
0.0
  0
LINE
  5
129
  8
0
 10
42.29099999999999
 20
-0.167500000000015
 30
0.0
 11
43.075999999999993
 21
-0.167500000000015
 31
0.0
  0
LINE
  5
12A
  8
0
 10
41.470999999999997
 20
-0.167500000000015
 30
0.0
 11
42.29099999999999
 21
-0.167500000000015
 31
0.0
  0
LINE
  5
12B
  8
0
 10
40.54699999999999
 20
-0.167500000000015
 30
0.0
 11
41.470999999999997
 21
-0.167500000000015
 31
0.0
  0
LINE
  5
12C
  8
0
 10
39.518000000000001
 20
-0.167500000000015
 30
0.0
 11
40.54699999999999
 21
-0.167500000000015
 31
0.0
  0
LINE
  5
12D
  8
0
 10
38.381999999999998
 20
-0.167500000000015
 30
0.0
 11
39.518000000000001
 21
-0.167500000000015
 31
0.0
  0
LINE
  5
12E
  8
0
 10
37.344000000000001
 20
-0.167500000000015
 30
0.0
 11
38.381999999999998
 21
-0.167500000000015
 31
0.0
  0
LINE
  5
12F
  8
0
 10
36.232999999999997
 20
-0.167500000000015
 30
0.0
 11
37.344000000000001
 21
-0.167500000000015
 31
0.0
  0
LINE
  5
130
  8
0
 10
35.052999999999997
 20
-0.167500000000015
 30
0.0
 11
36.232999999999997
 21
-0.167500000000015
 31
0.0
  0
LINE
  5
131
  8
0
 10
33.805999999999997
 20
-0.167500000000015
 30
0.0
 11
35.052999999999997
 21
-0.167500000000015
 31
0.0
  0
LINE
  5
132
  8
0
 10
32.497
 20
-0.167500000000015
 30
0.0
 11
33.805999999999997
 21
-0.167500000000015
 31
0.0
  0
LINE
  5
133
  8
0
 10
31.129000000000001
 20
-0.167500000000015
 30
0.0
 11
32.497
 21
-0.167500000000015
 31
0.0
  0
LINE
  5
134
  8
0
 10
29.856999999999999
 20
-0.167500000000015
 30
0.0
 11
31.129000000000001
 21
-0.167500000000015
 31
0.0
  0
LINE
  5
135
  8
0
 10
28.545999999999999
 20
-0.167500000000015
 30
0.0
 11
29.856999999999999
 21
-0.167500000000015
 31
0.0
  0
LINE
  5
136
  8
0
 10
36.023000000000003
 20
-0.167500000000017
 30
0.0
 11
38.031999999999996
 21
-0.167500000000017
 31
0.0
  0
LINE
  5
137
  8
0
 10
45.698999999999991
 20
-0.167500000000017
 30
0.0
 11
45.892000000000003
 21
-0.167500000000017
 31
0.0
  0
LINE
  5
138
  8
0
 10
45.320999999999991
 20
-0.167500000000017
 30
0.0
 11
45.698999999999991
 21
-0.167500000000017
 31
0.0
  0
LINE
  5
139
  8
0
 10
45.709000000000003
 20
-0.167500000000016
 30
0.0
 11
45.820999999999991
 21
-0.167500000000016
 31
0.0
  0
LINE
  5
13A
  8
0
 10
45.292999999999999
 20
-0.167500000000016
 30
0.0
 11
45.539000000000001
 21
-0.167500000000016
 31
0.0
  0
LINE
  5
13B
  8
0
 10
44.75
 20
-0.167500000000016
 30
0.0
 11
45.292999999999999
 21
-0.167500000000016
 31
0.0
  0
LINE
  5
13C
  8
0
 10
45.539000000000001
 20
-0.167500000000016
 30
0.0
 11
45.709000000000003
 21
-0.167500000000016
 31
0.0
  0
LINE
  5
13D
  8
0
 10
44.542000000000002
 20
-0.167500000000017
 30
0.0
 11
45.320999999999991
 21
-0.167500000000017
 31
0.0
  0
LINE
  5
140
  8
0
 10
45.892000000000003
 20
-0.167500000000017
 30
0.0
 11
45.945
 21
-0.167500000000017
 31
0.0
  0
LINE
  5
141
  8
0
 10
45.820999999999991
 20
-0.167500000000016
 30
0.0
 11
45.936
 21
-0.167500000000017
 31
0.0
  0
LINE
  5
183
  8
0
 10
22.688199999999998
 20
64.632199999999983
 30
0.0
 11
23.071200000000001
 21
64.635199999999983
 31
0.0
  0
LINE
  5
184
  8
0
 10
22.622599999999998
 20
66.981200000000001
 30
0.0
 11
23.071200000000001
 21
66.983199999999997
 31
0.0
  0
LINE
  5
185
  8
0
 10
15.369300000000001
 20
69.722200000000001
 30
0.0
 11
15.9
 21
69.214200000000005
 31
0.0
  0
LINE
  5
186
  8
0
 10
15.9
 20
69.214200000000005
 30
0.0
 11
16.520499999999998
 21
68.745199999999997
 31
0.0
  0
LINE
  5
1B7
  8
0
 10
16.520499999999998
 20
68.745199999999997
 30
0.0
 11
17.223700000000001
 21
68.322199999999995
 31
0.0
  0
LINE
  5
1B8
  8
0
 10
17.223700000000001
 20
68.322199999999995
 30
0.0
 11
18.0016
 21
67.9482
 31
0.0
  0
LINE
  5
1B9
  8
0
 10
14.935499999999999
 20
70.262200000000007
 30
0.0
 11
15.369300000000001
 21
69.722200000000001
 31
0.0
  0
LINE
  5
1BA
  8
0
 10
14.493
 20
96.971500000000006
 30
0.0
 11
17.350999999999999
 21
96.922500000000014
 31
0.0
  0
LINE
  5
1BB
  8
0
 10
14.4231
 20
138.0205
 30
0.0
 11
16.769300000000001
 21
138.08449999999999
 31
0.0
  0
LINE
  5
1BC
  8
0
 10
14.4199
 20
73.277199999999993
 30
0.0
 11
15.0192
 21
73.793199999999985
 31
0.0
  0
LINE
  5
1C4
  8
0
 10
15.175000000000001
 20
78.833500000000001
 30
0.0
 11
17.007000000000001
 21
79.577500000000001
 31
0.0
  0
LINE
  5
1C5
  8
0
 10
15.0192
 20
73.793199999999985
 30
0.0
 11
15.699199999999999
 21
74.268199999999993
 31
0.0
  0
LINE
  5
1C6
  8
0
 10
16.0655
 20
73.252200000000002
 30
0.0
 11
16.6617
 21
73.679199999999994
 31
0.0
  0
LINE
  5
1C7
  8
0
 10
16.6617
 20
73.679199999999994
 30
0.0
 11
17.328700000000001
 21
74.0642
 31
0.0
  0
LINE
  5
1C8
  8
0
 10
15.699199999999999
 20
74.268199999999993
 30
0.0
 11
16.4559
 21
74.699200000000005
 31
0.0
  0
LINE
  5
1C9
  8
0
 10
16.4559
 20
74.699200000000005
 30
0.0
 11
17.281199999999998
 21
75.081199999999995
 31
0.0
  0
LINE
  5
1CA
  8
0
 10
17.328700000000001
 20
74.0642
 30
0.0
 11
18.0581
 21
74.406199999999998
 31
0.0
  0
LINE
  5
1CB
  8
0
 10
18.0581
 20
74.406199999999998
 30
0.0
 11
18.842099999999999
 21
74.699200000000005
 31
0.0
  0
LINE
  5
1CC
  8
0
 10
17.281199999999998
 20
75.081199999999995
 30
0.0
 11
18.165099999999999
 21
75.412199999999999
 31
0.0
  0
LINE
  5
1CD
  8
0
 10
18.842099999999999
 20
74.699200000000005
 30
0.0
 11
19.751100000000001
 21
74.962199999999996
 31
0.0
  0
LINE
  5
1CE
  8
0
 10
19.751100000000001
 20
74.962199999999996
 30
0.0
 11
20.703600000000002
 21
75.159199999999998
 31
0.0
  0
LINE
  5
1CF
  8
0
 10
20.703600000000002
 20
75.159199999999998
 30
0.0
 11
21.6873
 21
75.289199999999994
 31
0.0
  0
LINE
  5
1EA
  8
0
 10
21.6873
 20
75.289199999999994
 30
0.0
 11
22.688199999999998
 21
75.351200000000006
 31
0.0
  0
LINE
  5
1EC
  8
0
 10
17.007000000000001
 20
79.577500000000001
 30
0.0
 11
18.783999999999999
 21
80.061499999999995
 31
0.0
  0
LINE
  5
1ED
  8
0
 10
17.350999999999999
 20
96.922500000000014
 30
0.0
 11
20.109999999999999
 21
96.896500000000003
 31
0.0
  0
LINE
  5
1EE
  8
0
 10
16.032299999999999
 20
97.880600000000015
 30
0.0
 11
18.1538
 21
97.806600000000003
 31
0.0
  0
LINE
  5
1EF
  8
0
 10
18.1538
 20
97.806600000000003
 30
0.0
 11
20.315799999999999
 21
97.7607
 31
0.0
  0
LINE
  5
1F0
  8
0
 10
16.769300000000001
 20
138.08449999999999
 30
0.0
 11
19.877800000000001
 21
138.13550000000001
 31
0.0
  0
LINE
  5
1F1
  8
0
 10
19.099299999999999
 20
75.685199999999995
 30
0.0
 11
20.074999999999999
 21
75.900199999999984
 31
0.0
  0
LINE
  5
1F2
  8
0
 10
20.074999999999999
 20
75.900199999999984
 30
0.0
 11
21.079899999999999
 21
76.055199999999999
 31
0.0
  0
LINE
  5
1FB
  8
0
 10
21.079899999999999
 20
76.055199999999999
 30
0.0
 11
22.106999999999999
 21
76.146199999999993
 31
0.0
  0
LINE
  5
1FC
  8
0
 10
20.109999999999999
 20
96.896500000000003
 30
0.0
 11
22.998999999999999
 21
96.887500000000003
 31
0.0
  0
LINE
  5
1FD
  8
0
 10
18.783999999999999
 20
80.061499999999995
 30
0.0
 11
20.666
 21
80.372500000000002
 31
0.0
  0
LINE
  5
1FE
  8
0
 10
20.3002
 20
107.0115
 30
0.0
 11
20.312999999999999
 21
107.3325
 31
0.0
  0
LINE
  5
1FF
  8
0
 10
20.3002
 20
107.0115
 30
0.0
 11
20.320399999999999
 21
106.6915
 31
0.0
  0
LINE
  5
200
  8
0
 10
20.312999999999999
 20
107.3325
 30
0.0
 11
20.358699999999999
 21
107.6495
 31
0.0
  0
LINE
  5
201
  8
0
 10
20.320399999999999
 20
106.6915
 30
0.0
 11
20.3736
 21
106.3755
 31
0.0
  0
LINE
  5
202
  8
0
 10
20.358699999999999
 20
107.6495
 30
0.0
 11
20.437100000000001
 21
107.9615
 31
0.0
  0
LINE
  5
203
  8
0
 10
20.315799999999999
 20
97.7607
 30
0.0
 11
23.0
 21
97.741100000000003
 31
0.0
  0
LINE
  5
204
  8
0
 10
19.877800000000001
 20
138.13550000000001
 30
0.0
 11
20.6234
 21
138.14750000000001
 31
0.0
  0
LINE
  5
207
  8
0
 10
20.666
 20
80.372500000000002
 30
0.0
 11
23.0
 21
80.505499999999984
 31
0.0
  0
LINE
  5
208
  8
0
 10
20.437100000000001
 20
107.9615
 30
0.0
 11
20.528500000000001
 21
108.2165
 31
0.0
  0
LINE
  5
209
  8
0
 10
20.528500000000001
 20
108.2165
 30
0.0
 11
20.642800000000001
 21
108.4635
 31
0.0
  0
LINE
  5
20A
  8
0
 10
20.6234
 20
138.14750000000001
 30
0.0
 11
23.0
 21
138.16749999999999
 31
0.0
  0
LINE
  5
20B
  8
0
 10
20.459
 20
106.05549999999999
 30
0.0
 11
20.544499999999999
 21
105.82250000000001
 31
0.0
  0
LINE
  5
20C
  8
0
 10
20.544499999999999
 20
105.82250000000001
 30
0.0
 11
20.6492
 21
105.59650000000001
 31
0.0
  0
LINE
  5
20D
  8
0
 10
20.6492
 20
105.59650000000001
 30
0.0
 11
20.772600000000001
 21
105.3805
 31
0.0
  0
LINE
  5
20E
  8
0
 10
20.772600000000001
 20
105.3805
 30
0.0
 11
20.9145
 21
105.17449999999999
 31
0.0
  0
LINE
  5
20F
  8
0
 10
20.9145
 20
105.17449999999999
 30
0.0
 11
21.067799999999998
 21
104.9885
 31
0.0
  0
LINE
  5
210
  8
0
 10
21.067799999999998
 20
104.9885
 30
0.0
 11
21.212623183323998
 21
104.840249049023
 31
0.0
  0
LINE
  5
211
  8
0
 10
21.647600000000001
 20
104.49850000000001
 30
0.0
 11
21.8828
 21
104.3655
 31
0.0
  0
LINE
  5
212
  8
0
 10
21.8828
 20
104.3655
 30
0.0
 11
22.131599999999999
 21
104.2565
 31
0.0
  0
LINE
  5
213
  8
0
 10
22.131599999999999
 20
104.2565
 30
0.0
 11
22.391300000000001
 21
104.1755
 31
0.0
  0
LINE
  5
214
  8
0
 10
22.391300000000001
 20
104.1755
 30
0.0
 11
22.658799999999999
 21
104.12350000000001
 31
0.0
  0
LINE
  5
215
  8
0
 10
22.658799999999999
 20
104.12350000000001
 30
0.0
 11
22.886399999999998
 21
104.1015
 31
0.0
  0
LINE
  5
216
  8
0
 10
22.886399999999998
 20
104.1015
 30
0.0
 11
23.115100000000002
 21
104.10250000000001
 31
0.0
  0
LINE
  5
217
  8
0
 10
20.9376
 20
108.92149999999999
 30
0.0
 11
21.104700000000001
 21
109.1155
 31
0.0
  0
LINE
  5
218
  8
0
 10
21.104700000000001
 20
109.1155
 30
0.0
 11
21.289200000000001
 21
109.29349999999999
 31
0.0
  0
LINE
  5
219
  8
0
 10
21.289200000000001
 20
109.29349999999999
 30
0.0
 11
21.489999999999998
 21
109.45350000000001
 31
0.0
  0
LINE
  5
21A
  8
0
 10
21.705500000000001
 20
109.5945
 30
0.0
 11
21.9436
 21
109.71850000000001
 31
0.0
  0
LINE
  5
21B
  8
0
 10
21.9436
 20
109.71850000000001
 30
0.0
 11
22.1936
 21
109.8175
 31
0.0
  0
LINE
  5
21C
  8
0
 10
22.1936
 20
109.8175
 30
0.0
 11
22.452999999999999
 21
109.8905
 31
0.0
  0
LINE
  5
21D
  8
0
 10
22.452999999999999
 20
109.8905
 30
0.0
 11
22.718800000000002
 21
109.9345
 31
0.0
  0
LINE
  5
21E
  8
0
 10
22.718800000000002
 20
109.9345
 30
0.0
 11
22.951000000000001
 21
109.9495
 31
0.0
  0
LINE
  5
220
  8
0
 10
21.489999999999998
 20
109.45350000000001
 30
0.0
 11
21.705500000000001
 21
109.5945
 31
0.0
  0
LINE
  5
221
  8
0
 10
20.779299999999999
 20
108.6985
 30
0.0
 11
20.9376
 21
108.92149999999999
 31
0.0
  0
LINE
  5
223
  8
0
 10
20.642800000000001
 20
108.4635
 30
0.0
 11
20.779299999999999
 21
108.6985
 31
0.0
  0
LINE
  5
225
  8
0
 10
20.3736
 20
106.3755
 30
0.0
 11
20.459
 21
106.05549999999999
 31
0.0
  0
LINE
  5
226
  8
0
 10
20.3736
 20
106.3755
 30
0.0
 11
20.420636831174001
 21
106.20555340718001
 31
0.0
  0
LINE
  5
2AB
  8
0
 10
22.106999999999999
 20
76.146199999999993
 30
0.0
 11
23.071200000000001
 21
76.171199999999985
 31
0.0
  0
LINE
  5
2AC
  8
0
 10
18.165099999999999
 20
75.412199999999999
 30
0.0
 11
19.099299999999999
 21
75.685199999999995
 31
0.0
  0
LINE
  5
2AD
  8
0
 10
22.688199999999998
 20
75.351200000000006
 30
0.0
 11
23.071200000000001
 21
75.347200000000001
 31
0.0
  0
LINE
  5
2AF
  8
0
 10
15.5449
 20
72.791200000000003
 30
0.0
 11
16.0655
 21
73.252200000000002
 31
0.0
  0
LINE
  5
2B0
  8
0
 10
15.104900000000001
 20
72.300200000000004
 30
0.0
 11
15.5449
 21
72.791200000000003
 31
0.0
  0
LINE
  5
2B1
  8
0
 10
14.752800000000001
 20
71.783199999999994
 30
0.0
 11
15.104900000000001
 21
72.300200000000004
 31
0.0
  0
LINE
  5
2B2
  8
0
 10
14.4915
 20
71.246200000000002
 30
0.0
 11
14.752800000000001
 21
71.783199999999994
 31
0.0
  0
LINE
  5
2B3
  8
0
 10
14.323
 20
70.696200000000005
 30
0.0
 11
14.4915
 21
71.246200000000002
 31
0.0
  0
LINE
  5
2B4
  8
0
 10
14.323
 20
70.696200000000005
 30
0.0
 11
14.323
 21
69.286199999999994
 31
0.0
  0
LINE
  5
2DC
  8
0
 10
11.529
 20
66.863500000000002
 30
0.0
 11
10.217000000000001
 21
67.844499999999996
 31
0.0
  0
LINE
  5
2DD
  8
0
 10
7.2729999999999988
 20
70.823499999999996
 30
0.0
 11
5.948999999999999
 21
72.586500000000001
 31
0.0
  0
LINE
  5
2DE
  8
0
 10
5.4470000000000001
 20
73.305499999999995
 30
0.0
 11
3.563995925793928
 21
76.746752194054238
 31
0.0
  0
LINE
  5
2DF
  8
0
 10
3.563995925793928
 20
76.746752194054238
 30
0.0
 11
1.7060804105117171
 21
81.481440120095996
 31
0.0
  0
LINE
  5
2E0
  8
0
 10
21.647600000000001
 20
104.49850000000001
 30
0.0
 11
21.212623183323998
 21
104.840249049023
 31
0.0
  0
LINE
  5
2E1
  8
0
 10
0.7561
 20
119.5025
 30
0.0
 11
0.77123785298272
 21
121.331363866168
 31
0.0
  0
LINE
  5
2E2
  8
0
 10
8.2150999999999996
 20
137.71950000000001
 30
0.0
 11
9.2479497687772803
 21
137.77898959537501
 31
0.0
  0
LINE
  5
2E3
  8
0
 10
45.604999999999997
 20
59.266500000000001
 30
0.0
 11
45.529000000000003
 21
71.217500000000001
 31
0.0
  0
LINE
  5
2E4
  8
0
 10
37.617000000000012
 20
69.557500000000005
 30
0.0
 11
37.046999999999997
 21
68.981499999999997
 31
0.0
  0
LINE
  5
2E5
  8
0
 10
34.847099999999998
 20
69.410200000000003
 30
0.0
 11
34.6584
 21
68.725200000000001
 31
0.0
  0
LINE
  5
2E6
  8
0
 10
33.149000000000001
 20
69.595200000000006
 30
0.0
 11
33.036999999999999
 21
68.967200000000005
 31
0.0
  0
LINE
  5
2E7
  8
0
 10
33.081949840081101
 20
69.219240174740605
 30
0.0
 11
32.918999999999997
 21
68.634200000000007
 31
0.0
  0
LINE
  5
2E8
  8
0
 10
31.677
 20
69.286199999999994
 30
0.0
 11
31.508500000000002
 21
68.736199999999997
 31
0.0
  0
LINE
  5
2E9
  8
0
 10
30.100000000000001
 20
69.214200000000005
 30
0.0
 11
29.479500000000002
 21
68.745199999999997
 31
0.0
  0
LINE
  5
2EA
  8
0
 10
45.945
 20
-0.167500000000017
 30
0.0
 11
45.604999999999997
 21
59.266500000000001
 31
0.0
  0
LINE
  5
2EB
  8
0
 10
45.945
 20
-0.167500000000017
 30
0.0
 11
45.604999999999997
 21
59.266500000000001
 31
0.0
  0
LINE
  5
2EC
  8
0
 10
29.5441
 20
64.055199999999999
 30
0.0
 11
28.584599999999998
 21
63.700200000000002
 31
0.0
  0
LINE
  5
2ED
  8
0
 10
28.718800000000002
 20
64.819199999999995
 30
0.0
 11
27.834900000000001
 21
64.490200000000002
 31
0.0
  0
LINE
  5
2EE
  8
0
 10
28.761099999999999
 20
64.878200000000007
 30
0.0
 11
27.834900000000001
 21
64.531199999999998
 31
0.0
  0
LINE
  5
2EF
  8
0
 10
28.671299999999999
 20
65.918199999999999
 30
0.0
 11
27.9419
 21
65.577200000000005
 31
0.0
  0
LINE
  5
2F0
  8
0
 10
28.776299999999999
 20
68.322199999999995
 30
0.0
 11
27.9984
 21
67.9482
 31
0.0
  0
LINE
  5
2F1
  8
0
 10
33.417400000000001
 20
66.633200000000002
 30
0.0
 11
32.825200000000002
 21
66.044200000000004
 31
0.0
  0
LINE
  5
2F2
  8
0
 10
32.985007853293503
 20
65.936250449057894
 30
0.0
 11
32.158062661534203
 21
65.502352638161398
 31
0.0
  0
LINE
  5
2F3
  8
0
 10
32.985007853293503
 20
65.936250449057894
 30
0.0
 11
32.158062661534203
 21
65.502352638161398
 31
0.0
  0
LINE
  5
2F4
  8
0
 10
33.036999999999999
 20
68.967200000000005
 30
0.0
 11
32.822099999999999
 21
68.350200000000001
 31
0.0
  0
LINE
  5
2F5
  8
0
 10
36.733000000000011
 20
68.673500000000004
 30
0.0
 11
35.783000000000001
 21
67.844499999999996
 31
0.0
  0
LINE
  5
2F6
  8
0
 10
34.471000000000011
 20
66.863500000000002
 30
0.0
 11
33.055999999999997
 21
65.973500000000001
 31
0.0
  0
LINE
  5
2F7
  8
0
 10
34.604900000000001
 20
68.569199999999995
 30
0.0
 11
34.311300000000003
 21
67.902199999999993
 31
0.0
  0
LINE
  5
2F8
  8
0
 10
37.046999999999997
 20
68.981499999999997
 30
0.0
 11
36.733000000000011
 21
68.673500000000004
 31
0.0
  0
LINE
  5
2F9
  8
0
 10
34.6584
 20
68.725200000000001
 30
0.0
 11
34.604900000000001
 21
68.569199999999995
 31
0.0
  0
LINE
  5
2FA
  8
0
 10
33.913800000000002
 20
67.254199999999983
 30
0.0
 11
33.417400000000001
 21
66.633200000000002
 31
0.0
  0
LINE
  5
2FB
  8
0
 10
34.311300000000003
 20
67.902199999999993
 30
0.0
 11
33.913800000000002
 21
67.254199999999983
 31
0.0
  0
LINE
  5
2FC
  8
0
 10
34.471000000000011
 20
66.863500000000002
 30
0.0
 11
35.783000000000001
 21
67.844499999999996
 31
0.0
  0
LINE
  5
2FD
  8
0
 10
31.378299999999999
 20
64.978200000000001
 30
0.0
 11
30.536899999999999
 21
64.513199999999983
 31
0.0
  0
LINE
  5
2FE
  8
0
 10
30.443100000000001
 20
64.464200000000005
 30
0.0
 11
29.5441
 21
64.055199999999999
 31
0.0
  0
LINE
  5
2FF
  8
0
 10
30.536899999999999
 20
64.513199999999983
 30
0.0
 11
30.443100000000001
 21
64.464200000000005
 31
0.0
  0
LINE
  5
300
  8
0
 10
31.1069
 20
66.249200000000002
 30
0.0
 11
30.406700000000001
 21
65.742199999999997
 31
0.0
  0
LINE
  5
301
  8
0
 10
30.980799999999999
 20
66.109200000000001
 30
0.0
 11
30.300799999999999
 21
65.633200000000002
 31
0.0
  0
LINE
  5
302
  8
0
 10
30.895099999999999
 20
67.683199999999999
 30
0.0
 11
30.455100000000002
 21
67.191199999999995
 31
0.0
  0
LINE
  5
303
  8
0
 10
32.825200000000002
 20
66.044200000000004
 30
0.0
 11
32.143100000000011
 21
65.490200000000002
 31
0.0
  0
LINE
  5
304
  8
0
 10
32.822099999999999
 20
68.350200000000001
 30
0.0
 11
32.504300000000001
 21
67.751199999999997
 31
0.0
  0
LINE
  5
305
  8
0
 10
32.918999999999997
 20
68.634200000000007
 30
0.0
 11
32.626400000000011
 21
67.996200000000002
 31
0.0
  0
LINE
  5
306
  8
0
 10
32.143100000000011
 20
65.490200000000002
 30
0.0
 11
31.378299999999999
 21
64.978200000000001
 31
0.0
  0
LINE
  5
307
  8
0
 10
32.089600000000011
 20
67.172200000000004
 30
0.0
 11
31.580100000000002
 21
66.624200000000002
 31
0.0
  0
LINE
  5
308
  8
0
 10
31.714300000000001
 20
66.797200000000004
 30
0.0
 11
31.1069
 21
66.249200000000002
 31
0.0
  0
LINE
  5
309
  8
0
 10
32.504300000000001
 20
67.751199999999997
 30
0.0
 11
32.089600000000011
 21
67.172200000000004
 31
0.0
  0
LINE
  5
30A
  8
0
 10
32.222799999999999
 20
67.382199999999997
 30
0.0
 11
31.714300000000001
 21
66.797200000000004
 31
0.0
  0
LINE
  5
30B
  8
0
 10
32.626400000000011
 20
67.996200000000002
 30
0.0
 11
32.222799999999999
 21
67.382199999999997
 31
0.0
  0
LINE
  5
30C
  8
0
 10
31.580100000000002
 20
66.624200000000002
 30
0.0
 11
30.980799999999999
 21
66.109200000000001
 31
0.0
  0
LINE
  5
30D
  8
0
 10
31.247199999999999
 20
68.200199999999995
 30
0.0
 11
30.895099999999999
 21
67.683199999999999
 31
0.0
  0
LINE
  5
30E
  8
0
 10
31.508500000000002
 20
68.736199999999997
 30
0.0
 11
31.247199999999999
 21
68.200199999999995
 31
0.0
  0
LINE
  5
30F
  8
0
 10
29.5441
 20
65.202200000000005
 30
0.0
 11
28.718800000000002
 21
64.819199999999995
 31
0.0
  0
LINE
  5
310
  8
0
 10
29.6218
 20
65.283199999999994
 30
0.0
 11
28.761099999999999
 21
64.878200000000007
 31
0.0
  0
LINE
  5
311
  8
0
 10
30.300799999999999
 20
65.633200000000002
 30
0.0
 11
29.5441
 21
65.202200000000005
 31
0.0
  0
LINE
  5
312
  8
0
 10
30.406700000000001
 20
65.742199999999997
 30
0.0
 11
29.6218
 21
65.283199999999994
 31
0.0
  0
LINE
  5
313
  8
0
 10
29.9345
 20
66.730199999999996
 30
0.0
 11
29.3383
 21
66.304199999999994
 31
0.0
  0
LINE
  5
314
  8
0
 10
29.3383
 20
66.304199999999994
 30
0.0
 11
28.671299999999999
 21
65.918199999999999
 31
0.0
  0
LINE
  5
315
  8
0
 10
30.455100000000002
 20
67.191199999999995
 30
0.0
 11
29.9345
 21
66.730199999999996
 31
0.0
  0
LINE
  5
316
  8
0
 10
29.479500000000002
 20
68.745199999999997
 30
0.0
 11
28.776299999999999
 21
68.322199999999995
 31
0.0
  0
LINE
  5
317
  8
0
 10
25.436699999999998
 20
62.98619999999999
 30
0.0
 11
24.328900000000001
 21
62.872199999999999
 31
0.0
  0
LINE
  5
318
  8
0
 10
24.920100000000001
 20
63.847200000000001
 30
0.0
 11
23.893000000000001
 21
63.7562
 31
0.0
  0
LINE
  5
319
  8
0
 10
24.869700000000002
 20
63.882199999999997
 30
0.0
 11
23.824400000000001
 21
63.793199999999992
 31
0.0
  0
LINE
  5
31A
  8
0
 10
25.296399999999998
 20
64.824200000000005
 30
0.0
 11
24.3127
 21
64.694199999999995
 31
0.0
  0
LINE
  5
31B
  8
0
 10
24.3611
 20
67.046199999999999
 30
0.0
 11
23.377400000000002
 21
66.981200000000001
 31
0.0
  0
LINE
  5
31C
  8
0
 10
26.522300000000001
 20
63.162199999999999
 30
0.0
 11
25.436699999999998
 21
62.98619999999999
 31
0.0
  0
LINE
  5
31D
  8
0
 10
27.5746
 20
63.401200000000003
 30
0.0
 11
26.522300000000001
 21
63.162199999999999
 31
0.0
  0
LINE
  5
31E
  8
0
 10
28.584599999999998
 20
63.700200000000002
 30
0.0
 11
27.5746
 21
63.401200000000003
 31
0.0
  0
LINE
  5
31F
  8
0
 10
25.925000000000001
 20
64.001199999999997
 30
0.0
 11
24.920100000000001
 21
63.847200000000001
 31
0.0
  0
LINE
  5
320
  8
0
 10
26.900700000000001
 20
64.216200000000001
 30
0.0
 11
25.925000000000001
 21
64.001199999999997
 31
0.0
  0
LINE
  5
321
  8
0
 10
27.834900000000001
 20
64.490200000000002
 30
0.0
 11
26.900700000000001
 21
64.216200000000001
 31
0.0
  0
LINE
  5
322
  8
0
 10
27.834900000000001
 20
64.531199999999998
 30
0.0
 11
26.884499999999999
 21
64.253200000000007
 31
0.0
  0
LINE
  5
323
  8
0
 10
26.884499999999999
 20
64.253200000000007
 30
0.0
 11
25.892700000000001
 21
64.035200000000003
 31
0.0
  0
LINE
  5
324
  8
0
 10
25.892700000000001
 20
64.035200000000003
 30
0.0
 11
24.869700000000002
 21
63.882199999999997
 31
0.0
  0
LINE
  5
325
  8
0
 10
27.9419
 20
65.577200000000005
 30
0.0
 11
27.157900000000001
 21
65.283199999999994
 31
0.0
  0
LINE
  5
326
  8
0
 10
27.157900000000001
 20
65.283199999999994
 30
0.0
 11
26.248899999999999
 21
65.021199999999993
 31
0.0
  0
LINE
  5
327
  8
0
 10
26.248899999999999
 20
65.021199999999993
 30
0.0
 11
25.296399999999998
 21
64.824200000000005
 31
0.0
  0
LINE
  5
328
  8
0
 10
27.9984
 20
67.9482
 30
0.0
 11
27.157900000000001
 21
67.631200000000007
 31
0.0
  0
LINE
  5
329
  8
0
 10
27.157900000000001
 20
67.631200000000007
 30
0.0
 11
26.263999999999999
 21
67.373199999999997
 31
0.0
  0
LINE
  5
32A
  8
0
 10
26.263999999999999
 20
67.373199999999997
 30
0.0
 11
25.3277
 21
67.177199999999985
 31
0.0
  0
LINE
  5
32B
  8
0
 10
25.3277
 20
67.177199999999985
 30
0.0
 11
24.3611
 21
67.046199999999999
 31
0.0
  0
LINE
  5
32C
  8
0
 10
24.3127
 20
64.694199999999995
 30
0.0
 11
23.311800000000002
 21
64.632199999999983
 31
0.0
  0
LINE
  5
32D
  8
0
 10
24.328900000000001
 20
62.872199999999999
 30
0.0
 11
23.2089
 21
62.8232
 31
0.0
  0
LINE
  5
32E
  8
0
 10
23.893000000000001
 20
63.7562
 30
0.0
 11
22.928799999999999
 21
63.730200000000004
 31
0.0
  0
LINE
  5
32F
  8
0
 10
23.824400000000001
 20
63.793199999999992
 30
0.0
 11
22.928799999999999
 21
63.773200000000003
 31
0.0
  0
LINE
  5
330
  8
0
 10
23.2089
 20
62.8232
 30
0.0
 11
22.928799999999999
 21
62.827199999999998
 31
0.0
  0
LINE
  5
331
  8
0
 10
23.311800000000002
 20
64.632199999999983
 30
0.0
 11
22.928799999999999
 21
64.635199999999983
 31
0.0
  0
LINE
  5
332
  8
0
 10
23.377400000000002
 20
66.981200000000001
 30
0.0
 11
22.928799999999999
 21
66.983199999999997
 31
0.0
  0
LINE
  5
333
  8
0
 10
45.305300000000003
 20
104.84650000000001
 30
0.0
 11
45.226300000000002
 21
103.2045
 31
0.0
  0
LINE
  5
334
  8
0
 10
31.507000000000001
 20
96.971500000000006
 30
0.0
 11
28.649000000000001
 21
96.922500000000014
 31
0.0
  0
LINE
  5
335
  8
0
 10
28.671299999999999
 20
74.0642
 30
0.0
 11
27.9419
 21
74.406199999999998
 31
0.0
  0
LINE
  5
336
  8
0
 10
28.718800000000002
 20
75.081199999999995
 30
0.0
 11
27.834900000000001
 21
75.412199999999999
 31
0.0
  0
LINE
  5
337
  8
0
 10
28.992999999999999
 20
79.577500000000001
 30
0.0
 11
27.216000000000001
 21
80.061499999999995
 31
0.0
  0
LINE
  5
338
  8
0
 10
29.967700000000001
 20
97.880600000000015
 30
0.0
 11
27.8462
 21
97.806600000000003
 31
0.0
  0
LINE
  5
339
  8
0
 10
45.466000000000001
 20
83.214500000000001
 30
0.0
 11
45.383000000000003
 21
98.295500000000004
 31
0.0
  0
LINE
  5
33A
  8
0
 10
38.322000000000003
 20
70.347499999999997
 30
0.0
 11
37.617000000000012
 21
69.557500000000005
 31
0.0
  0
LINE
  5
33B
  8
0
 10
38.726999999999997
 20
70.823499999999996
 30
0.0
 11
38.322000000000003
 21
70.347499999999997
 31
0.0
  0
LINE
  5
33C
  8
0
 10
45.529000000000003
 20
71.217500000000001
 30
0.0
 11
45.466000000000001
 21
83.214500000000001
 31
0.0
  0
LINE
  5
33D
  8
0
 10
40.55299999999999
 20
73.305499999999995
 30
0.0
 11
40.051000000000002
 21
72.586500000000001
 31
0.0
  0
LINE
  5
33E
  8
0
 10
38.726999999999997
 20
70.823499999999996
 30
0.0
 11
40.051000000000002
 21
72.586500000000001
 31
0.0
  0
LINE
  5
33F
  8
0
 10
40.55299999999999
 20
73.305499999999995
 30
0.0
 11
42.436004074206068
 21
76.746752194054238
 31
0.0
  0
LINE
  5
340
  8
0
 10
42.436004074206068
 20
76.746752194054238
 30
0.0
 11
44.293919589488283
 21
81.481440120095996
 31
0.0
  0
LINE
  5
341
  8
0
 10
33.433999999999997
 20
77.097499999999997
 30
0.0
 11
32.227000000000011
 21
78.032499999999999
 31
0.0
  0
LINE
  5
342
  8
0
 10
33.093891719745201
 20
69.286199999999994
 30
0.0
 11
31.677
 21
69.286199999999994
 31
0.0
  0
LINE
  5
343
  8
0
 10
33.079581469648602
 20
70.696200000000005
 30
0.0
 11
31.677
 21
70.696200000000005
 31
0.0
  0
LINE
  5
344
  8
0
 10
33.036999999999999
 20
70.934200000000004
 30
0.0
 11
32.822099999999999
 21
71.550200000000004
 31
0.0
  0
LINE
  5
345
  8
0
 10
34.928800000000003
 20
70.103200000000001
 30
0.0
 11
34.928800000000003
 21
74.961200000000005
 31
0.0
  0
LINE
  5
346
  8
0
 10
34.928800000000003
 20
70.446200000000005
 30
0.0
 11
34.928800000000003
 21
75.171744210526285
 31
0.0
  0
LINE
  5
347
  8
0
 10
35.496000000000002
 20
72.735500000000002
 30
0.0
 11
35.411999999999999
 21
73.853499999999997
 31
0.0
  0
LINE
  5
348
  8
0
 10
34.928800000000003
 20
74.961200000000005
 30
0.0
 11
34.928800000000003
 21
70.103200000000001
 31
0.0
  0
LINE
  5
349
  8
0
 10
34.928800000000003
 20
75.171744210526285
 30
0.0
 11
34.928800000000003
 21
70.446200000000005
 31
0.0
  0
LINE
  5
34A
  8
0
 10
34.928800000000003
 20
70.103200000000001
 30
0.0
 11
34.847099999999998
 21
69.410200000000003
 31
0.0
  0
LINE
  5
34B
  8
0
 10
33.152999999999999
 20
69.950199999999995
 30
0.0
 11
33.149000000000001
 21
70.308199999999999
 31
0.0
  0
LINE
  5
34C
  8
0
 10
33.152999999999999
 20
69.950199999999995
 30
0.0
 11
33.149000000000001
 21
69.595200000000006
 31
0.0
  0
LINE
  5
34D
  8
0
 10
35.014000000000003
 20
70.728499999999997
 30
0.0
 11
34.928800000000003
 21
70.566051999999985
 31
0.0
  0
LINE
  5
34E
  8
0
 10
34.928800000000003
 20
70.446200000000005
 30
0.0
 11
34.921999999999997
 21
70.274199999999993
 31
0.0
  0
LINE
  5
34F
  8
0
 10
33.149000000000001
 20
70.308199999999999
 30
0.0
 11
33.036999999999999
 21
70.934200000000004
 31
0.0
  0
LINE
  5
350
  8
0
 10
35.323999999999998
 20
71.614500000000007
 30
0.0
 11
35.014000000000003
 21
70.728499999999997
 31
0.0
  0
LINE
  5
351
  8
0
 10
35.496000000000002
 20
72.735500000000002
 30
0.0
 11
35.323999999999998
 21
71.614500000000007
 31
0.0
  0
LINE
  5
352
  8
0
 10
33.041830663885698
 20
70.907200039353
 30
0.0
 11
33.023659847358502
 21
70.972438874021194
 31
0.0
  0
LINE
  5
353
  8
0
 10
35.040999999999997
 20
74.987499999999997
 30
0.0
 11
34.375999999999998
 21
76.079499999999996
 31
0.0
  0
LINE
  5
354
  8
0
 10
35.411999999999999
 20
73.853499999999997
 30
0.0
 11
35.040999999999997
 21
74.987499999999997
 31
0.0
  0
LINE
  5
355
  8
0
 10
34.375999999999998
 20
76.079499999999996
 30
0.0
 11
33.433999999999997
 21
77.097499999999997
 31
0.0
  0
LINE
  5
356
  8
0
 10
31.677
 20
69.286199999999994
 30
0.0
 11
31.677
 21
70.696200000000005
 31
0.0
  0
LINE
  5
357
  8
0
 10
32.822099999999999
 20
71.550200000000004
 30
0.0
 11
32.504300000000001
 21
72.152199999999993
 31
0.0
  0
LINE
  5
358
  8
0
 10
32.089600000000011
 20
72.729200000000006
 30
0.0
 11
31.580100000000002
 21
73.277199999999993
 31
0.0
  0
LINE
  5
359
  8
0
 10
32.504300000000001
 20
72.152199999999993
 30
0.0
 11
32.089600000000011
 21
72.729200000000006
 31
0.0
  0
LINE
  5
35A
  8
0
 10
31.529851517589499
 20
71.176506619144106
 30
0.0
 11
31.3965
 21
70.8292
 31
0.0
  0
LINE
  5
35B
  8
0
 10
31.3965
 20
70.8292
 30
0.0
 11
31.06450000000001
 21
70.262200000000007
 31
0.0
  0
LINE
  5
35C
  8
0
 10
30.630700000000001
 20
69.722200000000001
 30
0.0
 11
30.100000000000001
 21
69.214200000000005
 31
0.0
  0
LINE
  5
35D
  8
0
 10
31.06450000000001
 20
70.262200000000007
 30
0.0
 11
30.630700000000001
 21
69.722200000000001
 31
0.0
  0
LINE
  5
35E
  8
0
 10
31.580100000000002
 20
73.277199999999993
 30
0.0
 11
30.980799999999999
 21
73.793199999999985
 31
0.0
  0
LINE
  5
35F
  8
0
 10
30.980799999999999
 20
73.793199999999985
 30
0.0
 11
30.300799999999999
 21
74.268199999999993
 31
0.0
  0
LINE
  5
360
  8
0
 10
29.9345
 20
73.252200000000002
 30
0.0
 11
29.3383
 21
73.679199999999994
 31
0.0
  0
LINE
  5
361
  8
0
 10
29.3383
 20
73.679199999999994
 30
0.0
 11
28.671299999999999
 21
74.0642
 31
0.0
  0
LINE
  5
362
  8
0
 10
30.300799999999999
 20
74.268199999999993
 30
0.0
 11
29.5441
 21
74.699200000000005
 31
0.0
  0
LINE
  5
363
  8
0
 10
29.5441
 20
74.699200000000005
 30
0.0
 11
28.718800000000002
 21
75.081199999999995
 31
0.0
  0
LINE
  5
364
  8
0
 10
30.455100000000002
 20
72.791200000000003
 30
0.0
 11
29.9345
 21
73.252200000000002
 31
0.0
  0
LINE
  5
365
  8
0
 10
30.895099999999999
 20
72.300200000000004
 30
0.0
 11
30.455100000000002
 21
72.791200000000003
 31
0.0
  0
LINE
  5
366
  8
0
 10
31.247199999999999
 20
71.783199999999994
 30
0.0
 11
30.895099999999999
 21
72.300200000000004
 31
0.0
  0
LINE
  5
367
  8
0
 10
31.508500000000002
 20
71.246200000000002
 30
0.0
 11
31.247199999999999
 21
71.783199999999994
 31
0.0
  0
LINE
  5
368
  8
0
 10
31.677
 20
70.696200000000005
 30
0.0
 11
31.508500000000002
 21
71.246200000000002
 31
0.0
  0
LINE
  5
369
  8
0
 10
31.677
 20
70.696200000000005
 30
0.0
 11
31.677
 21
69.286199999999994
 31
0.0
  0
LINE
  5
36A
  8
0
 10
32.227000000000011
 20
78.032499999999999
 30
0.0
 11
30.824999999999999
 21
78.833500000000001
 31
0.0
  0
LINE
  5
36B
  8
0
 10
30.824999999999999
 20
78.833500000000001
 30
0.0
 11
28.992999999999999
 21
79.577500000000001
 31
0.0
  0
LINE
  5
36C
  8
0
 10
38.326999999999998
 20
97.265500000000003
 30
0.0
 11
36.347999999999999
 21
97.138499999999993
 31
0.0
  0
LINE
  5
36D
  8
0
 10
37.3551
 20
98.444299999999998
 30
0.0
 11
35.489899999999999
 21
98.243499999999997
 31
0.0
  0
LINE
  5
36E
  8
0
 10
42.186999999999998
 20
97.800500000000014
 30
0.0
 11
41.215999999999987
 21
97.598500000000001
 31
0.0
  0
LINE
  5
36F
  8
0
 10
41.878
 20
99.266800000000003
 30
0.0
 11
40.671100000000003
 21
98.983699999999985
 31
0.0
  0
LINE
  5
370
  8
0
 10
45.220999999999997
 20
99.222499999999997
 30
0.0
 11
45.006999999999998
 21
99.542500000000004
 31
0.0
  0
LINE
  5
371
  8
0
 10
43.310299999999998
 20
99.160700000000006
 30
0.0
 11
43.234045661271608
 21
99.728192137079205
 31
0.0
  0
LINE
  5
372
  8
0
 10
45.341999999999999
 20
98.838499999999996
 30
0.0
 11
45.262999999999991
 21
99.093500000000006
 31
0.0
  0
LINE
  5
373
  8
0
 10
45.383000000000003
 20
98.295500000000004
 30
0.0
 11
45.341999999999999
 21
98.838499999999996
 31
0.0
  0
LINE
  5
374
  8
0
 10
45.262999999999991
 20
99.093500000000006
 30
0.0
 11
45.220999999999997
 21
99.222499999999997
 31
0.0
  0
LINE
  5
375
  8
0
 10
43.542999999999999
 20
98.5565
 30
0.0
 11
43.36699999999999
 21
98.962500000000006
 31
0.0
  0
LINE
  5
376
  8
0
 10
43.542999999999999
 20
98.5565
 30
0.0
 11
43.420000000000002
 21
98.344499999999996
 31
0.0
  0
LINE
  5
377
  8
0
 10
43.420000000000002
 20
98.344499999999996
 30
0.0
 11
43.146999999999998
 21
98.146500000000003
 31
0.0
  0
LINE
  5
378
  8
0
 10
43.146999999999998
 20
98.146500000000003
 30
0.0
 11
42.186999999999998
 21
97.800500000000014
 31
0.0
  0
LINE
  5
379
  8
0
 10
43.348815828083133
 20
98.292871919269103
 30
0.0
 11
43.310299999999998
 21
99.160700000000006
 31
0.0
  0
LINE
  5
37A
  8
0
 10
43.36699999999999
 20
98.962500000000006
 30
0.0
 11
43.317794400801603
 21
98.991838215441007
 31
0.0
  0
LINE
  5
37B
  8
0
 10
43.36699999999999
 20
98.962500000000006
 30
0.0
 11
43.317794400801603
 21
98.991838215441007
 31
0.0
  0
LINE
  5
37C
  8
0
 10
45.226300000000002
 20
103.2045
 30
0.0
 11
45.16129999999999
 21
102.4165
 31
0.0
  0
LINE
  5
37D
  8
0
 10
44.835999999999999
 20
99.735500000000016
 30
0.0
 11
44.521000000000001
 21
99.9465
 31
0.0
  0
LINE
  5
37E
  8
0
 10
45.006999999999998
 20
99.542500000000004
 30
0.0
 11
44.835999999999999
 21
99.735500000000016
 31
0.0
  0
LINE
  5
37F
  8
0
 10
44.521000000000001
 20
99.9465
 30
0.0
 11
44.17499999999999
 21
100.1335
 31
0.0
  0
LINE
  5
380
  8
0
 10
44.674700000000001
 20
100.6875
 30
0.0
 11
44.258299999999998
 21
100.2805
 31
0.0
  0
LINE
  5
381
  8
0
 10
45.008099999999999
 20
101.2355
 30
0.0
 11
44.970999999999997
 21
101.04649999999999
 31
0.0
  0
LINE
  5
382
  8
0
 10
44.970999999999997
 20
101.04649999999999
 30
0.0
 11
44.8568
 21
100.86750000000001
 31
0.0
  0
LINE
  5
383
  8
0
 10
44.8568
 20
100.86750000000001
 30
0.0
 11
44.674700000000001
 21
100.6875
 31
0.0
  0
LINE
  5
384
  8
0
 10
45.16129999999999
 20
102.4165
 30
0.0
 11
45.008099999999999
 21
101.2355
 31
0.0
  0
LINE
  5
385
  8
0
 10
44.17499999999999
 20
100.1335
 30
0.0
 11
44.070924196834561
 21
100.167092783992
 31
0.0
  0
LINE
  5
386
  8
0
 10
44.258299999999998
 20
100.2805
 30
0.0
 11
43.59409999999999
 21
99.878500000000017
 31
0.0
  0
LINE
  5
387
  8
0
 10
43.59409999999999
 20
99.878500000000017
 30
0.0
 11
42.847200000000001
 21
99.566699999999997
 31
0.0
  0
LINE
  5
388
  8
0
 10
42.847200000000001
 20
99.566699999999997
 30
0.0
 11
41.878
 21
99.266800000000003
 31
0.0
  0
LINE
  5
389
  8
0
 10
41.215999999999987
 20
97.598500000000001
 30
0.0
 11
40.024000000000001
 21
97.429500000000004
 31
0.0
  0
LINE
  5
38A
  8
0
 10
40.671100000000003
 20
98.983699999999985
 30
0.0
 11
40.463200000000001
 21
98.936199999999999
 31
0.0
  0
LINE
  5
38B
  8
0
 10
40.463200000000001
 20
98.936199999999999
 30
0.0
 11
39.021599999999999
 21
98.676500000000004
 31
0.0
  0
LINE
  5
38C
  8
0
 10
40.024000000000001
 20
97.429500000000004
 30
0.0
 11
38.326999999999998
 21
97.265500000000003
 31
0.0
  0
LINE
  5
38D
  8
0
 10
39.021599999999999
 20
98.676500000000004
 30
0.0
 11
37.3551
 21
98.444299999999998
 31
0.0
  0
LINE
  5
38E
  8
0
 10
34.096000000000011
 20
97.042500000000004
 30
0.0
 11
31.507000000000001
 21
96.971500000000006
 31
0.0
  0
LINE
  5
38F
  8
0
 10
36.347999999999999
 20
97.138499999999993
 30
0.0
 11
34.096000000000011
 21
97.042500000000004
 31
0.0
  0
LINE
  5
390
  8
0
 10
33.740499999999997
 20
98.096699999999998
 30
0.0
 11
31.892299999999999
 21
97.975700000000003
 31
0.0
  0
LINE
  5
391
  8
0
 10
35.489899999999999
 20
98.243499999999997
 30
0.0
 11
33.740499999999997
 21
98.096699999999998
 31
0.0
  0
LINE
  5
392
  8
0
 10
31.892299999999999
 20
97.975700000000003
 30
0.0
 11
29.967700000000001
 21
97.880600000000015
 31
0.0
  0
LINE
  5
393
  8
0
 10
25.296399999999998
 20
75.159199999999998
 30
0.0
 11
24.3127
 21
75.289199999999994
 31
0.0
  0
LINE
  5
394
  8
0
 10
24.920100000000001
 20
76.055199999999999
 30
0.0
 11
23.893000000000001
 21
76.146199999999993
 31
0.0
  0
LINE
  5
395
  8
0
 10
27.9419
 20
74.406199999999998
 30
0.0
 11
27.157900000000001
 21
74.699200000000005
 31
0.0
  0
LINE
  5
396
  8
0
 10
27.157900000000001
 20
74.699200000000005
 30
0.0
 11
26.248899999999999
 21
74.962199999999996
 31
0.0
  0
LINE
  5
397
  8
0
 10
26.248899999999999
 20
74.962199999999996
 30
0.0
 11
25.296399999999998
 21
75.159199999999998
 31
0.0
  0
LINE
  5
398
  8
0
 10
26.900700000000001
 20
75.685199999999995
 30
0.0
 11
25.925000000000001
 21
75.900199999999984
 31
0.0
  0
LINE
  5
399
  8
0
 10
25.925000000000001
 20
75.900199999999984
 30
0.0
 11
24.920100000000001
 21
76.055199999999999
 31
0.0
  0
LINE
  5
39A
  8
0
 10
27.834900000000001
 20
75.412199999999999
 30
0.0
 11
26.900700000000001
 21
75.685199999999995
 31
0.0
  0
LINE
  5
39B
  8
0
 10
24.3127
 20
75.289199999999994
 30
0.0
 11
23.311800000000002
 21
75.351200000000006
 31
0.0
  0
LINE
  5
39C
  8
0
 10
23.893000000000001
 20
76.146199999999993
 30
0.0
 11
22.928799999999999
 21
76.171199999999985
 31
0.0
  0
LINE
  5
39D
  8
0
 10
23.311800000000002
 20
75.351200000000006
 30
0.0
 11
22.928799999999999
 21
75.347200000000001
 31
0.0
  0
LINE
  5
39E
  8
0
 10
27.216000000000001
 20
80.061499999999995
 30
0.0
 11
25.334
 21
80.372500000000002
 31
0.0
  0
LINE
  5
39F
  8
0
 10
25.334
 20
80.372500000000002
 30
0.0
 11
23.0
 21
80.505499999999984
 31
0.0
  0
LINE
  5
3A0
  8
0
 10
28.649000000000001
 20
96.922500000000014
 30
0.0
 11
25.890000000000001
 21
96.896500000000003
 31
0.0
  0
LINE
  5
3A1
  8
0
 10
27.8462
 20
97.806600000000003
 30
0.0
 11
25.684200000000001
 21
97.7607
 31
0.0
  0
LINE
  5
3A2
  8
0
 10
25.890000000000001
 20
96.896500000000003
 30
0.0
 11
23.001000000000001
 21
96.887500000000003
 31
0.0
  0
LINE
  5
3A3
  8
0
 10
25.684200000000001
 20
97.7607
 30
0.0
 11
23.0
 21
97.741100000000003
 31
0.0
  0
LINE
  5
3A4
  8
0
 10
29.230699999999999
 20
138.08449999999999
 30
0.0
 11
26.122199999999999
 21
138.13550000000001
 31
0.0
  0
LINE
  5
3A5
  8
0
 10
45.243899999999989
 20
119.5025
 30
0.0
 11
45.228762147017271
 21
121.331363866168
 31
0.0
  0
LINE
  5
3A6
  8
0
 10
45.320900000000002
 20
106.0425
 30
0.0
 11
45.243899999999989
 21
119.5025
 31
0.0
  0
LINE
  5
3A7
  8
0
 10
45.320900000000002
 20
106.0425
 30
0.0
 11
45.305300000000003
 21
104.84650000000001
 31
0.0
  0
LINE
  5
3A8
  8
0
 10
37.7849
 20
137.71950000000001
 30
0.0
 11
36.752050231222718
 21
137.77898959537501
 31
0.0
  0
LINE
  5
3A9
  8
0
 10
45.267000000000003
 20
128.73949999999999
 30
0.0
 11
45.110399999999998
 21
129.5865
 31
0.0
  0
LINE
  5
3AA
  8
0
 10
45.200849688108939
 20
129.06914356777199
 30
0.0
 11
45.110399999999998
 21
129.5865
 31
0.0
  0
LINE
  5
3AB
  8
0
 10
45.271799999999999
 20
128.71250000000001
 30
0.0
 11
45.110399999999998
 21
129.5865
 31
0.0
  0
LINE
  5
3AC
  8
0
 10
45.331600000000002
 20
128.09549999999999
 30
0.0
 11
45.322800000000001
 21
128.3605
 31
0.0
  0
LINE
  5
3AD
  8
0
 10
45.331600000000002
 20
128.09549999999999
 30
0.0
 11
45.239699999999999
 21
124.0265
 31
0.0
  0
LINE
  5
3AE
  8
0
 10
45.239699999999999
 20
124.0265
 30
0.0
 11
45.228762147017271
 21
121.331363866168
 31
0.0
  0
LINE
  5
3AF
  8
0
 10
45.316699999999997
 20
128.40649999999999
 30
0.0
 11
45.271799999999999
 21
128.71250000000001
 31
0.0
  0
LINE
  5
3B0
  8
0
 10
44.853299999999997
 20
130.41149999999999
 30
0.0
 11
44.378500000000003
 21
132.0275
 31
0.0
  0
LINE
  5
3B1
  8
0
 10
45.110399999999998
 20
129.5865
 30
0.0
 11
44.853299999999997
 21
130.41149999999999
 31
0.0
  0
LINE
  5
3B2
  8
0
 10
44.378500000000003
 20
132.0275
 30
0.0
 11
44.128300000000003
 21
133.0155
 31
0.0
  0
LINE
  5
3B3
  8
0
 10
43.0289
 20
135.9605
 30
0.0
 11
42.8476
 21
136.25649999999999
 31
0.0
  0
LINE
  5
3B4
  8
0
 10
42.8476
 20
136.25649999999999
 30
0.0
 11
42.690600000000003
 21
136.44049999999999
 31
0.0
  0
LINE
  5
3B5
  8
0
 10
43.13559999999999
 20
135.7525
 30
0.0
 11
43.0289
 21
135.9605
 31
0.0
  0
LINE
  5
3B6
  8
0
 10
42.690600000000003
 20
136.44049999999999
 30
0.0
 11
42.539999999999999
 21
136.58949999999999
 31
0.0
  0
LINE
  5
3B7
  8
0
 10
42.337400000000002
 20
136.72749999999999
 30
0.0
 11
41.996799999999993
 21
136.94450000000001
 31
0.0
  0
LINE
  5
3B8
  8
0
 10
42.539999999999999
 20
136.58949999999999
 30
0.0
 11
42.337400000000002
 21
136.72749999999999
 31
0.0
  0
LINE
  5
3B9
  8
0
 10
43.53309999999999
 20
134.83750000000001
 30
0.0
 11
43.13559999999999
 21
135.7525
 31
0.0
  0
LINE
  5
3BA
  8
0
 10
41.155799999999999
 20
137.23750000000001
 30
0.0
 11
41.059100000000001
 21
137.27449999999999
 31
0.0
  0
LINE
  5
3BB
  8
0
 10
41.485500000000002
 20
137.1455
 30
0.0
 11
41.155799999999999
 21
137.23750000000001
 31
0.0
  0
LINE
  5
3BC
  8
0
 10
41.996799999999993
 20
136.94450000000001
 30
0.0
 11
41.485500000000002
 21
137.1455
 31
0.0
  0
LINE
  5
3BD
  8
0
 10
43.870399999999997
 20
133.8595
 30
0.0
 11
43.53309999999999
 21
134.83750000000001
 31
0.0
  0
LINE
  5
3BE
  8
0
 10
44.128300000000003
 20
133.0155
 30
0.0
 11
43.870399999999997
 21
133.8595
 31
0.0
  0
LINE
  5
3BF
  8
0
 10
41.059100000000001
 20
137.27449999999999
 30
0.0
 11
40.459600000000002
 21
137.41149999999999
 31
0.0
  0
LINE
  5
3C0
  8
0
 10
40.459600000000002
 20
137.41149999999999
 30
0.0
 11
39.710700000000003
 21
137.5325
 31
0.0
  0
LINE
  5
3C1
  8
0
 10
39.710700000000003
 20
137.5325
 30
0.0
 11
38.775199999999998
 21
137.6395
 31
0.0
  0
LINE
  5
3C2
  8
0
 10
38.775199999999998
 20
137.6395
 30
0.0
 11
37.7849
 21
137.71950000000001
 31
0.0
  0
LINE
  5
3C3
  8
0
 10
36.752050231222718
 20
137.77898959537501
 30
0.0
 11
36.1008
 21
137.81649999999999
 31
0.0
  0
LINE
  5
3C4
  8
0
 10
36.1008
 20
137.81649999999999
 30
0.0
 11
35.009399999999999
 21
137.87649999999999
 31
0.0
  0
LINE
  5
3C5
  8
0
 10
36.752050231222732
 20
137.77898959537501
 30
0.0
 11
36.1008
 21
137.81649999999999
 31
0.0
  0
LINE
  5
3C6
  8
0
 10
33.822000000000003
 20
137.9255
 30
0.0
 11
32.662100000000002
 21
137.9795
 31
0.0
  0
LINE
  5
3C7
  8
0
 10
35.009399999999999
 20
137.87649999999999
 30
0.0
 11
33.822000000000003
 21
137.9255
 31
0.0
  0
LINE
  5
3C8
  8
0
 10
32.662100000000002
 20
137.9795
 30
0.0
 11
31.576899999999998
 21
138.0205
 31
0.0
  0
LINE
  5
3C9
  8
0
 10
31.576899999999998
 20
138.0205
 30
0.0
 11
29.230699999999999
 21
138.08449999999999
 31
0.0
  0
LINE
  5
3CA
  8
0
 10
24.352399999999999
 20
104.49850000000001
 30
0.0
 11
24.1172
 21
104.3655
 31
0.0
  0
LINE
  5
3CB
  8
0
 10
24.510000000000002
 20
109.45350000000001
 30
0.0
 11
24.294499999999999
 21
109.5945
 31
0.0
  0
LINE
  5
3CC
  8
0
 10
25.641300000000001
 20
107.6495
 30
0.0
 11
25.562899999999999
 21
107.9615
 31
0.0
  0
LINE
  5
3CD
  8
0
 10
25.6998
 20
107.0115
 30
0.0
 11
25.687000000000001
 21
107.3325
 31
0.0
  0
LINE
  5
3CE
  8
0
 10
25.6998
 20
107.0115
 30
0.0
 11
25.679600000000001
 21
106.6915
 31
0.0
  0
LINE
  5
3CF
  8
0
 10
25.687000000000001
 20
107.3325
 30
0.0
 11
25.641300000000001
 21
107.6495
 31
0.0
  0
LINE
  5
3D0
  8
0
 10
25.679600000000001
 20
106.6915
 30
0.0
 11
25.6264
 21
106.3755
 31
0.0
  0
LINE
  5
3D1
  8
0
 10
25.541
 20
106.05549999999999
 30
0.0
 11
25.455500000000001
 21
105.82250000000001
 31
0.0
  0
LINE
  5
3D2
  8
0
 10
25.455500000000001
 20
105.82250000000001
 30
0.0
 11
25.3508
 21
105.59650000000001
 31
0.0
  0
LINE
  5
3D3
  8
0
 10
25.3508
 20
105.59650000000001
 30
0.0
 11
25.227399999999999
 21
105.3805
 31
0.0
  0
LINE
  5
3D4
  8
0
 10
25.227399999999999
 20
105.3805
 30
0.0
 11
25.0855
 21
105.17449999999999
 31
0.0
  0
LINE
  5
3D5
  8
0
 10
25.0855
 20
105.17449999999999
 30
0.0
 11
24.932200000000002
 21
104.9885
 31
0.0
  0
LINE
  5
3D6
  8
0
 10
24.932200000000002
 20
104.9885
 30
0.0
 11
24.787376816676002
 21
104.840249049023
 31
0.0
  0
LINE
  5
3D7
  8
0
 10
25.6264
 20
106.3755
 30
0.0
 11
25.541
 21
106.05549999999999
 31
0.0
  0
LINE
  5
3D8
  8
0
 10
25.6264
 20
106.3755
 30
0.0
 11
25.579363168825999
 21
106.20555340718001
 31
0.0
  0
LINE
  5
3D9
  8
0
 10
24.352399999999999
 20
104.49850000000001
 30
0.0
 11
24.787376816676002
 21
104.840249049023
 31
0.0
  0
LINE
  5
3DA
  8
0
 10
25.562899999999999
 20
107.9615
 30
0.0
 11
25.471499999999999
 21
108.2165
 31
0.0
  0
LINE
  5
3DB
  8
0
 10
25.471499999999999
 20
108.2165
 30
0.0
 11
25.357199999999999
 21
108.4635
 31
0.0
  0
LINE
  5
3DC
  8
0
 10
25.0624
 20
108.92149999999999
 30
0.0
 11
24.895299999999999
 21
109.1155
 31
0.0
  0
LINE
  5
3DD
  8
0
 10
24.895299999999999
 20
109.1155
 30
0.0
 11
24.710799999999999
 21
109.29349999999999
 31
0.0
  0
LINE
  5
3DE
  8
0
 10
24.710799999999999
 20
109.29349999999999
 30
0.0
 11
24.510000000000002
 21
109.45350000000001
 31
0.0
  0
LINE
  5
3DF
  8
0
 10
25.220700000000001
 20
108.6985
 30
0.0
 11
25.0624
 21
108.92149999999999
 31
0.0
  0
LINE
  5
3E0
  8
0
 10
25.357199999999999
 20
108.4635
 30
0.0
 11
25.220700000000001
 21
108.6985
 31
0.0
  0
LINE
  5
3E1
  8
0
 10
24.1172
 20
104.3655
 30
0.0
 11
23.868400000000001
 21
104.2565
 31
0.0
  0
LINE
  5
3E2
  8
0
 10
23.868400000000001
 20
104.2565
 30
0.0
 11
23.608699999999999
 21
104.1755
 31
0.0
  0
LINE
  5
3E3
  8
0
 10
23.608699999999999
 20
104.1755
 30
0.0
 11
23.341200000000001
 21
104.12350000000001
 31
0.0
  0
LINE
  5
3E4
  8
0
 10
23.341200000000001
 20
104.12350000000001
 30
0.0
 11
23.113600000000002
 21
104.1015
 31
0.0
  0
LINE
  5
3E5
  8
0
 10
23.113600000000002
 20
104.1015
 30
0.0
 11
22.884899999999998
 21
104.10250000000001
 31
0.0
  0
LINE
  5
3E6
  8
0
 10
24.294499999999999
 20
109.5945
 30
0.0
 11
24.0564
 21
109.71850000000001
 31
0.0
  0
LINE
  5
3E7
  8
0
 10
24.0564
 20
109.71850000000001
 30
0.0
 11
23.8064
 21
109.8175
 31
0.0
  0
LINE
  5
3E8
  8
0
 10
23.8064
 20
109.8175
 30
0.0
 11
23.547000000000001
 21
109.8905
 31
0.0
  0
LINE
  5
3E9
  8
0
 10
23.547000000000001
 20
109.8905
 30
0.0
 11
23.281199999999998
 21
109.9345
 31
0.0
  0
LINE
  5
3EA
  8
0
 10
23.281199999999998
 20
109.9345
 30
0.0
 11
23.048999999999999
 21
109.9495
 31
0.0
  0
LINE
  5
3EB
  8
0
 10
26.122199999999999
 20
138.13550000000001
 30
0.0
 11
25.3766
 21
138.14750000000001
 31
0.0
  0
LINE
  5
3EC
  8
0
 10
25.3766
 20
138.14750000000001
 30
0.0
 11
23.0
 21
138.16749999999999
 31
0.0
  0
LINE
  5
579
  8
0
 10
2.7800000000000011
 20
214.90668318633979
 30
0.0
 11
2.8809999999999998
 21
212.0166831863398
 31
0.0
  0
LINE
  5
57A
  8
0
 10
7.9059999999999979
 20
201.23868318633981
 30
0.0
 11
9.5530000000000008
 21
200.5276831863398
 31
0.0
  0
LINE
  5
57B
  8
0
 10
11.454000000000001
 20
199.9926831863398
 30
0.0
 11
12.686999999999999
 21
199.77468318633979
 31
0.0
  0
LINE
  5
57C
  8
0
 10
9.679000000000002
 20
200.4796831863398
 30
0.0
 11
11.454000000000001
 21
199.9926831863398
 31
0.0
  0
LINE
  5
57D
  8
0
 10
9.5530000000000008
 20
200.5276831863398
 30
0.0
 11
9.679000000000002
 21
200.4796831863398
 31
0.0
  0
LINE
  5
57E
  8
0
 10
6.4519999999999982
 20
202.20968318633979
 30
0.0
 11
7.9059999999999979
 21
201.23868318633981
 31
0.0
  0
LINE
  5
57F
  8
0
 10
5.25
 20
203.4496831863398
 30
0.0
 11
6.4519999999999982
 21
202.20968318633979
 31
0.0
  0
LINE
  5
580
  8
0
 10
4.3319999999999999
 20
204.93468318633981
 30
0.0
 11
5.25
 21
203.4496831863398
 31
0.0
  0
LINE
  5
581
  8
0
 10
3.6509999999999989
 20
206.7066831863398
 30
0.0
 11
4.0544705882353176
 21
205.66115723478271
 31
0.0
  0
LINE
  5
582
  8
0
 10
3.6509999999999989
 20
206.7066831863398
 30
0.0
 11
4.0544705882353114
 21
205.66115723478271
 31
0.0
  0
LINE
  5
583
  8
0
 10
2.9830000000000001
 20
210.55268318633981
 30
0.0
 11
3.2310000000000012
 21
208.55568318633979
 31
0.0
  0
LINE
  5
584
  8
0
 10
3.2310000000000012
 20
208.55568318633979
 30
0.0
 11
3.6509999999999989
 21
206.7066831863398
 31
0.0
  0
LINE
  5
585
  8
0
 10
2.8809999999999998
 20
212.0166831863398
 30
0.0
 11
2.9505352697095608
 21
211.0254508211944
 31
0.0
  0
LINE
  5
586
  8
0
 10
2.8809999999999998
 20
212.0166831863398
 30
0.0
 11
2.9505352697095608
 21
211.0254508211944
 31
0.0
  0
LINE
  5
587
  8
0
 10
12.686999999999999
 20
199.77468318633979
 30
0.0
 11
15.204000000000001
 21
199.50868318633979
 31
0.0
  0
LINE
  5
588
  8
0
 10
0.8032000000000003
 20
297.12108318633977
 30
0.0
 11
0.8947000000000002
 21
294.09868318633983
 31
0.0
  0
LINE
  5
589
  8
0
 10
0.7282000000000011
 20
300.4796831863398
 30
0.0
 11
0.8032000000000003
 21
297.12108318633977
 31
0.0
  0
LINE
  5
58A
  8
0
 10
0.6490000000000009
 20
307.26868318633979
 30
0.0
 11
0.6750510655192415
 21
306.12084134029777
 31
0.0
  0
LINE
  5
58B
  8
0
 10
0.562999999999999
 20
310.99068318633982
 30
0.0
 11
0.6039999999999992
 21
309.23468318633979
 31
0.0
  0
LINE
  5
58C
  8
0
 10
0.6039999999999992
 20
309.23468318633979
 30
0.0
 11
0.6490000000000009
 21
307.26868318633979
 31
0.0
  0
LINE
  5
58D
  8
0
 10
0.4059999999999988
 20
315.74668318633979
 30
0.0
 11
0.4420000000000002
 21
314.76368318633979
 31
0.0
  0
LINE
  5
58E
  8
0
 10
0.1789999999999985
 20
320.9006831863399
 30
0.0
 11
0.4059999999999988
 21
315.74668318633979
 31
0.0
  0
LINE
  5
58F
  8
0
 10
0.1080000000000005
 20
328.11568318633982
 30
0.0
 11
0.3009999999999984
 21
329.56068318633982
 31
0.0
  0
LINE
  5
590
  8
0
 10
0.3009999999999984
 20
329.56068318633982
 30
0.0
 11
0.6789999999999985
 21
330.95768318633981
 31
0.0
  0
LINE
  5
591
  8
0
 10
0.0549999999999997
 20
327.09568318633978
 30
0.0
 11
0.0629999999999988
 21
325.04068318633978
 31
0.0
  0
LINE
  5
592
  8
0
 10
0.0549999999999997
 20
327.09568318633978
 30
0.0
 11
0.1080000000000005
 21
328.11568318633982
 31
0.0
  0
LINE
  5
593
  8
0
 10
0.0629999999999988
 20
325.04068318633978
 30
0.0
 11
0.1789999999999985
 21
320.9006831863399
 31
0.0
  0
LINE
  5
594
  8
0
 10
0.6789999999999985
 20
330.95768318633981
 30
0.0
 11
1.457999999999998
 21
332.57068318633981
 31
0.0
  0
LINE
  5
595
  8
0
 10
0.6789999999999985
 20
330.95768318633981
 30
0.0
 11
1.457999999999998
 21
332.57068318633981
 31
0.0
  0
LINE
  5
596
  8
0
 10
0.6790999999999983
 20
309.5206831863398
 30
0.0
 11
0.7865000000000002
 21
311.3856831863398
 31
0.0
  0
LINE
  5
597
  8
0
 10
0.6790999999999983
 20
309.5206831863398
 30
0.0
 11
0.694700000000001
 21
307.43768318633983
 31
0.0
  0
LINE
  5
598
  8
0
 10
0.7865000000000002
 20
311.3856831863398
 30
0.0
 11
0.9308000000000014
 21
312.38668318633989
 31
0.0
  0
LINE
  5
599
  8
0
 10
0.694700000000001
 20
307.43768318633983
 30
0.0
 11
0.7078213806978049
 21
306.9641508272328
 31
0.0
  0
LINE
  5
59A
  8
0
 10
0.6771999999999993
 20
303.5596831863399
 30
0.0
 11
0.6832999999999992
 21
303.1576831863398
 31
0.0
  0
LINE
  5
59B
  8
0
 10
0.6683999999999984
 20
305.94968318633983
 30
0.0
 11
0.6771999999999993
 21
303.5596831863399
 31
0.0
  0
LINE
  5
59C
  8
0
 10
0.6683999999999984
 20
305.94968318633983
 30
0.0
 11
0.7119999999999999
 21
307.07168318633978
 31
0.0
  0
LINE
  5
59D
  8
0
 10
0.6832999999999992
 20
303.1576831863398
 30
0.0
 11
0.7282000000000011
 21
300.4796831863398
 31
0.0
  0
LINE
  5
59E
  8
0
 10
1.3210000000000011
 20
276.39468318633982
 30
0.0
 11
1.4359999999999991
 21
271.16168318633981
 31
0.0
  0
LINE
  5
59F
  8
0
 10
1.5529999999999999
 20
265.92968318633979
 30
0.0
 11
2.152000000000001
 21
240.4986831863398
 31
0.0
  0
LINE
  5
5A0
  8
0
 10
1.4359999999999991
 20
271.16168318633981
 30
0.0
 11
1.5529999999999999
 21
265.92968318633979
 31
0.0
  0
LINE
  5
5A1
  8
0
 10
1.0960000000000001
 20
286.85868318633982
 30
0.0
 11
1.2070000000000001
 21
281.62568318633981
 31
0.0
  0
LINE
  5
5A2
  8
0
 10
1.2070000000000001
 20
281.62568318633981
 30
0.0
 11
1.3210000000000011
 21
276.39468318633982
 31
0.0
  0
LINE
  5
5A3
  8
0
 10
2.152000000000001
 20
240.4986831863398
 30
0.0
 11
2.4679999999999991
 21
227.78768318633979
 31
0.0
  0
LINE
  5
5A4
  8
0
 10
2.4679999999999991
 20
227.78768318633979
 30
0.0
 11
2.7800000000000011
 21
214.90668318633979
 31
0.0
  0
LINE
  5
5A5
  8
0
 10
7.620393968027642
 20
230.49958337311901
 30
0.0
 11
8.2402999999999977
 21
230.1200831863398
 31
0.0
  0
LINE
  5
5A6
  8
0
 10
3.1331999999999982
 20
238.62378318633981
 30
0.0
 11
3.4841000000000011
 21
236.7520831863398
 31
0.0
  0
LINE
  5
5A7
  8
0
 10
3.4841000000000011
 20
236.7520831863398
 30
0.0
 11
3.5104000000000002
 21
236.62888318633981
 31
0.0
  0
LINE
  5
5A8
  8
0
 10
2.7978999999999981
 20
242.50148318633981
 30
0.0
 11
2.9802999999999988
 21
239.9248831863398
 31
0.0
  0
LINE
  5
5A9
  8
0
 10
2.9802999999999988
 20
239.9248831863398
 30
0.0
 11
3.1331999999999982
 21
238.62378318633981
 31
0.0
  0
LINE
  5
5AA
  8
0
 10
5.25
 20
232.68538318633981
 30
0.0
 11
5.727800000000002
 21
232.0705831863398
 31
0.0
  0
LINE
  5
5AB
  8
0
 10
4.047299999999999
 20
234.9078831863398
 30
0.0
 11
4.3951999999999991
 21
234.1125831863398
 31
0.0
  0
LINE
  5
5AC
  8
0
 10
4.3951999999999991
 20
234.1125831863398
 30
0.0
 11
4.7973999999999988
 21
233.36868318633981
 31
0.0
  0
LINE
  5
5AD
  8
0
 10
4.7973999999999988
 20
233.36868318633981
 30
0.0
 11
5.25
 21
232.68538318633981
 31
0.0
  0
LINE
  5
5AE
  8
0
 10
3.5104000000000002
 20
236.62888318633981
 30
0.0
 11
4.047299999999999
 21
234.9078831863398
 31
0.0
  0
LINE
  5
5AF
  8
0
 10
5.727800000000002
 20
232.0705831863398
 30
0.0
 11
6.5136000000000003
 21
231.30538318633981
 31
0.0
  0
LINE
  5
5B0
  8
0
 10
6.5136000000000003
 20
231.30538318633981
 30
0.0
 11
7.3590999999999971
 21
230.65498318633979
 31
0.0
  0
LINE
  5
5B1
  8
0
 10
7.6203939680276269
 20
230.49958337311901
 30
0.0
 11
8.2402999999999977
 21
230.1200831863398
 31
0.0
  0
LINE
  5
5B2
  8
0
 10
8.2402999999999977
 20
230.1200831863398
 30
0.0
 11
8.9849999999999994
 21
229.7580831863398
 31
0.0
  0
LINE
  5
5B3
  8
0
 10
8.9849999999999994
 20
229.7580831863398
 30
0.0
 11
9.7678999999999974
 21
229.4472831863398
 31
0.0
  0
LINE
  5
5B4
  8
0
 10
11.432700000000001
 20
228.96388318633981
 30
0.0
 11
12.6023
 21
228.72768318633979
 31
0.0
  0
LINE
  5
5B5
  8
0
 10
9.7678999999999974
 20
229.4472831863398
 30
0.0
 11
11.432700000000001
 21
228.96388318633981
 31
0.0
  0
LINE
  5
5B6
  8
0
 10
12.6023
 20
228.72768318633979
 30
0.0
 11
15.0366
 21
228.39118318633979
 31
0.0
  0
LINE
  5
5B7
  8
0
 10
2.4142999999999999
 20
250.17288318633979
 30
0.0
 11
2.7978999999999981
 21
242.50148318633981
 31
0.0
  0
LINE
  5
5B8
  8
0
 10
1.8485000000000009
 20
265.32798318633979
 30
0.0
 11
2.109799999999999
 21
257.77968318633981
 31
0.0
  0
LINE
  5
5B9
  8
0
 10
2.109799999999999
 20
257.77968318633981
 30
0.0
 11
2.4142999999999999
 21
250.17288318633979
 31
0.0
  0
LINE
  5
5BA
  8
0
 10
1.6215000000000011
 20
272.8496831863398
 30
0.0
 11
1.8485000000000009
 21
265.32798318633979
 31
0.0
  0
LINE
  5
5BB
  8
0
 10
1.005287122813658
 20
291.10717246283008
 30
0.0
 11
1.0409999999999999
 21
289.4266831863398
 31
0.0
  0
LINE
  5
5BC
  8
0
 10
0.9308000000000014
 20
312.38668318633989
 30
0.0
 11
1.1385000000000001
 21
313.30768318633989
 31
0.0
  0
LINE
  5
5BD
  8
0
 10
1.0409999999999999
 20
289.4266831863398
 30
0.0
 11
1.0960000000000001
 21
286.85868318633982
 31
0.0
  0
LINE
  5
5BE
  8
0
 10
1.1385000000000001
 20
313.30768318633989
 30
0.0
 11
1.4330999999999989
 21
314.2176831863398
 31
0.0
  0
LINE
  5
5BF
  8
0
 10
1.4330999999999989
 20
314.2176831863398
 30
0.0
 11
1.743200000000001
 21
314.93668318633979
 31
0.0
  0
LINE
  5
5C0
  8
0
 10
1.743200000000001
 20
314.93668318633979
 30
0.0
 11
2.1233
 21
315.63368318633979
 31
0.0
  0
LINE
  5
5C1
  8
0
 10
2.1233
 20
315.63368318633979
 30
0.0
 11
2.5171999999999981
 21
316.22068318633978
 31
0.0
  0
LINE
  5
5C2
  8
0
 10
2.9664000000000001
 20
316.7776831863398
 30
0.0
 11
3.6961000000000008
 21
317.5106831863398
 31
0.0
  0
LINE
  5
5C3
  8
0
 10
3.6961000000000008
 20
317.5106831863398
 30
0.0
 11
4.5157999999999978
 21
318.16168318633981
 31
0.0
  0
LINE
  5
5C4
  8
0
 10
4.5157999999999978
 20
318.16168318633981
 30
0.0
 11
5.418099999999999
 21
318.73568318633983
 31
0.0
  0
LINE
  5
5C5
  8
0
 10
5.418099999999999
 20
318.73568318633983
 30
0.0
 11
6.3733000000000004
 21
319.2276831863399
 31
0.0
  0
LINE
  5
5C6
  8
0
 10
6.3733000000000004
 20
319.2276831863399
 30
0.0
 11
7.4626999999999981
 21
319.68368318633981
 31
0.0
  0
LINE
  5
5C7
  8
0
 10
2.5171999999999981
 20
316.22068318633978
 30
0.0
 11
2.9664000000000001
 21
316.7776831863398
 31
0.0
  0
LINE
  5
5C8
  8
0
 10
1.457999999999998
 20
332.57068318633981
 30
0.0
 11
2.6060000000000012
 21
333.99368318633981
 31
0.0
  0
LINE
  5
5C9
  8
0
 10
2.6060000000000012
 20
333.99368318633981
 30
0.0
 11
3.8170000000000002
 21
334.99468318633978
 31
0.0
  0
LINE
  5
5CA
  8
0
 10
3.8170000000000002
 20
334.99468318633978
 30
0.0
 11
5.214999999999999
 21
335.82768318633981
 31
0.0
  0
LINE
  5
5CB
  8
0
 10
5.214999999999999
 20
335.82768318633981
 30
0.0
 11
6.5599999999999978
 21
336.43268318633977
 31
0.0
  0
LINE
  5
5CC
  8
0
 10
6.5599999999999978
 20
336.43268318633977
 30
0.0
 11
7.9679999999999991
 21
336.93968318633978
 31
0.0
  0
LINE
  5
5CD
  8
0
 10
7.9679999999999991
 20
336.93968318633978
 30
0.0
 11
9.9770000000000003
 21
337.52368318633978
 31
0.0
  0
LINE
  5
5CE
  8
0
 10
8.5790000000000006
 20
320.06768318633982
 30
0.0
 11
9.5897000000000006
 21
320.36268318633978
 31
0.0
  0
LINE
  5
5CF
  8
0
 10
7.4626999999999981
 20
319.68368318633981
 30
0.0
 11
8.5790000000000006
 21
320.06768318633982
 31
0.0
  0
LINE
  5
5D0
  8
0
 10
9.9770000000000003
 20
337.52368318633978
 30
0.0
 11
12.035
 21
337.9866831863398
 31
0.0
  0
LINE
  5
5D1
  8
0
 10
12.035
 20
337.9866831863398
 30
0.0
 11
14.695
 21
338.41868318633982
 31
0.0
  0
LINE
  5
5D2
  8
0
 10
12.1592
 20
320.9676831863398
 30
0.0
 11
14.4664
 21
321.36268318633978
 31
0.0
  0
LINE
  5
5D3
  8
0
 10
11.0162
 20
320.72268318633979
 30
0.0
 11
12.1592
 21
320.9676831863398
 31
0.0
  0
LINE
  5
5D4
  8
0
 10
9.5897000000000006
 20
320.36268318633978
 30
0.0
 11
11.0162
 21
320.72268318633979
 31
0.0
  0
LINE
  5
5D5
  8
0
 10
1.1466999999999989
 20
288.1080831863398
 30
0.0
 11
1.6215000000000011
 21
272.8496831863398
 31
0.0
  0
LINE
  5
5D6
  8
0
 10
1.0060999999999991
 20
291.0851831863398
 30
0.0
 11
1.1284999999999981
 21
288.06568318633981
 31
0.0
  0
LINE
  5
5D7
  8
0
 10
1.1284999999999981
 20
288.06568318633981
 30
0.0
 11
1.2140261828883709
 21
285.94445675629771
 31
0.0
  0
LINE
  5
5D8
  8
0
 10
0.8947000000000002
 20
294.09868318633983
 30
0.0
 11
1.0060999999999991
 21
291.0851831863398
 31
0.0
  0
LINE
  5
5D9
  8
0
 10
19.099
 20
199.27968318633981
 30
0.0
 11
23.0002
 21
199.20868318633981
 31
0.0
  0
LINE
  5
5DA
  8
0
 10
15.204000000000001
 20
199.50868318633979
 30
0.0
 11
19.099
 21
199.27968318633981
 31
0.0
  0
LINE
  5
5DB
  8
0
 10
26.901
 20
199.27968318633981
 30
0.0
 11
30.795000000000002
 21
199.50868318633979
 31
0.0
  0
LINE
  5
5DC
  8
0
 10
23.0002
 20
199.20868318633981
 30
0.0
 11
26.901
 21
199.27968318633981
 31
0.0
  0
LINE
  5
5DD
  8
0
 10
41.945529411764802
 20
205.6611572347831
 30
0.0
 11
42.34899999999999
 21
206.7066831863398
 31
0.0
  0
LINE
  5
5DE
  8
0
 10
42.34899999999999
 20
206.7066831863398
 30
0.0
 11
42.768999999999998
 21
208.55568318633979
 31
0.0
  0
LINE
  5
5DF
  8
0
 10
41.945529411764802
 20
205.6611572347831
 30
0.0
 11
42.34899999999999
 21
206.7066831863398
 31
0.0
  0
LINE
  5
5E0
  8
0
 10
40.75
 20
203.4496831863398
 30
0.0
 11
41.667999999999999
 21
204.93468318633981
 31
0.0
  0
LINE
  5
5E1
  8
0
 10
39.548000000000002
 20
202.20968318633979
 30
0.0
 11
40.75
 21
203.4496831863398
 31
0.0
  0
LINE
  5
5E2
  8
0
 10
38.094000000000001
 20
201.23868318633981
 30
0.0
 11
39.548000000000002
 21
202.20968318633979
 31
0.0
  0
LINE
  5
5E3
  8
0
 10
36.447000000000003
 20
200.5276831863398
 30
0.0
 11
38.094000000000001
 21
201.23868318633981
 31
0.0
  0
LINE
  5
5E4
  8
0
 10
36.320999999999998
 20
200.4796831863398
 30
0.0
 11
36.447000000000003
 21
200.5276831863398
 31
0.0
  0
LINE
  5
5E5
  8
0
 10
34.545999999999999
 20
199.9926831863398
 30
0.0
 11
36.320999999999998
 21
200.4796831863398
 31
0.0
  0
LINE
  5
5E6
  8
0
 10
33.313000000000009
 20
199.77468318633979
 30
0.0
 11
34.545999999999999
 21
199.9926831863398
 31
0.0
  0
LINE
  5
5E7
  8
0
 10
30.795000000000002
 20
199.50868318633979
 30
0.0
 11
33.313000000000009
 21
199.77468318633979
 31
0.0
  0
LINE
  5
5E8
  8
0
 10
14.695
 20
338.41868318633982
 30
0.0
 11
17.416
 21
338.7006831863398
 31
0.0
  0
LINE
  5
5E9
  8
0
 10
14.4664
 20
321.36268318633978
 30
0.0
 11
16.524000000000001
 21
321.61768318633978
 31
0.0
  0
LINE
  5
5EA
  8
0
 10
15.0366
 20
228.39118318633979
 30
0.0
 11
19.013100000000001
 21
228.06818318633981
 31
0.0
  0
LINE
  5
5EB
  8
0
 10
17.416
 20
338.7006831863398
 30
0.0
 11
20.187999999999999
 21
338.8546831863398
 31
0.0
  0
LINE
  5
5EC
  8
0
 10
16.524000000000001
 20
321.61768318633978
 30
0.0
 11
18.590299999999999
 21
321.79168318633981
 31
0.0
  0
LINE
  5
5ED
  8
0
 10
42.768999999999998
 20
208.55568318633979
 30
0.0
 11
43.017000000000003
 21
210.55268318633981
 31
0.0
  0
LINE
  5
5EE
  8
0
 10
43.049464730290403
 20
211.02545082119391
 30
0.0
 11
43.119
 21
212.0166831863398
 31
0.0
  0
LINE
  5
5EF
  8
0
 10
43.049464730290403
 20
211.02545082119391
 30
0.0
 11
43.119
 21
212.0166831863398
 31
0.0
  0
LINE
  5
5F0
  8
0
 10
43.119
 20
212.0166831863398
 30
0.0
 11
43.847999999999999
 21
240.4986831863398
 31
0.0
  0
LINE
  5
5F1
  8
0
 10
18.590299999999999
 20
321.79168318633981
 30
0.0
 11
20.6617
 21
321.89468318633982
 31
0.0
  0
LINE
  5
5F2
  8
0
 10
20.6617
 20
321.89468318633982
 30
0.0
 11
23.0
 21
321.93268318633977
 31
0.0
  0
LINE
  5
5F3
  8
0
 10
19.013100000000001
 20
228.06818318633981
 30
0.0
 11
23.0001
 21
227.9539831863398
 31
0.0
  0
LINE
  5
5F4
  8
0
 10
23.0
 20
321.93268318633977
 30
0.0
 11
25.960599999999999
 21
321.87168318633991
 31
0.0
  0
LINE
  5
5F5
  8
0
 10
23.0001
 20
227.9539831863398
 30
0.0
 11
26.987100000000002
 21
228.06828318633981
 31
0.0
  0
LINE
  5
5F6
  8
0
 10
20.187999999999999
 20
338.8546831863398
 30
0.0
 11
21.0
 21
338.86825453870978
 31
0.0
  0
LINE
  5
5F7
  8
0
 10
25.0
 20
338.86825550398981
 30
0.0
 11
25.812000000000001
 21
338.8546831863398
 31
0.0
  0
LINE
  5
5F8
  8
0
 10
26.987100000000002
 20
228.06828318633981
 30
0.0
 11
30.963899999999992
 21
228.3898831863398
 31
0.0
  0
LINE
  5
5F9
  8
0
 10
33.397599999999997
 20
228.72768318633979
 30
0.0
 11
34.5672
 21
228.96388318633981
 31
0.0
  0
LINE
  5
5FA
  8
0
 10
30.963899999999992
 20
228.3898831863398
 30
0.0
 11
33.397599999999997
 21
228.72768318633979
 31
0.0
  0
LINE
  5
5FB
  8
0
 10
34.5672
 20
228.96388318633981
 30
0.0
 11
36.231999999999999
 21
229.4472831863398
 31
0.0
  0
LINE
  5
5FC
  8
0
 10
36.231999999999999
 20
229.4472831863398
 30
0.0
 11
37.015099999999997
 21
229.7580831863398
 31
0.0
  0
LINE
  5
5FD
  8
0
 10
37.015099999999997
 20
229.7580831863398
 30
0.0
 11
37.759700000000002
 21
230.1200831863398
 31
0.0
  0
LINE
  5
5FE
  8
0
 10
37.759700000000002
 20
230.1200831863398
 30
0.0
 11
38.377156515045201
 21
230.4981096321813
 31
0.0
  0
LINE
  5
5FF
  8
0
 10
37.759700000000002
 20
230.1200831863398
 30
0.0
 11
38.377156515045201
 21
230.4981096321813
 31
0.0
  0
LINE
  5
600
  8
0
 10
39.48640000000001
 20
231.30538318633981
 30
0.0
 11
40.2699
 21
232.06818318633981
 31
0.0
  0
LINE
  5
601
  8
0
 10
38.640900000000002
 20
230.65498318633979
 30
0.0
 11
39.48640000000001
 21
231.30538318633981
 31
0.0
  0
LINE
  5
602
  8
0
 10
40.2699
 20
232.06818318633981
 30
0.0
 11
40.75
 21
232.68548318633981
 31
0.0
  0
LINE
  5
603
  8
0
 10
41.202500000000001
 20
233.36878318633981
 30
0.0
 11
41.604900000000001
 21
234.1125831863398
 31
0.0
  0
LINE
  5
604
  8
0
 10
41.604900000000001
 20
234.1125831863398
 30
0.0
 11
41.952800000000003
 21
234.90798318633981
 31
0.0
  0
LINE
  5
605
  8
0
 10
40.75
 20
232.68548318633981
 30
0.0
 11
41.202500000000001
 21
233.36878318633981
 31
0.0
  0
LINE
  5
606
  8
0
 10
32.31730000000001
 20
321.24268318633978
 30
0.0
 11
34.192
 21
320.8956831863398
 31
0.0
  0
LINE
  5
607
  8
0
 10
25.812000000000001
 20
338.8546831863398
 30
0.0
 11
28.58400000000001
 21
338.69968318633983
 31
0.0
  0
LINE
  5
608
  8
0
 10
25.960599999999999
 20
321.87168318633991
 30
0.0
 11
28.1982
 21
321.73468318633979
 31
0.0
  0
LINE
  5
609
  8
0
 10
33.965000000000003
 20
337.9866831863398
 30
0.0
 11
36.023000000000003
 21
337.52368318633978
 31
0.0
  0
LINE
  5
60A
  8
0
 10
31.305
 20
338.41868318633982
 30
0.0
 11
33.965000000000003
 21
337.9866831863398
 31
0.0
  0
LINE
  5
60B
  8
0
 10
28.58400000000001
 20
338.69968318633983
 30
0.0
 11
31.305
 21
338.41868318633982
 31
0.0
  0
LINE
  5
60C
  8
0
 10
28.1982
 20
321.73468318633979
 30
0.0
 11
30.428200000000011
 21
321.5106831863398
 31
0.0
  0
LINE
  5
60D
  8
0
 10
30.428200000000011
 20
321.5106831863398
 30
0.0
 11
32.31730000000001
 21
321.24268318633978
 31
0.0
  0
LINE
  5
60E
  8
0
 10
39.546700000000001
 20
319.26368318633979
 30
0.0
 11
40.541499999999992
 21
318.75768318633982
 31
0.0
  0
LINE
  5
60F
  8
0
 10
40.541499999999992
 20
318.75768318633982
 30
0.0
 11
41.4298
 21
318.19968318633983
 31
0.0
  0
LINE
  5
610
  8
0
 10
38.513599999999997
 20
319.69268318633982
 30
0.0
 11
39.546700000000001
 21
319.26368318633979
 31
0.0
  0
LINE
  5
611
  8
0
 10
41.4298
 20
318.19968318633983
 30
0.0
 11
42.249499999999991
 21
317.55868318633981
 31
0.0
  0
LINE
  5
612
  8
0
 10
37.298099999999998
 20
320.10568318633977
 30
0.0
 11
38.513599999999997
 21
319.69268318633982
 31
0.0
  0
LINE
  5
613
  8
0
 10
42.183
 20
334.99468318633978
 30
0.0
 11
43.393999999999998
 21
333.99368318633981
 31
0.0
  0
LINE
  5
614
  8
0
 10
40.784999999999997
 20
335.82768318633981
 30
0.0
 11
42.183
 21
334.99468318633978
 31
0.0
  0
LINE
  5
615
  8
0
 10
39.439999999999998
 20
336.43268318633977
 30
0.0
 11
40.784999999999997
 21
335.82768318633981
 31
0.0
  0
LINE
  5
616
  8
0
 10
38.031999999999996
 20
336.93968318633978
 30
0.0
 11
39.439999999999998
 21
336.43268318633977
 31
0.0
  0
LINE
  5
617
  8
0
 10
36.023000000000003
 20
337.52368318633978
 30
0.0
 11
38.031999999999996
 21
336.93968318633978
 31
0.0
  0
LINE
  5
618
  8
0
 10
36.410299999999999
 20
320.36268318633978
 30
0.0
 11
37.298099999999998
 21
320.10568318633977
 31
0.0
  0
LINE
  5
619
  8
0
 10
34.192
 20
320.8956831863398
 30
0.0
 11
36.410299999999999
 21
320.36268318633978
 31
0.0
  0
LINE
  5
61A
  8
0
 10
42.249499999999991
 20
317.55868318633981
 30
0.0
 11
43.206499999999991
 21
316.57468318633983
 31
0.0
  0
LINE
  5
61B
  8
0
 10
42.515999999999991
 20
236.7519831863398
 30
0.0
 11
42.866900000000001
 21
238.62378318633981
 31
0.0
  0
LINE
  5
61C
  8
0
 10
43.847999999999999
 20
240.4986831863398
 30
0.0
 11
44.447000000000003
 21
265.92968318633979
 31
0.0
  0
LINE
  5
61D
  8
0
 10
43.8917
 20
257.7914831863398
 30
0.0
 11
44.151499999999992
 21
265.32798318633979
 31
0.0
  0
LINE
  5
61E
  8
0
 10
43.585700000000003
 20
250.17298318633979
 30
0.0
 11
43.8917
 21
257.7914831863398
 31
0.0
  0
LINE
  5
61F
  8
0
 10
44.564
 20
271.16168318633981
 30
0.0
 11
44.679000000000002
 21
276.39468318633982
 31
0.0
  0
LINE
  5
620
  8
0
 10
44.447000000000003
 20
265.92968318633979
 30
0.0
 11
44.564
 21
271.16168318633981
 31
0.0
  0
LINE
  5
621
  8
0
 10
44.151499999999992
 20
265.32798318633979
 30
0.0
 11
44.378500000000003
 21
272.84978318633989
 31
0.0
  0
LINE
  5
622
  8
0
 10
44.679000000000002
 20
276.39468318633982
 30
0.0
 11
44.792999999999999
 21
281.62668318633979
 31
0.0
  0
LINE
  5
623
  8
0
 10
43.393999999999998
 20
333.99368318633981
 30
0.0
 11
44.542000000000002
 21
332.57068318633981
 31
0.0
  0
LINE
  5
624
  8
0
 10
44.542000000000002
 20
332.57068318633981
 30
0.0
 11
45.320999999999991
 21
330.95768318633981
 31
0.0
  0
LINE
  5
625
  8
0
 10
44.433500000000002
 20
314.54968318633991
 30
0.0
 11
44.772199999999991
 21
313.61768318633978
 31
0.0
  0
LINE
  5
626
  8
0
 10
43.9846
 20
315.45168318633978
 30
0.0
 11
44.433500000000002
 21
314.54968318633991
 31
0.0
  0
LINE
  5
627
  8
0
 10
44.772199999999991
 20
313.61768318633978
 30
0.0
 11
45.026600000000002
 21
312.60768318633978
 31
0.0
  0
LINE
  5
628
  8
0
 10
43.206499999999991
 20
316.57468318633983
 30
0.0
 11
43.9846
 21
315.45168318633978
 31
0.0
  0
LINE
  5
629
  8
0
 10
44.378500000000003
 20
272.84978318633989
 30
0.0
 11
44.853299999999997
 21
288.10798318633982
 31
0.0
  0
LINE
  5
62A
  8
0
 10
44.792999999999999
 20
281.62668318633979
 30
0.0
 11
44.904000000000003
 21
286.85868318633982
 31
0.0
  0
LINE
  5
62B
  8
0
 10
44.904000000000003
 20
286.85868318633982
 30
0.0
 11
44.959000000000003
 21
289.4266831863398
 31
0.0
  0
LINE
  5
62C
  8
0
 10
44.959000000000003
 20
289.4266831863398
 30
0.0
 11
44.995410500962301
 21
291.13999953717843
 31
0.0
  0
LINE
  5
62D
  8
0
 10
44.87149999999999
 20
288.0654831863398
 30
0.0
 11
44.97399999999999
 21
290.58128318633982
 31
0.0
  0
LINE
  5
62E
  8
0
 10
45.070399999999992
 20
293.09688318633982
 30
0.0
 11
45.154000000000003
 21
295.61228318633982
 31
0.0
  0
LINE
  5
62F
  8
0
 10
44.97399999999999
 20
290.58128318633982
 30
0.0
 11
45.070399999999992
 21
293.09688318633982
 31
0.0
  0
LINE
  5
630
  8
0
 10
45.154000000000003
 20
295.61228318633982
 30
0.0
 11
45.222000000000001
 21
298.12748318633982
 31
0.0
  0
LINE
  5
631
  8
0
 10
45.222000000000001
 20
298.12748318633982
 30
0.0
 11
45.258699999999997
 21
299.80458318633981
 31
0.0
  0
LINE
  5
632
  8
0
 10
45.293048959073801
 20
306.99152109457083
 30
0.0
 11
45.305300000000003
 21
307.43768318633983
 31
0.0
  0
LINE
  5
633
  8
0
 10
45.026600000000002
 20
312.60768318633978
 30
0.0
 11
45.189700000000002
 21
311.5926831863398
 31
0.0
  0
LINE
  5
634
  8
0
 10
45.305300000000003
 20
307.43768318633983
 30
0.0
 11
45.324499999999993
 21
309.20868318633978
 31
0.0
  0
LINE
  5
635
  8
0
 10
45.2669
 20
310.7946831863398
 30
0.0
 11
45.324499999999993
 21
309.20868318633978
 31
0.0
  0
LINE
  5
636
  8
0
 10
45.189700000000002
 20
311.5926831863398
 30
0.0
 11
45.2669
 21
310.7946831863398
 31
0.0
  0
LINE
  5
637
  8
0
 10
45.292900000000003
 20
306.99568318633982
 30
0.0
 11
45.3337
 21
305.85568318633977
 31
0.0
  0
LINE
  5
638
  8
0
 10
45.3243358973087
 20
306.11732723212782
 30
0.0
 11
45.350999999999992
 21
307.26868318633979
 31
0.0
  0
LINE
  5
639
  8
0
 10
45.350999999999992
 20
307.26868318633979
 30
0.0
 11
45.396000000000001
 21
309.23468318633979
 31
0.0
  0
LINE
  5
63A
  8
0
 10
45.320999999999991
 20
330.95768318633981
 30
0.0
 11
45.698999999999991
 21
329.56068318633982
 31
0.0
  0
LINE
  5
63B
  8
0
 10
45.892000000000003
 20
328.11568318633982
 30
0.0
 11
45.945
 21
327.09568318633978
 31
0.0
  0
LINE
  5
63C
  8
0
 10
45.698999999999991
 20
329.56068318633982
 30
0.0
 11
45.892000000000003
 21
328.11568318633982
 31
0.0
  0
LINE
  5
63D
  8
0
 10
45.936
 20
325.04068318633978
 30
0.0
 11
45.945
 21
327.09568318633978
 31
0.0
  0
LINE
  5
63E
  8
0
 10
45.820999999999991
 20
320.9006831863399
 30
0.0
 11
45.936
 21
325.04068318633978
 31
0.0
  0
LINE
  5
63F
  8
0
 10
45.396000000000001
 20
309.23468318633979
 30
0.0
 11
45.820999999999991
 21
320.9006831863399
 31
0.0
  0
LINE
  5
640
  8
0
 10
45.322800000000001
 20
303.5596831863399
 30
0.0
 11
45.3337
 21
305.85568318633977
 31
0.0
  0
LINE
  5
641
  8
0
 10
45.316699999999997
 20
303.1576831863398
 30
0.0
 11
45.322800000000001
 21
303.5596831863399
 31
0.0
  0
LINE
  5
642
  8
0
 10
45.258699999999997
 20
299.80458318633981
 30
0.0
 11
45.316699999999997
 21
303.1576831863398
 31
0.0
  0
LINE
  5
643
  8
0
 10
44.788110893891989
 20
286.01306233794799
 30
0.0
 11
44.87149999999999
 21
288.0654831863398
 31
0.0
  0
LINE
  5
644
  8
0
 10
43.206600000000002
 20
242.56988318633981
 30
0.0
 11
43.585700000000003
 21
250.17298318633979
 31
0.0
  0
LINE
  5
645
  8
0
 10
43.019699999999993
 20
239.9248831863398
 30
0.0
 11
43.206600000000002
 21
242.56988318633981
 31
0.0
  0
LINE
  5
646
  8
0
 10
42.866900000000001
 20
238.62378318633981
 30
0.0
 11
43.019699999999993
 21
239.9248831863398
 31
0.0
  0
LINE
  5
647
  8
0
 10
42.489600000000003
 20
236.62888318633981
 30
0.0
 11
42.515999999999991
 21
236.7519831863398
 31
0.0
  0
LINE
  5
648
  8
0
 10
41.952800000000003
 20
234.90798318633981
 30
0.0
 11
42.489600000000003
 21
236.62888318633981
 31
0.0
  0
LINE
  5
649
  8
0
 10
0.4420000000000002
 20
314.76368318633979
 30
0.0
 11
0.562999999999999
 21
310.99068318633982
 31
0.0
  0
LINE
  5
64A
  8
0
 10
43.017000000000003
 20
210.55268318633981
 30
0.0
 11
43.049464730290403
 21
211.02545082119391
 31
0.0
  0
LINE
  5
64B
  8
0
 10
41.667999999999999
 20
204.93468318633981
 30
0.0
 11
41.945529411764802
 21
205.6611572347831
 31
0.0
  0
LINE
  5
64C
  8
0
 10
4.3319999999999999
 20
204.93468318633981
 30
0.0
 11
4.0544705882353176
 21
205.66115723478271
 31
0.0
  0
LINE
  5
64D
  8
0
 10
2.9830000000000001
 20
210.55268318633981
 30
0.0
 11
2.9505352697095608
 21
211.0254508211944
 31
0.0
  0
LINE
  5
64E
  8
0
 10
7.6203939680276269
 20
230.49958337311901
 30
0.0
 11
7.3590999999999971
 21
230.65498318633979
 31
0.0
  0
LINE
  5
64F
  8
0
 10
38.377156515045201
 20
230.4981096321813
 30
0.0
 11
38.640900000000002
 21
230.65498318633979
 31
0.0
  0
LINE
  5
650
  8
0
 10
21.0
 20
338.86825453870978
 30
0.0
 11
25.0
 21
338.86825550398981
 31
0.0
  0
LINE
  5
751
  8
0
 10
152.75759083819099
 20
84.4495
 30
0.0
 11
153.348590838191
 21
83.804500000000004
 31
0.0
  0
LINE
  5
752
  8
0
 10
152.57759083819101
 20
84.811499999999995
 30
0.0
 11
152.75759083819099
 21
84.4495
 31
0.0
  0
LINE
  5
753
  8
0
 10
152.53459083819109
 20
85.364500000000007
 30
0.0
 11
152.78159083819099
 21
85.862499999999983
 31
0.0
  0
LINE
  5
754
  8
0
 10
152.53459083819109
 20
85.364500000000007
 30
0.0
 11
152.57759083819101
 21
84.811499999999995
 31
0.0
  0
LINE
  5
755
  8
0
 10
152.78159083819099
 20
85.862499999999983
 30
0.0
 11
153.08359083819099
 21
86.133499999999998
 31
0.0
  0
LINE
  5
756
  8
0
 10
153.87159083819111
 20
86.516499999999994
 30
0.0
 11
156.73459083819111
 21
87.508499999999984
 31
0.0
  0
LINE
  5
757
  8
0
 10
153.08359083819099
 20
86.133499999999998
 30
0.0
 11
153.87159083819111
 21
86.516499999999994
 31
0.0
  0
LINE
  5
758
  8
0
 10
153.348590838191
 20
83.804500000000004
 30
0.0
 11
156.97959083819109
 21
80.505499999999984
 31
0.0
  0
LINE
  5
759
  8
0
 10
155.32924083819111
 20
77.568200000000004
 30
0.0
 11
157.3570751788435
 21
80.217470084339496
 31
0.0
  0
LINE
  5
75A
  8
0
 10
155.32924083819111
 20
77.568200000000004
 30
0.0
 11
157.3570751788435
 21
80.217470084339496
 31
0.0
  0
LINE
  5
75B
  8
0
 10
155.27424083819099
 20
77.165199999999999
 30
0.0
 11
155.40154083819101
 21
76.999200000000002
 31
0.0
  0
LINE
  5
75C
  8
0
 10
155.24764083819099
 20
77.374200000000002
 30
0.0
 11
155.27424083819099
 21
77.165199999999999
 31
0.0
  0
LINE
  5
75D
  8
0
 10
155.24764083819099
 20
77.374200000000002
 30
0.0
 11
155.32924083819111
 21
77.568200000000004
 31
0.0
  0
LINE
  5
75E
  8
0
 10
157.1485908381911
 20
80.376499999999993
 30
0.0
 11
157.57859083819099
 21
80.048500000000004
 31
0.0
  0
LINE
  5
75F
  8
0
 10
156.97959083819109
 20
80.505499999999984
 30
0.0
 11
157.15359083819101
 21
80.372500000000002
 31
0.0
  0
LINE
  5
760
  8
0
 10
156.97959083819109
 20
80.505499999999984
 30
0.0
 11
157.1485908381911
 21
80.376499999999993
 31
0.0
  0
LINE
  5
761
  8
0
 10
156.73459083819111
 20
87.508499999999984
 30
0.0
 11
159.63359083819111
 21
88.335499999999996
 31
0.0
  0
LINE
  5
762
  8
0
 10
157.57859083819099
 20
80.048500000000004
 30
0.0
 11
158.25859083819111
 21
79.530500000000004
 31
0.0
  0
LINE
  5
763
  8
0
 10
158.25859083819111
 20
79.530500000000004
 30
0.0
 11
159.16759083819099
 21
78.833500000000001
 31
0.0
  0
LINE
  5
764
  8
0
 10
159.16759083819099
 20
78.833500000000001
 30
0.0
 11
160.20759083819101
 21
78.034499999999994
 31
0.0
  0
LINE
  5
765
  8
0
 10
157.15359083819101
 20
80.372500000000002
 30
0.0
 11
157.23112638321621
 21
80.313542654027401
 31
0.0
  0
LINE
  5
766
  8
0
 10
159.63359083819111
 20
88.335499999999996
 30
0.0
 11
162.56159083819111
 21
89.017499999999984
 31
0.0
  0
LINE
  5
767
  8
0
 10
160.20759083819101
 20
78.034499999999994
 30
0.0
 11
161.44359083819111
 21
77.099500000000006
 31
0.0
  0
LINE
  5
768
  8
0
 10
161.44359083819111
 20
77.099500000000006
 30
0.0
 11
162.80859083819101
 21
76.082499999999996
 31
0.0
  0
LINE
  5
769
  8
0
 10
162.56159083819111
 20
89.017499999999984
 30
0.0
 11
165.51359083819111
 21
89.574499999999986
 31
0.0
  0
LINE
  5
76A
  8
0
 10
162.80859083819101
 20
76.082499999999996
 30
0.0
 11
164.27259083819101
 21
74.991500000000002
 31
0.0
  0
LINE
  5
76B
  8
0
 10
173.819490838191
 20
62.903199999999998
 30
0.0
 11
174.01319083819101
 21
62.8232
 31
0.0
  0
LINE
  5
76C
  8
0
 10
174.01319083819101
 20
62.8232
 30
0.0
 11
174.22169083819111
 21
62.852200000000011
 31
0.0
  0
LINE
  5
76D
  8
0
 10
272.05159083819109
 20
-0.1675000000000182
 30
0.0
 11
274.2265908381911
 21
-0.1675000000000182
 31
0.0
  0
LINE
  5
76E
  8
0
 10
267.76759083819098
 20
-0.1675000000000182
 30
0.0
 11
269.89759083819098
 21
-0.1675000000000182
 31
0.0
  0
LINE
  5
76F
  8
0
 10
264.6305908381911
 20
-0.1675000000000182
 30
0.0
 11
267.76759083819098
 21
-0.1675000000000182
 31
0.0
  0
LINE
  5
770
  8
0
 10
262.7625908381911
 20
-0.1675000000000182
 30
0.0
 11
264.6305908381911
 21
-0.1675000000000182
 31
0.0
  0
LINE
  5
771
  8
0
 10
260.93759083819111
 20
-0.1675000000000182
 30
0.0
 11
262.7625908381911
 21
-0.1675000000000182
 31
0.0
  0
LINE
  5
772
  8
0
 10
259.16259083819108
 20
-0.1675000000000182
 30
0.0
 11
260.93759083819111
 21
-0.1675000000000182
 31
0.0
  0
LINE
  5
773
  8
0
 10
257.44659083819113
 20
-0.1675000000000182
 30
0.0
 11
259.16259083819108
 21
-0.1675000000000182
 31
0.0
  0
LINE
  5
774
  8
0
 10
255.95159083819109
 20
-0.1675000000000182
 30
0.0
 11
257.44659083819113
 21
-0.1675000000000182
 31
0.0
  0
LINE
  5
775
  8
0
 10
254.52059083819111
 20
-0.1675000000000182
 30
0.0
 11
255.95159083819109
 21
-0.1675000000000182
 31
0.0
  0
LINE
  5
776
  8
0
 10
253.16559083819109
 20
-0.1675000000000182
 30
0.0
 11
254.52059083819111
 21
-0.1675000000000182
 31
0.0
  0
LINE
  5
777
  8
0
 10
251.8935908381911
 20
-0.1675000000000182
 30
0.0
 11
253.16559083819109
 21
-0.1675000000000182
 31
0.0
  0
LINE
  5
778
  8
0
 10
250.89159083819109
 20
-0.1675000000000182
 30
0.0
 11
251.8935908381911
 21
-0.1675000000000182
 31
0.0
  0
LINE
  5
779
  8
0
 10
249.96059083819111
 20
-0.1675000000000182
 30
0.0
 11
250.89159083819109
 21
-0.1675000000000182
 31
0.0
  0
LINE
  5
77A
  8
0
 10
249.10559083819109
 20
-0.1675000000000182
 30
0.0
 11
249.96059083819111
 21
-0.1675000000000182
 31
0.0
  0
LINE
  5
77B
  8
0
 10
248.33159083819109
 20
-0.1675000000000182
 30
0.0
 11
249.10559083819109
 21
-0.1675000000000182
 31
0.0
  0
LINE
  5
77C
  8
0
 10
247.6435908381911
 20
-0.1675000000000182
 30
0.0
 11
248.33159083819109
 21
-0.1675000000000182
 31
0.0
  0
LINE
  5
77D
  8
0
 10
247.04559083819109
 20
-0.1675000000000182
 30
0.0
 11
247.6435908381911
 21
-0.1675000000000182
 31
0.0
  0
LINE
  5
77E
  8
0
 10
246.5895908381911
 20
-0.1675000000000182
 30
0.0
 11
247.04559083819109
 21
-0.1675000000000182
 31
0.0
  0
LINE
  5
77F
  8
0
 10
246.211590838191
 20
-0.1675000000000182
 30
0.0
 11
246.5895908381911
 21
-0.1675000000000182
 31
0.0
  0
LINE
  5
780
  8
0
 10
245.91559083819109
 20
-0.1675000000000182
 30
0.0
 11
246.211590838191
 21
-0.1675000000000182
 31
0.0
  0
LINE
  5
781
  8
0
 10
245.70159083819109
 20
-0.1675000000000182
 30
0.0
 11
245.91559083819109
 21
-0.1675000000000182
 31
0.0
  0
LINE
  5
782
  8
0
 10
269.89759083819098
 20
-0.1675000000000182
 30
0.0
 11
272.05159083819109
 21
-0.1675000000000182
 31
0.0
  0
LINE
  5
783
  8
0
 10
245.5725908381911
 20
-0.1675000000000182
 30
0.0
 11
245.70159083819109
 21
-0.1675000000000182
 31
0.0
  0
LINE
  5
784
  8
0
 10
274.2265908381911
 20
-0.1675000000000182
 30
0.0
 11
278.36659083819109
 21
-0.1675000000000182
 31
0.0
  0
LINE
  5
785
  8
0
 10
285.89659083819112
 20
-0.1675000000000182
 30
0.0
 11
287.319590838191
 21
-0.1675000000000182
 31
0.0
  0
LINE
  5
786
  8
0
 10
287.319590838191
 20
-0.1675000000000182
 30
0.0
 11
288.32059083819098
 21
-0.1675000000000182
 31
0.0
  0
LINE
  5
787
  8
0
 10
280.42159083819098
 20
-0.1675000000000182
 30
0.0
 11
281.44159083819108
 21
-0.1675000000000182
 31
0.0
  0
LINE
  5
788
  8
0
 10
281.44159083819108
 20
-0.1675000000000182
 30
0.0
 11
282.88659083819101
 21
-0.1675000000000182
 31
0.0
  0
LINE
  5
789
  8
0
 10
282.88659083819101
 20
-0.1675000000000182
 30
0.0
 11
284.28359083819112
 21
-0.1675000000000182
 31
0.0
  0
LINE
  5
78A
  8
0
 10
284.28359083819112
 20
-0.1675000000000182
 30
0.0
 11
285.89659083819112
 21
-0.1675000000000182
 31
0.0
  0
LINE
  5
78B
  8
0
 10
278.36659083819109
 20
-0.1675000000000182
 30
0.0
 11
280.42159083819098
 21
-0.1675000000000182
 31
0.0
  0
LINE
  5
78C
  8
0
 10
288.32059083819098
 20
-0.1675000000000182
 30
0.0
 11
289.15359083819112
 21
-0.1675000000000182
 31
0.0
  0
LINE
  5
78D
  8
0
 10
288.97732294828307
 20
21.536588073393698
 30
0.0
 11
289.03959083819109
 21
21.1525
 31
0.0
  0
LINE
  5
78E
  8
0
 10
288.97732294828307
 20
21.536588073393698
 30
0.0
 11
289.03959083819109
 21
21.1525
 31
0.0
  0
LINE
  5
78F
  8
0
 10
289.03959083819109
 20
21.1525
 30
0.0
 11
289.08059083819097
 21
20.901499999999999
 31
0.0
  0
LINE
  5
790
  8
0
 10
289.01859083819107
 20
21.278500000000001
 30
0.0
 11
289.08059083819097
 21
20.901499999999999
 31
0.0
  0
LINE
  5
791
  8
0
 10
289.08059083819097
 20
20.901499999999999
 30
0.0
 11
289.11359083819099
 21
20.701499999999989
 31
0.0
  0
LINE
  5
792
  8
0
 10
288.95559083819097
 20
21.672499999999999
 30
0.0
 11
289.01859083819107
 21
21.278500000000001
 31
0.0
  0
LINE
  5
793
  8
0
 10
287.96359083819101
 20
28.200500000000009
 30
0.0
 11
288.146590838191
 21
26.9315
 31
0.0
  0
LINE
  5
794
  8
0
 10
288.8395908381911
 20
22.395499999999998
 30
0.0
 11
288.95559083819097
 21
21.672499999999999
 31
0.0
  0
LINE
  5
795
  8
0
 10
288.53659083819099
 20
24.328499999999998
 30
0.0
 11
288.69559083819098
 21
23.3035
 31
0.0
  0
LINE
  5
796
  8
0
 10
288.33959083819099
 20
25.6295
 30
0.0
 11
288.53659083819099
 21
24.328499999999998
 31
0.0
  0
LINE
  5
797
  8
0
 10
288.69559083819098
 20
23.3035
 30
0.0
 11
288.8395908381911
 21
22.395499999999998
 31
0.0
  0
LINE
  5
798
  8
0
 10
288.146590838191
 20
26.9315
 30
0.0
 11
288.33959083819099
 21
25.6295
 31
0.0
  0
LINE
  5
799
  8
0
 10
287.82459083819111
 20
29.189499999999999
 30
0.0
 11
287.96359083819101
 21
28.200500000000009
 31
0.0
  0
LINE
  5
79A
  8
0
 10
287.72359083819111
 20
29.923500000000001
 30
0.0
 11
287.82459083819111
 21
29.189499999999999
 31
0.0
  0
LINE
  5
79B
  8
0
 10
287.63859083819108
 20
30.540500000000002
 30
0.0
 11
287.72359083819111
 21
29.923500000000001
 31
0.0
  0
LINE
  5
79C
  8
0
 10
287.57859083819102
 20
30.987500000000001
 30
0.0
 11
287.59060705440709
 21
30.895991891891899
 31
0.0
  0
LINE
  5
79D
  8
0
 10
287.60559083819112
 20
30.789500000000011
 30
0.0
 11
287.63859083819108
 21
30.540500000000002
 31
0.0
  0
LINE
  5
79E
  8
0
 10
287.5775908381911
 20
30.988499999999998
 30
0.0
 11
287.60559083819112
 21
30.789500000000011
 31
0.0
  0
LINE
  5
79F
  8
0
 10
290.84959083819098
 20
-0.1675000000000182
 30
0.0
 11
291.312590838191
 21
-0.1675000000000182
 31
0.0
  0
LINE
  5
7A0
  8
0
 10
291.312590838191
 20
-0.1675000000000182
 30
0.0
 11
291.74459083819107
 21
-0.1675000000000182
 31
0.0
  0
LINE
  5
7A1
  8
0
 10
291.74459083819107
 20
-0.1675000000000182
 30
0.0
 11
292.02559083819108
 21
-0.1675000000000182
 31
0.0
  0
LINE
  5
7A2
  8
0
 10
291.74459083819107
 20
-0.1675000000000182
 30
0.0
 11
292.02659083819111
 21
-0.1675000000000182
 31
0.0
  0
LINE
  5
7A3
  8
0
 10
292.02659083819111
 20
-0.1675000000000182
 30
0.0
 11
292.18059083819111
 21
-0.1675000000000182
 31
0.0
  0
LINE
  5
7A4
  8
0
 10
292.02559083819108
 20
-0.1675000000000182
 30
0.0
 11
292.18059083819111
 21
-0.1675000000000182
 31
0.0
  0
LINE
  5
7A5
  8
0
 10
289.15359083819112
 20
-0.1675000000000182
 30
0.0
 11
289.75859083819108
 21
-0.1675000000000182
 31
0.0
  0
LINE
  5
7A6
  8
0
 10
289.75859083819108
 20
-0.1675000000000182
 30
0.0
 11
290.26559083819109
 21
-0.1675000000000182
 31
0.0
  0
LINE
  5
7A7
  8
0
 10
290.26559083819109
 20
-0.1675000000000182
 30
0.0
 11
290.84959083819098
 21
-0.1675000000000182
 31
0.0
  0
LINE
  5
7A8
  8
0
 10
289.11359083819099
 20
20.701499999999989
 30
0.0
 11
292.22759083819108
 21
-0.1675000000000182
 31
0.0
  0
LINE
  5
7A9
  8
0
 10
289.11359083819099
 20
20.701499999999989
 30
0.0
 11
292.22759083819108
 21
-0.1675000000000182
 31
0.0
  0
LINE
  5
7AA
  8
0
 10
240.40859083819109
 20
39.0595
 30
0.0
 11
245.5295908381911
 21
-0.1675000000000182
 31
0.0
  0
LINE
  5
7AB
  8
0
 10
240.40859083819109
 20
39.0595
 30
0.0
 11
245.5295908381911
 21
-0.1675000000000182
 31
0.0
  0
LINE
  5
7AC
  8
0
 10
239.69259083819099
 20
44.206500000000013
 30
0.0
 11
240.40859083819109
 21
39.0595
 31
0.0
  0
LINE
  5
7AD
  8
0
 10
237.01059083819109
 20
54.666499999999999
 30
0.0
 11
237.83159083819109
 21
52.468500000000013
 31
0.0
  0
LINE
  5
7AE
  8
0
 10
237.83159083819109
 20
52.468500000000013
 30
0.0
 11
238.5245908381911
 21
50.08250000000001
 31
0.0
  0
LINE
  5
7AF
  8
0
 10
238.5245908381911
 20
50.08250000000001
 30
0.0
 11
239.27859083819101
 21
46.642499999999998
 31
0.0
  0
LINE
  5
7B0
  8
0
 10
239.27859083819101
 20
46.642499999999998
 30
0.0
 11
239.69259083819099
 21
44.206500000000013
 31
0.0
  0
LINE
  5
7B1
  8
0
 10
235.7095908381911
 20
57.277500000000003
 30
0.0
 11
237.01059083819109
 21
54.666499999999999
 31
0.0
  0
LINE
  5
7B2
  8
0
 10
234.1665908381911
 20
59.494500000000002
 30
0.0
 11
235.7095908381911
 21
57.277500000000003
 31
0.0
  0
LINE
  5
7B3
  8
0
 10
233.30559083819099
 20
60.448500000000003
 30
0.0
 11
234.1665908381911
 21
59.494500000000002
 31
0.0
  0
LINE
  5
7B4
  8
0
 10
232.3875908381911
 20
61.29849999999999
 30
0.0
 11
233.30559083819099
 21
60.448500000000003
 31
0.0
  0
LINE
  5
7B5
  8
0
 10
231.413590838191
 20
62.043499999999987
 30
0.0
 11
232.3875908381911
 21
61.29849999999999
 31
0.0
  0
LINE
  5
7B6
  8
0
 10
230.3875908381911
 20
62.68549999999999
 30
0.0
 11
231.413590838191
 21
62.043499999999987
 31
0.0
  0
LINE
  5
7B7
  8
0
 10
174.22169083819111
 20
62.852200000000011
 30
0.0
 11
174.38789083819111
 21
62.981200000000001
 31
0.0
  0
LINE
  5
7B8
  8
0
 10
180.40459083819101
 20
63.091499999999989
 30
0.0
 11
182.49259083819101
 21
63.097499999999997
 31
0.0
  0
LINE
  5
7B9
  8
0
 10
179.413590838191
 20
63.1845
 30
0.0
 11
180.40459083819101
 21
63.091499999999989
 31
0.0
  0
LINE
  5
7BA
  8
0
 10
182.49259083819101
 20
63.097499999999997
 30
0.0
 11
194.32059083819101
 21
63.505499999999998
 31
0.0
  0
LINE
  5
7BB
  8
0
 10
174.38789083819111
 20
62.981200000000001
 30
0.0
 11
175.7800798571603
 21
64.800127253566501
 31
0.0
  0
LINE
  5
7BC
  8
0
 10
172.24259083819101
 20
68.328500000000005
 30
0.0
 11
173.64459083819099
 21
66.969499999999996
 31
0.0
  0
LINE
  5
7BD
  8
0
 10
176.1015908381911
 20
64.478499999999997
 30
0.0
 11
176.139590838191
 21
64.441500000000005
 31
0.0
  0
LINE
  5
7BE
  8
0
 10
178.02259083819101
 20
63.5105
 30
0.0
 11
179.413590838191
 21
63.1845
 31
0.0
  0
LINE
  5
7BF
  8
0
 10
177.0545908381911
 20
63.912499999999987
 30
0.0
 11
178.02259083819101
 21
63.5105
 31
0.0
  0
LINE
  5
7C0
  8
0
 10
176.139590838191
 20
64.441500000000005
 30
0.0
 11
177.0545908381911
 21
63.912499999999987
 31
0.0
  0
LINE
  5
7C1
  8
0
 10
194.32059083819101
 20
63.505499999999998
 30
0.0
 11
217.78459083819109
 21
64.491500000000002
 31
0.0
  0
LINE
  5
7C2
  8
0
 10
226.622590838191
 20
64.107500000000002
 30
0.0
 11
228.18859083819109
 21
63.665500000000009
 31
0.0
  0
LINE
  5
7C3
  8
0
 10
224.98359083819111
 20
64.397499999999994
 30
0.0
 11
226.622590838191
 21
64.107500000000002
 31
0.0
  0
LINE
  5
7C4
  8
0
 10
175.057590838191
 20
65.536500000000004
 30
0.0
 11
175.41159083819099
 21
65.174499999999995
 31
0.0
  0
LINE
  5
7C5
  8
0
 10
174.59559083819099
 20
66.008499999999998
 30
0.0
 11
175.057590838191
 21
65.536500000000004
 31
0.0
  0
LINE
  5
7C6
  8
0
 10
173.64459083819099
 20
66.969499999999996
 30
0.0
 11
174.039590838191
 21
66.572500000000005
 31
0.0
  0
LINE
  5
7C7
  8
0
 10
174.039590838191
 20
66.572500000000005
 30
0.0
 11
174.59559083819099
 21
66.008499999999998
 31
0.0
  0
LINE
  5
7C8
  8
0
 10
175.69259083819111
 20
64.888499999999993
 30
0.0
 11
175.890590838191
 21
64.688500000000005
 31
0.0
  0
LINE
  5
7C9
  8
0
 10
175.41159083819099
 20
65.174499999999995
 30
0.0
 11
175.69259083819111
 21
64.888499999999993
 31
0.0
  0
LINE
  5
7CA
  8
0
 10
175.890590838191
 20
64.688500000000005
 30
0.0
 11
176.1015908381911
 21
64.478499999999997
 31
0.0
  0
LINE
  5
7CB
  8
0
 10
222.69459083819109
 20
64.579499999999996
 30
0.0
 11
224.98359083819111
 21
64.397499999999994
 31
0.0
  0
LINE
  5
7CC
  8
0
 10
221.10559083819109
 20
64.598500000000001
 30
0.0
 11
222.69459083819109
 21
64.579499999999996
 31
0.0
  0
LINE
  5
7CD
  8
0
 10
217.78459083819109
 20
64.491500000000002
 30
0.0
 11
221.10559083819109
 21
64.598500000000001
 31
0.0
  0
LINE
  5
7CE
  8
0
 10
228.18859083819109
 20
63.665500000000009
 30
0.0
 11
230.3875908381911
 21
62.68549999999999
 31
0.0
  0
LINE
  5
7CF
  8
0
 10
164.27259083819101
 20
74.991500000000002
 30
0.0
 11
165.76359083819099
 21
73.858500000000006
 31
0.0
  0
LINE
  5
7D0
  8
0
 10
165.51359083819111
 20
89.574499999999986
 30
0.0
 11
169.360590838191
 21
90.144499999999994
 31
0.0
  0
LINE
  5
7D1
  8
0
 10
165.76359083819099
 20
73.858500000000006
 30
0.0
 11
167.187590838191
 21
72.737499999999983
 31
0.0
  0
LINE
  5
7D2
  8
0
 10
169.586590838191
 20
70.728499999999997
 30
0.0
 11
170.55959083819101
 21
69.871499999999983
 31
0.0
  0
LINE
  5
7D3
  8
0
 10
170.55959083819101
 20
69.871499999999983
 30
0.0
 11
172.24259083819101
 21
68.328500000000005
 31
0.0
  0
LINE
  5
7D4
  8
0
 10
167.187590838191
 20
72.737499999999983
 30
0.0
 11
168.550590838191
 21
71.614500000000007
 31
0.0
  0
LINE
  5
7D5
  8
0
 10
169.360590838191
 20
90.144499999999994
 30
0.0
 11
171.85759083819099
 21
90.444500000000005
 31
0.0
  0
LINE
  5
7D6
  8
0
 10
171.85759083819099
 20
90.444500000000005
 30
0.0
 11
176.63559083819101
 21
90.930499999999995
 31
0.0
  0
LINE
  5
7D7
  8
0
 10
168.550590838191
 20
71.614500000000007
 30
0.0
 11
169.586590838191
 21
70.728499999999997
 31
0.0
  0
LINE
  5
7D8
  8
0
 10
232.76229083819109
 20
97.930000000000007
 30
0.0
 11
232.96909083819099
 21
97.772999999999996
 31
0.0
  0
LINE
  5
7D9
  8
0
 10
232.96909083819099
 20
97.772999999999996
 30
0.0
 11
233.22709083819109
 21
97.741100000000017
 31
0.0
  0
LINE
  5
7DA
  8
0
 10
233.22709083819109
 20
97.741100000000017
 30
0.0
 11
233.33489083819109
 21
97.756200000000007
 31
0.0
  0
LINE
  5
7DB
  8
0
 10
234.48659083819109
 20
96.887499999999974
 30
0.0
 11
234.6915908381911
 21
96.896500000000003
 31
0.0
  0
LINE
  5
7DC
  8
0
 10
234.6915908381911
 20
96.896500000000003
 30
0.0
 11
235.28159083819111
 21
96.922500000000014
 31
0.0
  0
LINE
  5
7DD
  8
0
 10
234.6915908381911
 20
96.896500000000003
 30
0.0
 11
234.80600636003851
 21
96.901550600285304
 31
0.0
  0
LINE
  5
7DE
  8
0
 10
235.28159083819111
 20
96.922500000000014
 30
0.0
 11
236.04059083819109
 21
96.957499999999982
 31
0.0
  0
LINE
  5
7DF
  8
0
 10
236.04059083819109
 20
96.957499999999982
 30
0.0
 11
237.01059083819109
 21
97.004500000000007
 31
0.0
  0
LINE
  5
7E0
  8
0
 10
238.61059083819109
 20
97.090500000000034
 30
0.0
 11
240.50559083819101
 21
97.207499999999982
 31
0.0
  0
LINE
  5
7E1
  8
0
 10
247.21259083819109
 20
97.754500000000007
 30
0.0
 11
249.1605908381911
 21
97.95150000000001
 31
0.0
  0
LINE
  5
7E2
  8
0
 10
245.3745908381911
 20
97.584499999999991
 30
0.0
 11
247.21259083819109
 21
97.754500000000007
 31
0.0
  0
LINE
  5
7E3
  8
0
 10
242.79959083819111
 20
97.371499999999983
 30
0.0
 11
245.3745908381911
 21
97.584499999999991
 31
0.0
  0
LINE
  5
7E4
  8
0
 10
240.50559083819101
 20
97.207499999999982
 30
0.0
 11
242.79959083819111
 21
97.371499999999983
 31
0.0
  0
LINE
  5
7E5
  8
0
 10
237.01059083819109
 20
97.004500000000007
 30
0.0
 11
238.61059083819109
 21
97.090500000000034
 31
0.0
  0
LINE
  5
7E6
  8
0
 10
249.1605908381911
 20
97.95150000000001
 30
0.0
 11
251.95159083819109
 21
98.257499999999993
 31
0.0
  0
LINE
  5
7E7
  8
0
 10
234.7978547306877
 20
97.961853113668496
 30
0.0
 11
234.80600642582829
 21
96.901542042844994
 31
0.0
  0
LINE
  5
7E8
  8
0
 10
247.43189083819109
 20
99.737500000000026
 30
0.0
 11
249.14139083819111
 21
99.977500000000035
 31
0.0
  0
LINE
  5
7E9
  8
0
 10
251.95159083819109
 20
98.257499999999993
 30
0.0
 11
254.86559083819111
 21
98.603499999999997
 31
0.0
  0
LINE
  5
7EA
  8
0
 10
250.87609083819109
 20
100.22150000000001
 30
0.0
 11
252.6271908381911
 21
100.4675
 31
0.0
  0
LINE
  5
7EB
  8
0
 10
252.6271908381911
 20
100.4675
 30
0.0
 11
254.598590838191
 21
100.7445
 31
0.0
  0
LINE
  5
7EC
  8
0
 10
249.14139083819111
 20
99.977500000000035
 30
0.0
 11
250.87609083819109
 21
100.22150000000001
 31
0.0
  0
LINE
  5
7ED
  8
0
 10
277.17659083819109
 20
100.4415
 30
0.0
 11
277.29359083819099
 21
99.909499999999966
 31
0.0
  0
LINE
  5
7EE
  8
0
 10
277.06359083819109
 20
100.6845
 30
0.0
 11
277.17659083819109
 21
100.4415
 31
0.0
  0
LINE
  5
7EF
  8
0
 10
270.94859083819108
 20
100.66249999999999
 30
0.0
 11
272.52259083819109
 21
100.8455
 31
0.0
  0
LINE
  5
7F0
  8
0
 10
269.10259083819108
 20
100.4385
 30
0.0
 11
270.94859083819108
 21
100.66249999999999
 31
0.0
  0
LINE
  5
7F1
  8
0
 10
267.009590838191
 20
100.1755
 30
0.0
 11
269.10259083819108
 21
100.4385
 31
0.0
  0
LINE
  5
7F2
  8
0
 10
264.3685908381911
 20
99.833500000000015
 30
0.0
 11
267.009590838191
 21
100.1755
 31
0.0
  0
LINE
  5
7F3
  8
0
 10
261.46959083819098
 20
99.452499999999986
 30
0.0
 11
264.3685908381911
 21
99.833500000000015
 31
0.0
  0
LINE
  5
7F4
  8
0
 10
258.216590838191
 20
99.027500000000003
 30
0.0
 11
261.46959083819098
 21
99.452499999999986
 31
0.0
  0
LINE
  5
7F5
  8
0
 10
254.86559083819111
 20
98.603499999999997
 30
0.0
 11
258.216590838191
 21
99.027500000000003
 31
0.0
  0
LINE
  5
7F6
  8
0
 10
277.29359083819099
 20
99.909499999999966
 30
0.0
 11
287.5725908381911
 21
31.028500000000001
 31
0.0
  0
LINE
  5
7F7
  8
0
 10
272.52259083819109
 20
100.8455
 30
0.0
 11
273.55859083819109
 21
100.9615
 31
0.0
  0
LINE
  5
7F8
  8
0
 10
276.80759083819112
 20
100.9765
 30
0.0
 11
277.06359083819109
 21
100.6845
 31
0.0
  0
LINE
  5
7F9
  8
0
 10
276.46159083819111
 20
101.1525
 30
0.0
 11
276.80759083819112
 21
100.9765
 31
0.0
  0
LINE
  5
7FA
  8
0
 10
275.1305908381911
 20
101.1315
 30
0.0
 11
275.39059083819109
 21
101.1585
 31
0.0
  0
LINE
  5
7FB
  8
0
 10
274.38559083819109
 20
101.0515
 30
0.0
 11
275.1305908381911
 21
101.1315
 31
0.0
  0
LINE
  5
7FC
  8
0
 10
275.6545908381911
 20
101.1855
 30
0.0
 11
276.19859083819108
 21
101.2025
 31
0.0
  0
LINE
  5
7FD
  8
0
 10
276.19859083819108
 20
101.2025
 30
0.0
 11
276.46159083819111
 21
101.1525
 31
0.0
  0
LINE
  5
7FE
  8
0
 10
273.55859083819109
 20
100.9615
 30
0.0
 11
274.38559083819109
 21
101.0515
 31
0.0
  0
LINE
  5
7FF
  8
0
 10
274.57159083819113
 20
103.6255
 30
0.0
 11
275.0535908381911
 21
101.8955
 31
0.0
  0
LINE
  5
800
  8
0
 10
275.0535908381911
 20
101.8955
 30
0.0
 11
275.19399611212413
 21
101.13808439383099
 31
0.0
  0
LINE
  5
801
  8
0
 10
254.598590838191
 20
100.7445
 30
0.0
 11
254.77859083819109
 21
100.8065
 31
0.0
  0
LINE
  5
802
  8
0
 10
232.66189083819111
 20
98.169600000000017
 30
0.0
 11
232.76229083819109
 21
97.930000000000007
 31
0.0
  0
LINE
  5
803
  8
0
 10
273.93959083819112
 20
105.30549999999999
 30
0.0
 11
274.57159083819113
 21
103.6255
 31
0.0
  0
LINE
  5
804
  8
0
 10
181.66749083819099
 20
136.12049999999999
 30
0.0
 11
182.65329083819111
 21
135.40350000000001
 31
0.0
  0
LINE
  5
805
  8
0
 10
181.45709083819099
 20
136.33850000000001
 30
0.0
 11
181.66749083819099
 21
136.12049999999999
 31
0.0
  0
LINE
  5
806
  8
0
 10
181.323790838191
 20
137.1985
 30
0.0
 11
181.45459083819111
 21
137.47450000000001
 31
0.0
  0
LINE
  5
807
  8
0
 10
182.20629083819111
 20
137.90649999999999
 30
0.0
 11
184.72599083819111
 21
138.0625
 31
0.0
  0
LINE
  5
808
  8
0
 10
181.27989083819111
 20
136.8955
 30
0.0
 11
181.329790838191
 21
136.59049999999999
 31
0.0
  0
LINE
  5
809
  8
0
 10
181.27989083819111
 20
136.8955
 30
0.0
 11
181.323790838191
 21
137.1985
 31
0.0
  0
LINE
  5
80A
  8
0
 10
182.65329083819111
 20
135.40350000000001
 30
0.0
 11
183.66319083819101
 21
134.76349999999999
 31
0.0
  0
LINE
  5
80B
  8
0
 10
228.32469083819109
 20
120.9235
 30
0.0
 11
228.97869083819111
 21
119.7235
 31
0.0
  0
LINE
  5
80C
  8
0
 10
228.97869083819111
 20
119.7235
 30
0.0
 11
229.38369083819109
 21
118.75449999999999
 31
0.0
  0
LINE
  5
80D
  8
0
 10
229.38369083819109
 20
118.75449999999999
 30
0.0
 11
229.7240908381911
 21
117.73050000000001
 31
0.0
  0
LINE
  5
80E
  8
0
 10
229.7240908381911
 20
117.73050000000001
 30
0.0
 11
230.2462908381911
 21
115.5464999999999
 31
0.0
  0
LINE
  5
80F
  8
0
 10
230.2462908381911
 20
115.5464999999999
 30
0.0
 11
230.5125908381911
 21
114.0085
 31
0.0
  0
LINE
  5
810
  8
0
 10
230.5125908381911
 20
114.0085
 30
0.0
 11
230.96529083819109
 21
110.7915
 31
0.0
  0
LINE
  5
811
  8
0
 10
227.52639083819099
 20
122.0095
 30
0.0
 11
228.32469083819109
 21
120.9235
 31
0.0
  0
LINE
  5
812
  8
0
 10
216.2838908381911
 20
126.8395
 30
0.0
 11
218.83209083819111
 21
126.29349999999999
 31
0.0
  0
LINE
  5
813
  8
0
 10
213.4355908381911
 20
127.40049999999999
 30
0.0
 11
216.2838908381911
 21
126.8395
 31
0.0
  0
LINE
  5
814
  8
0
 10
221.81359083819109
 20
125.4845
 30
0.0
 11
223.7847908381911
 21
124.7295
 31
0.0
  0
LINE
  5
815
  8
0
 10
225.46079083819109
 20
123.8165
 30
0.0
 11
226.57389083819109
 21
122.97450000000001
 31
0.0
  0
LINE
  5
816
  8
0
 10
224.65879083819109
 20
124.2945
 30
0.0
 11
225.46079083819109
 21
123.8165
 31
0.0
  0
LINE
  5
817
  8
0
 10
220.38939083819099
 20
125.9055
 30
0.0
 11
221.81359083819109
 21
125.4845
 31
0.0
  0
LINE
  5
818
  8
0
 10
218.83209083819111
 20
126.29349999999999
 30
0.0
 11
220.38939083819099
 21
125.9055
 31
0.0
  0
LINE
  5
819
  8
0
 10
226.57389083819109
 20
122.97450000000001
 30
0.0
 11
227.52639083819099
 21
122.0095
 31
0.0
  0
LINE
  5
81A
  8
0
 10
194.62769083819111
 20
131.08850000000001
 30
0.0
 11
203.13889083819109
 21
129.4025
 31
0.0
  0
LINE
  5
81B
  8
0
 10
191.60709083819111
 20
131.75649999999999
 30
0.0
 11
194.62769083819111
 21
131.08850000000001
 31
0.0
  0
LINE
  5
81C
  8
0
 10
190.11189083819099
 20
132.14150000000001
 30
0.0
 11
191.60709083819111
 21
131.75649999999999
 31
0.0
  0
LINE
  5
81D
  8
0
 10
185.74699083819101
 20
133.6815
 30
0.0
 11
187.9019908381911
 21
132.8245
 31
0.0
  0
LINE
  5
81E
  8
0
 10
187.9019908381911
 20
132.8245
 30
0.0
 11
190.11189083819099
 21
132.14150000000001
 31
0.0
  0
LINE
  5
81F
  8
0
 10
184.69509083819111
 20
134.19149999999999
 30
0.0
 11
185.74699083819101
 21
133.6815
 31
0.0
  0
LINE
  5
820
  8
0
 10
203.13889083819109
 20
129.4025
 30
0.0
 11
213.4355908381911
 21
127.40049999999999
 31
0.0
  0
LINE
  5
821
  8
0
 10
183.66319083819101
 20
134.76349999999999
 30
0.0
 11
184.69509083819111
 21
134.19149999999999
 31
0.0
  0
LINE
  5
822
  8
0
 10
209.4190908381911
 20
137.14150000000001
 30
0.0
 11
216.9064908381911
 21
136.4435
 31
0.0
  0
LINE
  5
823
  8
0
 10
216.9064908381911
 20
136.4435
 30
0.0
 11
224.79229083819109
 21
135.6275
 31
0.0
  0
LINE
  5
824
  8
0
 10
202.43159083819111
 20
137.6885
 30
0.0
 11
209.4190908381911
 21
137.14150000000001
 31
0.0
  0
LINE
  5
825
  8
0
 10
202.33509083819109
 20
137.6995
 30
0.0
 11
202.43159083819111
 21
137.6885
 31
0.0
  0
LINE
  5
826
  8
0
 10
224.79229083819109
 20
135.6275
 30
0.0
 11
233.07219083819109
 21
134.70150000000001
 31
0.0
  0
LINE
  5
827
  8
0
 10
184.72599083819111
 20
138.0625
 30
0.0
 11
187.24279083819101
 21
138.15350000000001
 31
0.0
  0
LINE
  5
828
  8
0
 10
187.24279083819101
 20
138.15350000000001
 30
0.0
 11
192.27059083819111
 21
138.16749999999999
 31
0.0
  0
LINE
  5
829
  8
0
 10
197.29869083819111
 20
137.99950000000001
 30
0.0
 11
202.33509083819109
 21
137.6995
 31
0.0
  0
LINE
  5
82A
  8
0
 10
192.27059083819111
 20
138.16749999999999
 30
0.0
 11
197.29869083819111
 21
137.99950000000001
 31
0.0
  0
LINE
  5
82B
  8
0
 10
273.16259083819108
 20
106.9235
 30
0.0
 11
273.93959083819112
 21
105.30549999999999
 31
0.0
  0
LINE
  5
82C
  8
0
 10
269.0175908381911
 20
128.93049999999999
 30
0.0
 11
270.78259083819108
 21
128.3135
 31
0.0
  0
LINE
  5
82D
  8
0
 10
272.24659083819108
 20
108.4675
 30
0.0
 11
273.16259083819108
 21
106.9235
 31
0.0
  0
LINE
  5
82E
  8
0
 10
271.19859083819108
 20
109.9235
 30
0.0
 11
272.24659083819108
 21
108.4675
 31
0.0
  0
LINE
  5
82F
  8
0
 10
273.13659083819113
 20
126.85250000000001
 30
0.0
 11
275.25859083819108
 21
112.99850000000001
 31
0.0
  0
LINE
  5
830
  8
0
 10
275.014590838191
 20
112.48950000000001
 30
0.0
 11
275.21559083819108
 21
112.70650000000001
 31
0.0
  0
LINE
  5
831
  8
0
 10
275.21559083819108
 20
112.70650000000001
 30
0.0
 11
275.25859083819108
 21
112.99850000000001
 31
0.0
  0
LINE
  5
832
  8
0
 10
274.95359083819108
 20
112.4545
 30
0.0
 11
275.014590838191
 21
112.48950000000001
 31
0.0
  0
LINE
  5
833
  8
0
 10
274.81759083819099
 20
112.3755
 30
0.0
 11
274.95359083819108
 21
112.4545
 31
0.0
  0
LINE
  5
834
  8
0
 10
274.59459083819098
 20
112.2475
 30
0.0
 11
274.81759083819099
 21
112.3755
 31
0.0
  0
LINE
  5
835
  8
0
 10
274.33059083819109
 20
112.0945
 30
0.0
 11
274.59459083819098
 21
112.2475
 31
0.0
  0
LINE
  5
836
  8
0
 10
272.53459083819109
 20
127.62350000000001
 30
0.0
 11
272.75659083819107
 21
127.49550000000001
 31
0.0
  0
LINE
  5
837
  8
0
 10
270.78259083819108
 20
128.3135
 30
0.0
 11
272.53459083819109
 21
127.62350000000001
 31
0.0
  0
LINE
  5
838
  8
0
 10
250.80169083819109
 20
132.5205
 30
0.0
 11
255.1855908381911
 21
131.92750000000001
 31
0.0
  0
LINE
  5
839
  8
0
 10
255.1855908381911
 20
131.92750000000001
 30
0.0
 11
257.36659083819109
 21
131.60050000000001
 31
0.0
  0
LINE
  5
83A
  8
0
 10
257.36659083819109
 20
131.60050000000001
 30
0.0
 11
260.61959083819107
 21
131.0395
 31
0.0
  0
LINE
  5
83B
  8
0
 10
263.04259083819107
 20
130.54650000000001
 30
0.0
 11
265.4475908381911
 21
129.9725
 31
0.0
  0
LINE
  5
83C
  8
0
 10
260.61959083819107
 20
131.0395
 30
0.0
 11
263.04259083819107
 21
130.54650000000001
 31
0.0
  0
LINE
  5
83D
  8
0
 10
265.4475908381911
 20
129.9725
 30
0.0
 11
267.1015816638801
 21
129.48973853211001
 31
0.0
  0
LINE
  5
83E
  8
0
 10
233.07219083819109
 20
134.70150000000001
 30
0.0
 11
250.80169083819109
 21
132.5205
 31
0.0
  0
LINE
  5
83F
  8
0
 10
173.819490838191
 20
62.903199999999998
 30
0.0
 11
155.40154083819101
 21
76.999200000000002
 31
0.0
  0
LINE
  5
840
  8
0
 10
233.33489083819109
 20
97.756200000000007
 30
0.0
 11
247.43189083819109
 21
99.737500000000026
 31
0.0
  0
LINE
  5
841
  8
0
 10
176.63559083819101
 20
90.930499999999995
 30
0.0
 11
234.48659083819109
 21
96.887499999999974
 31
0.0
  0
LINE
  5
842
  8
0
 10
232.66189083819111
 20
98.169600000000017
 30
0.0
 11
230.96529083819109
 21
110.7915
 31
0.0
  0
LINE
  5
843
  8
0
 10
224.65879083819109
 20
124.2945
 30
0.0
 11
223.7847908381911
 21
124.7295
 31
0.0
  0
LINE
  5
844
  8
0
 10
181.45459083819111
 20
137.47450000000001
 30
0.0
 11
181.78182915956549
 21
137.78284995579119
 31
0.0
  0
LINE
  5
845
  8
0
 10
181.78182915956549
 20
137.78284995579119
 30
0.0
 11
182.20629083819111
 21
137.90649999999999
 31
0.0
  0
LINE
  5
846
  8
0
 10
181.45709083819099
 20
136.33850000000001
 30
0.0
 11
181.329790838191
 21
136.59049999999999
 31
0.0
  0
LINE
  5
847
  8
0
 10
269.0175908381911
 20
128.93049999999999
 30
0.0
 11
267.1015816638801
 21
129.48973853211001
 31
0.0
  0
LINE
  5
848
  8
0
 10
272.75659083819107
 20
127.49550000000001
 30
0.0
 11
273.03843494554371
 21
127.1548083426417
 31
0.0
  0
LINE
  5
849
  8
0
 10
273.03843494554371
 20
127.1548083426417
 30
0.0
 11
273.13659083819113
 21
126.85250000000001
 31
0.0
  0
LINE
  5
84A
  8
0
 10
254.77859083819109
 20
100.8065
 30
0.0
 11
274.33059083819109
 21
112.0945
 31
0.0
  0
LINE
  5
84B
  8
0
 10
275.39059083819109
 20
101.1585
 30
0.0
 11
275.6545908381911
 21
101.1855
 31
0.0
  0
ENDSEC
  0
EOF
