  0
SECTION
  2
HEADER
  9
$ACADVER
  1
AC1015
  9
$ACADMAINTVER
 70
    20
  9
$DWGCODEPAGE
  3
ANSI_932
  9
$INSBASE
 10
0.0
 20
0.0
 30
0.0
  9
$EXTMIN
 10
57.28293637479591
 20
33.89942070810262
 30
0.0
  9
$EXTMAX
 10
229.2502216158829
 20
259.1943663703283
 30
0.0
  9
$LIMMIN
 10
60.67777777777777
 20
90.15745985243055
  9
$LIMMAX
 10
148.0367865668402
 20
205.3166666666666
  9
$ORTHOMODE
 70
     0
  9
$REGENMODE
 70
     1
  9
$FILLMODE
 70
     1
  9
$QTEXTMODE
 70
     0
  9
$MIRRTEXT
 70
     1
  9
$LTSCALE
 40
1.0
  9
$ATTMODE
 70
     1
  9
$TEXTSIZE
 40
0.0
  9
$TRACEWID
 40
0.05
  9
$TEXTSTYLE
  7
Standard
  9
$CLAYER
  8
0
  9
$CELTYPE
  6
Continuous
  9
$CECOLOR
 62
   256
  9
$CELTSCALE
 40
1.0
  9
$DISPSILH
 70
     0
  9
$DIMSCALE
 40
1.0
  9
$DIMASZ
 40
0.18
  9
$DIMEXO
 40
0.0625
  9
$DIMDLI
 40
0.38
  9
$DIMRND
 40
0.0
  9
$DIMDLE
 40
0.0
  9
$DIMEXE
 40
0.18
  9
$DIMTP
 40
0.0
  9
$DIMTM
 40
0.0
  9
$DIMTXT
 40
0.18
  9
$DIMCEN
 40
0.09
  9
$DIMTSZ
 40
0.0
  9
$DIMTOL
 70
     0
  9
$DIMLIM
 70
     0
  9
$DIMTIH
 70
     1
  9
$DIMTOH
 70
     1
  9
$DIMSE1
 70
     0
  9
$DIMSE2
 70
     0
  9
$DIMTAD
 70
     0
  9
$DIMZIN
 70
     0
  9
$DIMBLK
  1

  9
$DIMASO
 70
     1
  9
$DIMSHO
 70
     1
  9
$DIMPOST
  1

  9
$DIMAPOST
  1

  9
$DIMALT
 70
     0
  9
$DIMALTD
 70
     2
  9
$DIMALTF
 40
25.4
  9
$DIMLFAC
 40
1.0
  9
$DIMTOFL
 70
     0
  9
$DIMTVP
 40
0.0
  9
$DIMTIX
 70
     0
  9
$DIMSOXD
 70
     0
  9
$DIMSAH
 70
     0
  9
$DIMBLK1
  1

  9
$DIMBLK2
  1

  9
$DIMSTYLE
  2
Standard
  9
$DIMCLRD
 70
     0
  9
$DIMCLRE
 70
     0
  9
$DIMCLRT
 70
     0
  9
$DIMTFAC
 40
1.0
  9
$DIMGAP
 40
0.09
  9
$DIMJUST
 70
     0
  9
$DIMSD1
 70
     0
  9
$DIMSD2
 70
     0
  9
$DIMTOLJ
 70
     1
  9
$DIMTZIN
 70
     0
  9
$DIMALTZ
 70
     0
  9
$DIMALTTZ
 70
     0
  9
$DIMUPT
 70
     0
  9
$DIMDEC
 70
     4
  9
$DIMTDEC
 70
     4
  9
$DIMALTU
 70
     2
  9
$DIMALTTD
 70
     2
  9
$DIMTXSTY
  7
Standard
  9
$DIMAUNIT
 70
     0
  9
$DIMADEC
 70
     0
  9
$DIMALTRND
 40
0.0
  9
$DIMAZIN
 70
     0
  9
$DIMDSEP
 70
     0
  9
$DIMATFIT
 70
     3
  9
$DIMFRAC
 70
     0
  9
$DIMLDRBLK
  1

  9
$DIMLUNIT
 70
     2
  9
$DIMLWD
 70
     0
  9
$DIMLWE
 70
     0
  9
$DIMTMOVE
 70
     0
  9
$LUNITS
 70
     2
  9
$LUPREC
 70
     4
  9
$SKETCHINC
 40
0.1
  9
$FILLETRAD
 40
0.0
  9
$AUNITS
 70
     0
  9
$AUPREC
 70
     0
  9
$MENU
  1
acad
  9
$ELEVATION
 40
0.0
  9
$PELEVATION
 40
0.0
  9
$THICKNESS
 40
0.0
  9
$LIMCHECK
 70
     0
  9
$CHAMFERA
 40
0.0
  9
$CHAMFERB
 40
0.0
  9
$CHAMFERC
 40
0.0
  9
$CHAMFERD
 40
0.0
  9
$SKPOLY
 70
     0
  9
$TDCREATE
 40
2454622.729832940
  9
$TDUCREATE
 40
2454622.354832940
  9
$TDUPDATE
 40
2457056.717510984
  9
$TDUUPDATE
 40
2457056.342510984
  9
$TDINDWG
 40
0.0076643634
  9
$TDUSRTIMER
 40
0.0076643634
  9
$USRTIMER
 70
     1
  9
$ANGBASE
 50
0.0
  9
$ANGDIR
 70
     0
  9
$PDMODE
 70
     0
  9
$PDSIZE
 40
0.0
  9
$PLINEWID
 40
0.0
  9
$SPLFRAME
 70
     0
  9
$SPLINETYPE
 70
     6
  9
$SPLINESEGS
 70
     8
  9
$HANDSEED
  5
3CA
  9
$SURFTAB1
 70
     6
  9
$SURFTAB2
 70
     6
  9
$SURFTYPE
 70
     6
  9
$SURFU
 70
     6
  9
$SURFV
 70
     6
  9
$UCSBASE
  2

  9
$UCSNAME
  2

  9
$UCSORG
 10
0.0
 20
0.0
 30
0.0
  9
$UCSXDIR
 10
1.0
 20
0.0
 30
0.0
  9
$UCSYDIR
 10
0.0
 20
1.0
 30
0.0
  9
$UCSORTHOREF
  2

  9
$UCSORTHOVIEW
 70
     0
  9
$UCSORGTOP
 10
0.0
 20
0.0
 30
0.0
  9
$UCSORGBOTTOM
 10
0.0
 20
0.0
 30
0.0
  9
$UCSORGLEFT
 10
0.0
 20
0.0
 30
0.0
  9
$UCSORGRIGHT
 10
0.0
 20
0.0
 30
0.0
  9
$UCSORGFRONT
 10
0.0
 20
0.0
 30
0.0
  9
$UCSORGBACK
 10
0.0
 20
0.0
 30
0.0
  9
$PUCSBASE
  2

  9
$PUCSNAME
  2

  9
$PUCSORG
 10
0.0
 20
0.0
 30
0.0
  9
$PUCSXDIR
 10
1.0
 20
0.0
 30
0.0
  9
$PUCSYDIR
 10
0.0
 20
1.0
 30
0.0
  9
$PUCSORTHOREF
  2

  9
$PUCSORTHOVIEW
 70
     0
  9
$PUCSORGTOP
 10
0.0
 20
0.0
 30
0.0
  9
$PUCSORGBOTTOM
 10
0.0
 20
0.0
 30
0.0
  9
$PUCSORGLEFT
 10
0.0
 20
0.0
 30
0.0
  9
$PUCSORGRIGHT
 10
0.0
 20
0.0
 30
0.0
  9
$PUCSORGFRONT
 10
0.0
 20
0.0
 30
0.0
  9
$PUCSORGBACK
 10
0.0
 20
0.0
 30
0.0
  9
$USERI1
 70
     0
  9
$USERI2
 70
     0
  9
$USERI3
 70
     0
  9
$USERI4
 70
     0
  9
$USERI5
 70
     0
  9
$USERR1
 40
0.0
  9
$USERR2
 40
0.0
  9
$USERR3
 40
0.0
  9
$USERR4
 40
0.0
  9
$USERR5
 40
0.0
  9
$WORLDVIEW
 70
     1
  9
$SHADEDGE
 70
     3
  9
$SHADEDIF
 70
    70
  9
$TILEMODE
 70
     1
  9
$MAXACTVP
 70
    16
  9
$PINSBASE
 10
0.0
 20
0.0
 30
0.0
  9
$PLIMCHECK
 70
     0
  9
$PEXTMIN
 10
1.000000000000000E+20
 20
1.000000000000000E+20
 30
1.000000000000000E+20
  9
$PEXTMAX
 10
-1.000000000000000E+20
 20
-1.000000000000000E+20
 30
-1.000000000000000E+20
  9
$PLIMMIN
 10
0.0
 20
0.0
  9
$PLIMMAX
 10
12.0
 20
9.0
  9
$UNITMODE
 70
     0
  9
$VISRETAIN
 70
     0
  9
$PLINEGEN
 70
     1
  9
$PSLTSCALE
 70
     0
  9
$TREEDEPTH
 70
  3020
  9
$CMLSTYLE
  2
Standard
  9
$CMLJUST
 70
     0
  9
$CMLSCALE
 40
1.0
  9
$PROXYGRAPHICS
 70
     1
  9
$MEASUREMENT
 70
     0
  9
$CELWEIGHT
370
     0
  9
$ENDCAPS
280
     0
  9
$JOINSTYLE
280
     0
  9
$LWDISPLAY
290
     0
  9
$INSUNITS
 70
     0
  9
$HYPERLINKBASE
  1

  9
$STYLESHEET
  1

  9
$XEDIT
290
     1
  9
$CEPSNTYPE
380
     0
  9
$PSTYLEMODE
290
     1
  9
$FINGERPRINTGUID
  2

  9
$VERSIONGUID
  2
{61D3DE31-D106-4812-8588-1941912DA55F}
  9
$EXTNAMES
290
     1
  9
$PSVPSCALE
 40
0.0
  9
$OLESTARTUP
290
     0
  0
ENDSEC
  0
SECTION
  2
CLASSES
  0
CLASS
  1
IMAGE
  2
AcDbRasterImage
  3
ISM
 90
    34943
280
     0
281
     1
  0
CLASS
  1
DICTIONARYVAR
  2
AcDbDictionaryVar
  3
ObjectDBX Classes
 90
        0
280
     0
281
     0
  0
CLASS
  1
RASTERVARIABLES
  2
AcDbRasterVariables
  3
ISM
 90
    32768
280
     0
281
     0
  0
CLASS
  1
IMAGEDEF
  2
AcDbRasterImageDef
  3
ISM
 90
    32768
280
     0
281
     0
  0
CLASS
  1
IMAGEDEF_REACTOR
  2
AcDbRasterImageDefReactor
  3
ISM
 90
    32769
280
     0
281
     0
  0
CLASS
  1
IDBUFFER
  2
AcDbIdBuffer
  3
ObjectDBX Classes
 90
    32768
280
     0
281
     0
  0
CLASS
  1
SPATIAL_FILTER
  2
AcDbSpatialFilter
  3
ObjectDBX Classes
 90
    32768
280
     0
281
     0
  0
CLASS
  1
SORTENTSTABLE
  2
AcDbSortentsTable
  3
ObjectDBX Classes
 90
    32768
280
     0
281
     0
  0
CLASS
  1
LAYER_INDEX
  2
AcDbLayerIndex
  3
ObjectDBX Classes
 90
    32768
280
     0
281
     0
  0
CLASS
  1
SPATIAL_INDEX
  2
AcDbSpatialIndex
  3
ObjectDBX Classes
 90
    32768
280
     0
281
     0
  0
CLASS
  1
OBJECT_PTR
  2
CAseDLPNTableRecord
  3
ASE-LPNTableRecord
 90
    32769
280
     0
281
     0
  0
CLASS
  1
LAYOUT
  2
AcDbLayout
  3
ObjectDBX Classes
 90
        0
280
     0
281
     0
  0
CLASS
  1
PLOTSETTINGS
  2
AcDbPlotSettings
  3
ObjectDBX Classes
 90
    32768
280
     0
281
     0
  0
CLASS
  1
ACDBDICTIONARYWDFLT
  2
AcDbDictionaryWithDefault
  3
ObjectDBX Classes
 90
        0
280
     0
281
     0
  0
CLASS
  1
ACDBPLACEHOLDER
  2
AcDbPlaceHolder
  3
ObjectDBX Classes
 90
        0
280
     0
281
     0
  0
CLASS
  1
VBA_PROJECT
  2
AcDbVbaProject
  3
acad
 90
    32768
280
     0
281
     0
  0
CLASS
  1
WIPEOUT
  2
AcDbWipeout
  3
WipeOut|Product Desc: Object Enabler for WipeOut entity | Company: Autodesk, Inc. | WEB Address: www.autodesk.com
 90
    34943
280
     0
281
     1
  0
CLASS
  1
WIPEOUTVARIABLES
  2
AcDbWipeoutVariables
  3
"WipeOut|Product Desc:     WipeOut Dbx Application|Company:          Autodesk, Inc.|WEB Address:      www.autodesk.com"
 90
        0
280
     0
281
     0
  0
CLASS
  1
RTEXT
  2
RText
  3
RText|AutoCAD Express Tool|expresstools@autodesk.com
 90
    32768
280
     0
281
     1
  0
CLASS
  1
ARCALIGNEDTEXT
  2
AcDbArcAlignedText
  3
ATEXT|AutoCAD Express Tool|expresstools@autodesk.com
 90
    32768
280
     0
281
     1
  0
CLASS
  1
MATERIAL
  2
AcDbMaterial
  3
ObjectDBX Classes
 90
     1153
280
     0
281
     0
  0
CLASS
  1
VISUALSTYLE
  2
AcDbVisualStyle
  3
ObjectDBX Classes
 90
     4095
280
     0
281
     0
  0
CLASS
  1
TABLESTYLE
  2
AcDbTableStyle
  3
ObjectDBX Classes
 90
     4095
280
     0
281
     0
  0
CLASS
  1
SCALE
  2
AcDbScale
  3
ObjectDBX Classes
 90
     1153
280
     0
281
     0
  0
CLASS
  1
MLEADERSTYLE
  2
AcDbMLeaderStyle
  3
ACDB_MLEADERSTYLE_CLASS
 90
     4095
280
     0
281
     0
  0
CLASS
  1
ACDBSECTIONVIEWSTYLE
  2
AcDbSectionViewStyle
  3
ObjectDBX Classes
 90
     1025
280
     0
281
     0
  0
CLASS
  1
ACDBDETAILVIEWSTYLE
  2
AcDbDetailViewStyle
  3
ObjectDBX Classes
 90
     1025
280
     0
281
     0
  0
CLASS
  1
ACME_DOCUMENT
  2
AcMeDbDoc
  3
AcMeServices
 90
     1024
280
     0
281
     0
  0
CLASS
  1
AMGSETTINGSOBJ
  2
AmgSettingsObj
  3
"AcadM|Product Description: AutoCAD Mechanical|Company: Autodesk, Inc."
 90
     1024
280
     0
281
     0
  0
CLASS
  1
ACMESCOPE
  2
AcMeScope
  3
AcMeServices
 90
     1024
280
     0
281
     0
  0
CLASS
  1
ACMECOMMANDHISTORY
  2
AcMeCommandHistory
  3
AcMeServices
 90
     1024
280
     0
281
     0
  0
CLASS
  1
ACIMSYSVARMAN
  2
AcImSysVarManager
  3
AcMeServices
 90
     1024
280
     0
281
     0
  0
CLASS
  1
ACIMINTSYSVAR
  2
AcImIntSysVar
  3
AcMeServices
 90
     1024
280
     0
281
     0
  0
CLASS
  1
ACMESTATEMGR
  2
AcMeStateMgr
  3
AcMeServices
 90
     1024
280
     0
281
     0
  0
CLASS
  1
ACDBENTITYCACHE
  2
AcMeEntityCache
  3
AcMeServices
 90
     1024
280
     0
281
     0
  0
CLASS
  1
ACGREFMASTER
  2
AcGrefMaster
  3
AcAttribServices
 90
     1024
280
     0
281
     0
  0
CLASS
  1
ACME_DATABASE
  2
AcMeDbDatabase
  3
AcMeServices
 90
     1024
280
     0
281
     0
  0
CLASS
  1
ACRFINSADJUSTERMGR
  2
AcRfInsAdjusterMgr
  3
AcMeServices
 90
     1024
280
     0
281
     0
  0
CLASS
  1
ACGREFACADMASTER
  2
AcGrefacadMaster
  3
AcGrefServices
 90
     1024
280
     0
281
     0
  0
CLASS
  1
AMDTMENUSTATEMGR
  2
AmdtMenuStateMgr
  3
McadcomServices
 90
     1024
280
     0
281
     0
  0
CLASS
  1
AMDTMCOMMENUSTATE
  2
AmdtMcomMenuState
  3
McadcomServices
 90
     1024
280
     0
281
     0
  0
CLASS
  1
AMIMASTER
  2
AmiMaster
  3
AmiServices
 90
     1024
280
     0
281
     0
  0
CLASS
  1
MAPIAMMOUDLE
  2
MApiAmModule
  3
MApiAmServices
 90
     1024
280
     0
281
     0
  0
CLASS
  1
ACIMSTRSYSVAR
  2
AcImStrSysVar
  3
AcMeServices
 90
     1024
280
     0
281
     0
  0
CLASS
  1
AMDTAMMENUSTATE
  2
AmdtAmMenuState
  3
DesignerAssemblies
 90
     1024
280
     0
281
     0
  0
CLASS
  1
ACAMPROJECT
  2
AcAmProject
  3
DesignerAssemblies
 90
     1024
280
     0
281
     0
  0
CLASS
  1
ACAMGRCOMPDEF
  2
AcAmGrCompDef
  3
DesignerAssemblies
 90
     1024
280
     0
281
     0
  0
CLASS
  1
ACAMCOMPDEF
  2
AcAmCompDef
  3
DesignerAssemblies
 90
     1024
280
     0
281
     0
  0
CLASS
  1
ACAMCOMPDEFMGR
  2
AcAmCompDefMgr
  3
DesignerAssemblies
 90
     1024
280
     0
281
     0
  0
CLASS
  1
AMCONTEXTMGR
  2
AcAmContextMgr
  3
DesignerAssemblies
 90
     1024
280
     0
281
     0
  0
CLASS
  1
ACAMCONTEXTMODELER
  2
AcAmContextModeler
  3
DesignerAssemblies
 90
     1024
280
     0
281
     0
  0
CLASS
  1
ACMDATADICTIONARY
  2
AcmDataDictionary
  3
"AcmSymBB|Product Description: AutoCAD Mechanical|Company: Autodesk, Inc."
 90
     1024
280
     0
281
     0
  0
CLASS
  1
ACAMGRCOMPDEFSET
  2
AcAmGrCompDefSet
  3
DesignerAssemblies
 90
     1024
280
     0
281
     0
  0
CLASS
  1
AMDTBROWSERDBTAB
  2
AmdtBrowserDbTab
  3
McadcomServices
 90
     1024
280
     0
281
     0
  0
CLASS
  1
CBROWSERAPPOBJECT
  2
CBrowserAppObject
  3
McadcomServices
 90
     1024
280
     0
281
     0
  0
CLASS
  1
DM_PLACEHOLDER
  2
AcDmSelsetPlaceholder
  3
McadcomServices
 90
     1024
280
     0
281
     0
  0
CLASS
  1
ACMSTANDARDANSI
  2
AcmStandardANSI
  3
"Amdt_StdImp|Product Description: AutoCAD Mechanical|Company: Autodesk, Inc."
 90
     1024
280
     0
281
     0
  0
CLASS
  1
ACMSURFSTANDARDANSI
  2
AcmSurfTextStdANSI
  3
"Amdt_StdImp|Product Description: AutoCAD Mechanical|Company: Autodesk, Inc."
 90
     1024
280
     0
281
     0
  0
CLASS
  1
ACMFCFSTANDARDANSI
  2
AcmFCFStdANSI
  3
"Amdt_StdImp|Product Description: AutoCAD Mechanical|Company: Autodesk, Inc."
 90
     1024
280
     0
281
     0
  0
CLASS
  1
ACMWELDSTANDARDANSI
  2
AcmWeldingStdANSI
  3
"Amdt_StdImp|Product Description: AutoCAD Mechanical|Company: Autodesk, Inc."
 90
     1024
280
     0
281
     0
  0
CLASS
  1
ACMIDSTANDARDANSI
  2
AcmIdStdANSI
  3
"Amdt_StdImp|Product Description: AutoCAD Mechanical|Company: Autodesk, Inc."
 90
     1024
280
     0
281
     0
  0
CLASS
  1
ACMDATUMSTANDARDANSI
  2
AcmDatumStdANSI
  3
"Amdt_StdImp|Product Description: AutoCAD Mechanical|Company: Autodesk, Inc."
 90
     1024
280
     0
281
     0
  0
CLASS
  1
ACMBOMSTANDARDANSI
  2
AcmBOMStdANSI
  3
"Amdt_StdImp|Product Description: AutoCAD Mechanical|Company: Autodesk, Inc."
 90
     1024
280
     0
281
     0
  0
CLASS
  1
ACMDETAILSTANDARDANSI
  2
AmdtDetailSymStdANSI
  3
"Amdt_StdImp|Product Description: AutoCAD Mechanical|Company: Autodesk, Inc."
 90
     1024
280
     0
281
     0
  0
CLASS
  1
ACMSECTIONSTANDARDANSI
  2
AmdtSectionSymStdANSI
  3
"Amdt_StdImp|Product Description: AutoCAD Mechanical|Company: Autodesk, Inc."
 90
     1024
280
     0
281
     0
  0
CLASS
  1
ACMCENTERLINESTANDARDANSI
  2
AmdtCenterLineStdANSI
  3
"Amdt_StdImp|Product Description: AutoCAD Mechanical|Company: Autodesk, Inc."
 90
     1024
280
     0
281
     0
  0
CLASS
  1
ACMTHREADLINESTANDARDANSI
  2
AmdtThreadLineStdANSI
  3
"Amdt_StdImp|Product Description: AutoCAD Mechanical|Company: Autodesk, Inc."
 90
     1024
280
     0
281
     0
  0
CLASS
  1
ACMNOTESTANDARDANSI
  2
AmdtNoteStdANSI
  3
"Amdt_StdImp|Product Description: AutoCAD Mechanical|Company: Autodesk, Inc."
 90
     1024
280
     0
281
     0
  0
CLASS
  1
ACMTAPERSTANDARDANSI
  2
AcmTaperStdANSI
  3
"Amdt_StdImp|Product Description: AutoCAD Mechanical|Company: Autodesk, Inc."
 90
     1024
280
     0
281
     0
  0
CLASS
  1
ACMANOOTATIONVIEWSTANDARDANSI
  2
AmdtAnViewStdANSI
  3
"Amdt_StdImp|Product Description: AutoCAD Mechanical|Company: Autodesk, Inc."
 90
     1024
280
     0
281
     0
  0
CLASS
  1
ACAMGLAYSTD
  2
AcAmgLayStd
  3
"AmgLay|Product Description: AutoCAD Mechanical|Company: Autodesk, Inc."
 90
     1024
280
     0
281
     0
  0
CLASS
  1
ACAMGDIMSTD
  2
AcAmgDimStd
  3
"AmgDim|Product Description: AutoCAD Mechanical|Company: Autodesk, Inc."
 90
     1024
280
     0
281
     0
  0
CLASS
  1
AMGOBJPROPCFG
  2
AmgObjPropCfg
  3
"AmgLay|Product Description: AutoCAD Mechanical|Company: Autodesk, Inc."
 90
     1024
280
     0
281
     0
  0
CLASS
  1
ACAMGHOLECHARTSTDANSI
  2
AcAmgHoleChartStdANSI
  3
AmgDim|Product Description: AutoCAD Mechanical|Company: Autodesk, Inc.
 90
     1024
280
     0
281
     0
  0
CLASS
  1
ACAMGTITLESTD
  2
AcAmgTitleStd
  3
"AmgTitle|Product Description: AutoCAD Mechanical|Company: Autodesk, Inc."
 90
     1024
280
     0
281
     0
  0
CLASS
  1
AMDTNOTETEMPLATEDB
  2
AmdtNoteTemplateDB
  3
AcmSymBB|Product Description: AutoCAD Mechanical|Company: Autodesk, Inc.
 90
     1024
280
     0
281
     0
  0
CLASS
  1
CELLSTYLEMAP
  2
AcDbCellStyleMap
  3
ObjectDBX Classes
 90
     1152
280
     0
281
     0
  0
ENDSEC
  0
SECTION
  2
TABLES
  0
TABLE
  2
VPORT
  5
7
330
0
100
AcDbSymbolTable
 70
     1
  0
VPORT
  5
26A
330
7
100
AcDbSymbolTableRecord
100
AcDbViewportTableRecord
  2
*Active
 70
     0
 10
0.0
 20
0.0
 11
1.0
 21
1.0
 12
157.4790986876285
 22
111.8133751580873
 13
0.0
 23
0.0
 14
1.0
 24
1.0
 15
0.0
 25
0.0
 16
0.0
 26
0.0
 36
1.0
 17
0.0
 27
0.0
 37
0.0
 40
322.2840441246909
 41
1.681623931623931
 42
50.0
 43
0.0
 44
0.0
 50
0.0
 51
0.0
 71
     0
 72
   100
 73
     1
 74
     1
 75
     0
 76
     0
 77
     0
 78
     0
281
     0
 65
     0
110
0.0
120
0.0
130
0.0
111
1.0
121
0.0
131
0.0
112
0.0
122
1.0
132
0.0
 79
     0
146
0.0
1001
ACAD_NAV_VCDISPLAY
1070
     3
  0
ENDTAB
  0
TABLE
  2
LTYPE
  5
4
330
0
100
AcDbSymbolTable
 70
     8
  0
LTYPE
  5
11
330
4
100
AcDbSymbolTableRecord
100
AcDbLinetypeTableRecord
  2
ByBlock
 70
     0
  3

 72
    65
 73
     0
 40
0.0
  0
LTYPE
  5
12
330
4
100
AcDbSymbolTableRecord
100
AcDbLinetypeTableRecord
  2
ByLayer
 70
     0
  3

 72
    65
 73
     0
 40
0.0
  0
LTYPE
  5
13
330
4
100
AcDbSymbolTableRecord
100
AcDbLinetypeTableRecord
  2
Continuous
 70
     0
  3
Solid line
 72
    65
 73
     0
 40
0.0
  0
LTYPE
  5
2BB
330
4
100
AcDbSymbolTableRecord
100
AcDbLinetypeTableRecord
  2
PHANTOM2
 70
     0
  3
Phantom (.5x) ___ _ _ ___ _ _ ___ _ _ ___ _ _
 72
    65
 73
     6
 40
1.25
 49
0.625
 74
     0
 49
-0.125
 74
     0
 49
0.125
 74
     0
 49
-0.125
 74
     0
 49
0.125
 74
     0
 49
-0.125
 74
     0
  0
LTYPE
  5
2D0
330
4
100
AcDbSymbolTableRecord
100
AcDbLinetypeTableRecord
  2
HIDDEN
 70
     0
  3
Hidden __ __ __ __ __ __ __ __ __ __ __ __ __ _
 72
    65
 73
     2
 40
0.375
 49
0.25
 74
     0
 49
-0.125
 74
     0
  0
LTYPE
  5
2D1
330
4
100
AcDbSymbolTableRecord
100
AcDbLinetypeTableRecord
  2
CENTER
 70
     0
  3
Center ____ _ ____ _ ____ _ ____ _ ____ _ ____
 72
    65
 73
     4
 40
2.0
 49
1.25
 74
     0
 49
-0.25
 74
     0
 49
0.25
 74
     0
 49
-0.25
 74
     0
  0
LTYPE
  5
30B
330
4
100
AcDbSymbolTableRecord
100
AcDbLinetypeTableRecord
  2
CENTER2
 70
     0
  3
Center (.5x) ___ _ ___ _ ___ _ ___ _ ___ _ ___
 72
    65
 73
     4
 40
1.125
 49
0.75
 74
     0
 49
-0.125
 74
     0
 49
0.125
 74
     0
 49
-0.125
 74
     0
  0
LTYPE
  5
30C
330
4
100
AcDbSymbolTableRecord
100
AcDbLinetypeTableRecord
  2
HIDDEN2
 70
     0
  3
Hidden (.5x) _ _ _ _ _ _ _ _ _ _ _ _ _ _ _ _ _
 72
    65
 73
     2
 40
0.1875
 49
0.125
 74
     0
 49
-0.0625
 74
     0
  0
LTYPE
  5
31A
330
4
100
AcDbSymbolTableRecord
100
AcDbLinetypeTableRecord
  2
ACANSTGB
 70
     0
  3
__ . . __ . .
 72
    65
 73
     6
 40
0.35433070866
 49
0.15748031496
 74
     0
 49
-0.03937007874
 74
     0
 49
0.03937007874
 74
     0
 49
-0.03937007874
 74
     0
 49
0.03937007874
 74
     0
 49
-0.03937007874
 74
     0
  0
LTYPE
  5
31B
330
4
100
AcDbSymbolTableRecord
100
AcDbLinetypeTableRecord
  2
ACANSTGL
 70
     0
  3
_ _ _ _ _
 72
    65
 73
     2
 40
0.11811023622
 49
0.07874015748
 74
     0
 49
-0.03937007874
 74
     0
  0
ENDTAB
  0
TABLE
  2
LAYER
  5
2
330
0
100
AcDbSymbolTable
 70
     3
  0
LAYER
  5
14
102
{ACAD_XDICTIONARY
360
37B
102
}
330
2
100
AcDbSymbolTableRecord
100
AcDbLayerTableRecord
  2
0
 70
     0
 62
     7
  6
Continuous
370
    -3
390
1D
  0
LAYER
  5
28
102
{ACAD_XDICTIONARY
360
37D
102
}
330
2
100
AcDbSymbolTableRecord
100
AcDbLayerTableRecord
  2
レイヤー_1
 70
     0
 62
   160
  6
Continuous
370
    -3
390
1F
  0
LAYER
  5
227
330
2
100
AcDbSymbolTableRecord
100
AcDbLayerTableRecord
  2
Defpoints
 70
     0
 62
     7
  6
Continuous
290
     0
370
    -3
390
1D
  0
ENDTAB
  0
TABLE
  2
STYLE
  5
3
330
0
100
AcDbSymbolTable
 70
     7
  0
STYLE
  5
17
330
3
100
AcDbSymbolTableRecord
100
AcDbTextStyleTableRecord
  2
Standard
 70
     0
 40
0.0
 41
1.0
 50
0.0
 71
     0
 42
0.0
  3
txt
  4

  0
STYLE
  5
24
330
3
100
AcDbSymbolTableRecord
100
AcDbTextStyleTableRecord
  2
STD
 70
     0
 40
0.0
 41
1.0
 50
0.0
 71
     0
 42
0.0
  3
txt
  4

  0
STYLE
  5
25
330
3
100
AcDbSymbolTableRecord
100
AcDbTextStyleTableRecord
  2
TATESTD
 70
     4
 40
0.0
 41
1.0
 50
0.0
 71
     0
 42
0.0
  3
txt
  4

  0
STYLE
  5
26
330
3
100
AcDbSymbolTableRecord
100
AcDbTextStyleTableRecord
  2
KANJISTD
 70
     0
 40
0.0
 41
1.0
 50
0.0
 71
     0
 42
0.0
  3
txt
  4
extfont
  0
STYLE
  5
27
330
3
100
AcDbSymbolTableRecord
100
AcDbTextStyleTableRecord
  2
KANJITATE
 70
     4
 40
0.0
 41
1.0
 50
0.0
 71
     0
 42
0.0
  3
txt
  4
extfont
  0
STYLE
  5
318
330
3
100
AcDbSymbolTableRecord
100
AcDbTextStyleTableRecord
  2
ACANSTS
 70
     0
 40
1.0
 41
1.0
 50
0.0
 71
     0
 42
0.2
  3
romans.shx
  4
extfont.shx
  0
STYLE
  5
319
330
3
100
AcDbSymbolTableRecord
100
AcDbTextStyleTableRecord
  2
ACANSGDT
 70
     0
 40
0.0
 41
1.0
 50
0.0
 71
     0
 42
0.2
  3
amgdt.shx
  4

  0
ENDTAB
  0
TABLE
  2
VIEW
  5
5
330
0
100
AcDbSymbolTable
 70
     0
  0
ENDTAB
  0
TABLE
  2
UCS
  5
6
330
0
100
AcDbSymbolTable
 70
     0
  0
ENDTAB
  0
TABLE
  2
APPID
  5
8
330
0
100
AcDbSymbolTable
 70
    13
  0
APPID
  5
16
330
8
100
AcDbSymbolTableRecord
100
AcDbRegAppTableRecord
  2
ACAD
 70
     0
  0
APPID
  5
2C9
330
8
100
AcDbSymbolTableRecord
100
AcDbRegAppTableRecord
  2
MCAD_NO_VIS
 70
     0
  0
APPID
  5
2CA
330
8
100
AcDbSymbolTableRecord
100
AcDbRegAppTableRecord
  2
ACAD_TEMP_GRAPHIC
 70
     0
  0
APPID
  5
2D6
330
8
100
AcDbSymbolTableRecord
100
AcDbRegAppTableRecord
  2
ACATTRIBSERVICES
 70
     0
  0
APPID
  5
2EE
330
8
100
AcDbSymbolTableRecord
100
AcDbRegAppTableRecord
  2
DESIGNERASSEMBLIES
 70
     0
  0
APPID
  5
308
330
8
100
AcDbSymbolTableRecord
100
AcDbRegAppTableRecord
  2
ACAD_DSTYLE_DIMJAG
 70
     0
  0
APPID
  5
309
330
8
100
AcDbSymbolTableRecord
100
AcDbRegAppTableRecord
  2
ACAD_DSTYLE_DIMBREAK
 70
     0
  0
APPID
  5
323
330
8
100
AcDbSymbolTableRecord
100
AcDbRegAppTableRecord
  2
ACAD_NAV_VCDISPLAY
 70
     0
  0
APPID
  5
3C3
330
8
100
AcDbSymbolTableRecord
100
AcDbRegAppTableRecord
  2
ACAD_MLEADERVER
 70
     0
  0
APPID
  5
3C6
330
8
100
AcDbSymbolTableRecord
100
AcDbRegAppTableRecord
  2
ACAD_DSTYLE_DIMARC_LENGTH_SYMBOL
 70
     0
  0
APPID
  5
3C7
330
8
100
AcDbSymbolTableRecord
100
AcDbRegAppTableRecord
  2
ACAD_DSTYLE_DIM_LINETYPE
 70
     0
  0
APPID
  5
3C8
330
8
100
AcDbSymbolTableRecord
100
AcDbRegAppTableRecord
  2
ACAD_DSTYLE_DIM_EXT1_LINETYPE
 70
     0
  0
APPID
  5
3C9
330
8
100
AcDbSymbolTableRecord
100
AcDbRegAppTableRecord
  2
ACAD_DSTYLE_DIM_EXT2_LINETYPE
 70
     0
  0
ENDTAB
  0
TABLE
  2
DIMSTYLE
  5
9
330
0
100
AcDbSymbolTable
 70
     7
100
AcDbDimStyleTable
 71
     1
340
18
  0
DIMSTYLE
105
18
330
9
100
AcDbSymbolTableRecord
100
AcDbDimStyleTableRecord
  2
Standard
 70
     0
289
     0
340
17
  0
DIMSTYLE
105
307
102
{ACAD_REACTORS
330
2F7
102
}
330
9
100
AcDbSymbolTableRecord
100
AcDbDimStyleTableRecord
  2
AM_ANSI
 70
     0
  4
mm
 41
0.12
 42
0.05
 43
0.5
 44
0.1
 47
0.1
 48
0.1
 78
     7
 79
     2
140
0.12
141
0.0
146
0.71
147
0.06
176
   256
177
   256
178
     2
274
     4
284
     7
340
17
371
    -1
372
    -1
1001
ACAD_DSTYLE_DIMJAG
1070
   388
1040
1.5
1001
ACAD_DSTYLE_DIMBREAK
1070
   391
1040
0.125
1001
ACAD_DSTYLE_DIMARC_LENGTH_SYMBOL
1070
   379
1070
     1
1001
ACAD_DSTYLE_DIM_LINETYPE
1070
   380
1005
11
1001
ACAD_DSTYLE_DIM_EXT1_LINETYPE
1070
   381
1005
11
1001
ACAD_DSTYLE_DIM_EXT2_LINETYPE
1070
   382
1005
11
  0
DIMSTYLE
105
30D
330
9
100
AcDbSymbolTableRecord
100
AcDbDimStyleTableRecord
  2
AM_ANSI$3
 70
     0
  4
mm
 41
0.12
 42
0.05
 43
0.5
 44
0.1
 47
0.1
 48
0.1
 78
     7
 79
     2
140
0.12
141
0.0
146
0.71
147
0.06
176
   256
177
   256
178
     2
274
     4
284
     7
288
     1
289
     0
340
17
371
    -1
372
    -1
1001
ACAD_DSTYLE_DIMBREAK
1070
   391
1040
0.125
1001
ACAD_DSTYLE_DIMJAG
1070
   388
1040
1.5
1001
ACAD_DSTYLE_DIMARC_LENGTH_SYMBOL
1070
   379
1070
     1
1001
ACAD_DSTYLE_DIM_LINETYPE
1070
   380
1005
11
1001
ACAD_DSTYLE_DIM_EXT1_LINETYPE
1070
   381
1005
11
1001
ACAD_DSTYLE_DIM_EXT2_LINETYPE
1070
   382
1005
11
  0
DIMSTYLE
105
30E
330
9
100
AcDbSymbolTableRecord
100
AcDbDimStyleTableRecord
  2
AM_ANSI$4
 70
     0
  4
mm
 41
0.12
 42
0.05
 43
0.5
 44
0.1
 47
0.1
 48
0.1
 78
     7
 79
     2
140
0.12
141
0.0
146
0.71
147
0.06
176
   256
177
   256
178
     2
274
     4
284
     7
288
     1
289
     0
340
17
371
    -1
372
    -1
1001
ACAD_DSTYLE_DIMBREAK
1070
   391
1040
0.125
1001
ACAD_DSTYLE_DIMJAG
1070
   388
1040
1.5
1001
ACAD_DSTYLE_DIMARC_LENGTH_SYMBOL
1070
   379
1070
     1
1001
ACAD_DSTYLE_DIM_LINETYPE
1070
   380
1005
11
1001
ACAD_DSTYLE_DIM_EXT1_LINETYPE
1070
   381
1005
11
1001
ACAD_DSTYLE_DIM_EXT2_LINETYPE
1070
   382
1005
11
  0
DIMSTYLE
105
30F
330
9
100
AcDbSymbolTableRecord
100
AcDbDimStyleTableRecord
  2
AM_ANSI$7
 70
     0
  4
mm
 41
0.12
 42
0.05
 43
0.5
 44
0.1
 47
0.1
 48
0.1
 78
     7
 79
     2
140
0.12
141
0.0
146
0.71
147
0.06
176
   256
177
   256
178
     2
274
     4
284
     7
340
17
371
    -1
372
    -1
1001
ACAD_DSTYLE_DIMBREAK
1070
   391
1040
0.125
1001
ACAD_DSTYLE_DIMJAG
1070
   388
1040
1.5
1001
ACAD_DSTYLE_DIMARC_LENGTH_SYMBOL
1070
   379
1070
     1
1001
ACAD_DSTYLE_DIM_LINETYPE
1070
   380
1005
11
1001
ACAD_DSTYLE_DIM_EXT1_LINETYPE
1070
   381
1005
11
1001
ACAD_DSTYLE_DIM_EXT2_LINETYPE
1070
   382
1005
11
  0
DIMSTYLE
105
310
330
9
100
AcDbSymbolTableRecord
100
AcDbDimStyleTableRecord
  2
AM_ANSI$SF
 70
     0
  4
mm
 41
0.12
 42
0.05
 43
0.5
 44
0.1
 47
0.1
 48
0.1
 75
     1
 76
     1
 78
     7
 79
     2
140
0.12
141
0.0
146
0.71
147
0.06
176
   256
177
   256
178
     2
274
     4
284
     7
340
17
371
    -1
372
    -1
1001
ACAD_DSTYLE_DIMBREAK
1070
   391
1040
0.125
1001
ACAD_DSTYLE_DIMJAG
1070
   388
1040
1.5
1001
ACAD_DSTYLE_DIMARC_LENGTH_SYMBOL
1070
   379
1070
     1
1001
ACAD_DSTYLE_DIM_LINETYPE
1070
   380
1005
11
1001
ACAD_DSTYLE_DIM_EXT1_LINETYPE
1070
   381
1005
11
1001
ACAD_DSTYLE_DIM_EXT2_LINETYPE
1070
   382
1005
11
  0
DIMSTYLE
105
315
330
9
100
AcDbSymbolTableRecord
100
AcDbDimStyleTableRecord
  2
AM_ANSI$SH
 70
     0
  4
mm
 41
0.12
 42
0.05
 43
0.5
 44
0.1
 47
0.1
 48
0.1
 75
     1
 76
     1
 78
     7
 79
     2
140
0.12
141
0.0
146
0.71
147
0.06
173
     1
176
   256
177
   256
178
     2
274
     4
284
     7
340
17
343
311
371
    -1
372
    -1
1001
ACAD_DSTYLE_DIMBREAK
1070
   391
1040
0.125
1001
ACAD_DSTYLE_DIMJAG
1070
   388
1040
1.5
1001
ACAD_DSTYLE_DIMARC_LENGTH_SYMBOL
1070
   379
1070
     1
1001
ACAD_DSTYLE_DIM_LINETYPE
1070
   380
1005
11
1001
ACAD_DSTYLE_DIM_EXT1_LINETYPE
1070
   381
1005
11
1001
ACAD_DSTYLE_DIM_EXT2_LINETYPE
1070
   382
1005
11
  0
ENDTAB
  0
TABLE
  2
BLOCK_RECORD
  5
1
330
0
100
AcDbSymbolTable
 70
     5
  0
BLOCK_RECORD
  5
A
330
1
100
AcDbSymbolTableRecord
100
AcDbBlockTableRecord
  2
*MODEL_SPACE
340
20
  0
BLOCK_RECORD
  5
B
330
1
100
AcDbSymbolTableRecord
100
AcDbBlockTableRecord
  2
*PAPER_SPACE
340
21
  0
BLOCK_RECORD
  5
29
330
1
100
AcDbSymbolTableRecord
100
AcDbBlockTableRecord
  2
AI9-BLK1
340
0
102
{BLKREFS
331
2A
102
}
  0
BLOCK_RECORD
  5
311
330
1
100
AcDbSymbolTableRecord
100
AcDbBlockTableRecord
  2
GENAXEH
340
0
  0
ENDTAB
  0
ENDSEC
  0
SECTION
  2
BLOCKS
  0
BLOCK
  5
D
330
A
100
AcDbEntity
  8
0
100
AcDbBlockBegin
  2
*MODEL_SPACE
 70
     0
 71
     1
 10
0.0
 20
0.0
 30
0.0
  3
*MODEL_SPACE
  1

  0
ENDBLK
  5
E
330
A
100
AcDbEntity
  8
0
100
AcDbBlockEnd
  0
BLOCK
  5
F
330
B
100
AcDbEntity
 67
     1
  8
0
100
AcDbBlockBegin
  2
*PAPER_SPACE
 70
     0
 71
     1
 10
0.0
 20
0.0
 30
0.0
  3
*PAPER_SPACE
  1

  0
ENDBLK
  5
10
330
B
100
AcDbEntity
 67
     1
  8
0
100
AcDbBlockEnd
  0
BLOCK
  5
2B
330
29
100
AcDbEntity
  8
レイヤー_1
 62
     7
100
AcDbBlockBegin
  2
AI9-BLK1
 70
     0
 71
     1
 10
0.0
 20
0.0
 30
0.0
  3
AI9-BLK1
  1

  0
LINE
  5
212
330
29
100
AcDbEntity
  8
レイヤー_1
 62
     7
100
AcDbLine
 10
-30.03968234592014
 20
42.64597574869791
 30
0.0
 11
-29.30312093098958
 21
43.40803087022568
 31
0.0
  0
LINE
  5
211
330
29
100
AcDbEntity
  8
レイヤー_1
 62
     7
100
AcDbLine
 10
-20.31159396701389
 20
43.40803087022568
 30
0.0
 11
-19.57486029730902
 21
42.64597574869791
 31
0.0
  0
LINE
  5
210
330
29
100
AcDbEntity
  8
レイヤー_1
 62
     7
100
AcDbLine
 10
-19.57486029730902
 20
34.51796196831597
 30
0.0
 11
-19.57486029730902
 21
42.64597574869791
 31
0.0
  0
LINE
  5
20F
330
29
100
AcDbEntity
  8
レイヤー_1
 62
     7
100
AcDbLine
 10
-30.03968234592014
 20
42.64597574869791
 30
0.0
 11
-30.03968234592014
 21
34.51796196831597
 31
0.0
  0
LINE
  5
20E
330
29
100
AcDbEntity
  8
レイヤー_1
 62
     7
100
AcDbLine
 10
-30.03968234592014
 20
42.64597574869791
 30
0.0
 11
-29.30312093098958
 21
43.40803087022568
 31
0.0
  0
LINE
  5
20D
330
29
100
AcDbEntity
  8
レイヤー_1
 62
     7
100
AcDbLine
 10
-20.31159396701389
 20
43.40803087022568
 30
0.0
 11
-19.57486029730902
 21
42.64597574869791
 31
0.0
  0
LINE
  5
20C
330
29
100
AcDbEntity
  8
レイヤー_1
 62
     7
100
AcDbLine
 10
-30.03968234592014
 20
42.64597574869791
 30
0.0
 11
-30.03968234592014
 21
34.51796196831597
 31
0.0
  0
LINE
  5
20B
330
29
100
AcDbEntity
  8
レイヤー_1
 62
     7
100
AcDbLine
 10
-19.57486029730902
 20
34.51796196831597
 30
0.0
 11
-19.57486029730902
 21
42.64597574869791
 31
0.0
  0
LINE
  5
20A
330
29
100
AcDbEntity
  8
レイヤー_1
 62
     7
100
AcDbLine
 10
-40.17429199218748
 20
34.51796196831597
 30
0.0
 11
-40.02184651692707
 21
15.74735921223958
 31
0.0
  0
LINE
  5
209
330
29
100
AcDbEntity
  8
レイヤー_1
 62
     7
100
AcDbLine
 10
-9.59269612630208
 20
15.74735921223958
 30
0.0
 11
-9.440422905815971
 21
34.51796196831597
 31
0.0
  0
LINE
  5
208
330
29
100
AcDbEntity
  8
レイヤー_1
 62
     7
100
AcDbLine
 10
-29.30312093098958
 20
43.40803087022568
 30
0.0
 11
-20.31159396701389
 21
43.40803087022568
 31
0.0
  0
LINE
  5
207
330
29
100
AcDbEntity
  8
レイヤー_1
 62
     7
100
AcDbLine
 10
-24.80727132161459
 20
42.64597574869791
 30
0.0
 11
-19.57486029730902
 21
42.64597574869791
 31
0.0
  0
LINE
  5
206
330
29
100
AcDbEntity
  8
レイヤー_1
 62
     7
100
AcDbLine
 10
-30.03968234592014
 20
42.64597574869791
 30
0.0
 11
-24.80727132161459
 21
42.64597574869791
 31
0.0
  0
LINE
  5
205
330
29
100
AcDbEntity
  8
レイヤー_1
 62
     7
100
AcDbLine
 10
-29.30312093098958
 20
43.40803087022568
 30
0.0
 11
-20.31159396701389
 21
43.40803087022568
 31
0.0
  0
LINE
  5
204
330
29
100
AcDbEntity
  8
レイヤー_1
 62
     7
100
AcDbLine
 10
-24.80727132161459
 20
42.64597574869791
 30
0.0
 11
-19.57486029730902
 21
42.64597574869791
 31
0.0
  0
LINE
  5
203
330
29
100
AcDbEntity
  8
レイヤー_1
 62
     7
100
AcDbLine
 10
-30.03968234592014
 20
42.64597574869791
 30
0.0
 11
-24.80727132161459
 21
42.64597574869791
 31
0.0
  0
LINE
  5
202
330
29
100
AcDbEntity
  8
レイヤー_1
 62
     7
100
AcDbLine
 10
-24.80727132161459
 20
34.51796196831597
 30
0.0
 11
-9.440422905815971
 21
34.51796196831597
 31
0.0
  0
LINE
  5
201
330
29
100
AcDbEntity
  8
レイヤー_1
 62
     7
100
AcDbLine
 10
-40.17429199218748
 20
34.51796196831597
 30
0.0
 11
-24.80727132161459
 21
34.51796196831597
 31
0.0
  0
SPLINE
  5
200
330
29
100
AcDbEntity
  8
レイヤー_1
 62
     7
100
AcDbSpline
210
0.0
220
0.0
230
1.0
 70
     8
 71
     3
 72
    14
 73
    10
 74
     0
 42
0.000000001
 43
0.0000000001
 40
0.0
 40
0.0
 40
0.0
 40
0.0
 40
1.0
 40
1.0
 40
1.0
 40
2.0
 40
2.0
 40
2.0
 40
3.0
 40
3.0
 40
3.0
 40
3.0
 10
-9.770463053385416
 20
15.59508599175347
 30
0.0
 10
-9.770463053385416
 20
15.59508599175347
 30
0.0
 10
-9.694326443142358
 20
15.62040744357639
 30
0.0
 10
-9.694326443142358
 20
15.62040744357639
 30
0.0
 10
-9.694326443142358
 20
15.62040744357639
 30
0.0
 10
-9.643511284722221
 20
15.67122260199652
 30
0.0
 10
-9.643511284722221
 20
15.67122260199652
 30
0.0
 10
-9.625080023871527
 20
15.69413248697916
 30
0.0
 10
-9.609232584635416
 20
15.72289903428819
 30
0.0
 10
-9.59269612630208
 20
15.74735921223958
 30
0.0
  0
LINE
  5
1FF
330
29
100
AcDbEntity
  8
レイヤー_1
 62
     7
100
AcDbLine
 10
-39.9203884548611
 20
15.62040744357639
 30
0.0
 11
-39.84407958984375
 21
15.59508599175347
 31
0.0
  0
SPLINE
  5
1FE
330
29
100
AcDbEntity
  8
レイヤー_1
 62
     7
100
AcDbSpline
210
0.0
220
0.0
230
1.0
 70
     8
 71
     3
 72
    11
 73
     7
 74
     0
 42
0.000000001
 43
0.0000000001
 40
0.0
 40
0.0
 40
0.0
 40
0.0
 40
1.0
 40
1.0
 40
1.0
 40
2.0
 40
2.0
 40
2.0
 40
2.0
 10
-40.02184651692707
 20
15.74735921223958
 30
0.0
 10
-40.00548231336805
 20
15.72272677951389
 30
0.0
 10
-39.98946261935764
 20
15.69413248697916
 30
0.0
 10
-39.97120361328125
 20
15.67122260199652
 30
0.0
 10
-39.95707872178819
 20
15.65365261501736
 30
0.0
 10
-39.93640814887152
 20
15.6364271375868
 30
0.0
 10
-39.9203884548611
 20
15.62040744357639
 30
0.0
  0
SPLINE
  5
1FD
330
29
100
AcDbEntity
  8
レイヤー_1
 62
     7
100
AcDbSpline
210
0.0
220
0.0
230
1.0
 70
     8
 71
     3
 72
     8
 73
     4
 74
     0
 42
0.000000001
 43
0.0000000001
 40
0.0
 40
0.0
 40
0.0
 40
0.0
 40
1.0
 40
1.0
 40
1.0
 40
1.0
 10
-24.80727132161459
 20
15.46796196831597
 30
0.0
 10
-19.79551866319444
 20
15.459521484375
 30
0.0
 10
-14.78118218315972
 20
15.50189615885416
 30
0.0
 10
-9.770463053385416
 20
15.59508599175347
 30
0.0
  0
LINE
  5
1FC
330
29
100
AcDbEntity
  8
レイヤー_1
 62
     7
100
AcDbLine
 10
-32.32567545572916
 20
15.49345567491319
 30
0.0
 11
-24.80727132161459
 21
15.46796196831597
 31
0.0
  0
LINE
  5
1FB
330
29
100
AcDbEntity
  8
レイヤー_1
 62
     7
100
AcDbLine
 10
-39.84407958984375
 20
15.59508599175347
 30
0.0
 11
-32.32567545572916
 21
15.49345567491319
 31
0.0
  0
LINE
  5
1FA
330
29
100
AcDbEntity
  8
レイヤー_1
 62
     7
100
AcDbLine
 10
-24.80727132161459
 20
11.98824327256944
 30
0.0
 11
-24.80727132161459
 21
14.09646945529513
 31
0.0
  0
LINE
  5
1F9
330
29
100
AcDbEntity
  8
レイヤー_1
 62
     7
100
AcDbLine
 10
-24.80727132161459
 20
16.12838677300347
 30
0.0
 11
-24.80727132161459
 21
16.63636610243055
 31
0.0
  0
LINE
  5
1F8
330
29
100
AcDbEntity
  8
レイヤー_1
 62
     7
100
AcDbLine
 10
-24.80727132161459
 20
18.66845567491319
 30
0.0
 11
-24.80727132161459
 21
26.79646945529514
 31
0.0
  0
LINE
  5
1F7
330
29
100
AcDbEntity
  8
レイヤー_1
 62
     7
100
AcDbLine
 10
-24.80727132161459
 20
28.82838677300347
 30
0.0
 11
-24.80727132161459
 21
29.33636610243055
 31
0.0
  0
LINE
  5
1F6
330
29
100
AcDbEntity
  8
レイヤー_1
 62
     7
100
AcDbLine
 10
-24.80727132161459
 20
31.36845567491319
 30
0.0
 11
-24.80727132161459
 21
39.49646945529514
 31
0.0
  0
LINE
  5
1F5
330
29
100
AcDbEntity
  8
レイヤー_1
 62
     7
100
AcDbLine
 10
-24.80727132161459
 20
41.52838677300347
 30
0.0
 11
-24.80727132161459
 21
42.03636610243054
 31
0.0
  0
LINE
  5
1F4
330
29
100
AcDbEntity
  8
レイヤー_1
 62
     7
100
AcDbLine
 10
-24.80727132161459
 20
44.06845567491319
 30
0.0
 11
-24.80727132161459
 21
46.17668185763888
 31
0.0
  0
LINE
  5
1F3
330
29
100
AcDbEntity
  8
レイヤー_1
 62
     7
100
AcDbLine
 10
-32.57975124782986
 20
51.56136610243056
 30
0.0
 11
-17.03496365017361
 21
51.56136610243056
 31
0.0
  0
LINE
  5
1F2
330
29
100
AcDbEntity
  8
レイヤー_1
 62
     7
100
AcDbLine
 10
-30.03968234592014
 20
43.15395507812499
 30
0.0
 11
-30.03968234592014
 21
52.06934543185763
 31
0.0
  0
LINE
  5
1F1
330
29
100
AcDbEntity
  8
レイヤー_1
 62
     7
100
AcDbLine
 10
-19.57486029730902
 20
43.15395507812499
 30
0.0
 11
-19.57486029730902
 21
52.06934543185763
 31
0.0
  0
POLYLINE
  5
1EC
330
29
100
AcDbEntity
  8
レイヤー_1
 62
     7
100
AcDb2dPolyline
 66
     1
 10
0.0
 20
0.0
 30
0.0
  0
VERTEX
  5
1ED
330
1EC
100
AcDbEntity
  8
レイヤー_1
 62
     7
100
AcDbVertex
100
AcDb2dVertex
 10
-31.56379258897569
 20
51.35827772352429
 30
0.0
  0
VERTEX
  5
1EE
330
1EC
100
AcDbEntity
  8
レイヤー_1
 62
     7
100
AcDbVertex
100
AcDb2dVertex
 10
-30.03968234592014
 20
51.56136610243056
 30
0.0
  0
VERTEX
  5
1EF
330
1EC
100
AcDbEntity
  8
レイヤー_1
 62
     7
100
AcDbVertex
100
AcDb2dVertex
 10
-31.56379258897569
 20
51.76462673611109
 30
0.0
  0
SEQEND
  5
1F0
330
1EC
100
AcDbEntity
  8
レイヤー_1
 62
     7
  0
POLYLINE
  5
1E7
330
29
100
AcDbEntity
  8
レイヤー_1
 62
     7
100
AcDb2dPolyline
 66
     1
 10
0.0
 20
0.0
 30
0.0
  0
VERTEX
  5
1E8
330
1E7
100
AcDbEntity
  8
レイヤー_1
 62
     7
100
AcDbVertex
100
AcDb2dVertex
 10
-18.05092230902777
 20
51.76462673611109
 30
0.0
  0
VERTEX
  5
1E9
330
1E7
100
AcDbEntity
  8
レイヤー_1
 62
     7
100
AcDbVertex
100
AcDb2dVertex
 10
-19.57486029730902
 20
51.56136610243056
 30
0.0
  0
VERTEX
  5
1EA
330
1E7
100
AcDbEntity
  8
レイヤー_1
 62
     7
100
AcDbVertex
100
AcDb2dVertex
 10
-18.05092230902777
 20
51.35827772352429
 30
0.0
  0
SEQEND
  5
1EB
330
1E7
100
AcDbEntity
  8
レイヤー_1
 62
     7
  0
LINE
  5
1E6
330
29
100
AcDbEntity
  8
レイヤー_1
 62
     7
100
AcDbLine
 10
-20.31159396701389
 20
-41.63122287326388
 30
0.0
 11
-19.57486029730902
 21
-40.86916775173611
 31
0.0
  0
LINE
  5
1E5
330
29
100
AcDbEntity
  8
レイヤー_1
 62
     7
100
AcDbLine
 10
-19.57486029730902
 20
-38.32909884982639
 30
0.0
 11
-19.57486029730902
 21
-40.86916775173611
 31
0.0
  0
LINE
  5
1E4
330
29
100
AcDbEntity
  8
レイヤー_1
 62
     7
100
AcDbLine
 10
-30.03968234592014
 20
-40.86916775173611
 30
0.0
 11
-30.03968234592014
 21
-38.32909884982639
 31
0.0
  0
LINE
  5
1E3
330
29
100
AcDbEntity
  8
レイヤー_1
 62
     7
100
AcDbLine
 10
-30.03968234592014
 20
-40.86916775173611
 30
0.0
 11
-29.30312093098958
 21
-41.63122287326388
 31
0.0
  0
LINE
  5
1E2
330
29
100
AcDbEntity
  8
レイヤー_1
 62
     7
100
AcDbLine
 10
-19.57486029730902
 20
-38.32909884982639
 30
0.0
 11
-19.57486029730902
 21
-40.86916775173611
 31
0.0
  0
LINE
  5
1E1
330
29
100
AcDbEntity
  8
レイヤー_1
 62
     7
100
AcDbLine
 10
-30.03968234592014
 20
-40.86916775173611
 30
0.0
 11
-29.30312093098958
 21
-41.63122287326388
 31
0.0
  0
LINE
  5
1E0
330
29
100
AcDbEntity
  8
レイヤー_1
 62
     7
100
AcDbLine
 10
-20.31159396701389
 20
-41.63122287326388
 30
0.0
 11
-19.57486029730902
 21
-40.86916775173611
 31
0.0
  0
LINE
  5
1DF
330
29
100
AcDbEntity
  8
レイヤー_1
 62
     7
100
AcDbLine
 10
-30.03968234592014
 20
-40.86916775173611
 30
0.0
 11
-30.03968234592014
 21
-38.32909884982639
 31
0.0
  0
LINE
  5
1DE
330
29
100
AcDbEntity
  8
レイヤー_1
 62
     7
100
AcDbLine
 10
-31.46216227213541
 20
-37.84644097222222
 30
0.0
 11
-30.16680636935764
 21
-38.35459255642361
 31
0.0
  0
LINE
  5
1DD
330
29
100
AcDbEntity
  8
レイヤー_1
 62
     7
100
AcDbLine
 10
-19.44790852864583
 20
-38.35459255642361
 30
0.0
 11
-18.12723117404513
 21
-37.84644097222222
 31
0.0
  0
LINE
  5
1DC
330
29
100
AcDbEntity
  8
レイヤー_1
 62
     7
100
AcDbLine
 10
-24.80727132161459
 20
-40.86916775173611
 30
0.0
 11
-19.57486029730902
 21
-40.86916775173611
 31
0.0
  0
LINE
  5
1DB
330
29
100
AcDbEntity
  8
レイヤー_1
 62
     7
100
AcDbLine
 10
-30.03968234592014
 20
-40.86916775173611
 30
0.0
 11
-24.80727132161459
 21
-40.86916775173611
 31
0.0
  0
LINE
  5
1DA
330
29
100
AcDbEntity
  8
レイヤー_1
 62
     7
100
AcDbLine
 10
-24.80727132161459
 20
-41.63122287326388
 30
0.0
 11
-20.31159396701389
 21
-41.63122287326388
 31
0.0
  0
LINE
  5
1D9
330
29
100
AcDbEntity
  8
レイヤー_1
 62
     7
100
AcDbLine
 10
-29.30312093098958
 20
-41.63122287326388
 30
0.0
 11
-24.80727132161459
 21
-41.63122287326388
 31
0.0
  0
LINE
  5
1D8
330
29
100
AcDbEntity
  8
レイヤー_1
 62
     7
100
AcDbLine
 10
-24.80727132161459
 20
-40.86916775173611
 30
0.0
 11
-19.57486029730902
 21
-40.86916775173611
 31
0.0
  0
LINE
  5
1D7
330
29
100
AcDbEntity
  8
レイヤー_1
 62
     7
100
AcDbLine
 10
-30.03968234592014
 20
-40.86916775173611
 30
0.0
 11
-24.80727132161459
 21
-40.86916775173611
 31
0.0
  0
LINE
  5
1D6
330
29
100
AcDbEntity
  8
レイヤー_1
 62
     7
100
AcDbLine
 10
-24.80727132161459
 20
-41.63122287326388
 30
0.0
 11
-20.31159396701389
 21
-41.63122287326388
 31
0.0
  0
LINE
  5
1D5
330
29
100
AcDbEntity
  8
レイヤー_1
 62
     7
100
AcDbLine
 10
-29.30312093098958
 20
-41.63122287326388
 30
0.0
 11
-24.80727132161459
 21
-41.63122287326388
 31
0.0
  0
SPLINE
  5
1D4
330
29
100
AcDbEntity
  8
レイヤー_1
 62
     7
100
AcDbSpline
210
0.0
220
0.0
230
1.0
 70
     8
 71
     3
 72
    17
 73
    13
 74
     0
 42
0.000000001
 43
0.0000000001
 40
0.0
 40
0.0
 40
0.0
 40
0.0
 40
1.0
 40
1.0
 40
1.0
 40
2.0
 40
2.0
 40
2.0
 40
3.0
 40
3.0
 40
3.0
 40
4.0
 40
4.0
 40
4.0
 40
4.0
 10
-19.57486029730902
 20
-38.45622287326388
 30
0.0
 10
-13.86444227430555
 20
-36.444287109375
 30
0.0
 10
-9.440422905815971
 20
-30.53250325520833
 30
0.0
 10
-9.440422905815971
 20
-24.40987955729167
 30
0.0
 10
-9.440422905815971
 20
-15.79817437065972
 30
0.0
 10
-16.03399115668403
 20
-8.636509874131942
 30
0.0
 10
-24.80727132161459
 20
-8.636509874131942
 30
0.0
 10
-33.57762315538194
 20
-8.636509874131942
 30
0.0
 10
-40.17429199218748
 20
-15.79679633246527
 30
0.0
 10
-40.17429199218748
 20
-24.40987955729167
 30
0.0
 10
-40.17429199218748
 20
-30.53319227430555
 30
0.0
 10
-35.749755859375
 20
-36.44463161892361
 30
0.0
 10
-30.03968234592014
 20
-38.45622287326388
 30
0.0
  0
SPLINE
  5
1D3
330
29
100
AcDbEntity
  8
レイヤー_1
 62
     7
100
AcDbSpline
210
0.0
220
0.0
230
1.0
 70
     8
 71
     3
 72
     8
 73
     4
 74
     0
 42
0.000000001
 43
0.0000000001
 40
0.0
 40
0.0
 40
0.0
 40
0.0
 40
1.0
 40
1.0
 40
1.0
 40
1.0
 10
-29.83659396701389
 20
-38.35459255642361
 30
0.0
 10
-28.72572292751736
 20
-38.71357150607638
 30
0.0
 10
-27.6667005750868
 20
-38.96230740017362
 30
0.0
 10
-26.50914849175347
 20
-39.11664767795139
 30
0.0
  0
SPLINE
  5
1D2
330
29
100
AcDbEntity
  8
レイヤー_1
 62
     7
100
AcDbSpline
210
0.0
220
0.0
230
1.0
 70
     8
 71
     3
 72
     8
 73
     4
 74
     0
 42
0.000000001
 43
0.0000000001
 40
0.0
 40
0.0
 40
0.0
 40
0.0
 40
1.0
 40
1.0
 40
1.0
 40
1.0
 10
-23.10556640625
 20
-39.11664767795139
 30
0.0
 10
-21.94801432291667
 20
-38.96230740017362
 30
0.0
 10
-20.88899197048611
 20
-38.71357150607638
 30
0.0
 10
-19.77812093098958
 20
-38.35459255642361
 30
0.0
  0
SPLINE
  5
1D1
330
29
100
AcDbEntity
  8
レイヤー_1
 62
     7
100
AcDbSpline
210
0.0
220
0.0
230
1.0
 70
     8
 71
     3
 72
     8
 73
     4
 74
     0
 42
0.000000001
 43
0.0000000001
 40
0.0
 40
0.0
 40
0.0
 40
0.0
 40
1.0
 40
1.0
 40
1.0
 40
1.0
 10
-19.57486029730902
 20
-38.40523546006944
 30
0.0
 10
-19.28099365234375
 20
-38.31221788194444
 30
0.0
 10
-18.99091661241319
 20
-38.17785915798611
 30
0.0
 10
-18.71134711371528
 20
-38.04970160590278
 30
0.0
  0
SPLINE
  5
1D0
330
29
100
AcDbEntity
  8
レイヤー_1
 62
     7
100
AcDbSpline
210
0.0
220
0.0
230
1.0
 70
     8
 71
     3
 72
     8
 73
     4
 74
     0
 42
0.000000001
 43
0.0000000001
 40
0.0
 40
0.0
 40
0.0
 40
0.0
 40
1.0
 40
1.0
 40
1.0
 40
1.0
 10
-30.90336778428819
 20
-38.04970160590278
 30
0.0
 10
-30.62362603081597
 20
-38.17785915798611
 30
0.0
 10
-30.33372124565972
 20
-38.31221788194444
 30
0.0
 10
-30.03968234592014
 20
-38.40523546006944
 30
0.0
  0
LINE
  5
1CF
330
29
100
AcDbEntity
  8
レイヤー_1
 62
     7
100
AcDbLine
 10
-18.71134711371528
 20
-38.04970160590278
 30
0.0
 11
-18.71134711371528
 21
-37.99905870225694
 31
0.0
  0
SPLINE
  5
1CE
330
29
100
AcDbEntity
  8
レイヤー_1
 62
     7
100
AcDbSpline
210
0.0
220
0.0
230
1.0
 70
     8
 71
     3
 72
     8
 73
     4
 74
     0
 42
0.000000001
 43
0.0000000001
 40
0.0
 40
0.0
 40
0.0
 40
0.0
 40
1.0
 40
1.0
 40
1.0
 40
1.0
 10
-24.80727132161459
 20
-39.21827799479166
 30
0.0
 10
-22.77535400390625
 20
-39.22413465711805
 30
0.0
 10
-20.58306749131944
 20
-38.80590006510415
 30
0.0
 10
-18.71134711371528
 20
-37.99905870225694
 30
0.0
  0
SPLINE
  5
1CD
330
29
100
AcDbEntity
  8
レイヤー_1
 62
     7
100
AcDbSpline
210
0.0
220
0.0
230
1.0
 70
     8
 71
     3
 72
     8
 73
     4
 74
     0
 42
0.000000001
 43
0.0000000001
 40
0.0
 40
0.0
 40
0.0
 40
0.0
 40
1.0
 40
1.0
 40
1.0
 40
1.0
 10
-30.90336778428819
 20
-37.99905870225694
 30
0.0
 10
-29.03784857855903
 20
-38.80314398871528
 30
0.0
 10
-26.83212619357639
 20
-39.2255126953125
 30
0.0
 10
-24.80727132161459
 20
-39.21827799479166
 30
0.0
  0
LINE
  5
1CC
330
29
100
AcDbEntity
  8
レイヤー_1
 62
     7
100
AcDbLine
 10
-30.90336778428819
 20
-38.04970160590278
 30
0.0
 11
-30.90336778428819
 21
-37.99905870225694
 31
0.0
  0
LINE
  5
1CB
330
29
100
AcDbEntity
  8
レイヤー_1
 62
     7
100
AcDbLine
 10
-43.67950439453124
 20
-24.00370279947916
 30
0.0
 11
-39.69163411458333
 21
-24.00370279947916
 31
0.0
  0
LINE
  5
1CA
330
29
100
AcDbEntity
  8
レイヤー_1
 62
     7
100
AcDbLine
 10
-37.659716796875
 20
-24.00370279947916
 30
0.0
 11
-37.15173746744792
 21
-24.00370279947916
 31
0.0
  0
LINE
  5
1C9
330
29
100
AcDbEntity
  8
レイヤー_1
 62
     7
100
AcDbLine
 10
-35.11982014973958
 20
-24.00370279947916
 30
0.0
 11
-26.99180636935764
 21
-24.00370279947916
 31
0.0
  0
LINE
  5
1C8
330
29
100
AcDbEntity
  8
レイヤー_1
 62
     7
100
AcDbLine
 10
-24.959716796875
 20
-24.00370279947916
 30
0.0
 11
-24.45173746744791
 21
-24.00370279947916
 31
0.0
  0
LINE
  5
1C7
330
29
100
AcDbEntity
  8
レイヤー_1
 62
     7
100
AcDbLine
 10
-22.41982014973958
 20
-24.00370279947916
 30
0.0
 11
-14.29180636935764
 21
-24.00370279947916
 31
0.0
  0
LINE
  5
1C6
330
29
100
AcDbEntity
  8
レイヤー_1
 62
     7
100
AcDbLine
 10
-12.259716796875
 20
-24.00370279947916
 30
0.0
 11
-11.75173746744791
 21
-24.00370279947916
 31
0.0
  0
LINE
  5
1C5
330
29
100
AcDbEntity
  8
レイヤー_1
 62
     7
100
AcDbLine
 10
-9.719820149739582
 20
-24.00370279947916
 30
0.0
 11
-5.731949869791666
 21
-24.00370279947916
 31
0.0
  0
LINE
  5
1C4
330
29
100
AcDbEntity
  8
レイヤー_1
 62
     7
100
AcDbLine
 10
-24.80727132161459
 20
-43.99352484809027
 30
0.0
 11
-24.80727132161459
 21
-43.48537326388888
 31
0.0
  0
LINE
  5
1C3
330
29
100
AcDbEntity
  8
レイヤー_1
 62
     7
100
AcDbLine
 10
-24.80727132161459
 20
-41.45345594618055
 30
0.0
 11
-24.80727132161459
 21
-33.32544216579861
 31
0.0
  0
LINE
  5
1C2
330
29
100
AcDbEntity
  8
レイヤー_1
 62
     7
100
AcDbLine
 10
-24.80727132161459
 20
-31.29352484809027
 30
0.0
 11
-24.80727132161459
 21
-30.78537326388889
 31
0.0
  0
LINE
  5
1C1
330
29
100
AcDbEntity
  8
レイヤー_1
 62
     7
100
AcDbLine
 10
-24.80727132161459
 20
-28.75345594618055
 30
0.0
 11
-24.80727132161459
 21
-20.62544216579861
 31
0.0
  0
LINE
  5
1C0
330
29
100
AcDbEntity
  8
レイヤー_1
 62
     7
100
AcDbLine
 10
-24.80727132161459
 20
-18.59352484809027
 30
0.0
 11
-24.80727132161459
 21
-18.08537326388888
 31
0.0
  0
LINE
  5
1BF
330
29
100
AcDbEntity
  8
レイヤー_1
 62
     7
100
AcDbLine
 10
-24.80727132161459
 20
-16.05345594618055
 30
0.0
 11
-24.80727132161459
 21
-7.92544216579861
 31
0.0
  0
LINE
  5
1BE
330
29
100
AcDbEntity
  8
レイヤー_1
 62
     7
100
AcDbLine
 10
-24.80727132161459
 20
-5.893524848090278
 30
0.0
 11
-24.80727132161459
 21
-5.385373263888887
 31
0.0
  0
POLYLINE
  5
1B9
330
29
100
AcDbEntity
  8
レイヤー_1
 62
     7
100
AcDb2dPolyline
 66
     1
 10
0.0
 20
0.0
 30
0.0
  0
VERTEX
  5
1BA
330
1B9
100
AcDbEntity
  8
レイヤー_1
 62
     7
100
AcDbVertex
100
AcDb2dVertex
 10
-30.09049750434027
 20
-54.24199490017361
 30
0.0
  0
VERTEX
  5
1BB
330
1B9
100
AcDbEntity
  8
レイヤー_1
 62
     7
100
AcDbVertex
100
AcDb2dVertex
 10
-29.58251817491319
 20
-54.24199490017361
 30
0.0
  0
VERTEX
  5
1BC
330
1B9
100
AcDbEntity
  8
レイヤー_1
 62
     7
100
AcDbVertex
100
AcDb2dVertex
 10
-29.58251817491319
 20
-56.02000868055553
 30
0.0
  0
SEQEND
  5
1BD
330
1B9
100
AcDbEntity
  8
レイヤー_1
 62
     7
  0
POLYLINE
  5
1AF
330
29
100
AcDbEntity
  8
レイヤー_1
 62
     7
100
AcDb2dPolyline
 66
     1
 10
0.0
 20
0.0
 30
0.0
  0
VERTEX
  5
1B0
330
1AF
100
AcDbEntity
  8
レイヤー_1
 62
     7
100
AcDbVertex
100
AcDb2dVertex
 10
-29.58251817491319
 20
-55.25795355902777
 30
0.0
  0
VERTEX
  5
1B1
330
1AF
100
AcDbEntity
  8
レイヤー_1
 62
     7
100
AcDbVertex
100
AcDb2dVertex
 10
-30.09049750434027
 20
-56.02000868055553
 30
0.0
  0
VERTEX
  5
1B2
330
1AF
100
AcDbEntity
  8
レイヤー_1
 62
     7
100
AcDbVertex
100
AcDb2dVertex
 10
-30.95418294270833
 20
-56.02000868055553
 30
0.0
  0
VERTEX
  5
1B3
330
1AF
100
AcDbEntity
  8
レイヤー_1
 62
     7
100
AcDbVertex
100
AcDb2dVertex
 10
-31.48748372395833
 20
-55.25795355902777
 30
0.0
  0
VERTEX
  5
1B4
330
1AF
100
AcDbEntity
  8
レイヤー_1
 62
     7
100
AcDbVertex
100
AcDb2dVertex
 10
-31.48748372395833
 20
-52.97178819444443
 30
0.0
  0
VERTEX
  5
1B5
330
1AF
100
AcDbEntity
  8
レイヤー_1
 62
     7
100
AcDbVertex
100
AcDb2dVertex
 10
-30.95418294270833
 20
-52.21007758246527
 30
0.0
  0
VERTEX
  5
1B6
330
1AF
100
AcDbEntity
  8
レイヤー_1
 62
     7
100
AcDbVertex
100
AcDb2dVertex
 10
-30.09049750434027
 20
-52.21007758246527
 30
0.0
  0
VERTEX
  5
1B7
330
1AF
100
AcDbEntity
  8
レイヤー_1
 62
     7
100
AcDbVertex
100
AcDb2dVertex
 10
-29.58251817491319
 20
-52.97178819444443
 30
0.0
  0
SEQEND
  5
1B8
330
1AF
100
AcDbEntity
  8
レイヤー_1
 62
     7
  0
POLYLINE
  5
1AA
330
29
100
AcDbEntity
  8
レイヤー_1
 62
     7
100
AcDb2dPolyline
 66
     1
 10
0.0
 20
0.0
 30
0.0
  0
VERTEX
  5
1AB
330
1AA
100
AcDbEntity
  8
レイヤー_1
 62
     7
100
AcDbVertex
100
AcDb2dVertex
 10
-27.93162841796875
 20
-52.97178819444443
 30
0.0
  0
VERTEX
  5
1AC
330
1AA
100
AcDbEntity
  8
レイヤー_1
 62
     7
100
AcDbVertex
100
AcDb2dVertex
 10
-27.57592230902778
 20
-52.21007758246527
 30
0.0
  0
VERTEX
  5
1AD
330
1AA
100
AcDbEntity
  8
レイヤー_1
 62
     7
100
AcDbVertex
100
AcDb2dVertex
 10
-27.57592230902778
 20
-56.02000868055553
 30
0.0
  0
SEQEND
  5
1AE
330
1AA
100
AcDbEntity
  8
レイヤー_1
 62
     7
  0
LINE
  5
1A9
330
29
100
AcDbEntity
  8
レイヤー_1
 62
     7
100
AcDbLine
 10
-27.75368923611111
 20
-56.02000868055553
 30
0.0
 11
-27.39815538194444
 21
-56.02000868055553
 31
0.0
  0
LINE
  5
1A8
330
29
100
AcDbEntity
  8
レイヤー_1
 62
     7
100
AcDbLine
 10
-25.77258707682292
 20
-56.02000868055553
 30
0.0
 11
-23.86762152777778
 21
-52.21007758246527
 31
0.0
  0
POLYLINE
  5
19E
330
29
100
AcDbEntity
  8
レイヤー_1
 62
     7
100
AcDb2dPolyline
 66
     1
 10
0.0
 20
0.0
 30
0.0
  0
VERTEX
  5
19F
330
19E
100
AcDbEntity
  8
レイヤー_1
 62
     7
100
AcDbVertex
100
AcDb2dVertex
 10
-22.72453884548611
 20
-52.97178819444443
 30
0.0
  0
VERTEX
  5
1A0
330
19E
100
AcDbEntity
  8
レイヤー_1
 62
     7
100
AcDbVertex
100
AcDb2dVertex
 10
-22.21655951605903
 20
-52.21007758246527
 30
0.0
  0
VERTEX
  5
1A1
330
19E
100
AcDbEntity
  8
レイヤー_1
 62
     7
100
AcDbVertex
100
AcDb2dVertex
 10
-21.50531955295139
 20
-52.21007758246527
 30
0.0
  0
VERTEX
  5
1A2
330
19E
100
AcDbEntity
  8
レイヤー_1
 62
     7
100
AcDbVertex
100
AcDb2dVertex
 10
-21.17510715060764
 20
-52.71788465711804
 30
0.0
  0
VERTEX
  5
1A3
330
19E
100
AcDbEntity
  8
レイヤー_1
 62
     7
100
AcDbVertex
100
AcDb2dVertex
 10
-21.17510715060764
 20
-53.73384331597222
 30
0.0
  0
VERTEX
  5
1A4
330
19E
100
AcDbEntity
  8
レイヤー_1
 62
     7
100
AcDbVertex
100
AcDb2dVertex
 10
-22.72453884548611
 20
-55.00405002170138
 30
0.0
  0
VERTEX
  5
1A5
330
19E
100
AcDbEntity
  8
レイヤー_1
 62
     7
100
AcDbVertex
100
AcDb2dVertex
 10
-22.72453884548611
 20
-56.02000868055553
 30
0.0
  0
VERTEX
  5
1A6
330
19E
100
AcDbEntity
  8
レイヤー_1
 62
     7
100
AcDbVertex
100
AcDb2dVertex
 10
-21.17510715060764
 20
-56.02000868055553
 30
0.0
  0
SEQEND
  5
1A7
330
19E
100
AcDbEntity
  8
レイヤー_1
 62
     7
  0
POLYLINE
  5
198
330
29
100
AcDbEntity
  8
レイヤー_1
 62
     7
100
AcDb2dPolyline
 66
     1
 10
0.0
 20
0.0
 30
0.0
 70
     1
  0
VERTEX
  5
199
330
198
100
AcDbEntity
  8
レイヤー_1
 62
     7
100
AcDbVertex
100
AcDb2dVertex
 10
-19.44790852864583
 20
-53.22603624131943
 30
0.0
  0
VERTEX
  5
19A
330
198
100
AcDbEntity
  8
レイヤー_1
 62
     7
100
AcDbVertex
100
AcDb2dVertex
 10
-19.2701416015625
 20
-52.21007758246527
 30
0.0
  0
VERTEX
  5
19B
330
198
100
AcDbEntity
  8
レイヤー_1
 62
     7
100
AcDbVertex
100
AcDb2dVertex
 10
-19.44790852864583
 20
-52.21007758246527
 30
0.0
  0
VERTEX
  5
19C
330
198
100
AcDbEntity
  8
レイヤー_1
 62
     7
100
AcDbVertex
100
AcDb2dVertex
 10
-19.44790852864583
 20
-53.22603624131943
 30
0.0
  0
SEQEND
  5
19D
330
198
100
AcDbEntity
  8
レイヤー_1
 62
     7
  0
POLYLINE
  5
192
330
29
100
AcDbEntity
  8
レイヤー_1
 62
     7
100
AcDb2dPolyline
 66
     1
 10
0.0
 20
0.0
 30
0.0
 70
     1
  0
VERTEX
  5
193
330
192
100
AcDbEntity
  8
レイヤー_1
 62
     7
100
AcDbVertex
100
AcDb2dVertex
 10
-18.73666856553819
 20
-53.22603624131943
 30
0.0
  0
VERTEX
  5
194
330
192
100
AcDbEntity
  8
レイヤー_1
 62
     7
100
AcDbVertex
100
AcDb2dVertex
 10
-18.58439534505208
 20
-52.21007758246527
 30
0.0
  0
VERTEX
  5
195
330
192
100
AcDbEntity
  8
レイヤー_1
 62
     7
100
AcDbVertex
100
AcDb2dVertex
 10
-18.73666856553819
 20
-52.21007758246527
 30
0.0
  0
VERTEX
  5
196
330
192
100
AcDbEntity
  8
レイヤー_1
 62
     7
100
AcDbVertex
100
AcDb2dVertex
 10
-18.73666856553819
 20
-53.22603624131943
 30
0.0
  0
SEQEND
  5
197
330
192
100
AcDbEntity
  8
レイヤー_1
 62
     7
  0
LINE
  5
191
330
29
100
AcDbEntity
  8
レイヤー_1
 62
     7
100
AcDbLine
 10
-32.57975124782986
 20
-49.65760633680554
 30
0.0
 11
-17.03496365017361
 21
-49.65760633680554
 31
0.0
  0
LINE
  5
190
330
29
100
AcDbEntity
  8
レイヤー_1
 62
     7
100
AcDbLine
 10
-30.03968234592014
 20
-41.37731933593749
 30
0.0
 11
-30.03968234592014
 21
-50.16575792100693
 31
0.0
  0
LINE
  5
18F
330
29
100
AcDbEntity
  8
レイヤー_1
 62
     7
100
AcDbLine
 10
-19.57486029730902
 20
-41.37731933593749
 30
0.0
 11
-19.57486029730902
 21
-50.16575792100693
 31
0.0
  0
POLYLINE
  5
18A
330
29
100
AcDbEntity
  8
レイヤー_1
 62
     7
100
AcDb2dPolyline
 66
     1
 10
0.0
 20
0.0
 30
0.0
  0
VERTEX
  5
18B
330
18A
100
AcDbEntity
  8
レイヤー_1
 62
     7
100
AcDbVertex
100
AcDb2dVertex
 10
-31.56379258897569
 20
-49.86086697048611
 30
0.0
  0
VERTEX
  5
18C
330
18A
100
AcDbEntity
  8
レイヤー_1
 62
     7
100
AcDbVertex
100
AcDb2dVertex
 10
-30.03968234592014
 20
-49.65760633680554
 30
0.0
  0
VERTEX
  5
18D
330
18A
100
AcDbEntity
  8
レイヤー_1
 62
     7
100
AcDbVertex
100
AcDb2dVertex
 10
-31.56379258897569
 20
-49.454345703125
 30
0.0
  0
SEQEND
  5
18E
330
18A
100
AcDbEntity
  8
レイヤー_1
 62
     7
  0
POLYLINE
  5
185
330
29
100
AcDbEntity
  8
レイヤー_1
 62
     7
100
AcDb2dPolyline
 66
     1
 10
0.0
 20
0.0
 30
0.0
  0
VERTEX
  5
186
330
185
100
AcDbEntity
  8
レイヤー_1
 62
     7
100
AcDbVertex
100
AcDb2dVertex
 10
-18.05092230902777
 20
-49.454345703125
 30
0.0
  0
VERTEX
  5
187
330
185
100
AcDbEntity
  8
レイヤー_1
 62
     7
100
AcDbVertex
100
AcDb2dVertex
 10
-19.57486029730902
 20
-49.65760633680554
 30
0.0
  0
VERTEX
  5
188
330
185
100
AcDbEntity
  8
レイヤー_1
 62
     7
100
AcDbVertex
100
AcDb2dVertex
 10
-18.05092230902777
 20
-49.86086697048611
 30
0.0
  0
SEQEND
  5
189
330
185
100
AcDbEntity
  8
レイヤー_1
 62
     7
  0
POLYLINE
  5
178
330
29
100
AcDbEntity
  8
レイヤー_1
 62
     7
100
AcDb2dPolyline
 66
     1
 10
0.0
 20
0.0
 30
0.0
  0
VERTEX
  5
179
330
178
100
AcDbEntity
  8
レイヤー_1
 62
     7
100
AcDbVertex
100
AcDb2dVertex
 10
-29.8619154188368
 20
3.640087890624998
 30
0.0
  0
VERTEX
  5
17A
330
178
100
AcDbEntity
  8
レイヤー_1
 62
     7
100
AcDbVertex
100
AcDb2dVertex
 10
-29.53170301649306
 20
4.148067220052083
 30
0.0
  0
VERTEX
  5
17B
330
178
100
AcDbEntity
  8
レイヤー_1
 62
     7
100
AcDbVertex
100
AcDb2dVertex
 10
-28.6681898328993
 20
4.148067220052083
 30
0.0
  0
VERTEX
  5
17C
330
178
100
AcDbEntity
  8
レイヤー_1
 62
     7
100
AcDbVertex
100
AcDb2dVertex
 10
-28.31248372395833
 20
3.640087890624998
 30
0.0
  0
VERTEX
  5
17D
330
178
100
AcDbEntity
  8
レイヤー_1
 62
     7
100
AcDbVertex
100
AcDb2dVertex
 10
-28.31248372395833
 20
2.370053439670138
 30
0.0
  0
VERTEX
  5
17E
330
178
100
AcDbEntity
  8
レイヤー_1
 62
     7
100
AcDbVertex
100
AcDb2dVertex
 10
-28.6681898328993
 20
1.862074110243055
 30
0.0
  0
VERTEX
  5
17F
330
178
100
AcDbEntity
  8
レイヤー_1
 62
     7
100
AcDbVertex
100
AcDb2dVertex
 10
-29.53170301649306
 20
1.862074110243055
 30
0.0
  0
VERTEX
  5
180
330
178
100
AcDbEntity
  8
レイヤー_1
 62
     7
100
AcDbVertex
100
AcDb2dVertex
 10
-29.8619154188368
 20
2.370053439670138
 30
0.0
  0
VERTEX
  5
181
330
178
100
AcDbEntity
  8
レイヤー_1
 62
     7
100
AcDbVertex
100
AcDb2dVertex
 10
-29.8619154188368
 20
4.91012234157986
 30
0.0
  0
VERTEX
  5
182
330
178
100
AcDbEntity
  8
レイヤー_1
 62
     7
100
AcDbVertex
100
AcDb2dVertex
 10
-29.35393608940972
 20
5.672005208333332
 30
0.0
  0
VERTEX
  5
183
330
178
100
AcDbEntity
  8
レイヤー_1
 62
     7
100
AcDbVertex
100
AcDb2dVertex
 10
-28.49042290581597
 20
5.672005208333332
 30
0.0
  0
SEQEND
  5
184
330
178
100
AcDbEntity
  8
レイヤー_1
 62
     7
  0
POLYLINE
  5
16D
330
29
100
AcDbEntity
  8
レイヤー_1
 62
     7
100
AcDb2dPolyline
 66
     1
 10
0.0
 20
0.0
 30
0.0
 70
     1
  0
VERTEX
  5
16E
330
16D
100
AcDbEntity
  8
レイヤー_1
 62
     7
100
AcDbVertex
100
AcDb2dVertex
 10
-27.01712782118055
 20
2.624129231770833
 30
0.0
  0
VERTEX
  5
16F
330
16D
100
AcDbEntity
  8
レイヤー_1
 62
     7
100
AcDbVertex
100
AcDb2dVertex
 10
-26.48365478515625
 20
1.862074110243055
 30
0.0
  0
VERTEX
  5
170
330
16D
100
AcDbEntity
  8
レイヤー_1
 62
     7
100
AcDbVertex
100
AcDb2dVertex
 10
-25.97567545572916
 20
1.862074110243055
 30
0.0
  0
VERTEX
  5
171
330
16D
100
AcDbEntity
  8
レイヤー_1
 62
     7
100
AcDbVertex
100
AcDb2dVertex
 10
-25.46769612630208
 20
2.624129231770833
 30
0.0
  0
VERTEX
  5
172
330
16D
100
AcDbEntity
  8
レイヤー_1
 62
     7
100
AcDbVertex
100
AcDb2dVertex
 10
-25.46769612630208
 20
4.91012234157986
 30
0.0
  0
VERTEX
  5
173
330
16D
100
AcDbEntity
  8
レイヤー_1
 62
     7
100
AcDbVertex
100
AcDb2dVertex
 10
-25.97567545572916
 20
5.672005208333332
 30
0.0
  0
VERTEX
  5
174
330
16D
100
AcDbEntity
  8
レイヤー_1
 62
     7
100
AcDbVertex
100
AcDb2dVertex
 10
-26.48365478515625
 20
5.672005208333332
 30
0.0
  0
VERTEX
  5
175
330
16D
100
AcDbEntity
  8
レイヤー_1
 62
     7
100
AcDbVertex
100
AcDb2dVertex
 10
-27.01712782118055
 20
4.91012234157986
 30
0.0
  0
VERTEX
  5
176
330
16D
100
AcDbEntity
  8
レイヤー_1
 62
     7
100
AcDbVertex
100
AcDb2dVertex
 10
-27.01712782118055
 20
2.624129231770833
 30
0.0
  0
SEQEND
  5
177
330
16D
100
AcDbEntity
  8
レイヤー_1
 62
     7
  0
POLYLINE
  5
166
330
29
100
AcDbEntity
  8
レイヤー_1
 62
     7
100
AcDb2dPolyline
 66
     1
 10
0.0
 20
0.0
 30
0.0
 70
     1
  0
VERTEX
  5
167
330
166
100
AcDbEntity
  8
レイヤー_1
 62
     7
100
AcDbVertex
100
AcDb2dVertex
 10
-23.81680636935763
 20
2.115977647569444
 30
0.0
  0
VERTEX
  5
168
330
166
100
AcDbEntity
  8
レイヤー_1
 62
     7
100
AcDbVertex
100
AcDb2dVertex
 10
-23.81680636935763
 20
1.862074110243055
 30
0.0
  0
VERTEX
  5
169
330
166
100
AcDbEntity
  8
レイヤー_1
 62
     7
100
AcDbVertex
100
AcDb2dVertex
 10
-23.6390394422743
 20
1.862074110243055
 30
0.0
  0
VERTEX
  5
16A
330
166
100
AcDbEntity
  8
レイヤー_1
 62
     7
100
AcDbVertex
100
AcDb2dVertex
 10
-23.6390394422743
 20
2.115977647569444
 30
0.0
  0
VERTEX
  5
16B
330
166
100
AcDbEntity
  8
レイヤー_1
 62
     7
100
AcDbVertex
100
AcDb2dVertex
 10
-23.81680636935763
 20
2.115977647569444
 30
0.0
  0
SEQEND
  5
16C
330
166
100
AcDbEntity
  8
レイヤー_1
 62
     7
  0
POLYLINE
  5
15A
330
29
100
AcDbEntity
  8
レイヤー_1
 62
     7
100
AcDb2dPolyline
 66
     1
 10
0.0
 20
0.0
 30
0.0
  0
VERTEX
  5
15B
330
15A
100
AcDbEntity
  8
レイヤー_1
 62
     7
100
AcDbVertex
100
AcDb2dVertex
 10
-21.30223117404514
 20
2.370053439670138
 30
0.0
  0
VERTEX
  5
15C
330
15A
100
AcDbEntity
  8
レイヤー_1
 62
     7
100
AcDbVertex
100
AcDb2dVertex
 10
-20.94652506510417
 20
1.862074110243055
 30
0.0
  0
VERTEX
  5
15D
330
15A
100
AcDbEntity
  8
レイヤー_1
 62
     7
100
AcDbVertex
100
AcDb2dVertex
 10
-20.08301188151042
 20
1.862074110243055
 30
0.0
  0
VERTEX
  5
15E
330
15A
100
AcDbEntity
  8
レイヤー_1
 62
     7
100
AcDbVertex
100
AcDb2dVertex
 10
-19.75262722439236
 20
2.370053439670138
 30
0.0
  0
VERTEX
  5
15F
330
15A
100
AcDbEntity
  8
レイヤー_1
 62
     7
100
AcDbVertex
100
AcDb2dVertex
 10
-19.75262722439236
 20
3.640087890624998
 30
0.0
  0
VERTEX
  5
160
330
15A
100
AcDbEntity
  8
レイヤー_1
 62
     7
100
AcDbVertex
100
AcDb2dVertex
 10
-20.08301188151042
 20
4.148067220052083
 30
0.0
  0
VERTEX
  5
161
330
15A
100
AcDbEntity
  8
レイヤー_1
 62
     7
100
AcDbVertex
100
AcDb2dVertex
 10
-20.94652506510417
 20
4.148067220052083
 30
0.0
  0
VERTEX
  5
162
330
15A
100
AcDbEntity
  8
レイヤー_1
 62
     7
100
AcDbVertex
100
AcDb2dVertex
 10
-21.30223117404514
 20
3.767039659288193
 30
0.0
  0
VERTEX
  5
163
330
15A
100
AcDbEntity
  8
レイヤー_1
 62
     7
100
AcDbVertex
100
AcDb2dVertex
 10
-21.1242919921875
 20
5.672005208333332
 30
0.0
  0
VERTEX
  5
164
330
15A
100
AcDbEntity
  8
レイヤー_1
 62
     7
100
AcDbVertex
100
AcDb2dVertex
 10
-19.75262722439236
 20
5.672005208333332
 30
0.0
  0
SEQEND
  5
165
330
15A
100
AcDbEntity
  8
レイヤー_1
 62
     7
  0
LINE
  5
159
330
29
100
AcDbEntity
  8
レイヤー_1
 62
     7
100
AcDbLine
 10
-40.17429199218748
 20
0.5074625651041666
 30
0.0
 11
-9.440422905815971
 21
0.5074625651041666
 31
0.0
  0
LINE
  5
158
330
29
100
AcDbEntity
  8
レイヤー_1
 62
     7
100
AcDbLine
 10
-40.17429199218748
 20
-23.49555121527778
 30
0.0
 11
-40.17429199218748
 21
1.01544189453125
 31
0.0
  0
LINE
  5
157
330
29
100
AcDbEntity
  8
レイヤー_1
 62
     7
100
AcDbLine
 10
-9.440422905815971
 20
-23.49555121527778
 30
0.0
 11
-9.440422905815971
 21
1.01544189453125
 31
0.0
  0
POLYLINE
  5
152
330
29
100
AcDbEntity
  8
レイヤー_1
 62
     7
100
AcDb2dPolyline
 66
     1
 10
0.0
 20
0.0
 30
0.0
  0
VERTEX
  5
153
330
152
100
AcDbEntity
  8
レイヤー_1
 62
     7
100
AcDbVertex
100
AcDb2dVertex
 10
-38.65035400390624
 20
0.6852294921875
 30
0.0
  0
VERTEX
  5
154
330
152
100
AcDbEntity
  8
レイヤー_1
 62
     7
100
AcDbVertex
100
AcDb2dVertex
 10
-40.17429199218748
 20
0.5074625651041666
 30
0.0
  0
VERTEX
  5
155
330
152
100
AcDbEntity
  8
レイヤー_1
 62
     7
100
AcDbVertex
100
AcDb2dVertex
 10
-38.65035400390624
 20
0.3042019314236111
 30
0.0
  0
SEQEND
  5
156
330
152
100
AcDbEntity
  8
レイヤー_1
 62
     7
  0
POLYLINE
  5
14D
330
29
100
AcDbEntity
  8
レイヤー_1
 62
     7
100
AcDb2dPolyline
 66
     1
 10
0.0
 20
0.0
 30
0.0
  0
VERTEX
  5
14E
330
14D
100
AcDbEntity
  8
レイヤー_1
 62
     7
100
AcDbVertex
100
AcDb2dVertex
 10
-10.9390394422743
 20
0.3042019314236111
 30
0.0
  0
VERTEX
  5
14F
330
14D
100
AcDbEntity
  8
レイヤー_1
 62
     7
100
AcDbVertex
100
AcDb2dVertex
 10
-9.440422905815971
 20
0.5074625651041666
 30
0.0
  0
VERTEX
  5
150
330
14D
100
AcDbEntity
  8
レイヤー_1
 62
     7
100
AcDbVertex
100
AcDb2dVertex
 10
-10.9390394422743
 20
0.6852294921875
 30
0.0
  0
SEQEND
  5
151
330
14D
100
AcDbEntity
  8
レイヤー_1
 62
     7
  0
LINE
  5
14C
330
29
100
AcDbEntity
  8
レイヤー_1
 62
     7
100
AcDbLine
 10
34.37464599609375
 20
-18.74579806857639
 30
0.0
 11
35.13670111762154
 21
-19.50785319010416
 31
0.0
  0
POLYLINE
  5
147
330
29
100
AcDbEntity
  8
レイヤー_1
 62
     7
100
AcDb2dPolyline
 66
     1
 10
0.0
 20
0.0
 30
0.0
  0
VERTEX
  5
148
330
147
100
AcDbEntity
  8
レイヤー_1
 62
     7
100
AcDbVertex
100
AcDb2dVertex
 10
34.37464599609375
 20
-29.26126302083333
 30
0.0
  0
VERTEX
  5
149
330
147
100
AcDbEntity
  8
レイヤー_1
 62
     7
100
AcDbVertex
100
AcDb2dVertex
 10
35.13670111762154
 20
-28.49955240885416
 30
0.0
  0
VERTEX
  5
14A
330
147
100
AcDbEntity
  8
レイヤー_1
 62
     7
100
AcDbVertex
100
AcDb2dVertex
 10
35.13670111762154
 20
-19.50785319010416
 30
0.0
  0
SEQEND
  5
14B
330
147
100
AcDbEntity
  8
レイヤー_1
 62
     7
  0
LINE
  5
146
330
29
100
AcDbEntity
  8
レイヤー_1
 62
     7
100
AcDbLine
 10
26.2466322157118
 20
-29.26126302083333
 30
0.0
 11
34.37464599609375
 21
-29.26126302083333
 31
0.0
  0
LINE
  5
145
330
29
100
AcDbEntity
  8
レイヤー_1
 62
     7
100
AcDbLine
 10
26.2466322157118
 20
-18.74579806857639
 30
0.0
 11
34.37464599609375
 21
-18.74579806857639
 31
0.0
  0
LINE
  5
144
330
29
100
AcDbEntity
  8
レイヤー_1
 62
     7
100
AcDbLine
 10
34.37464599609375
 20
-29.26126302083333
 30
0.0
 11
34.37464599609375
 21
-18.74579806857639
 31
0.0
  0
LINE
  5
143
330
29
100
AcDbEntity
  8
レイヤー_1
 62
     7
100
AcDbLine
 10
19.56659206814236
 20
-40.86916775173611
 30
0.0
 11
19.56659206814236
 21
-38.20231933593749
 31
0.0
  0
LINE
  5
142
330
29
100
AcDbEntity
  8
レイヤー_1
 62
     7
100
AcDbLine
 10
9.050782606336804
 20
-40.86916775173611
 30
0.0
 11
9.050782606336804
 21
-39.01501736111111
 31
0.0
  0
LINE
  5
141
330
29
100
AcDbEntity
  8
レイヤー_1
 62
     7
100
AcDbLine
 10
18.80453694661458
 20
-41.63122287326388
 30
0.0
 11
19.56659206814236
 21
-40.86916775173611
 31
0.0
  0
LINE
  5
140
330
29
100
AcDbEntity
  8
レイヤー_1
 62
     7
100
AcDbLine
 10
9.050782606336804
 20
-40.86916775173611
 30
0.0
 11
9.812837727864582
 21
-41.63122287326388
 31
0.0
  0
LINE
  5
13F
330
29
100
AcDbEntity
  8
レイヤー_1
 62
     7
100
AcDbLine
 10
9.050782606336804
 20
-40.86916775173611
 30
0.0
 11
19.56659206814236
 21
-40.86916775173611
 31
0.0
  0
LINE
  5
13E
330
29
100
AcDbEntity
  8
レイヤー_1
 62
     7
100
AcDbLine
 10
9.812837727864582
 20
-41.63122287326388
 30
0.0
 11
18.80453694661458
 21
-41.63122287326388
 31
0.0
  0
LINE
  5
13D
330
29
100
AcDbEntity
  8
レイヤー_1
 62
     7
100
AcDbLine
 10
34.37464599609375
 20
-29.26126302083333
 30
0.0
 11
35.13670111762154
 21
-28.49955240885416
 31
0.0
  0
LINE
  5
13C
330
29
100
AcDbEntity
  8
レイヤー_1
 62
     7
100
AcDbLine
 10
34.37464599609375
 20
-18.74579806857639
 30
0.0
 11
35.13670111762154
 21
-19.50785319010416
 31
0.0
  0
LINE
  5
13B
330
29
100
AcDbEntity
  8
レイヤー_1
 62
     7
100
AcDbLine
 10
35.13670111762154
 20
-28.49955240885416
 30
0.0
 11
35.13670111762154
 21
-19.50785319010416
 31
0.0
  0
LINE
  5
13A
330
29
100
AcDbEntity
  8
レイヤー_1
 62
     7
100
AcDbLine
 10
26.2466322157118
 20
-18.74579806857639
 30
0.0
 11
34.37464599609375
 21
-18.74579806857639
 31
0.0
  0
POLYLINE
  5
135
330
29
100
AcDbEntity
  8
レイヤー_1
 62
     7
100
AcDb2dPolyline
 66
     1
 10
0.0
 20
0.0
 30
0.0
  0
VERTEX
  5
136
330
135
100
AcDbEntity
  8
レイヤー_1
 62
     7
100
AcDbVertex
100
AcDb2dVertex
 10
26.2466322157118
 20
-29.26126302083333
 30
0.0
  0
VERTEX
  5
137
330
135
100
AcDbEntity
  8
レイヤー_1
 62
     7
100
AcDbVertex
100
AcDb2dVertex
 10
34.37464599609375
 20
-29.26126302083333
 30
0.0
  0
VERTEX
  5
138
330
135
100
AcDbEntity
  8
レイヤー_1
 62
     7
100
AcDbVertex
100
AcDb2dVertex
 10
34.37464599609375
 20
-18.74579806857639
 30
0.0
  0
SEQEND
  5
139
330
135
100
AcDbEntity
  8
レイヤー_1
 62
     7
  0
LINE
  5
134
330
29
100
AcDbEntity
  8
レイヤー_1
 62
     7
100
AcDbLine
 10
9.050782606336804
 20
-40.86916775173611
 30
0.0
 11
9.050782606336804
 21
-39.01501736111111
 31
0.0
  0
LINE
  5
133
330
29
100
AcDbEntity
  8
レイヤー_1
 62
     7
100
AcDbLine
 10
19.56659206814236
 20
-40.86916775173611
 30
0.0
 11
19.56659206814236
 21
-38.20231933593749
 31
0.0
  0
LINE
  5
132
330
29
100
AcDbEntity
  8
レイヤー_1
 62
     7
100
AcDbLine
 10
9.050782606336804
 20
-40.86916775173611
 30
0.0
 11
9.812837727864582
 21
-41.63122287326388
 31
0.0
  0
LINE
  5
131
330
29
100
AcDbEntity
  8
レイヤー_1
 62
     7
100
AcDbLine
 10
18.80453694661458
 20
-41.63122287326388
 30
0.0
 11
19.56659206814236
 21
-40.86916775173611
 31
0.0
  0
LINE
  5
130
330
29
100
AcDbEntity
  8
レイヤー_1
 62
     7
100
AcDbLine
 10
9.050782606336804
 20
-40.86916775173611
 30
0.0
 11
19.56659206814236
 21
-40.86916775173611
 31
0.0
  0
LINE
  5
12F
330
29
100
AcDbEntity
  8
レイヤー_1
 62
     7
100
AcDbLine
 10
9.812837727864582
 20
-41.63122287326388
 30
0.0
 11
18.80453694661458
 21
-41.63122287326388
 31
0.0
  0
LINE
  5
12E
330
29
100
AcDbEntity
  8
レイヤー_1
 62
     7
100
AcDbLine
 10
7.476029459635416
 20
-39.21827799479166
 30
0.0
 11
8.466838921440968
 21
-39.21827799479166
 31
0.0
  0
LINE
  5
12D
330
29
100
AcDbEntity
  8
レイヤー_1
 62
     7
100
AcDbLine
 10
7.476029459635416
 20
-8.814621310763886
 30
0.0
 11
26.2466322157118
 21
-8.636509874131942
 31
0.0
  0
POLYLINE
  5
128
330
29
100
AcDbEntity
  8
レイヤー_1
 62
     7
100
AcDb2dPolyline
 66
     1
 10
0.0
 20
0.0
 30
0.0
  0
VERTEX
  5
129
330
128
100
AcDbEntity
  8
レイヤー_1
 62
     7
100
AcDbVertex
100
AcDb2dVertex
 10
23.70656331380208
 20
-39.37055121527777
 30
0.0
  0
VERTEX
  5
12A
330
128
100
AcDbEntity
  8
レイヤー_1
 62
     7
100
AcDbVertex
100
AcDb2dVertex
 10
26.2466322157118
 20
-39.37055121527777
 30
0.0
  0
VERTEX
  5
12B
330
128
100
AcDbEntity
  8
レイヤー_1
 62
     7
100
AcDbVertex
100
AcDb2dVertex
 10
26.2466322157118
 20
-8.636509874131942
 30
0.0
  0
SEQEND
  5
12C
330
128
100
AcDbEntity
  8
レイヤー_1
 62
     7
  0
POLYLINE
  5
123
330
29
100
AcDbEntity
  8
レイヤー_1
 62
     7
100
AcDb2dPolyline
 66
     1
 10
0.0
 20
0.0
 30
0.0
  0
VERTEX
  5
124
330
123
100
AcDbEntity
  8
レイヤー_1
 62
     7
100
AcDbVertex
100
AcDb2dVertex
 10
7.323756239149304
 20
-39.06600477430556
 30
0.0
  0
VERTEX
  5
125
330
123
100
AcDbEntity
  8
レイヤー_1
 62
     7
100
AcDbVertex
100
AcDb2dVertex
 10
7.348905436197916
 20
-39.16729058159722
 30
0.0
  0
VERTEX
  5
126
330
123
100
AcDbEntity
  8
レイヤー_1
 62
     7
100
AcDbVertex
100
AcDb2dVertex
 10
7.476029459635416
 20
-39.21827799479166
 30
0.0
  0
SEQEND
  5
127
330
123
100
AcDbEntity
  8
レイヤー_1
 62
     7
  0
POLYLINE
  5
11E
330
29
100
AcDbEntity
  8
レイヤー_1
 62
     7
100
AcDb2dPolyline
 66
     1
 10
0.0
 20
0.0
 30
0.0
  0
VERTEX
  5
11F
330
11E
100
AcDbEntity
  8
レイヤー_1
 62
     7
100
AcDbVertex
100
AcDb2dVertex
 10
7.476029459635416
 20
-8.814621310763886
 30
0.0
  0
VERTEX
  5
120
330
11E
100
AcDbEntity
  8
レイヤー_1
 62
     7
100
AcDbVertex
100
AcDb2dVertex
 10
7.348905436197916
 20
-8.86526421440972
 30
0.0
  0
VERTEX
  5
121
330
11E
100
AcDbEntity
  8
レイヤー_1
 62
     7
100
AcDbVertex
100
AcDb2dVertex
 10
7.323756239149304
 20
-8.966894531249996
 30
0.0
  0
SEQEND
  5
122
330
11E
100
AcDbEntity
  8
レイヤー_1
 62
     7
  0
SPLINE
  5
11D
330
29
100
AcDbEntity
  8
レイヤー_1
 62
     7
100
AcDbSpline
210
0.0
220
0.0
230
1.0
 70
     8
 71
     3
 72
     8
 73
     4
 74
     0
 42
0.000000001
 43
0.0000000001
 40
0.0
 40
0.0
 40
0.0
 40
0.0
 40
1.0
 40
1.0
 40
1.0
 40
1.0
 10
19.56659206814236
 20
-38.20231933593749
 30
0.0
 10
20.14433458116319
 20
-38.26846516927083
 30
0.0
 10
20.73206787109375
 20
-38.41212565104166
 30
0.0
 10
21.29361843532986
 20
-38.55785319010415
 30
0.0
  0
SPLINE
  5
11C
330
29
100
AcDbEntity
  8
レイヤー_1
 62
     7
100
AcDbSpline
210
0.0
220
0.0
230
1.0
 70
     8
 71
     3
 72
    11
 73
     7
 74
     0
 42
0.000000001
 43
0.0000000001
 40
0.0
 40
0.0
 40
0.0
 40
0.0
 40
1.0
 40
1.0
 40
1.0
 40
2.0
 40
2.0
 40
2.0
 40
2.0
 10
23.70656331380208
 20
-39.37055121527777
 30
0.0
 10
23.54154324001736
 20
-39.2382595486111
 30
0.0
 10
22.72540011935764
 20
-38.98332248263888
 30
0.0
 10
22.51283772786458
 20
-38.91338704427083
 30
0.0
 10
19.39709337022569
 20
-37.89019368489583
 30
0.0
 10
17.52709554036458
 20
-38.22161187065972
 30
0.0
 10
14.56259087456597
 20
-37.99905870225694
 30
0.0
  0
SPLINE
  5
11B
330
29
100
AcDbEntity
  8
レイヤー_1
 62
     7
100
AcDbSpline
210
0.0
220
0.0
230
1.0
 70
     8
 71
     3
 72
    14
 73
    10
 74
     0
 42
0.000000001
 43
0.0000000001
 40
0.0
 40
0.0
 40
0.0
 40
0.0
 40
1.0
 40
1.0
 40
1.0
 40
2.0
 40
2.0
 40
2.0
 40
3.0
 40
3.0
 40
3.0
 40
3.0
 10
8.720742458767357
 20
-39.14214138454861
 30
0.0
 10
8.720742458767357
 20
-39.14214138454861
 30
0.0
 10
8.517481825086804
 20
-39.21827799479166
 30
0.0
 10
8.517481825086804
 20
-39.21827799479166
 30
0.0
 10
8.539874945746527
 20
-39.20311957465278
 30
0.0
 10
8.568469238281249
 20
-39.17659233940972
 30
0.0
 10
8.59361843532986
 20
-39.16729058159722
 30
0.0
 10
10.52321641710069
 20
-38.478271484375
 30
0.0
 10
12.49760064019097
 20
-37.99113498263888
 30
0.0
 10
14.56259087456597
 20
-37.99905870225694
 30
0.0
  0
LINE
  5
11A
330
29
100
AcDbEntity
  8
レイヤー_1
 62
     7
100
AcDbLine
 10
14.30868733723958
 20
-44.39970160590277
 30
0.0
 11
14.30868733723958
 21
-40.53912760416666
 31
0.0
  0
LINE
  5
119
330
29
100
AcDbEntity
  8
レイヤー_1
 62
     7
100
AcDbLine
 10
14.30868733723958
 20
-38.50686577690972
 30
0.0
 11
14.30868733723958
 21
-37.99905870225694
 31
0.0
  0
LINE
  5
118
330
29
100
AcDbEntity
  8
レイヤー_1
 62
     7
100
AcDbLine
 10
14.30868733723958
 20
-35.9671413845486
 30
0.0
 11
14.30868733723958
 21
-32.10622287326389
 31
0.0
  0
LINE
  5
117
330
29
100
AcDbEntity
  8
レイヤー_1
 62
     7
100
AcDbLine
 10
4.605920410156248
 20
-24.00370279947916
 30
0.0
 11
6.841098361545137
 21
-24.00370279947916
 31
0.0
  0
LINE
  5
116
330
29
100
AcDbEntity
  8
レイヤー_1
 62
     7
100
AcDbLine
 10
8.87301567925347
 20
-24.00370279947916
 30
0.0
 11
9.381167263454859
 21
-24.00370279947916
 31
0.0
  0
LINE
  5
115
330
29
100
AcDbEntity
  8
レイヤー_1
 62
     7
100
AcDbLine
 10
11.41308458116319
 20
-24.00370279947916
 30
0.0
 11
19.54109836154514
 21
-24.00370279947916
 31
0.0
  0
LINE
  5
114
330
29
100
AcDbEntity
  8
レイヤー_1
 62
     7
100
AcDbLine
 10
21.57301567925347
 20
-24.00370279947916
 30
0.0
 11
22.08116726345486
 21
-24.00370279947916
 31
0.0
  0
LINE
  5
113
330
29
100
AcDbEntity
  8
レイヤー_1
 62
     7
100
AcDbLine
 10
24.11308458116319
 20
-24.00370279947916
 30
0.0
 11
32.24109836154513
 21
-24.00370279947916
 31
0.0
  0
LINE
  5
112
330
29
100
AcDbEntity
  8
レイヤー_1
 62
     7
100
AcDbLine
 10
34.27301567925347
 20
-24.00370279947916
 30
0.0
 11
34.78116726345486
 21
-24.00370279947916
 31
0.0
  0
LINE
  5
111
330
29
100
AcDbEntity
  8
レイヤー_1
 62
     7
100
AcDbLine
 10
36.81308458116319
 20
-24.00370279947916
 30
0.0
 11
39.0737562391493
 21
-24.00370279947916
 31
0.0
  0
POLYLINE
  5
107
330
29
100
AcDbEntity
  8
レイヤー_1
 62
     7
100
AcDb2dPolyline
 66
     1
 10
0.0
 20
0.0
 30
0.0
  0
VERTEX
  5
108
330
107
100
AcDbEntity
  8
レイヤー_1
 62
     7
100
AcDbVertex
100
AcDb2dVertex
 10
15.22301567925347
 20
-44.89924045138888
 30
0.0
  0
VERTEX
  5
109
330
107
100
AcDbEntity
  8
レイヤー_1
 62
     7
100
AcDbVertex
100
AcDb2dVertex
 10
15.73116726345486
 20
-44.13718532986109
 30
0.0
  0
VERTEX
  5
10A
330
107
100
AcDbEntity
  8
レイヤー_1
 62
     7
100
AcDbVertex
100
AcDb2dVertex
 10
16.44223497178819
 20
-44.13718532986109
 30
0.0
  0
VERTEX
  5
10B
330
107
100
AcDbEntity
  8
レイヤー_1
 62
     7
100
AcDbVertex
100
AcDb2dVertex
 10
16.77227511935764
 20
-44.64533691406249
 30
0.0
  0
VERTEX
  5
10C
330
107
100
AcDbEntity
  8
レイヤー_1
 62
     7
100
AcDbVertex
100
AcDb2dVertex
 10
16.77227511935764
 20
-45.66129557291666
 30
0.0
  0
VERTEX
  5
10D
330
107
100
AcDbEntity
  8
レイヤー_1
 62
     7
100
AcDbVertex
100
AcDb2dVertex
 10
15.22301567925347
 20
-46.93115776909722
 30
0.0
  0
VERTEX
  5
10E
330
107
100
AcDbEntity
  8
レイヤー_1
 62
     7
100
AcDbVertex
100
AcDb2dVertex
 10
15.22301567925347
 20
-47.94746093749998
 30
0.0
  0
VERTEX
  5
10F
330
107
100
AcDbEntity
  8
レイヤー_1
 62
     7
100
AcDbVertex
100
AcDb2dVertex
 10
16.77227511935764
 20
-47.94746093749998
 30
0.0
  0
SEQEND
  5
110
330
107
100
AcDbEntity
  8
レイヤー_1
 62
     7
  0
POLYLINE
  5
FB
330
29
100
AcDbEntity
  8
レイヤー_1
 62
     7
100
AcDb2dPolyline
 66
     1
 10
0.0
 20
0.0
 30
0.0
  0
VERTEX
  5
FC
330
FB
100
AcDbEntity
  8
レイヤー_1
 62
     7
100
AcDbVertex
100
AcDb2dVertex
 10
18.06797553168403
 20
-47.43930935329859
 30
0.0
  0
VERTEX
  5
FD
330
FB
100
AcDbEntity
  8
レイヤー_1
 62
     7
100
AcDbVertex
100
AcDb2dVertex
 10
18.42350938585069
 20
-47.94746093749998
 30
0.0
  0
VERTEX
  5
FE
330
FB
100
AcDbEntity
  8
レイヤー_1
 62
     7
100
AcDbVertex
100
AcDb2dVertex
 10
19.28719482421875
 20
-47.94746093749998
 30
0.0
  0
VERTEX
  5
FF
330
FB
100
AcDbEntity
  8
レイヤー_1
 62
     7
100
AcDbVertex
100
AcDb2dVertex
 10
19.64272867838541
 20
-47.43930935329859
 30
0.0
  0
VERTEX
  5
100
330
FB
100
AcDbEntity
  8
レイヤー_1
 62
     7
100
AcDbVertex
100
AcDb2dVertex
 10
19.64272867838541
 20
-46.42335069444444
 30
0.0
  0
VERTEX
  5
101
330
FB
100
AcDbEntity
  8
レイヤー_1
 62
     7
100
AcDbVertex
100
AcDb2dVertex
 10
19.28719482421875
 20
-45.91519911024304
 30
0.0
  0
VERTEX
  5
102
330
FB
100
AcDbEntity
  8
レイヤー_1
 62
     7
100
AcDbVertex
100
AcDb2dVertex
 10
18.77904324001736
 20
-45.91519911024304
 30
0.0
  0
VERTEX
  5
103
330
FB
100
AcDbEntity
  8
レイヤー_1
 62
     7
100
AcDbVertex
100
AcDb2dVertex
 10
19.64272867838541
 20
-44.64533691406249
 30
0.0
  0
VERTEX
  5
104
330
FB
100
AcDbEntity
  8
レイヤー_1
 62
     7
100
AcDbVertex
100
AcDb2dVertex
 10
19.64272867838541
 20
-44.13718532986109
 30
0.0
  0
VERTEX
  5
105
330
FB
100
AcDbEntity
  8
レイヤー_1
 62
     7
100
AcDbVertex
100
AcDb2dVertex
 10
18.24574245876736
 20
-44.13718532986109
 30
0.0
  0
SEQEND
  5
106
330
FB
100
AcDbEntity
  8
レイヤー_1
 62
     7
  0
POLYLINE
  5
F4
330
29
100
AcDbEntity
  8
レイヤー_1
 62
     7
100
AcDb2dPolyline
 66
     1
 10
0.0
 20
0.0
 30
0.0
 70
     1
  0
VERTEX
  5
F5
330
F4
100
AcDbEntity
  8
レイヤー_1
 62
     7
100
AcDbVertex
100
AcDb2dVertex
 10
21.26812472873264
 20
-47.69321289062498
 30
0.0
  0
VERTEX
  5
F6
330
F4
100
AcDbEntity
  8
レイヤー_1
 62
     7
100
AcDbVertex
100
AcDb2dVertex
 10
21.26812472873264
 20
-47.94746093749998
 30
0.0
  0
VERTEX
  5
F7
330
F4
100
AcDbEntity
  8
レイヤー_1
 62
     7
100
AcDbVertex
100
AcDb2dVertex
 10
21.44589165581597
 20
-47.94746093749998
 30
0.0
  0
VERTEX
  5
F8
330
F4
100
AcDbEntity
  8
レイヤー_1
 62
     7
100
AcDbVertex
100
AcDb2dVertex
 10
21.44589165581597
 20
-47.69321289062498
 30
0.0
  0
VERTEX
  5
F9
330
F4
100
AcDbEntity
  8
レイヤー_1
 62
     7
100
AcDbVertex
100
AcDb2dVertex
 10
21.26812472873264
 20
-47.69321289062498
 30
0.0
  0
SEQEND
  5
FA
330
F4
100
AcDbEntity
  8
レイヤー_1
 62
     7
  0
POLYLINE
  5
E8
330
29
100
AcDbEntity
  8
レイヤー_1
 62
     7
100
AcDb2dPolyline
 66
     1
 10
0.0
 20
0.0
 30
0.0
  0
VERTEX
  5
E9
330
E8
100
AcDbEntity
  8
レイヤー_1
 62
     7
100
AcDbVertex
100
AcDb2dVertex
 10
23.78304443359375
 20
-47.43930935329859
 30
0.0
  0
VERTEX
  5
EA
330
E8
100
AcDbEntity
  8
レイヤー_1
 62
     7
100
AcDbVertex
100
AcDb2dVertex
 10
24.13857828776042
 20
-47.94746093749998
 30
0.0
  0
VERTEX
  5
EB
330
E8
100
AcDbEntity
  8
レイヤー_1
 62
     7
100
AcDbVertex
100
AcDb2dVertex
 10
25.00191921657986
 20
-47.94746093749998
 30
0.0
  0
VERTEX
  5
EC
330
E8
100
AcDbEntity
  8
レイヤー_1
 62
     7
100
AcDbVertex
100
AcDb2dVertex
 10
25.35779758029514
 20
-47.43930935329859
 30
0.0
  0
VERTEX
  5
ED
330
E8
100
AcDbEntity
  8
レイヤー_1
 62
     7
100
AcDbVertex
100
AcDb2dVertex
 10
25.35779758029514
 20
-46.16944715711804
 30
0.0
  0
VERTEX
  5
EE
330
E8
100
AcDbEntity
  8
レイヤー_1
 62
     7
100
AcDbVertex
100
AcDb2dVertex
 10
25.00191921657986
 20
-45.66129557291666
 30
0.0
  0
VERTEX
  5
EF
330
E8
100
AcDbEntity
  8
レイヤー_1
 62
     7
100
AcDbVertex
100
AcDb2dVertex
 10
24.13857828776042
 20
-45.66129557291666
 30
0.0
  0
VERTEX
  5
F0
330
E8
100
AcDbEntity
  8
レイヤー_1
 62
     7
100
AcDbVertex
100
AcDb2dVertex
 10
23.78304443359375
 20
-46.04232313368054
 30
0.0
  0
VERTEX
  5
F1
330
E8
100
AcDbEntity
  8
レイヤー_1
 62
     7
100
AcDbVertex
100
AcDb2dVertex
 10
23.96081136067708
 20
-44.13718532986109
 30
0.0
  0
VERTEX
  5
F2
330
E8
100
AcDbEntity
  8
レイヤー_1
 62
     7
100
AcDbVertex
100
AcDb2dVertex
 10
25.35779758029514
 20
-44.13718532986109
 30
0.0
  0
SEQEND
  5
F3
330
E8
100
AcDbEntity
  8
レイヤー_1
 62
     7
  0
LINE
  5
E7
330
29
100
AcDbEntity
  8
レイヤー_1
 62
     7
100
AcDbLine
 10
14.30868733723958
 20
-49.30207248263888
 30
0.0
 11
26.2466322157118
 21
-49.30207248263888
 31
0.0
  0
LINE
  5
E6
330
29
100
AcDbEntity
  8
レイヤー_1
 62
     7
100
AcDbLine
 10
14.30868733723958
 20
-44.90785319010416
 30
0.0
 11
14.30868733723958
 21
-49.80987955729165
 31
0.0
  0
LINE
  5
E5
330
29
100
AcDbEntity
  8
レイヤー_1
 62
     7
100
AcDbLine
 10
26.2466322157118
 20
-39.87870279947916
 30
0.0
 11
26.2466322157118
 21
-49.80987955729165
 31
0.0
  0
POLYLINE
  5
E0
330
29
100
AcDbEntity
  8
レイヤー_1
 62
     7
100
AcDb2dPolyline
 66
     1
 10
0.0
 20
0.0
 30
0.0
  0
VERTEX
  5
E1
330
E0
100
AcDbEntity
  8
レイヤー_1
 62
     7
100
AcDbVertex
100
AcDb2dVertex
 10
15.83279758029514
 20
-49.09881184895833
 30
0.0
  0
VERTEX
  5
E2
330
E0
100
AcDbEntity
  8
レイヤー_1
 62
     7
100
AcDbVertex
100
AcDb2dVertex
 10
14.30868733723958
 20
-49.30207248263888
 30
0.0
  0
VERTEX
  5
E3
330
E0
100
AcDbEntity
  8
レイヤー_1
 62
     7
100
AcDbVertex
100
AcDb2dVertex
 10
15.83279758029514
 20
-49.50498860677083
 30
0.0
  0
SEQEND
  5
E4
330
E0
100
AcDbEntity
  8
レイヤー_1
 62
     7
  0
POLYLINE
  5
DB
330
29
100
AcDbEntity
  8
レイヤー_1
 62
     7
100
AcDb2dPolyline
 66
     1
 10
0.0
 20
0.0
 30
0.0
  0
VERTEX
  5
DC
330
DB
100
AcDbEntity
  8
レイヤー_1
 62
     7
100
AcDbVertex
100
AcDb2dVertex
 10
24.74801567925347
 20
-49.50498860677083
 30
0.0
  0
VERTEX
  5
DD
330
DB
100
AcDbEntity
  8
レイヤー_1
 62
     7
100
AcDbVertex
100
AcDb2dVertex
 10
26.2466322157118
 20
-49.30207248263888
 30
0.0
  0
VERTEX
  5
DE
330
DB
100
AcDbEntity
  8
レイヤー_1
 62
     7
100
AcDbVertex
100
AcDb2dVertex
 10
24.74801567925347
 20
-49.09881184895833
 30
0.0
  0
SEQEND
  5
DF
330
DB
100
AcDbEntity
  8
レイヤー_1
 62
     7
  0
LINE
  5
DA
330
29
100
AcDbEntity
  8
レイヤー_1
 62
     7
100
AcDbLine
 10
7.323756239149304
 20
-39.06600477430556
 30
0.0
 11
7.323756239149304
 21
-8.966894531249996
 31
0.0
  0
POLYLINE
  5
CE
330
29
100
AcDbEntity
  8
レイヤー_1
 62
     7
100
AcDb2dPolyline
 66
     1
 10
0.0
 20
0.0
 30
0.0
  0
VERTEX
  5
CF
330
CE
100
AcDbEntity
  8
レイヤー_1
 62
     7
100
AcDbVertex
100
AcDb2dVertex
 10
11.36209716796875
 20
-55.56181098090277
 30
0.0
  0
VERTEX
  5
D0
330
CE
100
AcDbEntity
  8
レイヤー_1
 62
     7
100
AcDbVertex
100
AcDb2dVertex
 10
11.6924818250868
 20
-56.06961805555554
 30
0.0
  0
VERTEX
  5
D1
330
CE
100
AcDbEntity
  8
レイヤー_1
 62
     7
100
AcDbVertex
100
AcDb2dVertex
 10
12.55616726345486
 20
-56.06961805555554
 30
0.0
  0
VERTEX
  5
D2
330
CE
100
AcDbEntity
  8
レイヤー_1
 62
     7
100
AcDbVertex
100
AcDb2dVertex
 10
12.91170111762152
 20
-55.56181098090277
 30
0.0
  0
VERTEX
  5
D3
330
CE
100
AcDbEntity
  8
レイヤー_1
 62
     7
100
AcDbVertex
100
AcDb2dVertex
 10
12.91170111762152
 20
-54.54585232204859
 30
0.0
  0
VERTEX
  5
D4
330
CE
100
AcDbEntity
  8
レイヤー_1
 62
     7
100
AcDbVertex
100
AcDb2dVertex
 10
12.55616726345486
 20
-54.03770073784722
 30
0.0
  0
VERTEX
  5
D5
330
CE
100
AcDbEntity
  8
レイヤー_1
 62
     7
100
AcDbVertex
100
AcDb2dVertex
 10
12.04801567925347
 20
-54.03770073784722
 30
0.0
  0
VERTEX
  5
D6
330
CE
100
AcDbEntity
  8
レイヤー_1
 62
     7
100
AcDbVertex
100
AcDb2dVertex
 10
12.91170111762152
 20
-52.76783854166666
 30
0.0
  0
VERTEX
  5
D7
330
CE
100
AcDbEntity
  8
レイヤー_1
 62
     7
100
AcDbVertex
100
AcDb2dVertex
 10
12.91170111762152
 20
-52.25968695746527
 30
0.0
  0
VERTEX
  5
D8
330
CE
100
AcDbEntity
  8
レイヤー_1
 62
     7
100
AcDbVertex
100
AcDb2dVertex
 10
11.54020860460069
 20
-52.25968695746527
 30
0.0
  0
SEQEND
  5
D9
330
CE
100
AcDbEntity
  8
レイヤー_1
 62
     7
  0
SPLINE
  5
CD
330
29
100
AcDbEntity
  8
レイヤー_1
 62
     7
100
AcDbSpline
210
0.0
220
0.0
230
1.0
 70
     8
 71
     3
 72
    11
 73
     7
 74
     0
 42
0.000000001
 43
0.0000000001
 40
0.0
 40
0.0
 40
0.0
 40
0.0
 40
1.0
 40
1.0
 40
1.0
 40
2.0
 40
2.0
 40
2.0
 40
2.0
 10
14.2070570203993
 20
-52.25968695746527
 30
0.0
 10
14.2070570203993
 20
-52.25968695746527
 30
0.0
 10
15.78181016710069
 20
-52.25968695746527
 30
0.0
 10
15.78181016710069
 20
-52.25968695746527
 30
0.0
 10
15.58578423394097
 20
-52.95249565972222
 30
0.0
 10
14.73760172526041
 20
-55.43227539062499
 30
0.0
 10
14.91812472873264
 20
-56.06961805555554
 30
0.0
  0
POLYLINE
  5
C6
330
29
100
AcDbEntity
  8
レイヤー_1
 62
     7
100
AcDb2dPolyline
 66
     1
 10
0.0
 20
0.0
 30
0.0
 70
     1
  0
VERTEX
  5
C7
330
C6
100
AcDbEntity
  8
レイヤー_1
 62
     7
100
AcDbVertex
100
AcDb2dVertex
 10
17.40755072699652
 20
-55.81571451822917
 30
0.0
  0
VERTEX
  5
C8
330
C6
100
AcDbEntity
  8
レイヤー_1
 62
     7
100
AcDbVertex
100
AcDb2dVertex
 10
17.40755072699652
 20
-56.06961805555554
 30
0.0
  0
VERTEX
  5
C9
330
C6
100
AcDbEntity
  8
レイヤー_1
 62
     7
100
AcDbVertex
100
AcDb2dVertex
 10
17.58531765407986
 20
-56.06961805555554
 30
0.0
  0
VERTEX
  5
CA
330
C6
100
AcDbEntity
  8
レイヤー_1
 62
     7
100
AcDbVertex
100
AcDb2dVertex
 10
17.58531765407986
 20
-55.81571451822917
 30
0.0
  0
VERTEX
  5
CB
330
C6
100
AcDbEntity
  8
レイヤー_1
 62
     7
100
AcDbVertex
100
AcDb2dVertex
 10
17.40755072699652
 20
-55.81571451822917
 30
0.0
  0
SEQEND
  5
CC
330
C6
100
AcDbEntity
  8
レイヤー_1
 62
     7
  0
POLYLINE
  5
BA
330
29
100
AcDbEntity
  8
レイヤー_1
 62
     7
100
AcDb2dPolyline
 66
     1
 10
0.0
 20
0.0
 30
0.0
  0
VERTEX
  5
BB
330
BA
100
AcDbEntity
  8
レイヤー_1
 62
     7
100
AcDbVertex
100
AcDb2dVertex
 10
19.92212592230902
 20
-55.56181098090277
 30
0.0
  0
VERTEX
  5
BC
330
BA
100
AcDbEntity
  8
レイヤー_1
 62
     7
100
AcDbVertex
100
AcDb2dVertex
 10
20.2776597764757
 20
-56.06961805555554
 30
0.0
  0
VERTEX
  5
BD
330
BA
100
AcDbEntity
  8
レイヤー_1
 62
     7
100
AcDbVertex
100
AcDb2dVertex
 10
21.14134521484375
 20
-56.06961805555554
 30
0.0
  0
VERTEX
  5
BE
330
BA
100
AcDbEntity
  8
レイヤー_1
 62
     7
100
AcDbVertex
100
AcDb2dVertex
 10
21.49687906901041
 20
-55.56181098090277
 30
0.0
  0
VERTEX
  5
BF
330
BA
100
AcDbEntity
  8
レイヤー_1
 62
     7
100
AcDbVertex
100
AcDb2dVertex
 10
21.49687906901041
 20
-54.29160427517359
 30
0.0
  0
VERTEX
  5
C0
330
BA
100
AcDbEntity
  8
レイヤー_1
 62
     7
100
AcDbVertex
100
AcDb2dVertex
 10
21.14134521484375
 20
-53.78379720052083
 30
0.0
  0
VERTEX
  5
C1
330
BA
100
AcDbEntity
  8
レイヤー_1
 62
     7
100
AcDbVertex
100
AcDb2dVertex
 10
20.2776597764757
 20
-53.78379720052083
 30
0.0
  0
VERTEX
  5
C2
330
BA
100
AcDbEntity
  8
レイヤー_1
 62
     7
100
AcDbVertex
100
AcDb2dVertex
 10
19.92212592230902
 20
-54.16482476128472
 30
0.0
  0
VERTEX
  5
C3
330
BA
100
AcDbEntity
  8
レイヤー_1
 62
     7
100
AcDbVertex
100
AcDb2dVertex
 10
20.09989284939236
 20
-52.25968695746527
 30
0.0
  0
VERTEX
  5
C4
330
BA
100
AcDbEntity
  8
レイヤー_1
 62
     7
100
AcDbVertex
100
AcDb2dVertex
 10
21.49687906901041
 20
-52.25968695746527
 30
0.0
  0
SEQEND
  5
C5
330
BA
100
AcDbEntity
  8
レイヤー_1
 62
     7
  0
LINE
  5
B9
330
29
100
AcDbEntity
  8
レイヤー_1
 62
     7
100
AcDbLine
 10
7.323756239149304
 20
-57.07145182291665
 30
0.0
 11
26.2466322157118
 21
-57.07145182291665
 31
0.0
  0
LINE
  5
B8
330
29
100
AcDbEntity
  8
レイヤー_1
 62
     7
100
AcDbLine
 10
7.323756239149304
 20
-39.57381184895833
 30
0.0
 11
7.323756239149304
 21
-57.57960340711804
 31
0.0
  0
LINE
  5
B7
330
29
100
AcDbEntity
  8
レイヤー_1
 62
     7
100
AcDbLine
 10
26.2466322157118
 20
-39.87870279947916
 30
0.0
 11
26.2466322157118
 21
-57.57960340711804
 31
0.0
  0
POLYLINE
  5
B2
330
29
100
AcDbEntity
  8
レイヤー_1
 62
     7
100
AcDb2dPolyline
 66
     1
 10
0.0
 20
0.0
 30
0.0
  0
VERTEX
  5
B3
330
B2
100
AcDbEntity
  8
レイヤー_1
 62
     7
100
AcDbVertex
100
AcDb2dVertex
 10
8.822372775607636
 20
-56.86853569878472
 30
0.0
  0
VERTEX
  5
B4
330
B2
100
AcDbEntity
  8
レイヤー_1
 62
     7
100
AcDbVertex
100
AcDb2dVertex
 10
7.323756239149304
 20
-57.07145182291665
 30
0.0
  0
VERTEX
  5
B5
330
B2
100
AcDbEntity
  8
レイヤー_1
 62
     7
100
AcDbVertex
100
AcDb2dVertex
 10
8.822372775607636
 20
-57.24921874999999
 30
0.0
  0
SEQEND
  5
B6
330
B2
100
AcDbEntity
  8
レイヤー_1
 62
     7
  0
POLYLINE
  5
AD
330
29
100
AcDbEntity
  8
レイヤー_1
 62
     7
100
AcDb2dPolyline
 66
     1
 10
0.0
 20
0.0
 30
0.0
  0
VERTEX
  5
AE
330
AD
100
AcDbEntity
  8
レイヤー_1
 62
     7
100
AcDbVertex
100
AcDb2dVertex
 10
24.74801567925347
 20
-57.24921874999999
 30
0.0
  0
VERTEX
  5
AF
330
AD
100
AcDbEntity
  8
レイヤー_1
 62
     7
100
AcDbVertex
100
AcDb2dVertex
 10
26.2466322157118
 20
-57.07145182291665
 30
0.0
  0
VERTEX
  5
B0
330
AD
100
AcDbEntity
  8
レイヤー_1
 62
     7
100
AcDbVertex
100
AcDb2dVertex
 10
24.74801567925347
 20
-56.86853569878472
 30
0.0
  0
SEQEND
  5
B1
330
AD
100
AcDbEntity
  8
レイヤー_1
 62
     7
  0
POLYLINE
  5
A1
330
29
100
AcDbEntity
  8
レイヤー_1
 62
     7
100
AcDb2dPolyline
 66
     1
 10
0.0
 20
0.0
 30
0.0
  0
VERTEX
  5
A2
330
A1
100
AcDbEntity
  8
レイヤー_1
 62
     7
100
AcDbVertex
100
AcDb2dVertex
 10
41.30893419053817
 20
-38.68463270399305
 30
0.0
  0
VERTEX
  5
A3
330
A1
100
AcDbEntity
  8
レイヤー_1
 62
     7
100
AcDbVertex
100
AcDb2dVertex
 10
41.81674126519097
 20
-38.32909884982639
 30
0.0
  0
VERTEX
  5
A4
330
A1
100
AcDbEntity
  8
レイヤー_1
 62
     7
100
AcDbVertex
100
AcDb2dVertex
 10
41.81674126519097
 20
-37.46575792100694
 30
0.0
  0
VERTEX
  5
A5
330
A1
100
AcDbEntity
  8
レイヤー_1
 62
     7
100
AcDbVertex
100
AcDb2dVertex
 10
41.30893419053817
 20
-37.10987955729166
 30
0.0
  0
VERTEX
  5
A6
330
A1
100
AcDbEntity
  8
レイヤー_1
 62
     7
100
AcDbVertex
100
AcDb2dVertex
 10
40.29297553168402
 20
-37.10987955729166
 30
0.0
  0
VERTEX
  5
A7
330
A1
100
AcDbEntity
  8
レイヤー_1
 62
     7
100
AcDbVertex
100
AcDb2dVertex
 10
39.78482394748264
 20
-37.46575792100694
 30
0.0
  0
VERTEX
  5
A8
330
A1
100
AcDbEntity
  8
レイヤー_1
 62
     7
100
AcDbVertex
100
AcDb2dVertex
 10
39.78482394748264
 20
-37.97356499565972
 30
0.0
  0
VERTEX
  5
A9
330
A1
100
AcDbEntity
  8
レイヤー_1
 62
     7
100
AcDbVertex
100
AcDb2dVertex
 10
38.51496175130208
 20
-37.10987955729166
 30
0.0
  0
VERTEX
  5
AA
330
A1
100
AcDbEntity
  8
レイヤー_1
 62
     7
100
AcDbVertex
100
AcDb2dVertex
 10
38.00681016710069
 20
-37.10987955729166
 30
0.0
  0
VERTEX
  5
AB
330
A1
100
AcDbEntity
  8
レイヤー_1
 62
     7
100
AcDbVertex
100
AcDb2dVertex
 10
38.00681016710069
 20
-38.50686577690972
 30
0.0
  0
SEQEND
  5
AC
330
A1
100
AcDbEntity
  8
レイヤー_1
 62
     7
  0
SPLINE
  5
A0
330
29
100
AcDbEntity
  8
レイヤー_1
 62
     7
100
AcDbSpline
210
0.0
220
0.0
230
1.0
 70
     8
 71
     3
 72
    20
 73
    16
 74
     0
 42
0.000000001
 43
0.0000000001
 40
0.0
 40
0.0
 40
0.0
 40
0.0
 40
1.0
 40
1.0
 40
1.0
 40
2.0
 40
2.0
 40
2.0
 40
3.0
 40
3.0
 40
3.0
 40
4.0
 40
4.0
 40
4.0
 40
5.0
 40
5.0
 40
5.0
 40
5.0
 10
41.81674126519097
 20
-34.59530436197916
 30
0.0
 10
41.81674126519097
 20
-34.59530436197916
 30
0.0
 10
38.00681016710069
 20
-34.59530436197916
 30
0.0
 10
38.00681016710069
 20
-34.59530436197916
 30
0.0
 10
38.00681016710069
 20
-34.59530436197916
 30
0.0
 10
38.00681016710069
 20
-34.7730712890625
 30
0.0
 10
38.00681016710069
 20
-34.7730712890625
 30
0.0
 10
38.00681016710069
 20
-34.7730712890625
 30
0.0
 10
40.5468790690104
 20
-35.81452365451389
 30
0.0
 10
40.5468790690104
 20
-35.81452365451389
 30
0.0
 10
40.56065945095485
 20
-35.82038031684027
 30
0.0
 10
41.01024441189236
 20
-35.81452365451389
 30
0.0
 10
41.0550306532118
 20
-35.81452365451389
 30
0.0
 10
41.0550306532118
 20
-35.81452365451389
 30
0.0
 10
41.0550306532118
 20
-34.26526421440972
 30
0.0
 10
41.0550306532118
 20
-34.26526421440972
 30
0.0
  0
POLYLINE
  5
99
330
29
100
AcDbEntity
  8
レイヤー_1
 62
     7
100
AcDb2dPolyline
 66
     1
 10
0.0
 20
0.0
 30
0.0
 70
     1
  0
VERTEX
  5
9A
330
99
100
AcDbEntity
  8
レイヤー_1
 62
     7
100
AcDbVertex
100
AcDb2dVertex
 10
41.56283772786458
 20
-32.61402994791666
 30
0.0
  0
VERTEX
  5
9B
330
99
100
AcDbEntity
  8
レイヤー_1
 62
     7
100
AcDbVertex
100
AcDb2dVertex
 10
41.81674126519097
 20
-32.61402994791666
 30
0.0
  0
VERTEX
  5
9C
330
99
100
AcDbEntity
  8
レイヤー_1
 62
     7
100
AcDbVertex
100
AcDb2dVertex
 10
41.81674126519097
 20
-32.43626302083333
 30
0.0
  0
VERTEX
  5
9D
330
99
100
AcDbEntity
  8
レイヤー_1
 62
     7
100
AcDbVertex
100
AcDb2dVertex
 10
41.56283772786458
 20
-32.43626302083333
 30
0.0
  0
VERTEX
  5
9E
330
99
100
AcDbEntity
  8
レイヤー_1
 62
     7
100
AcDbVertex
100
AcDb2dVertex
 10
41.56283772786458
 20
-32.61402994791666
 30
0.0
  0
SEQEND
  5
9F
330
99
100
AcDbEntity
  8
レイヤー_1
 62
     7
  0
POLYLINE
  5
8D
330
29
100
AcDbEntity
  8
レイヤー_1
 62
     7
100
AcDb2dPolyline
 66
     1
 10
0.0
 20
0.0
 30
0.0
  0
VERTEX
  5
8E
330
8D
100
AcDbEntity
  8
レイヤー_1
 62
     7
100
AcDbVertex
100
AcDb2dVertex
 10
41.30893419053817
 20
-30.09945475260416
 30
0.0
  0
VERTEX
  5
8F
330
8D
100
AcDbEntity
  8
レイヤー_1
 62
     7
100
AcDbVertex
100
AcDb2dVertex
 10
41.81674126519097
 20
-29.7439208984375
 30
0.0
  0
VERTEX
  5
90
330
8D
100
AcDbEntity
  8
レイヤー_1
 62
     7
100
AcDbVertex
100
AcDb2dVertex
 10
41.81674126519097
 20
-28.88023546006944
 30
0.0
  0
VERTEX
  5
91
330
8D
100
AcDbEntity
  8
レイヤー_1
 62
     7
100
AcDbVertex
100
AcDb2dVertex
 10
41.30893419053817
 20
-28.5501953125
 30
0.0
  0
VERTEX
  5
92
330
8D
100
AcDbEntity
  8
レイヤー_1
 62
     7
100
AcDbVertex
100
AcDb2dVertex
 10
40.03872748480902
 20
-28.5501953125
 30
0.0
  0
VERTEX
  5
93
330
8D
100
AcDbEntity
  8
レイヤー_1
 62
     7
100
AcDbVertex
100
AcDb2dVertex
 10
39.53092041015625
 20
-28.88023546006944
 30
0.0
  0
VERTEX
  5
94
330
8D
100
AcDbEntity
  8
レイヤー_1
 62
     7
100
AcDbVertex
100
AcDb2dVertex
 10
39.53092041015625
 20
-29.7439208984375
 30
0.0
  0
VERTEX
  5
95
330
8D
100
AcDbEntity
  8
レイヤー_1
 62
     7
100
AcDbVertex
100
AcDb2dVertex
 10
39.91194797092014
 20
-30.09945475260416
 30
0.0
  0
VERTEX
  5
96
330
8D
100
AcDbEntity
  8
レイヤー_1
 62
     7
100
AcDbVertex
100
AcDb2dVertex
 10
38.00681016710069
 20
-29.92168782552083
 30
0.0
  0
VERTEX
  5
97
330
8D
100
AcDbEntity
  8
レイヤー_1
 62
     7
100
AcDbVertex
100
AcDb2dVertex
 10
38.00681016710069
 20
-28.5501953125
 30
0.0
  0
SEQEND
  5
98
330
8D
100
AcDbEntity
  8
レイヤー_1
 62
     7
  0
LINE
  5
8C
330
29
100
AcDbEntity
  8
レイヤー_1
 62
     7
100
AcDbLine
 10
43.17169731987847
 20
-41.63122287326388
 30
0.0
 11
43.17169731987847
 21
-24.00370279947916
 31
0.0
  0
LINE
  5
8B
330
29
100
AcDbEntity
  8
レイヤー_1
 62
     7
100
AcDbLine
 10
19.31234402126736
 20
-41.63122287326388
 30
0.0
 11
43.67950439453124
 21
-41.63122287326388
 31
0.0
  0
LINE
  5
8A
330
29
100
AcDbEntity
  8
レイヤー_1
 62
     7
100
AcDbLine
 10
39.58156331380208
 20
-24.00370279947916
 30
0.0
 11
43.67950439453124
 21
-24.00370279947916
 31
0.0
  0
POLYLINE
  5
85
330
29
100
AcDbEntity
  8
レイヤー_1
 62
     7
100
AcDb2dPolyline
 66
     1
 10
0.0
 20
0.0
 30
0.0
  0
VERTEX
  5
86
330
85
100
AcDbEntity
  8
レイヤー_1
 62
     7
100
AcDbVertex
100
AcDb2dVertex
 10
42.99358588324652
 20
-40.13260633680554
 30
0.0
  0
VERTEX
  5
87
330
85
100
AcDbEntity
  8
レイヤー_1
 62
     7
100
AcDbVertex
100
AcDb2dVertex
 10
43.17169731987847
 20
-41.63122287326388
 30
0.0
  0
VERTEX
  5
88
330
85
100
AcDbEntity
  8
レイヤー_1
 62
     7
100
AcDbVertex
100
AcDb2dVertex
 10
43.37461344401041
 20
-40.13260633680554
 30
0.0
  0
SEQEND
  5
89
330
85
100
AcDbEntity
  8
レイヤー_1
 62
     7
  0
POLYLINE
  5
80
330
29
100
AcDbEntity
  8
レイヤー_1
 62
     7
100
AcDb2dPolyline
 66
     1
 10
0.0
 20
0.0
 30
0.0
  0
VERTEX
  5
81
330
80
100
AcDbEntity
  8
レイヤー_1
 62
     7
100
AcDbVertex
100
AcDb2dVertex
 10
43.37461344401041
 20
-25.52746853298611
 30
0.0
  0
VERTEX
  5
82
330
80
100
AcDbEntity
  8
レイヤー_1
 62
     7
100
AcDbVertex
100
AcDb2dVertex
 10
43.17169731987847
 20
-24.00370279947916
 30
0.0
  0
VERTEX
  5
83
330
80
100
AcDbEntity
  8
レイヤー_1
 62
     7
100
AcDbVertex
100
AcDb2dVertex
 10
42.99358588324652
 20
-25.52746853298611
 30
0.0
  0
SEQEND
  5
84
330
80
100
AcDbEntity
  8
レイヤー_1
 62
     7
  0
POLYLINE
  5
7B
330
29
100
AcDbEntity
  8
レイヤー_1
 62
     7
100
AcDb2dPolyline
 66
     1
 10
0.0
 20
0.0
 30
0.0
  0
VERTEX
  5
7C
330
7B
100
AcDbEntity
  8
レイヤー_1
 62
     7
100
AcDbVertex
100
AcDb2dVertex
 10
26.01822238498264
 20
3.132108561197916
 30
0.0
  0
VERTEX
  5
7D
330
7B
100
AcDbEntity
  8
レイヤー_1
 62
     7
100
AcDbVertex
100
AcDb2dVertex
 10
26.34826253255208
 20
3.894163682725693
 30
0.0
  0
VERTEX
  5
7E
330
7B
100
AcDbEntity
  8
レイヤー_1
 62
     7
100
AcDbVertex
100
AcDb2dVertex
 10
26.34826253255208
 20
0.0840603298611111
 30
0.0
  0
SEQEND
  5
7F
330
7B
100
AcDbEntity
  8
レイヤー_1
 62
     7
  0
LINE
  5
7A
330
29
100
AcDbEntity
  8
レイヤー_1
 62
     7
100
AcDbLine
 10
26.19598931206597
 20
0.0840603298611111
 30
0.0
 11
26.52602945963542
 21
0.0840603298611111
 31
0.0
  0
SPLINE
  5
79
330
29
100
AcDbEntity
  8
レイヤー_1
 62
     7
100
AcDbSpline
210
0.0
220
0.0
230
1.0
 70
     8
 71
     3
 72
    11
 73
     7
 74
     0
 42
0.000000001
 43
0.0000000001
 40
0.0
 40
0.0
 40
0.0
 40
0.0
 40
1.0
 40
1.0
 40
1.0
 40
2.0
 40
2.0
 40
2.0
 40
2.0
 10
28.3550306532118
 20
3.894163682725693
 30
0.0
 10
28.3550306532118
 20
3.894163682725693
 30
0.0
 10
29.90429009331597
 20
3.894163682725693
 30
0.0
 10
29.90429009331597
 20
3.894163682725693
 30
0.0
 10
29.70791965060764
 20
3.201354980468748
 30
0.0
 10
28.86008165147569
 20
0.7214029947916666
 30
0.0
 10
29.04060465494791
 20
0.0840603298611111
 30
0.0
  0
POLYLINE
  5
72
330
29
100
AcDbEntity
  8
レイヤー_1
 62
     7
100
AcDb2dPolyline
 66
     1
 10
0.0
 20
0.0
 30
0.0
 70
     1
  0
VERTEX
  5
73
330
72
100
AcDbEntity
  8
レイヤー_1
 62
     7
100
AcDbVertex
100
AcDb2dVertex
 10
31.55517985026041
 20
0.3381361219618055
 30
0.0
  0
VERTEX
  5
74
330
72
100
AcDbEntity
  8
レイヤー_1
 62
     7
100
AcDbVertex
100
AcDb2dVertex
 10
31.55517985026041
 20
0.0840603298611111
 30
0.0
  0
VERTEX
  5
75
330
72
100
AcDbEntity
  8
レイヤー_1
 62
     7
100
AcDbVertex
100
AcDb2dVertex
 10
31.73294677734375
 20
0.0840603298611111
 30
0.0
  0
VERTEX
  5
76
330
72
100
AcDbEntity
  8
レイヤー_1
 62
     7
100
AcDbVertex
100
AcDb2dVertex
 10
31.73294677734375
 20
0.3381361219618055
 30
0.0
  0
VERTEX
  5
77
330
72
100
AcDbEntity
  8
レイヤー_1
 62
     7
100
AcDbVertex
100
AcDb2dVertex
 10
31.55517985026041
 20
0.3381361219618055
 30
0.0
  0
SEQEND
  5
78
330
72
100
AcDbEntity
  8
レイヤー_1
 62
     7
  0
POLYLINE
  5
66
330
29
100
AcDbEntity
  8
レイヤー_1
 62
     7
100
AcDb2dPolyline
 66
     1
 10
0.0
 20
0.0
 30
0.0
  0
VERTEX
  5
67
330
66
100
AcDbEntity
  8
レイヤー_1
 62
     7
100
AcDbVertex
100
AcDb2dVertex
 10
34.06975504557291
 20
0.5920396592881944
 30
0.0
  0
VERTEX
  5
68
330
66
100
AcDbEntity
  8
レイヤー_1
 62
     7
100
AcDbVertex
100
AcDb2dVertex
 10
34.42563340928819
 20
0.0840603298611111
 30
0.0
  0
VERTEX
  5
69
330
66
100
AcDbEntity
  8
レイヤー_1
 62
     7
100
AcDbVertex
100
AcDb2dVertex
 10
35.28897433810764
 20
0.0840603298611111
 30
0.0
  0
VERTEX
  5
6A
330
66
100
AcDbEntity
  8
レイヤー_1
 62
     7
100
AcDbVertex
100
AcDb2dVertex
 10
35.61935899522569
 20
0.5920396592881944
 30
0.0
  0
VERTEX
  5
6B
330
66
100
AcDbEntity
  8
レイヤー_1
 62
     7
100
AcDbVertex
100
AcDb2dVertex
 10
35.61935899522569
 20
1.862074110243055
 30
0.0
  0
VERTEX
  5
6C
330
66
100
AcDbEntity
  8
レイヤー_1
 62
     7
100
AcDbVertex
100
AcDb2dVertex
 10
35.28897433810764
 20
2.370053439670138
 30
0.0
  0
VERTEX
  5
6D
330
66
100
AcDbEntity
  8
レイヤー_1
 62
     7
100
AcDbVertex
100
AcDb2dVertex
 10
34.42563340928819
 20
2.370053439670138
 30
0.0
  0
VERTEX
  5
6E
330
66
100
AcDbEntity
  8
レイヤー_1
 62
     7
100
AcDbVertex
100
AcDb2dVertex
 10
34.06975504557291
 20
1.989025878906249
 30
0.0
  0
VERTEX
  5
6F
330
66
100
AcDbEntity
  8
レイヤー_1
 62
     7
100
AcDbVertex
100
AcDb2dVertex
 10
34.24752197265624
 20
3.894163682725693
 30
0.0
  0
VERTEX
  5
70
330
66
100
AcDbEntity
  8
レイヤー_1
 62
     7
100
AcDbVertex
100
AcDb2dVertex
 10
35.61935899522569
 20
3.894163682725693
 30
0.0
  0
SEQEND
  5
71
330
66
100
AcDbEntity
  8
レイヤー_1
 62
     7
  0
LINE
  5
65
330
29
100
AcDbEntity
  8
レイヤー_1
 62
     7
100
AcDbLine
 10
26.2466322157118
 20
-1.702221679687499
 30
0.0
 11
35.13670111762154
 21
-1.702221679687499
 31
0.0
  0
LINE
  5
64
330
29
100
AcDbEntity
  8
レイヤー_1
 62
     7
100
AcDbLine
 10
26.2466322157118
 20
-8.128702799479166
 30
0.0
 11
26.2466322157118
 21
-1.194414605034721
 31
0.0
  0
LINE
  5
63
330
29
100
AcDbEntity
  8
レイヤー_1
 62
     7
100
AcDbLine
 10
35.13670111762154
 20
-18.99970160590276
 30
0.0
 11
35.13670111762154
 21
-1.194414605034721
 31
0.0
  0
POLYLINE
  5
5E
330
29
100
AcDbEntity
  8
レイヤー_1
 62
     7
100
AcDb2dPolyline
 66
     1
 10
0.0
 20
0.0
 30
0.0
  0
VERTEX
  5
5F
330
5E
100
AcDbEntity
  8
レイヤー_1
 62
     7
100
AcDbVertex
100
AcDb2dVertex
 10
27.77074245876737
 20
-1.524454752604166
 30
0.0
  0
VERTEX
  5
60
330
5E
100
AcDbEntity
  8
レイヤー_1
 62
     7
100
AcDbVertex
100
AcDb2dVertex
 10
26.2466322157118
 20
-1.702221679687499
 30
0.0
  0
VERTEX
  5
61
330
5E
100
AcDbEntity
  8
レイヤー_1
 62
     7
100
AcDbVertex
100
AcDb2dVertex
 10
27.77074245876737
 20
-1.905482313368055
 30
0.0
  0
SEQEND
  5
62
330
5E
100
AcDbEntity
  8
レイヤー_1
 62
     7
  0
POLYLINE
  5
59
330
29
100
AcDbEntity
  8
レイヤー_1
 62
     7
100
AcDb2dPolyline
 66
     1
 10
0.0
 20
0.0
 30
0.0
  0
VERTEX
  5
5A
330
59
100
AcDbEntity
  8
レイヤー_1
 62
     7
100
AcDbVertex
100
AcDb2dVertex
 10
33.63808458116319
 20
-1.905482313368055
 30
0.0
  0
VERTEX
  5
5B
330
59
100
AcDbEntity
  8
レイヤー_1
 62
     7
100
AcDbVertex
100
AcDb2dVertex
 10
35.13670111762154
 20
-1.702221679687499
 30
0.0
  0
VERTEX
  5
5C
330
59
100
AcDbEntity
  8
レイヤー_1
 62
     7
100
AcDbVertex
100
AcDb2dVertex
 10
33.63808458116319
 20
-1.524454752604166
 30
0.0
  0
SEQEND
  5
5D
330
59
100
AcDbEntity
  8
レイヤー_1
 62
     7
  0
POLYLINE
  5
54
330
29
100
AcDbEntity
  8
レイヤー_1
 62
     7
100
AcDb2dPolyline
 66
     1
 10
0.0
 20
0.0
 30
0.0
  0
VERTEX
  5
55
330
54
100
AcDbEntity
  8
レイヤー_1
 62
     7
100
AcDbVertex
100
AcDb2dVertex
 10
-24.84120551215279
 20
56.10785861545139
 30
0.0
  0
VERTEX
  5
56
330
54
100
AcDbEntity
  8
レイヤー_1
 62
     7
100
AcDbVertex
100
AcDb2dVertex
 10
-24.49824625651042
 20
56.86974148220484
 30
0.0
  0
VERTEX
  5
57
330
54
100
AcDbEntity
  8
レイヤー_1
 62
     7
100
AcDbVertex
100
AcDb2dVertex
 10
-24.49824625651042
 20
53.05981038411458
 30
0.0
  0
SEQEND
  5
58
330
54
100
AcDbEntity
  8
レイヤー_1
 62
     7
  0
LINE
  5
53
330
29
100
AcDbEntity
  8
レイヤー_1
 62
     7
100
AcDbLine
 10
-24.68876003689236
 20
53.05981038411458
 30
0.0
 11
-24.34580078125
 21
53.05981038411458
 31
0.0
  0
LINE
  5
52
330
29
100
AcDbEntity
  8
レイヤー_1
 62
     7
100
AcDbLine
 10
-22.70748562282986
 20
53.05981038411458
 30
0.0
 11
-20.80252007378472
 21
56.86974148220484
 31
0.0
  0
POLYLINE
  5
48
330
29
100
AcDbEntity
  8
レイヤー_1
 62
     7
100
AcDb2dPolyline
 66
     1
 10
0.0
 20
0.0
 30
0.0
  0
VERTEX
  5
49
330
48
100
AcDbEntity
  8
レイヤー_1
 62
     7
100
AcDbVertex
100
AcDb2dVertex
 10
-19.65943739149305
 20
56.10785861545139
 30
0.0
  0
VERTEX
  5
4A
330
48
100
AcDbEntity
  8
レイヤー_1
 62
     7
100
AcDbVertex
100
AcDb2dVertex
 10
-19.12613661024305
 20
56.86974148220484
 30
0.0
  0
VERTEX
  5
4B
330
48
100
AcDbEntity
  8
レイヤー_1
 62
     7
100
AcDbVertex
100
AcDb2dVertex
 10
-18.44039035373264
 20
56.86974148220484
 30
0.0
  0
VERTEX
  5
4C
330
48
100
AcDbEntity
  8
レイヤー_1
 62
     7
100
AcDbVertex
100
AcDb2dVertex
 10
-18.09743109809027
 20
56.33644070095485
 30
0.0
  0
VERTEX
  5
4D
330
48
100
AcDbEntity
  8
レイヤー_1
 62
     7
100
AcDbVertex
100
AcDb2dVertex
 10
-18.09743109809027
 20
55.3458034939236
 30
0.0
  0
VERTEX
  5
4E
330
48
100
AcDbEntity
  8
レイヤー_1
 62
     7
100
AcDbVertex
100
AcDb2dVertex
 10
-19.65943739149305
 20
54.05044759114582
 30
0.0
  0
VERTEX
  5
4F
330
48
100
AcDbEntity
  8
レイヤー_1
 62
     7
100
AcDbVertex
100
AcDb2dVertex
 10
-19.65943739149305
 20
53.05981038411458
 30
0.0
  0
VERTEX
  5
50
330
48
100
AcDbEntity
  8
レイヤー_1
 62
     7
100
AcDbVertex
100
AcDb2dVertex
 10
-18.09743109809027
 20
53.05981038411458
 30
0.0
  0
SEQEND
  5
51
330
48
100
AcDbEntity
  8
レイヤー_1
 62
     7
  0
POLYLINE
  5
42
330
29
100
AcDbEntity
  8
レイヤー_1
 62
     7
100
AcDb2dPolyline
 66
     1
 10
0.0
 20
0.0
 30
0.0
 70
     1
  0
VERTEX
  5
43
330
42
100
AcDbEntity
  8
レイヤー_1
 62
     7
100
AcDbVertex
100
AcDb2dVertex
 10
-16.38297932942708
 20
55.84103597005206
 30
0.0
  0
VERTEX
  5
44
330
42
100
AcDbEntity
  8
レイヤー_1
 62
     7
100
AcDbVertex
100
AcDb2dVertex
 10
-16.19246554904514
 20
56.86974148220484
 30
0.0
  0
VERTEX
  5
45
330
42
100
AcDbEntity
  8
レイヤー_1
 62
     7
100
AcDbVertex
100
AcDb2dVertex
 10
-16.38297932942708
 20
56.86974148220484
 30
0.0
  0
VERTEX
  5
46
330
42
100
AcDbEntity
  8
レイヤー_1
 62
     7
100
AcDbVertex
100
AcDb2dVertex
 10
-16.38297932942708
 20
55.84103597005206
 30
0.0
  0
SEQEND
  5
47
330
42
100
AcDbEntity
  8
レイヤー_1
 62
     7
  0
POLYLINE
  5
3C
330
29
100
AcDbEntity
  8
レイヤー_1
 62
     7
100
AcDb2dPolyline
 66
     1
 10
0.0
 20
0.0
 30
0.0
 70
     1
  0
VERTEX
  5
3D
330
3C
100
AcDbEntity
  8
レイヤー_1
 62
     7
100
AcDbVertex
100
AcDb2dVertex
 10
-15.65899251302083
 20
55.84103597005206
 30
0.0
  0
VERTEX
  5
3E
330
3C
100
AcDbEntity
  8
レイヤー_1
 62
     7
100
AcDbVertex
100
AcDb2dVertex
 10
-15.50654703776041
 20
56.86974148220484
 30
0.0
  0
VERTEX
  5
3F
330
3C
100
AcDbEntity
  8
レイヤー_1
 62
     7
100
AcDbVertex
100
AcDb2dVertex
 10
-15.65899251302083
 20
56.86974148220484
 30
0.0
  0
VERTEX
  5
40
330
3C
100
AcDbEntity
  8
レイヤー_1
 62
     7
100
AcDbVertex
100
AcDb2dVertex
 10
-15.65899251302083
 20
55.84103597005206
 30
0.0
  0
SEQEND
  5
41
330
3C
100
AcDbEntity
  8
レイヤー_1
 62
     7
  0
POLYLINE
  5
33
330
29
100
AcDbEntity
  8
レイヤー_1
 62
     7
100
AcDb2dPolyline
 66
     1
 10
0.0
 20
0.0
 30
0.0
  0
VERTEX
  5
34
330
33
100
AcDbEntity
  8
レイヤー_1
 62
     7
100
AcDbVertex
100
AcDb2dVertex
 10
-33.84720187717014
 20
53.05602077907986
 30
0.0
  0
VERTEX
  5
35
330
33
100
AcDbEntity
  8
レイヤー_1
 62
     7
100
AcDbVertex
100
AcDb2dVertex
 10
-33.84013943142361
 20
56.85699462890625
 30
0.0
  0
VERTEX
  5
36
330
33
100
AcDbEntity
  8
レイヤー_1
 62
     7
100
AcDbVertex
100
AcDb2dVertex
 10
-31.55638563368055
 20
56.86302354600694
 30
0.0
  0
VERTEX
  5
37
330
33
100
AcDbEntity
  8
レイヤー_1
 62
     7
100
AcDbVertex
100
AcDb2dVertex
 10
-31.06632080078125
 20
56.34694824218748
 30
0.0
  0
VERTEX
  5
38
330
33
100
AcDbEntity
  8
レイヤー_1
 62
     7
100
AcDbVertex
100
AcDb2dVertex
 10
-31.0585693359375
 20
55.35855034722222
 30
0.0
  0
VERTEX
  5
39
330
33
100
AcDbEntity
  8
レイヤー_1
 62
     7
100
AcDbVertex
100
AcDb2dVertex
 10
-31.55673014322916
 20
54.83472357855903
 30
0.0
  0
VERTEX
  5
3A
330
33
100
AcDbEntity
  8
レイヤー_1
 62
     7
100
AcDbVertex
100
AcDb2dVertex
 10
-33.84048394097222
 20
54.82869466145833
 30
0.0
  0
SEQEND
  5
3B
330
33
100
AcDbEntity
  8
レイヤー_1
 62
     7
  0
POLYLINE
  5
2C
330
29
100
AcDbEntity
  8
レイヤー_1
 62
     7
100
AcDb2dPolyline
 66
     1
 10
0.0
 20
0.0
 30
0.0
  0
VERTEX
  5
2D
330
2C
100
AcDbEntity
  8
レイヤー_1
 62
     7
100
AcDbVertex
100
AcDb2dVertex
 10
-29.88224148220486
 20
53.795166015625
 30
0.0
  0
VERTEX
  5
2E
330
2C
100
AcDbEntity
  8
レイヤー_1
 62
     7
100
AcDbVertex
100
AcDb2dVertex
 10
-29.36806098090278
 20
53.03328314887153
 30
0.0
  0
VERTEX
  5
2F
330
2C
100
AcDbEntity
  8
レイヤー_1
 62
     7
100
AcDbVertex
100
AcDb2dVertex
 10
-28.49162868923611
 20
53.03328314887153
 30
0.0
  0
VERTEX
  5
30
330
2C
100
AcDbEntity
  8
レイヤー_1
 62
     7
100
AcDbVertex
100
AcDb2dVertex
 10
-27.97727593315972
 20
53.795166015625
 30
0.0
  0
VERTEX
  5
31
330
2C
100
AcDbEntity
  8
レイヤー_1
 62
     7
100
AcDbVertex
100
AcDb2dVertex
 10
-27.97727593315972
 20
56.84321424696179
 30
0.0
  0
SEQEND
  5
32
330
2C
100
AcDbEntity
  8
レイヤー_1
 62
     7
  0
ENDBLK
  5
213
330
29
100
AcDbEntity
  8
レイヤー_1
100
AcDbBlockEnd
  0
BLOCK
  5
313
330
311
100
AcDbEntity
  8
0
370
     0
100
AcDbBlockBegin
  2
GENAXEH
 70
     0
 10
0.0
 20
0.0
 30
0.0
  3
GENAXEH
  1

  0
LINE
  5
312
330
311
100
AcDbEntity
  8
0
100
AcDbLine
 10
-1.0
 20
0.0
 30
0.0
 11
1.0
 21
0.0
 31
0.0
  0
ENDBLK
  5
314
330
311
100
AcDbEntity
  8
0
370
     0
100
AcDbBlockEnd
  0
ENDSEC
  0
SECTION
  2
ENTITIES
  0
INSERT
  5
2A
330
A
100
AcDbEntity
  8
レイヤー_1
 62
     7
100
AcDbBlockReference
  2
AI9-BLK1
 10
143.2665789953394
 20
147.2455795122792
 30
0.0
 41
1.968512322024166
 42
1.968512322024166
 43
1.968512322024166
  0
ENDSEC
  0
SECTION
  2
OBJECTS
  0
DICTIONARY
  5
19
330
0
100
AcDbDictionary
281
     1
  3
ACAD_CIP_PREVIOUS_PRODUCT_INFO
350
2C2
  3
ACAD_COLOR
350
216
  3
ACAD_DETAILVIEWSTYLE
350
2BD
  3
ACAD_GROUP
350
1A
  3
ACAD_LAYOUT
350
1E
  3
ACAD_MATERIAL
350
215
  3
ACAD_MLEADERSTYLE
350
2B8
  3
ACAD_MLINESTYLE
350
1B
  3
ACAD_PLOTSETTINGS
350
22
  3
ACAD_PLOTSTYLENAME
350
1F
  3
ACAD_SCALELIST
350
2A6
  3
ACAD_SECTIONVIEWSTYLE
350
2BA
  3
ACAD_TABLESTYLE
350
2A4
  3
ACAD_VISUALSTYLE
350
28B
  3
ACAD_WIPEOUT_VARS
350
23
  3
ACDB_RECOMPOSE_DATA
350
389
  3
AcDbVariableDictionary
350
21A
  3
AcmDictionary
350
2EF
  3
AMG
350
2C4
  3
AMGSNAPSETTINGS
350
37A
  3
DWGPROPS
350
38A
  0
DICTIONARY
  5
37B
330
14
100
AcDbDictionary
280
     1
281
     1
  3
ADSK_XREC_LAYER_RECONCILED
360
37C
  0
DICTIONARY
  5
37D
330
28
100
AcDbDictionary
280
     1
281
     1
  3
ADSK_XREC_LAYER_RECONCILED
360
37E
  0
XRECORD
  5
2C2
102
{ACAD_REACTORS
330
19
102
}
330
19
100
AcDbXrecord
280
     1
300
AMECH_PP
300
2013
300
PDSS_F_S
  0
DICTIONARY
  5
216
102
{ACAD_REACTORS
330
19
102
}
330
19
100
AcDbDictionary
281
     1
  0
DICTIONARY
  5
2BD
102
{ACAD_REACTORS
330
19
102
}
330
19
100
AcDbDictionary
281
     1
  3
Imperial24
350
2BE
  0
DICTIONARY
  5
1A
102
{ACAD_REACTORS
330
19
102
}
330
19
100
AcDbDictionary
281
     1
  0
DICTIONARY
  5
1E
102
{ACAD_REACTORS
330
19
102
}
330
19
100
AcDbDictionary
281
     1
  3
Layout1
350
21
  3
Model
350
20
  0
DICTIONARY
  5
215
102
{ACAD_REACTORS
330
19
102
}
330
19
100
AcDbDictionary
281
     1
  3
ByBlock
350
27B
  3
ByLayer
350
273
  3
Global
350
283
  0
DICTIONARY
  5
2B8
102
{ACAD_REACTORS
330
19
102
}
330
19
100
AcDbDictionary
281
     1
  3
Standard
350
2B9
  0
DICTIONARY
  5
1B
102
{ACAD_REACTORS
330
19
102
}
330
19
100
AcDbDictionary
281
     1
  3
Standard
350
1C
  0
DICTIONARY
  5
22
102
{ACAD_REACTORS
330
19
102
}
330
19
100
AcDbDictionary
281
     1
  0
ACDBDICTIONARYWDFLT
  5
1F
102
{ACAD_REACTORS
330
19
102
}
330
19
100
AcDbDictionary
281
     1
  3
Normal
350
1D
100
AcDbDictionaryWithDefault
340
1D
  0
DICTIONARY
  5
2A6
102
{ACAD_REACTORS
330
19
102
}
330
19
100
AcDbDictionary
281
     1
  3
A0
350
2A7
  3
A1
350
2A8
  3
A2
350
2A9
  3
A3
350
2AA
  3
A4
350
2AB
  3
A5
350
2AC
  3
A6
350
2AD
  3
A7
350
2AE
  3
A8
350
2AF
  3
A9
350
2B0
  3
B0
350
2B1
  3
B1
350
2B2
  3
B2
350
2B3
  3
B3
350
2B4
  3
B4
350
2B5
  3
B5
350
2B6
  3
B6
350
2B7
  0
DICTIONARY
  5
2BA
102
{ACAD_REACTORS
330
19
102
}
330
19
100
AcDbDictionary
281
     1
  3
Imperial24
350
2BC
  0
DICTIONARY
  5
2A4
102
{ACAD_REACTORS
330
19
102
}
330
19
100
AcDbDictionary
281
     1
  3
Standard
350
2A5
  0
DICTIONARY
  5
28B
102
{ACAD_REACTORS
330
19
102
}
330
19
100
AcDbDictionary
281
     1
  3
2dWireframe
350
291
  3
Basic
350
290
  3
Brighten
350
297
  3
ColorChange
350
29B
  3
Conceptual
350
294
  3
Dim
350
296
  3
EdgeColorOff
350
2A3
  3
Facepattern
350
29A
  3
Flat
350
28C
  3
FlatWithEdges
350
28D
  3
Gouraud
350
28E
  3
GouraudWithEdges
350
28F
  3
Hidden
350
293
  3
JitterOff
350
2A1
  3
Linepattern
350
299
  3
OverhangOff
350
2A2
  3
Realistic
350
295
  3
Shaded
350
2A0
  3
Shaded with edges
350
29F
  3
Shades of Gray
350
29C
  3
Sketchy
350
29D
  3
Thicken
350
298
  3
Wireframe
350
292
  3
X-Ray
350
29E
  0
WIPEOUTVARIABLES
  5
23
330
19
100
AcDbWipeoutVariables
 70
     1
  0
XRECORD
  5
389
102
{ACAD_REACTORS
330
19
102
}
330
19
100
AcDbXrecord
280
     1
 90
        1
330
2A5
  0
DICTIONARY
  5
21A
102
{ACAD_REACTORS
330
19
102
}
330
19
100
AcDbDictionary
281
     1
  3
CANNOSCALE
350
383
  3
CMLEADERSTYLE
350
380
  3
CTABLESTYLE
350
37F
  3
CVIEWDETAILSTYLE
350
381
  3
CVIEWSECTIONSTYLE
350
382
  3
DIMASSOC
350
21B
  3
INDEXCTL
350
385
  3
PROJECTNAME
350
21C
  3
SORTENTS
350
384
  3
XCLIPFRAME
350
386
  0
DICTIONARY
  5
2EF
102
{ACAD_REACTORS
330
19
102
}
330
19
100
AcDbDictionary
281
     1
  3
AcmStdDictionary
350
2F6
  0
DICTIONARY
  5
2C4
102
{ACAD_REACTORS
330
19
102
}
330
19
100
AcDbDictionary
281
     1
  0
DICTIONARY
  5
37A
102
{ACAD_REACTORS
330
19
102
}
330
19
100
AcDbDictionary
281
     1
  0
XRECORD
  5
38A
102
{ACAD_REACTORS
330
19
102
}
330
19
100
AcDbXrecord
280
     1
  1
DWGPROPS COOKIE
  2

  3

  4

  6

  7

  8
tomitais
  9

300
=
301
=
302
=
303
=
304
=
305
=
306
=
307
=
308
=
309
=
 40
0.0076635416666667
 41
2454622.72983294
 42
2457056.717510984
  1

 90
        0
  0
XRECORD
  5
37C
102
{ACAD_REACTORS
330
37B
102
}
330
37B
100
AcDbXrecord
280
     1
290
     1
  0
XRECORD
  5
37E
102
{ACAD_REACTORS
330
37D
102
}
330
37D
100
AcDbXrecord
280
     1
290
     1
  0
ACDBDETAILVIEWSTYLE
  5
2BE
102
{ACAD_REACTORS
330
2BD
102
}
330
2BD
100
AcDbModelDocViewStyle
 70
     0
  3
Imperial24
290
     0
100
AcDbDetailViewStyle
 70
     0
 71
     0
 90
        3
 71
     1
340
17
 40
0.24
340
0
 40
0.24
300

 40
0.36
280
     3
 71
     2
340
13
 90
       25
 71
     3
340
17
 40
0.24
 90
        1
 40
0.75
 90
        1
300
%<\AcVar ViewType \f "%tc1">% %<\AcVar ViewDetailId>%\PSCALE %<\AcVar ViewScale \f "%sn">%
 71
     4
340
13
 90
       25
340
13
 90
       25
280
     0
  0
LAYOUT
  5
21
102
{ACAD_XDICTIONARY
360
38D
102
}
102
{ACAD_REACTORS
330
1E
102
}
330
1E
100
AcDbPlotSettings
  1

  2

  4

  6

 40
0.0
 41
0.0
 42
0.0
 43
0.0
 44
0.0
 45
0.0
 46
0.0
 47
0.0
 48
0.0
 49
0.0
140
0.0
141
0.0
142
1.0
143
1.0
 70
     0
 72
     0
 73
     0
 74
     0
  7

 75
     0
147
1.0
148
0.0
149
0.0
100
AcDbLayout
  1
Layout1
 70
     0
 71
     1
 10
0.0
 20
0.0
 11
12.0
 21
9.0
 12
0.0
 22
0.0
 32
0.0
 14
1.000000000000000E+20
 24
1.000000000000000E+20
 34
1.000000000000000E+20
 15
-1.000000000000000E+20
 25
-1.000000000000000E+20
 35
-1.000000000000000E+20
146
0.0
 13
0.0
 23
0.0
 33
0.0
 16
1.0
 26
0.0
 36
0.0
 17
0.0
 27
1.0
 37
0.0
 76
     0
330
B
  0
LAYOUT
  5
20
102
{ACAD_XDICTIONARY
360
38B
102
}
102
{ACAD_REACTORS
330
1E
102
}
330
1E
100
AcDbPlotSettings
  1

  2

  4

  6

 40
0.0
 41
0.0
 42
0.0
 43
0.0
 44
0.0
 45
0.0
 46
0.0
 47
0.0
 48
0.0
 49
0.0
140
0.0
141
0.0
142
1.0
143
1.0
 70
  1024
 72
     0
 73
     0
 74
     0
  7

 75
     0
147
1.0
148
0.0
149
0.0
100
AcDbLayout
  1
Model
 70
     0
 71
     0
 10
0.0
 20
0.0
 11
0.0
 21
0.0
 12
0.0
 22
0.0
 32
0.0
 14
0.0
 24
0.0
 34
0.0
 15
0.0
 25
0.0
 35
0.0
146
0.0
 13
0.0
 23
0.0
 33
0.0
 16
0.0
 26
0.0
 36
0.0
 17
0.0
 27
0.0
 37
0.0
 76
     0
330
A
331
26A
  0
MATERIAL
  5
27B
102
{ACAD_XDICTIONARY
360
27C
102
}
102
{ACAD_REACTORS
330
215
102
}
330
215
100
AcDbMaterial
  1
ByBlock
 72
     0
 43
0.0208333333333333
 43
0.0
 43
0.0
 43
0.0
 43
0.0
 43
0.0208333333333333
 43
0.0
 43
0.0
 43
0.0
 43
0.0
 43
1.0
 43
0.0
 43
0.0
 43
0.0
 43
0.0
 43
1.0
 77
     0
 47
0.0208333333333333
 47
0.0
 47
0.0
 47
0.0
 47
0.0
 47
0.0208333333333333
 47
0.0
 47
0.0
 47
0.0
 47
0.0
 47
1.0
 47
0.0
 47
0.0
 47
0.0
 47
0.0
 47
1.0
171
     0
 49
0.0208333333333333
 49
0.0
 49
0.0
 49
0.0
 49
0.0
 49
0.0208333333333333
 49
0.0
 49
0.0
 49
0.0
 49
0.0
 49
1.0
 49
0.0
 49
0.0
 49
0.0
 49
0.0
 49
1.0
175
     0
142
0.0208333333333333
142
0.0
142
0.0
142
0.0
142
0.0
142
0.0208333333333333
142
0.0
142
0.0
142
0.0
142
0.0
142
1.0
142
0.0
142
0.0
142
0.0
142
0.0
142
1.0
179
     0
144
0.0208333333333333
144
0.0
144
0.0
144
0.0
144
0.0
144
0.0208333333333333
144
0.0
144
0.0
144
0.0
144
0.0
144
1.0
144
0.0
144
0.0
144
0.0
144
0.0
144
1.0
147
0.0208333333333333
147
0.0
147
0.0
147
0.0
147
0.0
147
0.0208333333333333
147
0.0
147
0.0
147
0.0
147
0.0
147
1.0
147
0.0
147
0.0
147
0.0
147
0.0
147
1.0
  0
MATERIAL
  5
273
102
{ACAD_XDICTIONARY
360
274
102
}
102
{ACAD_REACTORS
330
215
102
}
330
215
100
AcDbMaterial
  1
ByLayer
 72
     0
 43
0.0208333333333333
 43
0.0
 43
0.0
 43
0.0
 43
0.0
 43
0.0208333333333333
 43
0.0
 43
0.0
 43
0.0
 43
0.0
 43
1.0
 43
0.0
 43
0.0
 43
0.0
 43
0.0
 43
1.0
 77
     0
 47
0.0208333333333333
 47
0.0
 47
0.0
 47
0.0
 47
0.0
 47
0.0208333333333333
 47
0.0
 47
0.0
 47
0.0
 47
0.0
 47
1.0
 47
0.0
 47
0.0
 47
0.0
 47
0.0
 47
1.0
171
     0
 49
0.0208333333333333
 49
0.0
 49
0.0
 49
0.0
 49
0.0
 49
0.0208333333333333
 49
0.0
 49
0.0
 49
0.0
 49
0.0
 49
1.0
 49
0.0
 49
0.0
 49
0.0
 49
0.0
 49
1.0
175
     0
142
0.0208333333333333
142
0.0
142
0.0
142
0.0
142
0.0
142
0.0208333333333333
142
0.0
142
0.0
142
0.0
142
0.0
142
1.0
142
0.0
142
0.0
142
0.0
142
0.0
142
1.0
179
     0
144
0.0208333333333333
144
0.0
144
0.0
144
0.0
144
0.0
144
0.0208333333333333
144
0.0
144
0.0
144
0.0
144
0.0
144
1.0
144
0.0
144
0.0
144
0.0
144
0.0
144
1.0
147
0.0208333333333333
147
0.0
147
0.0
147
0.0
147
0.0
147
0.0208333333333333
147
0.0
147
0.0
147
0.0
147
0.0
147
1.0
147
0.0
147
0.0
147
0.0
147
0.0
147
1.0
  0
MATERIAL
  5
283
102
{ACAD_XDICTIONARY
360
284
102
}
102
{ACAD_REACTORS
330
215
102
}
330
215
100
AcDbMaterial
  1
Global
 72
     0
 43
0.0208333333333333
 43
0.0
 43
0.0
 43
0.0
 43
0.0
 43
0.0208333333333333
 43
0.0
 43
0.0
 43
0.0
 43
0.0
 43
1.0
 43
0.0
 43
0.0
 43
0.0
 43
0.0
 43
1.0
 77
     0
 47
0.0208333333333333
 47
0.0
 47
0.0
 47
0.0
 47
0.0
 47
0.0208333333333333
 47
0.0
 47
0.0
 47
0.0
 47
0.0
 47
1.0
 47
0.0
 47
0.0
 47
0.0
 47
0.0
 47
1.0
171
     0
 49
0.0208333333333333
 49
0.0
 49
0.0
 49
0.0
 49
0.0
 49
0.0208333333333333
 49
0.0
 49
0.0
 49
0.0
 49
0.0
 49
1.0
 49
0.0
 49
0.0
 49
0.0
 49
0.0
 49
1.0
175
     0
142
0.0208333333333333
142
0.0
142
0.0
142
0.0
142
0.0
142
0.0208333333333333
142
0.0
142
0.0
142
0.0
142
0.0
142
1.0
142
0.0
142
0.0
142
0.0
142
0.0
142
1.0
179
     0
144
0.0208333333333333
144
0.0
144
0.0
144
0.0
144
0.0
144
0.0208333333333333
144
0.0
144
0.0
144
0.0
144
0.0
144
1.0
144
0.0
144
0.0
144
0.0
144
0.0
144
1.0
147
0.0208333333333333
147
0.0
147
0.0
147
0.0
147
0.0
147
0.0208333333333333
147
0.0
147
0.0
147
0.0
147
0.0
147
1.0
147
0.0
147
0.0
147
0.0
147
0.0
147
1.0
  0
MLEADERSTYLE
  5
2B9
102
{ACAD_XDICTIONARY
360
3C4
102
}
102
{ACAD_REACTORS
330
2B8
102
}
330
2B8
100
AcDbMLeaderStyle
170
     2
171
     1
172
     0
 90
        2
 40
0.0
 41
0.0
173
     1
 91
-1056964608
340
11
 92
       -2
290
     1
 42
0.09
291
     1
 43
0.36
  3
Standard
 44
0.18
300

342
17
174
     1
178
     6
175
     1
176
     0
 93
-1056964608
 45
0.18
292
     0
297
     0
 46
0.18
 94
-1056964608
 47
1.0
 49
1.0
140
1.0
293
     1
141
0.0
294
     1
177
     0
142
1.0
295
     0
296
     0
143
0.125
1001
ACAD_MLEADERVER
1070
     2
  0
MLINESTYLE
  5
1C
102
{ACAD_REACTORS
330
1B
102
}
330
1B
100
AcDbMlineStyle
  2
STANDARD
 70
     0
  3

 62
     0
 51
90.00000000000019
 52
90.00000000000019
 71
     2
 49
0.5
 62
   256
  6
BYLAYER
 49
-0.5
 62
   256
  6
BYLAYER
  0
ACDBPLACEHOLDER
  5
1D
102
{ACAD_REACTORS
330
1F
102
}
330
1F
  0
SCALE
  5
2A7
102
{ACAD_REACTORS
330
2A6
102
}
330
2A6
100
AcDbScale
 70
     0
300
1:1
140
1.0
141
1.0
290
     1
  0
SCALE
  5
2A8
102
{ACAD_REACTORS
330
2A6
102
}
330
2A6
100
AcDbScale
 70
     0
300
1/128" = 1'-0"
140
0.0078125
141
12.0
290
     0
  0
SCALE
  5
2A9
102
{ACAD_REACTORS
330
2A6
102
}
330
2A6
100
AcDbScale
 70
     0
300
1/64" = 1'-0"
140
0.015625
141
12.0
290
     0
  0
SCALE
  5
2AA
102
{ACAD_REACTORS
330
2A6
102
}
330
2A6
100
AcDbScale
 70
     0
300
1/32" = 1'-0"
140
0.03125
141
12.0
290
     0
  0
SCALE
  5
2AB
102
{ACAD_REACTORS
330
2A6
102
}
330
2A6
100
AcDbScale
 70
     0
300
1/16" = 1'-0"
140
0.0625
141
12.0
290
     0
  0
SCALE
  5
2AC
102
{ACAD_REACTORS
330
2A6
102
}
330
2A6
100
AcDbScale
 70
     0
300
3/32" = 1'-0"
140
0.09375
141
12.0
290
     0
  0
SCALE
  5
2AD
102
{ACAD_REACTORS
330
2A6
102
}
330
2A6
100
AcDbScale
 70
     0
300
1/8" = 1'-0"
140
0.125
141
12.0
290
     0
  0
SCALE
  5
2AE
102
{ACAD_REACTORS
330
2A6
102
}
330
2A6
100
AcDbScale
 70
     0
300
3/16" = 1'-0"
140
0.1875
141
12.0
290
     0
  0
SCALE
  5
2AF
102
{ACAD_REACTORS
330
2A6
102
}
330
2A6
100
AcDbScale
 70
     0
300
1/4" = 1'-0"
140
0.25
141
12.0
290
     0
  0
SCALE
  5
2B0
102
{ACAD_REACTORS
330
2A6
102
}
330
2A6
100
AcDbScale
 70
     0
300
3/8" = 1'-0"
140
0.375
141
12.0
290
     0
  0
SCALE
  5
2B1
102
{ACAD_REACTORS
330
2A6
102
}
330
2A6
100
AcDbScale
 70
     0
300
1/2" = 1'-0"
140
0.5
141
12.0
290
     0
  0
SCALE
  5
2B2
102
{ACAD_REACTORS
330
2A6
102
}
330
2A6
100
AcDbScale
 70
     0
300
3/4" = 1'-0"
140
0.75
141
12.0
290
     0
  0
SCALE
  5
2B3
102
{ACAD_REACTORS
330
2A6
102
}
330
2A6
100
AcDbScale
 70
     0
300
1" = 1'-0"
140
1.0
141
12.0
290
     0
  0
SCALE
  5
2B4
102
{ACAD_REACTORS
330
2A6
102
}
330
2A6
100
AcDbScale
 70
     0
300
1-1/2" = 1'-0"
140
1.5
141
12.0
290
     0
  0
SCALE
  5
2B5
102
{ACAD_REACTORS
330
2A6
102
}
330
2A6
100
AcDbScale
 70
     0
300
3" = 1'-0"
140
3.0
141
12.0
290
     0
  0
SCALE
  5
2B6
102
{ACAD_REACTORS
330
2A6
102
}
330
2A6
100
AcDbScale
 70
     0
300
6" = 1'-0"
140
6.0
141
12.0
290
     0
  0
SCALE
  5
2B7
102
{ACAD_REACTORS
330
2A6
102
}
330
2A6
100
AcDbScale
 70
     0
300
1'-0" = 1'-0"
140
12.0
141
12.0
290
     0
  0
ACDBSECTIONVIEWSTYLE
  5
2BC
102
{ACAD_REACTORS
330
2BA
102
}
330
2BA
100
AcDbModelDocViewStyle
 70
     0
  3
Imperial24
290
     0
100
AcDbSectionViewStyle
 70
     0
 71
     0
 90
       78
 71
     1
340
17
 40
0.24
340
0
340
0
 40
0.24
300
I, O, Q, S, X, Z
 40
0.48
 90
        3
 40
0.18
 90
        1
 71
     2
340
2BB
 90
       25
340
13
 90
       50
 40
0.24
 40
0.0
 40
0.24
 71
     3
340
17
 40
0.24
 90
        1
 40
0.75
 90
        1
300
%<\AcVar ViewType \f "%tc1">% %<\AcVar ViewSectionStartId>%-%<\AcVar ViewSectionEndId>%\PSCALE %<\AcVar ViewScale \f "%sn">%
 71
     4
300
ANSI31
 40
1.0
 90
        0
290
     0
290
     0
 90
        6
 40
0.0
 40
1.570796326794896
 40
0.2617993877991494
 40
1.308996938995747
 40
-0.2617993877991494
 40
1.832595714594046
  0
TABLESTYLE
  5
2A5
102
{ACAD_XDICTIONARY
360
387
102
}
102
{ACAD_REACTORS
330
2A4
102
}
330
2A4
100
AcDbTableStyle
  3
Standard
 70
     0
 71
     0
 40
0.06
 41
0.06
280
     0
281
     0
  7
Standard
140
0.18
170
     2
 62
     0
 63
     7
283
     0
274
    -2
284
     1
 64
     0
275
    -2
285
     1
 65
     0
276
    -2
286
     1
 66
     0
277
    -2
287
     1
 67
     0
278
    -2
288
     1
 68
     0
279
    -2
289
     1
 69
     0
  7
Standard
140
0.25
170
     5
 62
     0
 63
     7
283
     0
274
    -2
284
     1
 64
     0
275
    -2
285
     1
 65
     0
276
    -2
286
     1
 66
     0
277
    -2
287
     1
 67
     0
278
    -2
288
     1
 68
     0
279
    -2
289
     1
 69
     0
  7
Standard
140
0.18
170
     5
 62
     0
 63
     7
283
     0
274
    -2
284
     1
 64
     0
275
    -2
285
     1
 65
     0
276
    -2
286
     1
 66
     0
277
    -2
287
     1
 67
     0
278
    -2
288
     1
 68
     0
279
    -2
289
     1
 69
     0
  0
VISUALSTYLE
  5
291
102
{ACAD_XDICTIONARY
360
39C
102
}
102
{ACAD_REACTORS
330
28B
102
}
330
28B
100
AcDbVisualStyle
  2
2dWireframe
 70
     4
 71
     0
 72
     2
 73
     0
 90
        0
 40
-0.6
 41
-30.0
 62
     5
 63
     7
 74
     1
 91
        4
 64
     7
 65
   257
 75
     1
175
     1
 42
1.0
 92
        0
 66
   257
 43
1.0
 76
     1
 77
     6
 78
     2
 67
     7
 79
     5
170
     0
171
     0
290
     0
174
     0
 93
        1
 44
0.0
173
     0
291
     0
 45
0.0
1001
ACAD
1000
AcDbSavedByObjectVersion
1070
     0
  0
VISUALSTYLE
  5
290
102
{ACAD_XDICTIONARY
360
39A
102
}
102
{ACAD_REACTORS
330
28B
102
}
330
28B
100
AcDbVisualStyle
  2
Basic
 70
     7
 71
     1
 72
     0
 73
     1
 90
        0
 40
-0.6
 41
-30.0
 62
     5
 63
     7
 74
     0
 91
        4
 64
     7
 65
   257
 75
     1
175
     1
 42
1.0
 92
        8
 66
     7
 43
1.0
 76
     1
 77
     6
 78
     2
 67
     7
 79
     5
170
     0
171
     0
290
     0
174
     0
 93
        1
 44
0.0
173
     0
291
     1
 45
0.0
1001
ACAD
1000
AcDbSavedByObjectVersion
1070
     0
  0
VISUALSTYLE
  5
297
102
{ACAD_XDICTIONARY
360
3A8
102
}
102
{ACAD_REACTORS
330
28B
102
}
330
28B
100
AcDbVisualStyle
  2
Brighten
 70
    12
 71
     2
 72
     2
 73
     0
 90
        0
 40
-0.6
 41
-30.0
 62
     5
 63
     7
 74
     1
 91
        4
 64
     7
 65
   257
 75
     1
175
     1
 42
1.0
 92
        8
 66
     7
 43
1.0
 76
     1
 77
     6
 78
     2
 67
     7
 79
     5
170
     0
171
     0
290
     0
174
     0
 93
        1
 44
50.0
173
     0
291
     1
 45
0.0
1001
ACAD
1000
AcDbSavedByObjectVersion
1070
     0
  0
VISUALSTYLE
  5
29B
102
{ACAD_XDICTIONARY
360
3B0
102
}
102
{ACAD_REACTORS
330
28B
102
}
330
28B
100
AcDbVisualStyle
  2
ColorChange
 70
    16
 71
     2
 72
     2
 73
     3
 90
        0
 40
-0.6
 41
-30.0
 62
     5
 63
     8
 74
     1
 91
        4
 64
     7
 65
   257
 75
     1
175
     1
 42
1.0
 92
        8
 66
     8
 43
1.0
 76
     1
 77
     6
 78
     2
 67
     7
 79
     5
170
     0
171
     0
290
     0
174
     0
 93
        1
 44
0.0
173
     0
291
     1
 45
0.0
1001
ACAD
1000
AcDbSavedByObjectVersion
1070
     0
  0
VISUALSTYLE
  5
294
102
{ACAD_XDICTIONARY
360
3A2
102
}
102
{ACAD_REACTORS
330
28B
102
}
330
28B
100
AcDbVisualStyle
  2
Conceptual
 70
     9
 71
     3
 72
     2
 73
     0
 90
        0
 40
-0.6
 41
-30.0
 62
     5
 63
     7
 74
     2
 91
        2
 64
     7
 65
   257
 75
     1
175
     1
 42
179.0
 92
        8
 66
     7
 43
1.0
 76
     1
 77
     6
 78
     2
 67
     7
 79
     3
170
     0
171
     0
290
     0
174
     0
 93
        1
 44
0.0
173
     0
291
     0
 45
0.0
1001
ACAD
1000
AcDbSavedByObjectVersion
1070
     0
  0
VISUALSTYLE
  5
296
102
{ACAD_XDICTIONARY
360
3A6
102
}
102
{ACAD_REACTORS
330
28B
102
}
330
28B
100
AcDbVisualStyle
  2
Dim
 70
    11
 71
     2
 72
     2
 73
     0
 90
        0
 40
-0.6
 41
-30.0
 62
     5
 63
     7
 74
     1
 91
        4
 64
     7
 65
   257
 75
     1
175
     1
 42
1.0
 92
        8
 66
     7
 43
1.0
 76
     1
 77
     6
 78
     2
 67
     7
 79
     5
170
     0
171
     0
290
     0
174
     0
 93
        1
 44
-50.0
173
     0
291
     1
 45
0.0
1001
ACAD
1000
AcDbSavedByObjectVersion
1070
     0
  0
VISUALSTYLE
  5
2A3
102
{ACAD_XDICTIONARY
360
3C0
102
}
102
{ACAD_REACTORS
330
28B
102
}
330
28B
100
AcDbVisualStyle
  2
EdgeColorOff
 70
    22
 71
     2
 72
     2
 73
     0
 90
        0
 40
-0.6
 41
-30.0
 62
     5
 63
     7
 74
     1
 91
        4
 64
     7
 65
   257
 75
     1
175
     1
 42
1.0
 92
        8
 66
     7
 43
1.0
 76
     1
 77
     6
 78
     2
 67
     7
 79
     5
170
     0
171
     0
290
     0
174
     0
 93
        1
 44
0.0
173
     0
291
     1
 45
0.0
1001
ACAD
1000
AcDbSavedByObjectVersion
1070
     0
  0
VISUALSTYLE
  5
29A
102
{ACAD_XDICTIONARY
360
3AE
102
}
102
{ACAD_REACTORS
330
28B
102
}
330
28B
100
AcDbVisualStyle
  2
Facepattern
 70
    15
 71
     2
 72
     2
 73
     0
 90
        0
 40
-0.6
 41
-30.0
 62
     5
 63
     7
 74
     1
 91
        4
 64
     7
 65
   257
 75
     1
175
     1
 42
1.0
 92
        8
 66
     7
 43
1.0
 76
     1
 77
     6
 78
     2
 67
     7
 79
     5
170
     0
171
     0
290
     0
174
     0
 93
        1
 44
0.0
173
     0
291
     1
 45
0.0
1001
ACAD
1000
AcDbSavedByObjectVersion
1070
     0
  0
VISUALSTYLE
  5
28C
102
{ACAD_XDICTIONARY
360
392
102
}
102
{ACAD_REACTORS
330
28B
102
}
330
28B
100
AcDbVisualStyle
  2
Flat
 70
     0
 71
     2
 72
     1
 73
     1
 90
        2
 40
-0.6
 41
30.0
 62
     5
 63
     7
 74
     0
 91
        0
 64
     7
 65
   257
 75
     1
175
     1
 42
1.0
 92
        8
 66
     7
 43
1.0
 76
     1
 77
     6
 78
     2
 67
     7
 79
     5
170
     0
171
     0
290
     0
174
     0
 93
       13
 44
0.0
173
     0
291
     1
 45
0.0
1001
ACAD
1000
AcDbSavedByObjectVersion
1070
     0
  0
VISUALSTYLE
  5
28D
102
{ACAD_XDICTIONARY
360
394
102
}
102
{ACAD_REACTORS
330
28B
102
}
330
28B
100
AcDbVisualStyle
  2
FlatWithEdges
 70
     1
 71
     2
 72
     1
 73
     1
 90
        2
 40
-0.6
 41
30.0
 62
     5
 63
     7
 74
     1
 91
        0
 64
     7
 65
   257
 75
     1
175
     1
 42
1.0
 92
        0
 66
   257
 43
1.0
 76
     1
 77
     6
 78
     2
 67
     7
 79
     5
170
     0
171
     0
290
     0
174
     0
 93
       13
 44
0.0
173
     0
291
     1
 45
0.0
1001
ACAD
1000
AcDbSavedByObjectVersion
1070
     0
  0
VISUALSTYLE
  5
28E
102
{ACAD_XDICTIONARY
360
396
102
}
102
{ACAD_REACTORS
330
28B
102
}
330
28B
100
AcDbVisualStyle
  2
Gouraud
 70
     2
 71
     2
 72
     2
 73
     1
 90
        2
 40
-0.6
 41
30.0
 62
     5
 63
     7
 74
     0
 91
        0
 64
     7
 65
   257
 75
     1
175
     1
 42
1.0
 92
        0
 66
     7
 43
1.0
 76
     1
 77
     6
 78
     2
 67
     7
 79
     5
170
     0
171
     0
290
     0
174
     0
 93
       13
 44
0.0
173
     0
291
     1
 45
0.0
1001
ACAD
1000
AcDbSavedByObjectVersion
1070
     0
  0
VISUALSTYLE
  5
28F
102
{ACAD_XDICTIONARY
360
398
102
}
102
{ACAD_REACTORS
330
28B
102
}
330
28B
100
AcDbVisualStyle
  2
GouraudWithEdges
 70
     3
 71
     2
 72
     2
 73
     1
 90
        2
 40
-0.6
 41
30.0
 62
     5
 63
     7
 74
     1
 91
        0
 64
     7
 65
   257
 75
     1
175
     1
 42
1.0
 92
        0
 66
   257
 43
1.0
 76
     1
 77
     6
 78
     2
 67
     7
 79
     5
170
     0
171
     0
290
     0
174
     0
 93
       13
 44
0.0
173
     0
291
     1
 45
0.0
1001
ACAD
1000
AcDbSavedByObjectVersion
1070
     0
  0
VISUALSTYLE
  5
293
102
{ACAD_XDICTIONARY
360
3A0
102
}
102
{ACAD_REACTORS
330
28B
102
}
330
28B
100
AcDbVisualStyle
  2
Hidden
 70
     6
 71
     1
 72
     2
 73
     2
 90
        0
 40
-0.6
 41
-30.0
 62
     5
 63
     7
 74
     2
 91
        2
 64
     7
 65
   257
 75
     2
175
     1
 42
40.0
 92
        0
 66
   257
 43
1.0
 76
     1
 77
     6
 78
     2
 67
     7
 79
     3
170
     0
171
     0
290
     0
174
     0
 93
        1
 44
0.0
173
     0
291
     0
 45
0.0
1001
ACAD
1000
AcDbSavedByObjectVersion
1070
     0
  0
VISUALSTYLE
  5
2A1
102
{ACAD_XDICTIONARY
360
3BC
102
}
102
{ACAD_REACTORS
330
28B
102
}
330
28B
100
AcDbVisualStyle
  2
JitterOff
 70
    20
 71
     2
 72
     2
 73
     0
 90
        0
 40
-0.6
 41
-30.0
 62
     5
 63
     7
 74
     1
 91
        4
 64
     7
 65
   257
 75
     1
175
     1
 42
1.0
 92
       10
 66
     7
 43
1.0
 76
     1
 77
     6
 78
     2
 67
     7
 79
     5
170
     0
171
     0
290
     0
174
     0
 93
        1
 44
0.0
173
     0
291
     1
 45
0.0
1001
ACAD
1000
AcDbSavedByObjectVersion
1070
     0
  0
VISUALSTYLE
  5
299
102
{ACAD_XDICTIONARY
360
3AC
102
}
102
{ACAD_REACTORS
330
28B
102
}
330
28B
100
AcDbVisualStyle
  2
Linepattern
 70
    14
 71
     2
 72
     2
 73
     0
 90
        0
 40
-0.6
 41
-30.0
 62
     5
 63
     7
 74
     1
 91
        4
 64
     7
 65
   257
 75
     7
175
     7
 42
1.0
 92
        8
 66
     7
 43
1.0
 76
     1
 77
     6
 78
     2
 67
     7
 79
     5
170
     0
171
     0
290
     0
174
     0
 93
        1
 44
0.0
173
     0
291
     1
 45
0.0
1001
ACAD
1000
AcDbSavedByObjectVersion
1070
     0
  0
VISUALSTYLE
  5
2A2
102
{ACAD_XDICTIONARY
360
3BE
102
}
102
{ACAD_REACTORS
330
28B
102
}
330
28B
100
AcDbVisualStyle
  2
OverhangOff
 70
    21
 71
     2
 72
     2
 73
     0
 90
        0
 40
-0.6
 41
-30.0
 62
     5
 63
     7
 74
     1
 91
        4
 64
     7
 65
   257
 75
     1
175
     1
 42
1.0
 92
        9
 66
     7
 43
1.0
 76
     1
 77
     6
 78
     2
 67
     7
 79
     5
170
     0
171
     0
290
     0
174
     0
 93
        1
 44
0.0
173
     0
291
     1
 45
0.0
1001
ACAD
1000
AcDbSavedByObjectVersion
1070
     0
  0
VISUALSTYLE
  5
295
102
{ACAD_XDICTIONARY
360
3A4
102
}
102
{ACAD_REACTORS
330
28B
102
}
330
28B
100
AcDbVisualStyle
  2
Realistic
 70
     8
 71
     2
 72
     3
 73
     0
 90
        2
 40
-0.6
 41
30.0
 62
     5
 63
     7
 74
     0
 91
        0
 64
     7
 65
   257
 75
     1
175
     1
 42
1.0
 92
        8
 66
   257
 43
1.0
 76
     1
 77
     6
 78
     2
 67
     7
 79
     3
170
     0
171
     0
290
     0
174
     0
 93
       13
 44
0.0
173
     0
291
     0
 45
0.0
1001
ACAD
1000
AcDbSavedByObjectVersion
1070
     0
  0
VISUALSTYLE
  5
2A0
102
{ACAD_XDICTIONARY
360
3BA
102
}
102
{ACAD_REACTORS
330
28B
102
}
330
28B
100
AcDbVisualStyle
  2
Shaded
 70
    27
 71
     2
 72
     2
 73
     1
 90
        2
 40
-0.6
 41
30.0
 62
     5
 63
     7
 74
     0
 91
        4
 64
     7
 65
   257
 75
     1
175
     1
 42
1.0
 92
        8
 66
   257
 43
1.0
 76
     1
 77
     6
 78
     2
 67
     8
 79
     3
170
     0
171
     0
290
     0
174
     0
 93
        5
 44
0.0
173
     0
291
     0
 45
0.0
1001
ACAD
1000
AcDbSavedByObjectVersion
1070
     0
  0
VISUALSTYLE
  5
29F
102
{ACAD_XDICTIONARY
360
3B8
102
}
102
{ACAD_REACTORS
330
28B
102
}
330
28B
100
AcDbVisualStyle
  2
Shaded with edges
 70
    26
 71
     2
 72
     2
 73
     1
 90
        2
 40
-0.6
 41
30.0
 62
     5
 63
     7
 74
     1
 91
       10
 64
     7
 65
   257
 75
     2
175
     1
 42
1.0
 92
        8
 66
   257
 43
1.0
 76
     1
 77
     6
 78
     2
 67
     7
 79
     3
170
     0
171
     0
290
     0
174
     0
 93
        5
 44
0.0
173
     0
291
     0
 45
0.0
1001
ACAD
1000
AcDbSavedByObjectVersion
1070
     0
  0
VISUALSTYLE
  5
29C
102
{ACAD_XDICTIONARY
360
3B2
102
}
102
{ACAD_REACTORS
330
28B
102
}
330
28B
100
AcDbVisualStyle
  2
Shades of Gray
 70
    23
 71
     2
 72
     2
 73
     3
 90
        0
 40
-0.6
 41
-30.0
 62
     5
 63
     7
 74
     2
 91
        2
 64
     7
 65
     7
 75
     1
175
     1
 42
40.0
 92
        8
 66
     7
 43
1.0
 76
     1
 77
     6
 78
     2
 67
     7
 79
     3
170
     0
171
     0
290
     0
174
     0
 93
        1
 44
0.0
173
     0
291
     0
 45
0.0
1001
ACAD
1000
AcDbSavedByObjectVersion
1070
     0
  0
VISUALSTYLE
  5
29D
102
{ACAD_XDICTIONARY
360
3B4
102
}
102
{ACAD_REACTORS
330
28B
102
}
330
28B
100
AcDbVisualStyle
  2
Sketchy
 70
    24
 71
     1
 72
     2
 73
     2
 90
        0
 40
-0.6
 41
-30.0
 62
     5
 63
     7
 74
     2
 91
        2
 64
     7
 65
     7
 75
     1
175
     1
 42
40.0
 92
       11
 66
     7
 43
1.0
 76
     1
 77
     6
 78
     2
 67
     7
 79
     6
170
     0
171
     0
290
     0
174
     0
 93
        1
 44
0.0
173
     0
291
     0
 45
0.0
1001
ACAD
1000
AcDbSavedByObjectVersion
1070
     0
  0
VISUALSTYLE
  5
298
102
{ACAD_XDICTIONARY
360
3AA
102
}
102
{ACAD_REACTORS
330
28B
102
}
330
28B
100
AcDbVisualStyle
  2
Thicken
 70
    13
 71
     2
 72
     2
 73
     0
 90
        0
 40
-0.6
 41
-30.0
 62
     5
 63
     7
 74
     1
 91
        4
 64
     7
 65
   257
 75
     1
175
     1
 42
1.0
 92
       12
 66
     7
 43
1.0
 76
     1
 77
     6
 78
     2
 67
     7
 79
     5
170
     0
171
     0
290
     0
174
     0
 93
        1
 44
0.0
173
     0
291
     1
 45
0.0
1001
ACAD
1000
AcDbSavedByObjectVersion
1070
     0
  0
VISUALSTYLE
  5
292
102
{ACAD_XDICTIONARY
360
39E
102
}
102
{ACAD_REACTORS
330
28B
102
}
330
28B
100
AcDbVisualStyle
  2
Wireframe
 70
     5
 71
     0
 72
     2
 73
     0
 90
        0
 40
-0.6
 41
-30.0
 62
     5
 63
     7
 74
     1
 91
        4
 64
     7
 65
   257
 75
     1
175
     1
 42
1.0
 92
        0
 66
   257
 43
1.0
 76
     1
 77
     6
 78
     2
 67
     7
 79
     3
170
     0
171
     0
290
     0
174
     0
 93
        1
 44
0.0
173
     0
291
     0
 45
0.0
1001
ACAD
1000
AcDbSavedByObjectVersion
1070
     0
  0
VISUALSTYLE
  5
29E
102
{ACAD_XDICTIONARY
360
3B6
102
}
102
{ACAD_REACTORS
330
28B
102
}
330
28B
100
AcDbVisualStyle
  2
X-Ray
 70
    25
 71
     2
 72
     2
 73
     1
 90
        1
 40
0.5
 41
-30.0
 62
     5
 63
     7
 74
     1
 91
        0
 64
     7
 65
   257
 75
     1
175
     1
 42
1.0
 92
        8
 66
     7
 43
1.0
 76
     1
 77
     6
 78
     2
 67
     7
 79
     3
170
     0
171
     0
290
     0
174
     0
 93
       13
 44
0.0
173
     0
291
     0
 45
0.0
1001
ACAD
1000
AcDbSavedByObjectVersion
1070
     0
  0
DICTIONARYVAR
  5
383
102
{ACAD_REACTORS
330
21A
102
}
330
21A
100
DictionaryVariables
280
     0
  1
1:1
  0
DICTIONARYVAR
  5
380
102
{ACAD_REACTORS
330
21A
102
}
330
21A
100
DictionaryVariables
280
     0
  1
STANDARD
  0
DICTIONARYVAR
  5
37F
102
{ACAD_REACTORS
330
21A
102
}
330
21A
100
DictionaryVariables
280
     0
  1
STANDARD
  0
DICTIONARYVAR
  5
381
102
{ACAD_REACTORS
330
21A
102
}
330
21A
100
DictionaryVariables
280
     0
  1
Imperial24
  0
DICTIONARYVAR
  5
382
102
{ACAD_REACTORS
330
21A
102
}
330
21A
100
DictionaryVariables
280
     0
  1
Imperial24
  0
DICTIONARYVAR
  5
21B
102
{ACAD_REACTORS
330
21A
102
}
330
21A
100
DictionaryVariables
280
     0
  1
1
  0
DICTIONARYVAR
  5
385
102
{ACAD_REACTORS
330
21A
102
}
330
21A
100
DictionaryVariables
280
     0
  1
0
  0
DICTIONARYVAR
  5
21C
102
{ACAD_REACTORS
330
21A
102
}
330
21A
100
DictionaryVariables
280
     0
  1

  0
DICTIONARYVAR
  5
384
102
{ACAD_REACTORS
330
21A
102
}
330
21A
100
DictionaryVariables
280
     0
  1
127
  0
DICTIONARYVAR
  5
386
102
{ACAD_REACTORS
330
21A
102
}
330
21A
100
DictionaryVariables
280
     0
  1
2
  0
DICTIONARY
  5
2F6
102
{ACAD_REACTORS
330
2EF
102
}
330
2EF
100
AcDbDictionary
281
     1
  0
DICTIONARY
  5
38D
330
21
100
AcDbDictionary
280
     1
281
     1
  3
ACAD_XREC_ROUNDTRIP
360
38E
  0
DICTIONARY
  5
38B
330
20
100
AcDbDictionary
280
     1
281
     1
  3
ACAD_XREC_ROUNDTRIP
360
38C
  0
DICTIONARY
  5
27C
330
27B
100
AcDbDictionary
280
     1
281
     1
  3
ACAD_XREC_ROUNDTRIP
360
390
  3
BUMPTILE
360
27E
  3
DIFFUSETILE
360
27D
  3
OPACITYTILE
360
281
  3
REFLECTIONTILE
360
280
  3
REFRACTIONTILE
360
282
  3
SPECULARTILE
360
27F
  0
DICTIONARY
  5
274
330
273
100
AcDbDictionary
280
     1
281
     1
  3
ACAD_XREC_ROUNDTRIP
360
38F
  3
BUMPTILE
360
276
  3
DIFFUSETILE
360
275
  3
OPACITYTILE
360
279
  3
REFLECTIONTILE
360
278
  3
REFRACTIONTILE
360
27A
  3
SPECULARTILE
360
277
  0
DICTIONARY
  5
284
330
283
100
AcDbDictionary
280
     1
281
     1
  3
ACAD_XREC_ROUNDTRIP
360
391
  3
BUMPTILE
360
286
  3
DIFFUSETILE
360
285
  3
OPACITYTILE
360
289
  3
REFLECTIONTILE
360
288
  3
REFRACTIONTILE
360
28A
  3
SPECULARTILE
360
287
  0
DICTIONARY
  5
3C4
330
2B9
100
AcDbDictionary
280
     1
281
     1
  3
ACAD_XREC_ROUNDTRIP
360
3C5
  0
DICTIONARY
  5
387
330
2A5
100
AcDbDictionary
280
     1
281
     1
  3
ACAD_ROUNDTRIP_2008_TABLESTYLE_CELLSTYLEMAP
360
388
  3
ACAD_XREC_ROUNDTRIP
360
3C2
  0
DICTIONARY
  5
39C
330
291
100
AcDbDictionary
280
     1
281
     1
  3
ACAD_XREC_ROUNDTRIP
360
39D
  0
DICTIONARY
  5
39A
330
290
100
AcDbDictionary
280
     1
281
     1
  3
ACAD_XREC_ROUNDTRIP
360
39B
  0
DICTIONARY
  5
3A8
330
297
100
AcDbDictionary
280
     1
281
     1
  3
ACAD_XREC_ROUNDTRIP
360
3A9
  0
DICTIONARY
  5
3B0
330
29B
100
AcDbDictionary
280
     1
281
     1
  3
ACAD_XREC_ROUNDTRIP
360
3B1
  0
DICTIONARY
  5
3A2
330
294
100
AcDbDictionary
280
     1
281
     1
  3
ACAD_XREC_ROUNDTRIP
360
3A3
  0
DICTIONARY
  5
3A6
330
296
100
AcDbDictionary
280
     1
281
     1
  3
ACAD_XREC_ROUNDTRIP
360
3A7
  0
DICTIONARY
  5
3C0
330
2A3
100
AcDbDictionary
280
     1
281
     1
  3
ACAD_XREC_ROUNDTRIP
360
3C1
  0
DICTIONARY
  5
3AE
330
29A
100
AcDbDictionary
280
     1
281
     1
  3
ACAD_XREC_ROUNDTRIP
360
3AF
  0
DICTIONARY
  5
392
330
28C
100
AcDbDictionary
280
     1
281
     1
  3
ACAD_XREC_ROUNDTRIP
360
393
  0
DICTIONARY
  5
394
330
28D
100
AcDbDictionary
280
     1
281
     1
  3
ACAD_XREC_ROUNDTRIP
360
395
  0
DICTIONARY
  5
396
330
28E
100
AcDbDictionary
280
     1
281
     1
  3
ACAD_XREC_ROUNDTRIP
360
397
  0
DICTIONARY
  5
398
330
28F
100
AcDbDictionary
280
     1
281
     1
  3
ACAD_XREC_ROUNDTRIP
360
399
  0
DICTIONARY
  5
3A0
330
293
100
AcDbDictionary
280
     1
281
     1
  3
ACAD_XREC_ROUNDTRIP
360
3A1
  0
DICTIONARY
  5
3BC
330
2A1
100
AcDbDictionary
280
     1
281
     1
  3
ACAD_XREC_ROUNDTRIP
360
3BD
  0
DICTIONARY
  5
3AC
330
299
100
AcDbDictionary
280
     1
281
     1
  3
ACAD_XREC_ROUNDTRIP
360
3AD
  0
DICTIONARY
  5
3BE
330
2A2
100
AcDbDictionary
280
     1
281
     1
  3
ACAD_XREC_ROUNDTRIP
360
3BF
  0
DICTIONARY
  5
3A4
330
295
100
AcDbDictionary
280
     1
281
     1
  3
ACAD_XREC_ROUNDTRIP
360
3A5
  0
DICTIONARY
  5
3BA
330
2A0
100
AcDbDictionary
280
     1
281
     1
  3
ACAD_XREC_ROUNDTRIP
360
3BB
  0
DICTIONARY
  5
3B8
330
29F
100
AcDbDictionary
280
     1
281
     1
  3
ACAD_XREC_ROUNDTRIP
360
3B9
  0
DICTIONARY
  5
3B2
330
29C
100
AcDbDictionary
280
     1
281
     1
  3
ACAD_XREC_ROUNDTRIP
360
3B3
  0
DICTIONARY
  5
3B4
330
29D
100
AcDbDictionary
280
     1
281
     1
  3
ACAD_XREC_ROUNDTRIP
360
3B5
  0
DICTIONARY
  5
3AA
330
298
100
AcDbDictionary
280
     1
281
     1
  3
ACAD_XREC_ROUNDTRIP
360
3AB
  0
DICTIONARY
  5
39E
330
292
100
AcDbDictionary
280
     1
281
     1
  3
ACAD_XREC_ROUNDTRIP
360
39F
  0
DICTIONARY
  5
3B6
330
29E
100
AcDbDictionary
280
     1
281
     1
  3
ACAD_XREC_ROUNDTRIP
360
3B7
  0
XRECORD
  5
38E
102
{ACAD_REACTORS
330
38D
102
}
330
38D
100
AcDbXrecord
280
     1
102
SHADEPLOT
 70
     0
102
SHADEPLOTRESLEVEL
 70
     2
102
SHADEPLOTCUSTOMDPI
 70
   300
  0
XRECORD
  5
38C
102
{ACAD_REACTORS
330
38B
102
}
330
38B
100
AcDbXrecord
280
     1
102
SHADEPLOT
 70
     0
102
SHADEPLOTRESLEVEL
 70
     2
102
SHADEPLOTCUSTOMDPI
 70
   300
  0
XRECORD
  5
390
102
{ACAD_REACTORS
330
27C
102
}
330
27C
100
AcDbXrecord
280
     1
102
MATERIAL
148
0.0
149
0.0
149
0.0
 93
        0
 94
      127
282
     0
 72
     0
 77
     0
171
     0
175
     0
179
     0
273
     0
  0
XRECORD
  5
27E
102
{ACAD_REACTORS
330
27C
102
}
330
27C
100
AcDbXrecord
280
     1
270
     1
271
     1
  0
XRECORD
  5
27D
102
{ACAD_REACTORS
330
27C
102
}
330
27C
100
AcDbXrecord
280
     1
270
     1
271
     1
  0
XRECORD
  5
281
102
{ACAD_REACTORS
330
27C
102
}
330
27C
100
AcDbXrecord
280
     1
270
     1
271
     1
  0
XRECORD
  5
280
102
{ACAD_REACTORS
330
27C
102
}
330
27C
100
AcDbXrecord
280
     1
270
     1
271
     1
  0
XRECORD
  5
282
102
{ACAD_REACTORS
330
27C
102
}
330
27C
100
AcDbXrecord
280
     1
270
     1
271
     1
  0
XRECORD
  5
27F
102
{ACAD_REACTORS
330
27C
102
}
330
27C
100
AcDbXrecord
280
     1
270
     1
271
     1
  0
XRECORD
  5
38F
102
{ACAD_REACTORS
330
274
102
}
330
274
100
AcDbXrecord
280
     1
102
MATERIAL
148
0.0
149
0.0
149
0.0
 93
        0
 94
      127
282
     0
 72
     0
 77
     0
171
     0
175
     0
179
     0
273
     0
  0
XRECORD
  5
276
102
{ACAD_REACTORS
330
274
102
}
330
274
100
AcDbXrecord
280
     1
270
     1
271
     1
  0
XRECORD
  5
275
102
{ACAD_REACTORS
330
274
102
}
330
274
100
AcDbXrecord
280
     1
270
     1
271
     1
  0
XRECORD
  5
279
102
{ACAD_REACTORS
330
274
102
}
330
274
100
AcDbXrecord
280
     1
270
     1
271
     1
  0
XRECORD
  5
278
102
{ACAD_REACTORS
330
274
102
}
330
274
100
AcDbXrecord
280
     1
270
     1
271
     1
  0
XRECORD
  5
27A
102
{ACAD_REACTORS
330
274
102
}
330
274
100
AcDbXrecord
280
     1
270
     1
271
     1
  0
XRECORD
  5
277
102
{ACAD_REACTORS
330
274
102
}
330
274
100
AcDbXrecord
280
     1
270
     1
271
     1
  0
XRECORD
  5
391
102
{ACAD_REACTORS
330
284
102
}
330
284
100
AcDbXrecord
280
     1
102
MATERIAL
148
0.0
149
0.0
149
0.0
 93
        0
 94
      127
282
     0
 72
     0
 77
     0
171
     0
175
     0
179
     0
273
     0
  0
XRECORD
  5
286
102
{ACAD_REACTORS
330
284
102
}
330
284
100
AcDbXrecord
280
     1
270
     1
271
     1
  0
XRECORD
  5
285
102
{ACAD_REACTORS
330
284
102
}
330
284
100
AcDbXrecord
280
     1
270
     1
271
     1
  0
XRECORD
  5
289
102
{ACAD_REACTORS
330
284
102
}
330
284
100
AcDbXrecord
280
     1
270
     1
271
     1
  0
XRECORD
  5
288
102
{ACAD_REACTORS
330
284
102
}
330
284
100
AcDbXrecord
280
     1
270
     1
271
     1
  0
XRECORD
  5
28A
102
{ACAD_REACTORS
330
284
102
}
330
284
100
AcDbXrecord
280
     1
270
     1
271
     1
  0
XRECORD
  5
287
102
{ACAD_REACTORS
330
284
102
}
330
284
100
AcDbXrecord
280
     1
270
     1
271
     1
  0
XRECORD
  5
3C5
102
{ACAD_REACTORS
330
3C4
102
}
330
3C4
100
AcDbXrecord
280
     1
102
ACAD_ROUNDTRIP_2012_MLEADER_STYLE
298
     1
  0
CELLSTYLEMAP
  5
388
102
{ACAD_REACTORS
330
387
102
}
330
387
100
AcDbCellStyleMap
 90
        3
300
CELLSTYLE
  1
TABLEFORMAT_BEGIN
 90
        5
170
     1
 91
        0
 92
    32768
 62
   257
 93
        1
300
CONTENTFORMAT
  1
CONTENTFORMAT_BEGIN
 90
        0
 91
        0
 92
      512
 93
        0
300

 40
0.0
140
1.0
 94
        5
 62
     0
340
17
144
0.25
309
CONTENTFORMAT_END
171
     0
 94
        0
309
TABLEFORMAT_END
  1
CELLSTYLE_BEGIN
 90
        1
 91
        1
300
_TITLE
309
CELLSTYLE_END
300
CELLSTYLE
  1
TABLEFORMAT_BEGIN
 90
        5
170
     1
 91
        0
 92
        0
 62
   257
 93
        1
300
CONTENTFORMAT
  1
CONTENTFORMAT_BEGIN
 90
        0
 91
        0
 92
      512
 93
        0
300

 40
0.0
140
1.0
 94
        5
 62
     0
340
17
144
0.18
309
CONTENTFORMAT_END
171
     0
 94
        0
309
TABLEFORMAT_END
  1
CELLSTYLE_BEGIN
 90
        2
 91
        1
300
_HEADER
309
CELLSTYLE_END
300
CELLSTYLE
  1
TABLEFORMAT_BEGIN
 90
        5
170
     1
 91
        0
 92
        0
 62
   257
 93
        1
300
CONTENTFORMAT
  1
CONTENTFORMAT_BEGIN
 90
        0
 91
        0
 92
      512
 93
        0
300

 40
0.0
140
1.0
 94
        2
 62
     0
340
17
144
0.18
309
CONTENTFORMAT_END
171
     0
 94
        0
309
TABLEFORMAT_END
  1
CELLSTYLE_BEGIN
 90
        3
 91
        2
300
_DATA
309
CELLSTYLE_END
  0
XRECORD
  5
3C2
102
{ACAD_REACTORS
330
387
102
}
330
387
100
AcDbXrecord
280
     1
102
ACAD_ROUNDTRIP_PRE2007_TABLESTYLE
 90
      512
 91
        0
  1

 92
      512
 93
        0
  2

 94
      512
 95
        0
  3

  0
XRECORD
  5
39D
102
{ACAD_REACTORS
330
39C
102
}
330
39C
100
AcDbXrecord
280
     1
102
RTVSPost2010Prop28
280
     1
102
RTVSPost2010PropOp28
 70
     1
102
RTVSPost2010Prop29
280
     1
102
RTVSPost2010PropOp29
 70
     1
102
RTVSPost2010Prop30
280
     0
102
RTVSPost2010PropOp30
 70
     1
102
RTVSPost2010Prop31
280
     0
102
RTVSPost2010PropOp31
 70
     1
102
RTVSPost2010Prop32
280
     0
102
RTVSPost2010PropOp32
 70
     1
102
RTVSPost2010Prop33
280
     0
102
RTVSPost2010PropOp33
 70
     1
102
RTVSPost2010Prop34
280
     0
102
RTVSPost2010PropOp34
 70
     1
102
RTVSPost2010Prop35
280
     0
102
RTVSPost2010PropOp35
 70
     1
102
RTVSPost2010Prop36
280
     0
102
RTVSPost2010PropOp36
 70
     1
102
RTVSPost2010Prop37
 90
       50
102
RTVSPost2010PropOp37
 70
     1
102
RTVSPost2010Prop38
140
0.0
102
RTVSPost2010PropOp38
 70
     1
102
RTVSPost2010Prop39
140
1.0
102
RTVSPost2010PropOp39
 70
     1
102
RTVSPost2010Prop40
 90
        0
102
RTVSPost2010PropOp40
 70
     1
102
RTVSPost2010Prop41ColorIndex
 90
       18
102
RTVSPost2010Prop41ColorRGB
 90
        0
102
RTVSPost2010PropOp41
 70
     1
102
RTVSPost2010Prop42
 90
       50
102
RTVSPost2010PropOp42
 70
     1
102
RTVSPost2010Prop43
 90
        3
102
RTVSPost2010PropOp43
 70
     1
102
RTVSPost2010Prop44ColorIndex
 90
        5
102
RTVSPost2010Prop44ColorRGB
 90
      255
102
RTVSPost2010PropOp44
 70
     1
102
RTVSPost2010Prop45
280
     0
102
RTVSPost2010PropOp45
 70
     1
102
RTVSPost2010Prop46
 90
       50
102
RTVSPost2010PropOp46
 70
     1
102
RTVSPost2010Prop47
 90
       50
102
RTVSPost2010PropOp47
 70
     1
102
RTVSPost2010Prop48
 90
       50
102
RTVSPost2010PropOp48
 70
     1
102
RTVSPost2010Prop49
280
     0
102
RTVSPost2010PropOp49
 70
     1
102
RTVSPost2010Prop50
 90
       50
102
RTVSPost2010PropOp50
 70
     1
102
RTVSPost2010Prop51ColorIndex
 90
      256
102
RTVSPost2010Prop51ColorRGB
 90
-16777216
102
RTVSPost2010PropOp51
 70
     0
102
RTVSPost2010Prop52
140
1.0
102
RTVSPost2010PropOp52
 70
     0
102
RTVSPost2010Prop53
 90
        2
102
RTVSPost2010PropOp53
 70
     1
102
RTVSPost2010Prop54
  1
strokes_ogs.tif
102
RTVSPost2010PropOp54
 70
     1
102
RTVSPost2010Prop55
280
     0
102
RTVSPost2010PropOp55
 70
     1
102
RTVSPost2010Prop56
140
1.0
102
RTVSPost2010PropOp56
 70
     1
102
RTVSPost2010Prop57
140
1.0
102
RTVSPost2010PropOp57
 70
     1
102
RTVSPropertyOp0
 70
     1
102
RTVSPropertyOp1
 70
     1
102
RTVSPropertyOp2
 70
     1
102
RTVSPropertyOp3
 70
     1
102
RTVSPropertyOp4
 70
     1
102
RTVSPropertyOp5
 70
     1
102
RTVSPropertyOp6
 70
     1
102
RTVSPropertyOp7
 70
     1
102
RTVSPropertyOp8
 70
     1
102
RTVSPropertyOp9
 70
     1
102
RTVSPropertyOp10
 70
     1
102
RTVSPropertyOp11
 70
     1
102
RTVSPropertyOp12
 70
     1
102
RTVSPropertyOp13
 70
     1
102
RTVSPropertyOp14
 70
     1
102
RTVSPropertyOp15
 70
     1
102
RTVSPropertyOp16
 70
     1
102
RTVSPropertyOp17
 70
     1
102
RTVSPropertyOp18
 70
     1
102
RTVSPropertyOp19
 70
     1
102
RTVSPropertyOp20
 70
     1
102
RTVSPropertyOp21
 70
     1
102
RTVSPropertyOp22
 70
     1
102
RTVSPropertyOp23
 70
     1
102
RTVSPropertyOp24
 70
     1
102
RTVSPropertyOp25
 70
     1
102
RTVSPropertyOp26
 70
     1
102
RTVSPropertyOp27
 70
     1
102
RTVSPropertyOp28
 70
     1
102
RTVSPropertyOp29
 70
     1
102
RTVSPropertyOp30
 70
     1
102
RTVSPropertyOp31
 70
     1
102
RTVSPropertyOp32
 70
     1
102
RTVSPropertyOp33
 70
     1
102
RTVSPropertyOp34
 70
     1
102
RTVSPropertyOp35
 70
     1
102
RTVSPropertyOp36
 70
     1
102
RTVSPropertyOp37
 70
     1
102
RTVSPropertyOp38
 70
     1
102
RTVSPropertyOp39
 70
     1
102
RTVSPropertyOp40
 70
     1
102
RTVSPropertyOp41
 70
     1
102
RTVSPropertyOp42
 70
     1
102
RTVSPropertyOp43
 70
     1
102
RTVSPropertyOp44
 70
     1
102
RTVSPropertyOp45
 70
     1
102
RTVSPropertyOp46
 70
     1
102
RTVSPropertyOp47
 70
     1
102
RTVSPropertyOp48
 70
     1
102
RTVSPropertyOp49
 70
     1
102
RTVSPropertyOp50
 70
     1
102
RTVSPropertyOp51
 70
     0
102
RTVSPropertyOp52
 70
     0
102
RTVSPropertyOp53
 70
     1
102
RTVSPropertyOp54
 70
     1
102
RTVSPropertyOp55
 70
     1
102
RTVSPropertyOp56
 70
     1
102
RTVSPropertyOp57
 70
     1
102
RTVSPropertyOp58
 70
     1
102
RTVSPropertyOp59
 70
     1
102
RTVSPropertyOp60
 70
     1
102
RTVSPropertyOp61
 70
     1
102
RTVSPropertyOp62
 70
     1
  0
XRECORD
  5
39B
102
{ACAD_REACTORS
330
39A
102
}
330
39A
100
AcDbXrecord
280
     1
102
RTVSPost2010Prop28
280
     0
102
RTVSPost2010PropOp28
 70
     1
102
RTVSPost2010Prop29
280
     1
102
RTVSPost2010PropOp29
 70
     1
102
RTVSPost2010Prop30
280
     1
102
RTVSPost2010PropOp30
 70
     1
102
RTVSPost2010Prop31
280
     0
102
RTVSPost2010PropOp31
 70
     1
102
RTVSPost2010Prop32
280
     0
102
RTVSPost2010PropOp32
 70
     1
102
RTVSPost2010Prop33
280
     0
102
RTVSPost2010PropOp33
 70
     1
102
RTVSPost2010Prop34
280
     0
102
RTVSPost2010PropOp34
 70
     1
102
RTVSPost2010Prop35
280
     0
102
RTVSPost2010PropOp35
 70
     1
102
RTVSPost2010Prop36
280
     0
102
RTVSPost2010PropOp36
 70
     1
102
RTVSPost2010Prop37
 90
       50
102
RTVSPost2010PropOp37
 70
     1
102
RTVSPost2010Prop38
140
0.0
102
RTVSPost2010PropOp38
 70
     1
102
RTVSPost2010Prop39
140
1.0
102
RTVSPost2010PropOp39
 70
     1
102
RTVSPost2010Prop40
 90
        0
102
RTVSPost2010PropOp40
 70
     1
102
RTVSPost2010Prop41ColorIndex
 90
       18
102
RTVSPost2010Prop41ColorRGB
 90
        0
102
RTVSPost2010PropOp41
 70
     1
102
RTVSPost2010Prop42
 90
       50
102
RTVSPost2010PropOp42
 70
     1
102
RTVSPost2010Prop43
 90
        3
102
RTVSPost2010PropOp43
 70
     1
102
RTVSPost2010Prop44ColorIndex
 90
        5
102
RTVSPost2010Prop44ColorRGB
 90
      255
102
RTVSPost2010PropOp44
 70
     1
102
RTVSPost2010Prop45
280
     0
102
RTVSPost2010PropOp45
 70
     1
102
RTVSPost2010Prop46
 90
       50
102
RTVSPost2010PropOp46
 70
     1
102
RTVSPost2010Prop47
 90
       50
102
RTVSPost2010PropOp47
 70
     1
102
RTVSPost2010Prop48
 90
       50
102
RTVSPost2010PropOp48
 70
     1
102
RTVSPost2010Prop49
280
     0
102
RTVSPost2010PropOp49
 70
     1
102
RTVSPost2010Prop50
 90
       50
102
RTVSPost2010PropOp50
 70
     1
102
RTVSPost2010Prop51ColorIndex
 90
      256
102
RTVSPost2010Prop51ColorRGB
 90
-16777216
102
RTVSPost2010PropOp51
 70
     0
102
RTVSPost2010Prop52
140
1.0
102
RTVSPost2010PropOp52
 70
     0
102
RTVSPost2010Prop53
 90
        2
102
RTVSPost2010PropOp53
 70
     1
102
RTVSPost2010Prop54
  1
strokes_ogs.tif
102
RTVSPost2010PropOp54
 70
     1
102
RTVSPost2010Prop55
280
     0
102
RTVSPost2010PropOp55
 70
     1
102
RTVSPost2010Prop56
140
1.0
102
RTVSPost2010PropOp56
 70
     1
102
RTVSPost2010Prop57
140
1.0
102
RTVSPost2010PropOp57
 70
     1
102
RTVSPropertyOp0
 70
     1
102
RTVSPropertyOp1
 70
     1
102
RTVSPropertyOp2
 70
     1
102
RTVSPropertyOp3
 70
     1
102
RTVSPropertyOp4
 70
     1
102
RTVSPropertyOp5
 70
     1
102
RTVSPropertyOp6
 70
     1
102
RTVSPropertyOp7
 70
     1
102
RTVSPropertyOp8
 70
     1
102
RTVSPropertyOp9
 70
     1
102
RTVSPropertyOp10
 70
     1
102
RTVSPropertyOp11
 70
     1
102
RTVSPropertyOp12
 70
     1
102
RTVSPropertyOp13
 70
     1
102
RTVSPropertyOp14
 70
     1
102
RTVSPropertyOp15
 70
     1
102
RTVSPropertyOp16
 70
     1
102
RTVSPropertyOp17
 70
     1
102
RTVSPropertyOp18
 70
     1
102
RTVSPropertyOp19
 70
     1
102
RTVSPropertyOp20
 70
     1
102
RTVSPropertyOp21
 70
     1
102
RTVSPropertyOp22
 70
     1
102
RTVSPropertyOp23
 70
     1
102
RTVSPropertyOp24
 70
     1
102
RTVSPropertyOp25
 70
     1
102
RTVSPropertyOp26
 70
     1
102
RTVSPropertyOp27
 70
     1
102
RTVSPropertyOp28
 70
     1
102
RTVSPropertyOp29
 70
     1
102
RTVSPropertyOp30
 70
     1
102
RTVSPropertyOp31
 70
     1
102
RTVSPropertyOp32
 70
     1
102
RTVSPropertyOp33
 70
     1
102
RTVSPropertyOp34
 70
     1
102
RTVSPropertyOp35
 70
     1
102
RTVSPropertyOp36
 70
     1
102
RTVSPropertyOp37
 70
     1
102
RTVSPropertyOp38
 70
     1
102
RTVSPropertyOp39
 70
     1
102
RTVSPropertyOp40
 70
     1
102
RTVSPropertyOp41
 70
     1
102
RTVSPropertyOp42
 70
     1
102
RTVSPropertyOp43
 70
     1
102
RTVSPropertyOp44
 70
     1
102
RTVSPropertyOp45
 70
     1
102
RTVSPropertyOp46
 70
     1
102
RTVSPropertyOp47
 70
     1
102
RTVSPropertyOp48
 70
     1
102
RTVSPropertyOp49
 70
     1
102
RTVSPropertyOp50
 70
     1
102
RTVSPropertyOp51
 70
     0
102
RTVSPropertyOp52
 70
     0
102
RTVSPropertyOp53
 70
     1
102
RTVSPropertyOp54
 70
     1
102
RTVSPropertyOp55
 70
     1
102
RTVSPropertyOp56
 70
     1
102
RTVSPropertyOp57
 70
     1
102
RTVSPropertyOp58
 70
     1
102
RTVSPropertyOp59
 70
     1
102
RTVSPropertyOp60
 70
     1
102
RTVSPropertyOp61
 70
     1
102
RTVSPropertyOp62
 70
     1
  0
XRECORD
  5
3A9
102
{ACAD_REACTORS
330
3A8
102
}
330
3A8
100
AcDbXrecord
280
     1
102
RTVSPost2010Prop28
280
     0
102
RTVSPost2010PropOp28
 70
     1
102
RTVSPost2010Prop29
280
     1
102
RTVSPost2010PropOp29
 70
     1
102
RTVSPost2010Prop30
280
     1
102
RTVSPost2010PropOp30
 70
     1
102
RTVSPost2010Prop31
280
     0
102
RTVSPost2010PropOp31
 70
     1
102
RTVSPost2010Prop32
280
     0
102
RTVSPost2010PropOp32
 70
     1
102
RTVSPost2010Prop33
280
     0
102
RTVSPost2010PropOp33
 70
     1
102
RTVSPost2010Prop34
280
     0
102
RTVSPost2010PropOp34
 70
     1
102
RTVSPost2010Prop35
280
     0
102
RTVSPost2010PropOp35
 70
     1
102
RTVSPost2010Prop36
280
     0
102
RTVSPost2010PropOp36
 70
     1
102
RTVSPost2010Prop37
 90
       50
102
RTVSPost2010PropOp37
 70
     1
102
RTVSPost2010Prop38
140
0.0
102
RTVSPost2010PropOp38
 70
     1
102
RTVSPost2010Prop39
140
1.0
102
RTVSPost2010PropOp39
 70
     1
102
RTVSPost2010Prop40
 90
        0
102
RTVSPost2010PropOp40
 70
     1
102
RTVSPost2010Prop41ColorIndex
 90
       18
102
RTVSPost2010Prop41ColorRGB
 90
        0
102
RTVSPost2010PropOp41
 70
     1
102
RTVSPost2010Prop42
 90
       50
102
RTVSPost2010PropOp42
 70
     1
102
RTVSPost2010Prop43
 90
        3
102
RTVSPost2010PropOp43
 70
     1
102
RTVSPost2010Prop44ColorIndex
 90
        5
102
RTVSPost2010Prop44ColorRGB
 90
      255
102
RTVSPost2010PropOp44
 70
     1
102
RTVSPost2010Prop45
280
     0
102
RTVSPost2010PropOp45
 70
     1
102
RTVSPost2010Prop46
 90
       50
102
RTVSPost2010PropOp46
 70
     1
102
RTVSPost2010Prop47
 90
       50
102
RTVSPost2010PropOp47
 70
     1
102
RTVSPost2010Prop48
 90
       50
102
RTVSPost2010PropOp48
 70
     1
102
RTVSPost2010Prop49
280
     0
102
RTVSPost2010PropOp49
 70
     1
102
RTVSPost2010Prop50
 90
       50
102
RTVSPost2010PropOp50
 70
     1
102
RTVSPost2010Prop51ColorIndex
 90
      256
102
RTVSPost2010Prop51ColorRGB
 90
-16777216
102
RTVSPost2010PropOp51
 70
     0
102
RTVSPost2010Prop52
140
1.0
102
RTVSPost2010PropOp52
 70
     0
102
RTVSPost2010Prop53
 90
        2
102
RTVSPost2010PropOp53
 70
     1
102
RTVSPost2010Prop54
  1
strokes_ogs.tif
102
RTVSPost2010PropOp54
 70
     1
102
RTVSPost2010Prop55
280
     0
102
RTVSPost2010PropOp55
 70
     1
102
RTVSPost2010Prop56
140
1.0
102
RTVSPost2010PropOp56
 70
     1
102
RTVSPost2010Prop57
140
1.0
102
RTVSPost2010PropOp57
 70
     1
102
RTVSPropertyOp0
 70
     1
102
RTVSPropertyOp1
 70
     1
102
RTVSPropertyOp2
 70
     1
102
RTVSPropertyOp3
 70
     1
102
RTVSPropertyOp4
 70
     1
102
RTVSPropertyOp5
 70
     1
102
RTVSPropertyOp6
 70
     1
102
RTVSPropertyOp7
 70
     1
102
RTVSPropertyOp8
 70
     1
102
RTVSPropertyOp9
 70
     1
102
RTVSPropertyOp10
 70
     1
102
RTVSPropertyOp11
 70
     1
102
RTVSPropertyOp12
 70
     1
102
RTVSPropertyOp13
 70
     1
102
RTVSPropertyOp14
 70
     1
102
RTVSPropertyOp15
 70
     1
102
RTVSPropertyOp16
 70
     1
102
RTVSPropertyOp17
 70
     1
102
RTVSPropertyOp18
 70
     1
102
RTVSPropertyOp19
 70
     1
102
RTVSPropertyOp20
 70
     1
102
RTVSPropertyOp21
 70
     1
102
RTVSPropertyOp22
 70
     1
102
RTVSPropertyOp23
 70
     1
102
RTVSPropertyOp24
 70
     1
102
RTVSPropertyOp25
 70
     1
102
RTVSPropertyOp26
 70
     1
102
RTVSPropertyOp27
 70
     1
102
RTVSPropertyOp28
 70
     1
102
RTVSPropertyOp29
 70
     1
102
RTVSPropertyOp30
 70
     1
102
RTVSPropertyOp31
 70
     1
102
RTVSPropertyOp32
 70
     1
102
RTVSPropertyOp33
 70
     1
102
RTVSPropertyOp34
 70
     1
102
RTVSPropertyOp35
 70
     1
102
RTVSPropertyOp36
 70
     1
102
RTVSPropertyOp37
 70
     1
102
RTVSPropertyOp38
 70
     1
102
RTVSPropertyOp39
 70
     1
102
RTVSPropertyOp40
 70
     1
102
RTVSPropertyOp41
 70
     1
102
RTVSPropertyOp42
 70
     1
102
RTVSPropertyOp43
 70
     1
102
RTVSPropertyOp44
 70
     1
102
RTVSPropertyOp45
 70
     1
102
RTVSPropertyOp46
 70
     1
102
RTVSPropertyOp47
 70
     1
102
RTVSPropertyOp48
 70
     1
102
RTVSPropertyOp49
 70
     1
102
RTVSPropertyOp50
 70
     1
102
RTVSPropertyOp51
 70
     0
102
RTVSPropertyOp52
 70
     0
102
RTVSPropertyOp53
 70
     1
102
RTVSPropertyOp54
 70
     1
102
RTVSPropertyOp55
 70
     1
102
RTVSPropertyOp56
 70
     1
102
RTVSPropertyOp57
 70
     1
102
RTVSPropertyOp58
 70
     1
102
RTVSPropertyOp59
 70
     1
102
RTVSPropertyOp60
 70
     1
102
RTVSPropertyOp61
 70
     1
102
RTVSPropertyOp62
 70
     1
  0
XRECORD
  5
3B1
102
{ACAD_REACTORS
330
3B0
102
}
330
3B0
100
AcDbXrecord
280
     1
102
RTVSPost2010Prop28
280
     0
102
RTVSPost2010PropOp28
 70
     1
102
RTVSPost2010Prop29
280
     1
102
RTVSPost2010PropOp29
 70
     1
102
RTVSPost2010Prop30
280
     1
102
RTVSPost2010PropOp30
 70
     1
102
RTVSPost2010Prop31
280
     0
102
RTVSPost2010PropOp31
 70
     1
102
RTVSPost2010Prop32
280
     0
102
RTVSPost2010PropOp32
 70
     1
102
RTVSPost2010Prop33
280
     0
102
RTVSPost2010PropOp33
 70
     1
102
RTVSPost2010Prop34
280
     0
102
RTVSPost2010PropOp34
 70
     1
102
RTVSPost2010Prop35
280
     0
102
RTVSPost2010PropOp35
 70
     1
102
RTVSPost2010Prop36
280
     0
102
RTVSPost2010PropOp36
 70
     1
102
RTVSPost2010Prop37
 90
       50
102
RTVSPost2010PropOp37
 70
     1
102
RTVSPost2010Prop38
140
0.0
102
RTVSPost2010PropOp38
 70
     1
102
RTVSPost2010Prop39
140
1.0
102
RTVSPost2010PropOp39
 70
     1
102
RTVSPost2010Prop40
 90
        0
102
RTVSPost2010PropOp40
 70
     1
102
RTVSPost2010Prop41ColorIndex
 90
       18
102
RTVSPost2010Prop41ColorRGB
 90
        0
102
RTVSPost2010PropOp41
 70
     1
102
RTVSPost2010Prop42
 90
       50
102
RTVSPost2010PropOp42
 70
     1
102
RTVSPost2010Prop43
 90
        3
102
RTVSPost2010PropOp43
 70
     1
102
RTVSPost2010Prop44ColorIndex
 90
        5
102
RTVSPost2010Prop44ColorRGB
 90
      255
102
RTVSPost2010PropOp44
 70
     1
102
RTVSPost2010Prop45
280
     0
102
RTVSPost2010PropOp45
 70
     1
102
RTVSPost2010Prop46
 90
       50
102
RTVSPost2010PropOp46
 70
     1
102
RTVSPost2010Prop47
 90
       50
102
RTVSPost2010PropOp47
 70
     1
102
RTVSPost2010Prop48
 90
       50
102
RTVSPost2010PropOp48
 70
     1
102
RTVSPost2010Prop49
280
     0
102
RTVSPost2010PropOp49
 70
     1
102
RTVSPost2010Prop50
 90
       50
102
RTVSPost2010PropOp50
 70
     1
102
RTVSPost2010Prop51ColorIndex
 90
      256
102
RTVSPost2010Prop51ColorRGB
 90
-16777216
102
RTVSPost2010PropOp51
 70
     0
102
RTVSPost2010Prop52
140
1.0
102
RTVSPost2010PropOp52
 70
     0
102
RTVSPost2010Prop53
 90
        2
102
RTVSPost2010PropOp53
 70
     1
102
RTVSPost2010Prop54
  1
strokes_ogs.tif
102
RTVSPost2010PropOp54
 70
     1
102
RTVSPost2010Prop55
280
     0
102
RTVSPost2010PropOp55
 70
     1
102
RTVSPost2010Prop56
140
1.0
102
RTVSPost2010PropOp56
 70
     1
102
RTVSPost2010Prop57
140
1.0
102
RTVSPost2010PropOp57
 70
     1
102
RTVSPropertyOp0
 70
     1
102
RTVSPropertyOp1
 70
     1
102
RTVSPropertyOp2
 70
     1
102
RTVSPropertyOp3
 70
     1
102
RTVSPropertyOp4
 70
     1
102
RTVSPropertyOp5
 70
     1
102
RTVSPropertyOp6
 70
     1
102
RTVSPropertyOp7
 70
     1
102
RTVSPropertyOp8
 70
     1
102
RTVSPropertyOp9
 70
     1
102
RTVSPropertyOp10
 70
     1
102
RTVSPropertyOp11
 70
     1
102
RTVSPropertyOp12
 70
     1
102
RTVSPropertyOp13
 70
     1
102
RTVSPropertyOp14
 70
     1
102
RTVSPropertyOp15
 70
     1
102
RTVSPropertyOp16
 70
     1
102
RTVSPropertyOp17
 70
     1
102
RTVSPropertyOp18
 70
     1
102
RTVSPropertyOp19
 70
     1
102
RTVSPropertyOp20
 70
     1
102
RTVSPropertyOp21
 70
     1
102
RTVSPropertyOp22
 70
     1
102
RTVSPropertyOp23
 70
     1
102
RTVSPropertyOp24
 70
     1
102
RTVSPropertyOp25
 70
     1
102
RTVSPropertyOp26
 70
     1
102
RTVSPropertyOp27
 70
     1
102
RTVSPropertyOp28
 70
     1
102
RTVSPropertyOp29
 70
     1
102
RTVSPropertyOp30
 70
     1
102
RTVSPropertyOp31
 70
     1
102
RTVSPropertyOp32
 70
     1
102
RTVSPropertyOp33
 70
     1
102
RTVSPropertyOp34
 70
     1
102
RTVSPropertyOp35
 70
     1
102
RTVSPropertyOp36
 70
     1
102
RTVSPropertyOp37
 70
     1
102
RTVSPropertyOp38
 70
     1
102
RTVSPropertyOp39
 70
     1
102
RTVSPropertyOp40
 70
     1
102
RTVSPropertyOp41
 70
     1
102
RTVSPropertyOp42
 70
     1
102
RTVSPropertyOp43
 70
     1
102
RTVSPropertyOp44
 70
     1
102
RTVSPropertyOp45
 70
     1
102
RTVSPropertyOp46
 70
     1
102
RTVSPropertyOp47
 70
     1
102
RTVSPropertyOp48
 70
     1
102
RTVSPropertyOp49
 70
     1
102
RTVSPropertyOp50
 70
     1
102
RTVSPropertyOp51
 70
     0
102
RTVSPropertyOp52
 70
     0
102
RTVSPropertyOp53
 70
     1
102
RTVSPropertyOp54
 70
     1
102
RTVSPropertyOp55
 70
     1
102
RTVSPropertyOp56
 70
     1
102
RTVSPropertyOp57
 70
     1
102
RTVSPropertyOp58
 70
     1
102
RTVSPropertyOp59
 70
     1
102
RTVSPropertyOp60
 70
     1
102
RTVSPropertyOp61
 70
     1
102
RTVSPropertyOp62
 70
     1
  0
XRECORD
  5
3A3
102
{ACAD_REACTORS
330
3A2
102
}
330
3A2
100
AcDbXrecord
280
     1
102
RTVSPost2010Prop28
280
     0
102
RTVSPost2010PropOp28
 70
     1
102
RTVSPost2010Prop29
280
     1
102
RTVSPost2010PropOp29
 70
     1
102
RTVSPost2010Prop30
280
     1
102
RTVSPost2010PropOp30
 70
     1
102
RTVSPost2010Prop31
280
     0
102
RTVSPost2010PropOp31
 70
     1
102
RTVSPost2010Prop32
280
     0
102
RTVSPost2010PropOp32
 70
     1
102
RTVSPost2010Prop33
280
     0
102
RTVSPost2010PropOp33
 70
     1
102
RTVSPost2010Prop34
280
     0
102
RTVSPost2010PropOp34
 70
     1
102
RTVSPost2010Prop35
280
     0
102
RTVSPost2010PropOp35
 70
     1
102
RTVSPost2010Prop36
280
     0
102
RTVSPost2010PropOp36
 70
     1
102
RTVSPost2010Prop37
 90
       50
102
RTVSPost2010PropOp37
 70
     1
102
RTVSPost2010Prop38
140
0.0
102
RTVSPost2010PropOp38
 70
     1
102
RTVSPost2010Prop39
140
1.0
102
RTVSPost2010PropOp39
 70
     1
102
RTVSPost2010Prop40
 90
        0
102
RTVSPost2010PropOp40
 70
     1
102
RTVSPost2010Prop41ColorIndex
 90
       18
102
RTVSPost2010Prop41ColorRGB
 90
        0
102
RTVSPost2010PropOp41
 70
     1
102
RTVSPost2010Prop42
 90
       50
102
RTVSPost2010PropOp42
 70
     1
102
RTVSPost2010Prop43
 90
        3
102
RTVSPost2010PropOp43
 70
     1
102
RTVSPost2010Prop44ColorIndex
 90
        5
102
RTVSPost2010Prop44ColorRGB
 90
      255
102
RTVSPost2010PropOp44
 70
     1
102
RTVSPost2010Prop45
280
     0
102
RTVSPost2010PropOp45
 70
     1
102
RTVSPost2010Prop46
 90
       50
102
RTVSPost2010PropOp46
 70
     1
102
RTVSPost2010Prop47
 90
       50
102
RTVSPost2010PropOp47
 70
     1
102
RTVSPost2010Prop48
 90
       50
102
RTVSPost2010PropOp48
 70
     1
102
RTVSPost2010Prop49
280
     0
102
RTVSPost2010PropOp49
 70
     1
102
RTVSPost2010Prop50
 90
       50
102
RTVSPost2010PropOp50
 70
     1
102
RTVSPost2010Prop51ColorIndex
 90
      256
102
RTVSPost2010Prop51ColorRGB
 90
-16777216
102
RTVSPost2010PropOp51
 70
     0
102
RTVSPost2010Prop52
140
1.0
102
RTVSPost2010PropOp52
 70
     0
102
RTVSPost2010Prop53
 90
        2
102
RTVSPost2010PropOp53
 70
     1
102
RTVSPost2010Prop54
  1
strokes_ogs.tif
102
RTVSPost2010PropOp54
 70
     1
102
RTVSPost2010Prop55
280
     0
102
RTVSPost2010PropOp55
 70
     1
102
RTVSPost2010Prop56
140
1.0
102
RTVSPost2010PropOp56
 70
     1
102
RTVSPost2010Prop57
140
1.0
102
RTVSPost2010PropOp57
 70
     1
102
RTVSPropertyOp0
 70
     1
102
RTVSPropertyOp1
 70
     1
102
RTVSPropertyOp2
 70
     1
102
RTVSPropertyOp3
 70
     1
102
RTVSPropertyOp4
 70
     1
102
RTVSPropertyOp5
 70
     1
102
RTVSPropertyOp6
 70
     1
102
RTVSPropertyOp7
 70
     1
102
RTVSPropertyOp8
 70
     1
102
RTVSPropertyOp9
 70
     1
102
RTVSPropertyOp10
 70
     1
102
RTVSPropertyOp11
 70
     1
102
RTVSPropertyOp12
 70
     1
102
RTVSPropertyOp13
 70
     1
102
RTVSPropertyOp14
 70
     1
102
RTVSPropertyOp15
 70
     1
102
RTVSPropertyOp16
 70
     1
102
RTVSPropertyOp17
 70
     1
102
RTVSPropertyOp18
 70
     1
102
RTVSPropertyOp19
 70
     1
102
RTVSPropertyOp20
 70
     1
102
RTVSPropertyOp21
 70
     1
102
RTVSPropertyOp22
 70
     1
102
RTVSPropertyOp23
 70
     1
102
RTVSPropertyOp24
 70
     1
102
RTVSPropertyOp25
 70
     1
102
RTVSPropertyOp26
 70
     1
102
RTVSPropertyOp27
 70
     1
102
RTVSPropertyOp28
 70
     1
102
RTVSPropertyOp29
 70
     1
102
RTVSPropertyOp30
 70
     1
102
RTVSPropertyOp31
 70
     1
102
RTVSPropertyOp32
 70
     1
102
RTVSPropertyOp33
 70
     1
102
RTVSPropertyOp34
 70
     1
102
RTVSPropertyOp35
 70
     1
102
RTVSPropertyOp36
 70
     1
102
RTVSPropertyOp37
 70
     1
102
RTVSPropertyOp38
 70
     1
102
RTVSPropertyOp39
 70
     1
102
RTVSPropertyOp40
 70
     1
102
RTVSPropertyOp41
 70
     1
102
RTVSPropertyOp42
 70
     1
102
RTVSPropertyOp43
 70
     1
102
RTVSPropertyOp44
 70
     1
102
RTVSPropertyOp45
 70
     1
102
RTVSPropertyOp46
 70
     1
102
RTVSPropertyOp47
 70
     1
102
RTVSPropertyOp48
 70
     1
102
RTVSPropertyOp49
 70
     1
102
RTVSPropertyOp50
 70
     1
102
RTVSPropertyOp51
 70
     0
102
RTVSPropertyOp52
 70
     0
102
RTVSPropertyOp53
 70
     1
102
RTVSPropertyOp54
 70
     1
102
RTVSPropertyOp55
 70
     1
102
RTVSPropertyOp56
 70
     1
102
RTVSPropertyOp57
 70
     1
102
RTVSPropertyOp58
 70
     1
102
RTVSPropertyOp59
 70
     1
102
RTVSPropertyOp60
 70
     1
102
RTVSPropertyOp61
 70
     1
102
RTVSPropertyOp62
 70
     1
  0
XRECORD
  5
3A7
102
{ACAD_REACTORS
330
3A6
102
}
330
3A6
100
AcDbXrecord
280
     1
102
RTVSPost2010Prop28
280
     0
102
RTVSPost2010PropOp28
 70
     1
102
RTVSPost2010Prop29
280
     1
102
RTVSPost2010PropOp29
 70
     1
102
RTVSPost2010Prop30
280
     1
102
RTVSPost2010PropOp30
 70
     1
102
RTVSPost2010Prop31
280
     0
102
RTVSPost2010PropOp31
 70
     1
102
RTVSPost2010Prop32
280
     0
102
RTVSPost2010PropOp32
 70
     1
102
RTVSPost2010Prop33
280
     0
102
RTVSPost2010PropOp33
 70
     1
102
RTVSPost2010Prop34
280
     0
102
RTVSPost2010PropOp34
 70
     1
102
RTVSPost2010Prop35
280
     0
102
RTVSPost2010PropOp35
 70
     1
102
RTVSPost2010Prop36
280
     0
102
RTVSPost2010PropOp36
 70
     1
102
RTVSPost2010Prop37
 90
       50
102
RTVSPost2010PropOp37
 70
     1
102
RTVSPost2010Prop38
140
0.0
102
RTVSPost2010PropOp38
 70
     1
102
RTVSPost2010Prop39
140
1.0
102
RTVSPost2010PropOp39
 70
     1
102
RTVSPost2010Prop40
 90
        0
102
RTVSPost2010PropOp40
 70
     1
102
RTVSPost2010Prop41ColorIndex
 90
       18
102
RTVSPost2010Prop41ColorRGB
 90
        0
102
RTVSPost2010PropOp41
 70
     1
102
RTVSPost2010Prop42
 90
       50
102
RTVSPost2010PropOp42
 70
     1
102
RTVSPost2010Prop43
 90
        3
102
RTVSPost2010PropOp43
 70
     1
102
RTVSPost2010Prop44ColorIndex
 90
        5
102
RTVSPost2010Prop44ColorRGB
 90
      255
102
RTVSPost2010PropOp44
 70
     1
102
RTVSPost2010Prop45
280
     0
102
RTVSPost2010PropOp45
 70
     1
102
RTVSPost2010Prop46
 90
       50
102
RTVSPost2010PropOp46
 70
     1
102
RTVSPost2010Prop47
 90
       50
102
RTVSPost2010PropOp47
 70
     1
102
RTVSPost2010Prop48
 90
       50
102
RTVSPost2010PropOp48
 70
     1
102
RTVSPost2010Prop49
280
     0
102
RTVSPost2010PropOp49
 70
     1
102
RTVSPost2010Prop50
 90
       50
102
RTVSPost2010PropOp50
 70
     1
102
RTVSPost2010Prop51ColorIndex
 90
      256
102
RTVSPost2010Prop51ColorRGB
 90
-16777216
102
RTVSPost2010PropOp51
 70
     0
102
RTVSPost2010Prop52
140
1.0
102
RTVSPost2010PropOp52
 70
     0
102
RTVSPost2010Prop53
 90
        2
102
RTVSPost2010PropOp53
 70
     1
102
RTVSPost2010Prop54
  1
strokes_ogs.tif
102
RTVSPost2010PropOp54
 70
     1
102
RTVSPost2010Prop55
280
     0
102
RTVSPost2010PropOp55
 70
     1
102
RTVSPost2010Prop56
140
1.0
102
RTVSPost2010PropOp56
 70
     1
102
RTVSPost2010Prop57
140
1.0
102
RTVSPost2010PropOp57
 70
     1
102
RTVSPropertyOp0
 70
     1
102
RTVSPropertyOp1
 70
     1
102
RTVSPropertyOp2
 70
     1
102
RTVSPropertyOp3
 70
     1
102
RTVSPropertyOp4
 70
     1
102
RTVSPropertyOp5
 70
     1
102
RTVSPropertyOp6
 70
     1
102
RTVSPropertyOp7
 70
     1
102
RTVSPropertyOp8
 70
     1
102
RTVSPropertyOp9
 70
     1
102
RTVSPropertyOp10
 70
     1
102
RTVSPropertyOp11
 70
     1
102
RTVSPropertyOp12
 70
     1
102
RTVSPropertyOp13
 70
     1
102
RTVSPropertyOp14
 70
     1
102
RTVSPropertyOp15
 70
     1
102
RTVSPropertyOp16
 70
     1
102
RTVSPropertyOp17
 70
     1
102
RTVSPropertyOp18
 70
     1
102
RTVSPropertyOp19
 70
     1
102
RTVSPropertyOp20
 70
     1
102
RTVSPropertyOp21
 70
     1
102
RTVSPropertyOp22
 70
     1
102
RTVSPropertyOp23
 70
     1
102
RTVSPropertyOp24
 70
     1
102
RTVSPropertyOp25
 70
     1
102
RTVSPropertyOp26
 70
     1
102
RTVSPropertyOp27
 70
     1
102
RTVSPropertyOp28
 70
     1
102
RTVSPropertyOp29
 70
     1
102
RTVSPropertyOp30
 70
     1
102
RTVSPropertyOp31
 70
     1
102
RTVSPropertyOp32
 70
     1
102
RTVSPropertyOp33
 70
     1
102
RTVSPropertyOp34
 70
     1
102
RTVSPropertyOp35
 70
     1
102
RTVSPropertyOp36
 70
     1
102
RTVSPropertyOp37
 70
     1
102
RTVSPropertyOp38
 70
     1
102
RTVSPropertyOp39
 70
     1
102
RTVSPropertyOp40
 70
     1
102
RTVSPropertyOp41
 70
     1
102
RTVSPropertyOp42
 70
     1
102
RTVSPropertyOp43
 70
     1
102
RTVSPropertyOp44
 70
     1
102
RTVSPropertyOp45
 70
     1
102
RTVSPropertyOp46
 70
     1
102
RTVSPropertyOp47
 70
     1
102
RTVSPropertyOp48
 70
     1
102
RTVSPropertyOp49
 70
     1
102
RTVSPropertyOp50
 70
     1
102
RTVSPropertyOp51
 70
     0
102
RTVSPropertyOp52
 70
     0
102
RTVSPropertyOp53
 70
     1
102
RTVSPropertyOp54
 70
     1
102
RTVSPropertyOp55
 70
     1
102
RTVSPropertyOp56
 70
     1
102
RTVSPropertyOp57
 70
     1
102
RTVSPropertyOp58
 70
     1
102
RTVSPropertyOp59
 70
     1
102
RTVSPropertyOp60
 70
     1
102
RTVSPropertyOp61
 70
     1
102
RTVSPropertyOp62
 70
     1
  0
XRECORD
  5
3C1
102
{ACAD_REACTORS
330
3C0
102
}
330
3C0
100
AcDbXrecord
280
     1
102
RTVSPost2010Prop28
280
     0
102
RTVSPost2010PropOp28
 70
     0
102
RTVSPost2010Prop29
280
     1
102
RTVSPost2010PropOp29
 70
     0
102
RTVSPost2010Prop30
280
     1
102
RTVSPost2010PropOp30
 70
     0
102
RTVSPost2010Prop31
280
     0
102
RTVSPost2010PropOp31
 70
     0
102
RTVSPost2010Prop32
280
     0
102
RTVSPost2010PropOp32
 70
     0
102
RTVSPost2010Prop33
280
     0
102
RTVSPost2010PropOp33
 70
     0
102
RTVSPost2010Prop34
280
     0
102
RTVSPost2010PropOp34
 70
     0
102
RTVSPost2010Prop35
280
     0
102
RTVSPost2010PropOp35
 70
     0
102
RTVSPost2010Prop36
280
     0
102
RTVSPost2010PropOp36
 70
     0
102
RTVSPost2010Prop37
 90
       50
102
RTVSPost2010PropOp37
 70
     0
102
RTVSPost2010Prop38
140
0.0
102
RTVSPost2010PropOp38
 70
     0
102
RTVSPost2010Prop39
140
1.0
102
RTVSPost2010PropOp39
 70
     0
102
RTVSPost2010Prop40
 90
        0
102
RTVSPost2010PropOp40
 70
     0
102
RTVSPost2010Prop41ColorIndex
 90
       18
102
RTVSPost2010Prop41ColorRGB
 90
        0
102
RTVSPost2010PropOp41
 70
     0
102
RTVSPost2010Prop42
 90
       50
102
RTVSPost2010PropOp42
 70
     0
102
RTVSPost2010Prop43
 90
        3
102
RTVSPost2010PropOp43
 70
     0
102
RTVSPost2010Prop44ColorIndex
 90
        5
102
RTVSPost2010Prop44ColorRGB
 90
      255
102
RTVSPost2010PropOp44
 70
     0
102
RTVSPost2010Prop45
280
     0
102
RTVSPost2010PropOp45
 70
     0
102
RTVSPost2010Prop46
 90
       50
102
RTVSPost2010PropOp46
 70
     0
102
RTVSPost2010Prop47
 90
       50
102
RTVSPost2010PropOp47
 70
     0
102
RTVSPost2010Prop48
 90
       50
102
RTVSPost2010PropOp48
 70
     0
102
RTVSPost2010Prop49
280
     0
102
RTVSPost2010PropOp49
 70
     0
102
RTVSPost2010Prop50
 90
       50
102
RTVSPost2010PropOp50
 70
     0
102
RTVSPost2010Prop51ColorIndex
 90
      256
102
RTVSPost2010Prop51ColorRGB
 90
-16777216
102
RTVSPost2010PropOp51
 70
     0
102
RTVSPost2010Prop52
140
1.0
102
RTVSPost2010PropOp52
 70
     0
102
RTVSPost2010Prop53
 90
        2
102
RTVSPost2010PropOp53
 70
     0
102
RTVSPost2010Prop54
  1
strokes_ogs.tif
102
RTVSPost2010PropOp54
 70
     0
102
RTVSPost2010Prop55
280
     0
102
RTVSPost2010PropOp55
 70
     0
102
RTVSPost2010Prop56
140
1.0
102
RTVSPost2010PropOp56
 70
     0
102
RTVSPost2010Prop57
140
1.0
102
RTVSPost2010PropOp57
 70
     0
102
RTVSPropertyOp0
 70
     0
102
RTVSPropertyOp1
 70
     0
102
RTVSPropertyOp2
 70
     0
102
RTVSPropertyOp3
 70
     0
102
RTVSPropertyOp4
 70
     0
102
RTVSPropertyOp5
 70
     0
102
RTVSPropertyOp6
 70
     0
102
RTVSPropertyOp7
 70
     0
102
RTVSPropertyOp8
 70
     0
102
RTVSPropertyOp9
 70
     0
102
RTVSPropertyOp10
 70
     0
102
RTVSPropertyOp11
 70
     0
102
RTVSPropertyOp12
 70
     0
102
RTVSPropertyOp13
 70
     0
102
RTVSPropertyOp14
 70
     2
102
RTVSPropertyOp15
 70
     0
102
RTVSPropertyOp16
 70
     0
102
RTVSPropertyOp17
 70
     0
102
RTVSPropertyOp18
 70
     0
102
RTVSPropertyOp19
 70
     0
102
RTVSPropertyOp20
 70
     0
102
RTVSPropertyOp21
 70
     0
102
RTVSPropertyOp22
 70
     0
102
RTVSPropertyOp23
 70
     0
102
RTVSPropertyOp24
 70
     0
102
RTVSPropertyOp25
 70
     0
102
RTVSPropertyOp26
 70
     0
102
RTVSPropertyOp27
 70
     0
102
RTVSPropertyOp28
 70
     0
102
RTVSPropertyOp29
 70
     0
102
RTVSPropertyOp30
 70
     0
102
RTVSPropertyOp31
 70
     0
102
RTVSPropertyOp32
 70
     0
102
RTVSPropertyOp33
 70
     0
102
RTVSPropertyOp34
 70
     0
102
RTVSPropertyOp35
 70
     0
102
RTVSPropertyOp36
 70
     0
102
RTVSPropertyOp37
 70
     0
102
RTVSPropertyOp38
 70
     0
102
RTVSPropertyOp39
 70
     0
102
RTVSPropertyOp40
 70
     0
102
RTVSPropertyOp41
 70
     0
102
RTVSPropertyOp42
 70
     0
102
RTVSPropertyOp43
 70
     0
102
RTVSPropertyOp44
 70
     0
102
RTVSPropertyOp45
 70
     0
102
RTVSPropertyOp46
 70
     0
102
RTVSPropertyOp47
 70
     0
102
RTVSPropertyOp48
 70
     0
102
RTVSPropertyOp49
 70
     0
102
RTVSPropertyOp50
 70
     0
102
RTVSPropertyOp51
 70
     0
102
RTVSPropertyOp52
 70
     0
102
RTVSPropertyOp53
 70
     0
102
RTVSPropertyOp54
 70
     0
102
RTVSPropertyOp55
 70
     0
102
RTVSPropertyOp56
 70
     0
102
RTVSPropertyOp57
 70
     0
102
RTVSPropertyOp58
 70
     0
102
RTVSPropertyOp59
 70
     0
102
RTVSPropertyOp60
 70
     0
102
RTVSPropertyOp61
 70
     0
102
RTVSPropertyOp62
 70
     0
  0
XRECORD
  5
3AF
102
{ACAD_REACTORS
330
3AE
102
}
330
3AE
100
AcDbXrecord
280
     1
102
RTVSPost2010Prop28
280
     0
102
RTVSPost2010PropOp28
 70
     1
102
RTVSPost2010Prop29
280
     1
102
RTVSPost2010PropOp29
 70
     1
102
RTVSPost2010Prop30
280
     1
102
RTVSPost2010PropOp30
 70
     1
102
RTVSPost2010Prop31
280
     0
102
RTVSPost2010PropOp31
 70
     1
102
RTVSPost2010Prop32
280
     0
102
RTVSPost2010PropOp32
 70
     1
102
RTVSPost2010Prop33
280
     0
102
RTVSPost2010PropOp33
 70
     1
102
RTVSPost2010Prop34
280
     0
102
RTVSPost2010PropOp34
 70
     1
102
RTVSPost2010Prop35
280
     0
102
RTVSPost2010PropOp35
 70
     1
102
RTVSPost2010Prop36
280
     0
102
RTVSPost2010PropOp36
 70
     1
102
RTVSPost2010Prop37
 90
       50
102
RTVSPost2010PropOp37
 70
     1
102
RTVSPost2010Prop38
140
0.0
102
RTVSPost2010PropOp38
 70
     1
102
RTVSPost2010Prop39
140
1.0
102
RTVSPost2010PropOp39
 70
     1
102
RTVSPost2010Prop40
 90
        0
102
RTVSPost2010PropOp40
 70
     1
102
RTVSPost2010Prop41ColorIndex
 90
       18
102
RTVSPost2010Prop41ColorRGB
 90
        0
102
RTVSPost2010PropOp41
 70
     1
102
RTVSPost2010Prop42
 90
       50
102
RTVSPost2010PropOp42
 70
     1
102
RTVSPost2010Prop43
 90
        3
102
RTVSPost2010PropOp43
 70
     1
102
RTVSPost2010Prop44ColorIndex
 90
        5
102
RTVSPost2010Prop44ColorRGB
 90
      255
102
RTVSPost2010PropOp44
 70
     1
102
RTVSPost2010Prop45
280
     0
102
RTVSPost2010PropOp45
 70
     1
102
RTVSPost2010Prop46
 90
       50
102
RTVSPost2010PropOp46
 70
     1
102
RTVSPost2010Prop47
 90
       50
102
RTVSPost2010PropOp47
 70
     1
102
RTVSPost2010Prop48
 90
       50
102
RTVSPost2010PropOp48
 70
     1
102
RTVSPost2010Prop49
280
     0
102
RTVSPost2010PropOp49
 70
     1
102
RTVSPost2010Prop50
 90
       50
102
RTVSPost2010PropOp50
 70
     1
102
RTVSPost2010Prop51ColorIndex
 90
      256
102
RTVSPost2010Prop51ColorRGB
 90
-16777216
102
RTVSPost2010PropOp51
 70
     0
102
RTVSPost2010Prop52
140
1.0
102
RTVSPost2010PropOp52
 70
     0
102
RTVSPost2010Prop53
 90
        2
102
RTVSPost2010PropOp53
 70
     1
102
RTVSPost2010Prop54
  1
strokes_ogs.tif
102
RTVSPost2010PropOp54
 70
     1
102
RTVSPost2010Prop55
280
     0
102
RTVSPost2010PropOp55
 70
     1
102
RTVSPost2010Prop56
140
1.0
102
RTVSPost2010PropOp56
 70
     1
102
RTVSPost2010Prop57
140
1.0
102
RTVSPost2010PropOp57
 70
     1
102
RTVSPropertyOp0
 70
     1
102
RTVSPropertyOp1
 70
     1
102
RTVSPropertyOp2
 70
     1
102
RTVSPropertyOp3
 70
     1
102
RTVSPropertyOp4
 70
     1
102
RTVSPropertyOp5
 70
     1
102
RTVSPropertyOp6
 70
     1
102
RTVSPropertyOp7
 70
     1
102
RTVSPropertyOp8
 70
     1
102
RTVSPropertyOp9
 70
     1
102
RTVSPropertyOp10
 70
     1
102
RTVSPropertyOp11
 70
     1
102
RTVSPropertyOp12
 70
     1
102
RTVSPropertyOp13
 70
     1
102
RTVSPropertyOp14
 70
     1
102
RTVSPropertyOp15
 70
     1
102
RTVSPropertyOp16
 70
     1
102
RTVSPropertyOp17
 70
     1
102
RTVSPropertyOp18
 70
     1
102
RTVSPropertyOp19
 70
     1
102
RTVSPropertyOp20
 70
     1
102
RTVSPropertyOp21
 70
     1
102
RTVSPropertyOp22
 70
     1
102
RTVSPropertyOp23
 70
     1
102
RTVSPropertyOp24
 70
     1
102
RTVSPropertyOp25
 70
     1
102
RTVSPropertyOp26
 70
     1
102
RTVSPropertyOp27
 70
     1
102
RTVSPropertyOp28
 70
     1
102
RTVSPropertyOp29
 70
     1
102
RTVSPropertyOp30
 70
     1
102
RTVSPropertyOp31
 70
     1
102
RTVSPropertyOp32
 70
     1
102
RTVSPropertyOp33
 70
     1
102
RTVSPropertyOp34
 70
     1
102
RTVSPropertyOp35
 70
     1
102
RTVSPropertyOp36
 70
     1
102
RTVSPropertyOp37
 70
     1
102
RTVSPropertyOp38
 70
     1
102
RTVSPropertyOp39
 70
     1
102
RTVSPropertyOp40
 70
     1
102
RTVSPropertyOp41
 70
     1
102
RTVSPropertyOp42
 70
     1
102
RTVSPropertyOp43
 70
     1
102
RTVSPropertyOp44
 70
     1
102
RTVSPropertyOp45
 70
     1
102
RTVSPropertyOp46
 70
     1
102
RTVSPropertyOp47
 70
     1
102
RTVSPropertyOp48
 70
     1
102
RTVSPropertyOp49
 70
     1
102
RTVSPropertyOp50
 70
     1
102
RTVSPropertyOp51
 70
     0
102
RTVSPropertyOp52
 70
     0
102
RTVSPropertyOp53
 70
     1
102
RTVSPropertyOp54
 70
     1
102
RTVSPropertyOp55
 70
     1
102
RTVSPropertyOp56
 70
     1
102
RTVSPropertyOp57
 70
     1
102
RTVSPropertyOp58
 70
     1
102
RTVSPropertyOp59
 70
     1
102
RTVSPropertyOp60
 70
     1
102
RTVSPropertyOp61
 70
     1
102
RTVSPropertyOp62
 70
     1
  0
XRECORD
  5
393
102
{ACAD_REACTORS
330
392
102
}
330
392
100
AcDbXrecord
280
     1
102
RTVSPost2010Prop28
280
     0
102
RTVSPost2010PropOp28
 70
     1
102
RTVSPost2010Prop29
280
     1
102
RTVSPost2010PropOp29
 70
     1
102
RTVSPost2010Prop30
280
     1
102
RTVSPost2010PropOp30
 70
     1
102
RTVSPost2010Prop31
280
     0
102
RTVSPost2010PropOp31
 70
     1
102
RTVSPost2010Prop32
280
     0
102
RTVSPost2010PropOp32
 70
     1
102
RTVSPost2010Prop33
280
     0
102
RTVSPost2010PropOp33
 70
     1
102
RTVSPost2010Prop34
280
     0
102
RTVSPost2010PropOp34
 70
     1
102
RTVSPost2010Prop35
280
     0
102
RTVSPost2010PropOp35
 70
     1
102
RTVSPost2010Prop36
280
     0
102
RTVSPost2010PropOp36
 70
     1
102
RTVSPost2010Prop37
 90
       50
102
RTVSPost2010PropOp37
 70
     1
102
RTVSPost2010Prop38
140
0.0
102
RTVSPost2010PropOp38
 70
     1
102
RTVSPost2010Prop39
140
1.0
102
RTVSPost2010PropOp39
 70
     1
102
RTVSPost2010Prop40
 90
        0
102
RTVSPost2010PropOp40
 70
     1
102
RTVSPost2010Prop41ColorIndex
 90
       18
102
RTVSPost2010Prop41ColorRGB
 90
        0
102
RTVSPost2010PropOp41
 70
     1
102
RTVSPost2010Prop42
 90
       50
102
RTVSPost2010PropOp42
 70
     1
102
RTVSPost2010Prop43
 90
        3
102
RTVSPost2010PropOp43
 70
     1
102
RTVSPost2010Prop44ColorIndex
 90
        5
102
RTVSPost2010Prop44ColorRGB
 90
      255
102
RTVSPost2010PropOp44
 70
     1
102
RTVSPost2010Prop45
280
     0
102
RTVSPost2010PropOp45
 70
     1
102
RTVSPost2010Prop46
 90
       50
102
RTVSPost2010PropOp46
 70
     1
102
RTVSPost2010Prop47
 90
       50
102
RTVSPost2010PropOp47
 70
     1
102
RTVSPost2010Prop48
 90
       50
102
RTVSPost2010PropOp48
 70
     1
102
RTVSPost2010Prop49
280
     0
102
RTVSPost2010PropOp49
 70
     1
102
RTVSPost2010Prop50
 90
       50
102
RTVSPost2010PropOp50
 70
     1
102
RTVSPost2010Prop51ColorIndex
 90
      256
102
RTVSPost2010Prop51ColorRGB
 90
-16777216
102
RTVSPost2010PropOp51
 70
     0
102
RTVSPost2010Prop52
140
1.0
102
RTVSPost2010PropOp52
 70
     0
102
RTVSPost2010Prop53
 90
        2
102
RTVSPost2010PropOp53
 70
     1
102
RTVSPost2010Prop54
  1
strokes_ogs.tif
102
RTVSPost2010PropOp54
 70
     1
102
RTVSPost2010Prop55
280
     0
102
RTVSPost2010PropOp55
 70
     1
102
RTVSPost2010Prop56
140
1.0
102
RTVSPost2010PropOp56
 70
     1
102
RTVSPost2010Prop57
140
1.0
102
RTVSPost2010PropOp57
 70
     1
102
RTVSPropertyOp0
 70
     1
102
RTVSPropertyOp1
 70
     1
102
RTVSPropertyOp2
 70
     1
102
RTVSPropertyOp3
 70
     1
102
RTVSPropertyOp4
 70
     1
102
RTVSPropertyOp5
 70
     1
102
RTVSPropertyOp6
 70
     1
102
RTVSPropertyOp7
 70
     1
102
RTVSPropertyOp8
 70
     1
102
RTVSPropertyOp9
 70
     1
102
RTVSPropertyOp10
 70
     1
102
RTVSPropertyOp11
 70
     1
102
RTVSPropertyOp12
 70
     1
102
RTVSPropertyOp13
 70
     1
102
RTVSPropertyOp14
 70
     1
102
RTVSPropertyOp15
 70
     1
102
RTVSPropertyOp16
 70
     1
102
RTVSPropertyOp17
 70
     1
102
RTVSPropertyOp18
 70
     1
102
RTVSPropertyOp19
 70
     1
102
RTVSPropertyOp20
 70
     1
102
RTVSPropertyOp21
 70
     1
102
RTVSPropertyOp22
 70
     1
102
RTVSPropertyOp23
 70
     1
102
RTVSPropertyOp24
 70
     1
102
RTVSPropertyOp25
 70
     1
102
RTVSPropertyOp26
 70
     1
102
RTVSPropertyOp27
 70
     1
102
RTVSPropertyOp28
 70
     1
102
RTVSPropertyOp29
 70
     1
102
RTVSPropertyOp30
 70
     1
102
RTVSPropertyOp31
 70
     1
102
RTVSPropertyOp32
 70
     1
102
RTVSPropertyOp33
 70
     1
102
RTVSPropertyOp34
 70
     1
102
RTVSPropertyOp35
 70
     1
102
RTVSPropertyOp36
 70
     1
102
RTVSPropertyOp37
 70
     1
102
RTVSPropertyOp38
 70
     1
102
RTVSPropertyOp39
 70
     1
102
RTVSPropertyOp40
 70
     1
102
RTVSPropertyOp41
 70
     1
102
RTVSPropertyOp42
 70
     1
102
RTVSPropertyOp43
 70
     1
102
RTVSPropertyOp44
 70
     1
102
RTVSPropertyOp45
 70
     1
102
RTVSPropertyOp46
 70
     1
102
RTVSPropertyOp47
 70
     1
102
RTVSPropertyOp48
 70
     1
102
RTVSPropertyOp49
 70
     1
102
RTVSPropertyOp50
 70
     1
102
RTVSPropertyOp51
 70
     0
102
RTVSPropertyOp52
 70
     0
102
RTVSPropertyOp53
 70
     1
102
RTVSPropertyOp54
 70
     1
102
RTVSPropertyOp55
 70
     1
102
RTVSPropertyOp56
 70
     1
102
RTVSPropertyOp57
 70
     1
102
RTVSPropertyOp58
 70
     1
102
RTVSPropertyOp59
 70
     1
102
RTVSPropertyOp60
 70
     1
102
RTVSPropertyOp61
 70
     1
102
RTVSPropertyOp62
 70
     1
  0
XRECORD
  5
395
102
{ACAD_REACTORS
330
394
102
}
330
394
100
AcDbXrecord
280
     1
102
RTVSPost2010Prop28
280
     0
102
RTVSPost2010PropOp28
 70
     1
102
RTVSPost2010Prop29
280
     1
102
RTVSPost2010PropOp29
 70
     1
102
RTVSPost2010Prop30
280
     1
102
RTVSPost2010PropOp30
 70
     1
102
RTVSPost2010Prop31
280
     0
102
RTVSPost2010PropOp31
 70
     1
102
RTVSPost2010Prop32
280
     0
102
RTVSPost2010PropOp32
 70
     1
102
RTVSPost2010Prop33
280
     0
102
RTVSPost2010PropOp33
 70
     1
102
RTVSPost2010Prop34
280
     0
102
RTVSPost2010PropOp34
 70
     1
102
RTVSPost2010Prop35
280
     0
102
RTVSPost2010PropOp35
 70
     1
102
RTVSPost2010Prop36
280
     0
102
RTVSPost2010PropOp36
 70
     1
102
RTVSPost2010Prop37
 90
       50
102
RTVSPost2010PropOp37
 70
     1
102
RTVSPost2010Prop38
140
0.0
102
RTVSPost2010PropOp38
 70
     1
102
RTVSPost2010Prop39
140
1.0
102
RTVSPost2010PropOp39
 70
     1
102
RTVSPost2010Prop40
 90
        0
102
RTVSPost2010PropOp40
 70
     1
102
RTVSPost2010Prop41ColorIndex
 90
       18
102
RTVSPost2010Prop41ColorRGB
 90
        0
102
RTVSPost2010PropOp41
 70
     1
102
RTVSPost2010Prop42
 90
       50
102
RTVSPost2010PropOp42
 70
     1
102
RTVSPost2010Prop43
 90
        3
102
RTVSPost2010PropOp43
 70
     1
102
RTVSPost2010Prop44ColorIndex
 90
        5
102
RTVSPost2010Prop44ColorRGB
 90
      255
102
RTVSPost2010PropOp44
 70
     1
102
RTVSPost2010Prop45
280
     0
102
RTVSPost2010PropOp45
 70
     1
102
RTVSPost2010Prop46
 90
       50
102
RTVSPost2010PropOp46
 70
     1
102
RTVSPost2010Prop47
 90
       50
102
RTVSPost2010PropOp47
 70
     1
102
RTVSPost2010Prop48
 90
       50
102
RTVSPost2010PropOp48
 70
     1
102
RTVSPost2010Prop49
280
     0
102
RTVSPost2010PropOp49
 70
     1
102
RTVSPost2010Prop50
 90
       50
102
RTVSPost2010PropOp50
 70
     1
102
RTVSPost2010Prop51ColorIndex
 90
      256
102
RTVSPost2010Prop51ColorRGB
 90
-16777216
102
RTVSPost2010PropOp51
 70
     0
102
RTVSPost2010Prop52
140
1.0
102
RTVSPost2010PropOp52
 70
     0
102
RTVSPost2010Prop53
 90
        2
102
RTVSPost2010PropOp53
 70
     1
102
RTVSPost2010Prop54
  1
strokes_ogs.tif
102
RTVSPost2010PropOp54
 70
     1
102
RTVSPost2010Prop55
280
     0
102
RTVSPost2010PropOp55
 70
     1
102
RTVSPost2010Prop56
140
1.0
102
RTVSPost2010PropOp56
 70
     1
102
RTVSPost2010Prop57
140
1.0
102
RTVSPost2010PropOp57
 70
     1
102
RTVSPropertyOp0
 70
     1
102
RTVSPropertyOp1
 70
     1
102
RTVSPropertyOp2
 70
     1
102
RTVSPropertyOp3
 70
     1
102
RTVSPropertyOp4
 70
     1
102
RTVSPropertyOp5
 70
     1
102
RTVSPropertyOp6
 70
     1
102
RTVSPropertyOp7
 70
     1
102
RTVSPropertyOp8
 70
     1
102
RTVSPropertyOp9
 70
     1
102
RTVSPropertyOp10
 70
     1
102
RTVSPropertyOp11
 70
     1
102
RTVSPropertyOp12
 70
     1
102
RTVSPropertyOp13
 70
     1
102
RTVSPropertyOp14
 70
     1
102
RTVSPropertyOp15
 70
     1
102
RTVSPropertyOp16
 70
     1
102
RTVSPropertyOp17
 70
     1
102
RTVSPropertyOp18
 70
     1
102
RTVSPropertyOp19
 70
     1
102
RTVSPropertyOp20
 70
     1
102
RTVSPropertyOp21
 70
     1
102
RTVSPropertyOp22
 70
     1
102
RTVSPropertyOp23
 70
     1
102
RTVSPropertyOp24
 70
     1
102
RTVSPropertyOp25
 70
     1
102
RTVSPropertyOp26
 70
     1
102
RTVSPropertyOp27
 70
     1
102
RTVSPropertyOp28
 70
     1
102
RTVSPropertyOp29
 70
     1
102
RTVSPropertyOp30
 70
     1
102
RTVSPropertyOp31
 70
     1
102
RTVSPropertyOp32
 70
     1
102
RTVSPropertyOp33
 70
     1
102
RTVSPropertyOp34
 70
     1
102
RTVSPropertyOp35
 70
     1
102
RTVSPropertyOp36
 70
     1
102
RTVSPropertyOp37
 70
     1
102
RTVSPropertyOp38
 70
     1
102
RTVSPropertyOp39
 70
     1
102
RTVSPropertyOp40
 70
     1
102
RTVSPropertyOp41
 70
     1
102
RTVSPropertyOp42
 70
     1
102
RTVSPropertyOp43
 70
     1
102
RTVSPropertyOp44
 70
     1
102
RTVSPropertyOp45
 70
     1
102
RTVSPropertyOp46
 70
     1
102
RTVSPropertyOp47
 70
     1
102
RTVSPropertyOp48
 70
     1
102
RTVSPropertyOp49
 70
     1
102
RTVSPropertyOp50
 70
     1
102
RTVSPropertyOp51
 70
     0
102
RTVSPropertyOp52
 70
     0
102
RTVSPropertyOp53
 70
     1
102
RTVSPropertyOp54
 70
     1
102
RTVSPropertyOp55
 70
     1
102
RTVSPropertyOp56
 70
     1
102
RTVSPropertyOp57
 70
     1
102
RTVSPropertyOp58
 70
     1
102
RTVSPropertyOp59
 70
     1
102
RTVSPropertyOp60
 70
     1
102
RTVSPropertyOp61
 70
     1
102
RTVSPropertyOp62
 70
     1
  0
XRECORD
  5
397
102
{ACAD_REACTORS
330
396
102
}
330
396
100
AcDbXrecord
280
     1
102
RTVSPost2010Prop28
280
     0
102
RTVSPost2010PropOp28
 70
     1
102
RTVSPost2010Prop29
280
     1
102
RTVSPost2010PropOp29
 70
     1
102
RTVSPost2010Prop30
280
     1
102
RTVSPost2010PropOp30
 70
     1
102
RTVSPost2010Prop31
280
     0
102
RTVSPost2010PropOp31
 70
     1
102
RTVSPost2010Prop32
280
     0
102
RTVSPost2010PropOp32
 70
     1
102
RTVSPost2010Prop33
280
     0
102
RTVSPost2010PropOp33
 70
     1
102
RTVSPost2010Prop34
280
     0
102
RTVSPost2010PropOp34
 70
     1
102
RTVSPost2010Prop35
280
     0
102
RTVSPost2010PropOp35
 70
     1
102
RTVSPost2010Prop36
280
     0
102
RTVSPost2010PropOp36
 70
     1
102
RTVSPost2010Prop37
 90
       50
102
RTVSPost2010PropOp37
 70
     1
102
RTVSPost2010Prop38
140
0.0
102
RTVSPost2010PropOp38
 70
     1
102
RTVSPost2010Prop39
140
1.0
102
RTVSPost2010PropOp39
 70
     1
102
RTVSPost2010Prop40
 90
        0
102
RTVSPost2010PropOp40
 70
     1
102
RTVSPost2010Prop41ColorIndex
 90
       18
102
RTVSPost2010Prop41ColorRGB
 90
        0
102
RTVSPost2010PropOp41
 70
     1
102
RTVSPost2010Prop42
 90
       50
102
RTVSPost2010PropOp42
 70
     1
102
RTVSPost2010Prop43
 90
        3
102
RTVSPost2010PropOp43
 70
     1
102
RTVSPost2010Prop44ColorIndex
 90
        5
102
RTVSPost2010Prop44ColorRGB
 90
      255
102
RTVSPost2010PropOp44
 70
     1
102
RTVSPost2010Prop45
280
     0
102
RTVSPost2010PropOp45
 70
     1
102
RTVSPost2010Prop46
 90
       50
102
RTVSPost2010PropOp46
 70
     1
102
RTVSPost2010Prop47
 90
       50
102
RTVSPost2010PropOp47
 70
     1
102
RTVSPost2010Prop48
 90
       50
102
RTVSPost2010PropOp48
 70
     1
102
RTVSPost2010Prop49
280
     0
102
RTVSPost2010PropOp49
 70
     1
102
RTVSPost2010Prop50
 90
       50
102
RTVSPost2010PropOp50
 70
     1
102
RTVSPost2010Prop51ColorIndex
 90
      256
102
RTVSPost2010Prop51ColorRGB
 90
-16777216
102
RTVSPost2010PropOp51
 70
     0
102
RTVSPost2010Prop52
140
1.0
102
RTVSPost2010PropOp52
 70
     0
102
RTVSPost2010Prop53
 90
        2
102
RTVSPost2010PropOp53
 70
     1
102
RTVSPost2010Prop54
  1
strokes_ogs.tif
102
RTVSPost2010PropOp54
 70
     1
102
RTVSPost2010Prop55
280
     0
102
RTVSPost2010PropOp55
 70
     1
102
RTVSPost2010Prop56
140
1.0
102
RTVSPost2010PropOp56
 70
     1
102
RTVSPost2010Prop57
140
1.0
102
RTVSPost2010PropOp57
 70
     1
102
RTVSPropertyOp0
 70
     1
102
RTVSPropertyOp1
 70
     1
102
RTVSPropertyOp2
 70
     1
102
RTVSPropertyOp3
 70
     1
102
RTVSPropertyOp4
 70
     1
102
RTVSPropertyOp5
 70
     1
102
RTVSPropertyOp6
 70
     1
102
RTVSPropertyOp7
 70
     1
102
RTVSPropertyOp8
 70
     1
102
RTVSPropertyOp9
 70
     1
102
RTVSPropertyOp10
 70
     1
102
RTVSPropertyOp11
 70
     1
102
RTVSPropertyOp12
 70
     1
102
RTVSPropertyOp13
 70
     1
102
RTVSPropertyOp14
 70
     1
102
RTVSPropertyOp15
 70
     1
102
RTVSPropertyOp16
 70
     1
102
RTVSPropertyOp17
 70
     1
102
RTVSPropertyOp18
 70
     1
102
RTVSPropertyOp19
 70
     1
102
RTVSPropertyOp20
 70
     1
102
RTVSPropertyOp21
 70
     1
102
RTVSPropertyOp22
 70
     1
102
RTVSPropertyOp23
 70
     1
102
RTVSPropertyOp24
 70
     1
102
RTVSPropertyOp25
 70
     1
102
RTVSPropertyOp26
 70
     1
102
RTVSPropertyOp27
 70
     1
102
RTVSPropertyOp28
 70
     1
102
RTVSPropertyOp29
 70
     1
102
RTVSPropertyOp30
 70
     1
102
RTVSPropertyOp31
 70
     1
102
RTVSPropertyOp32
 70
     1
102
RTVSPropertyOp33
 70
     1
102
RTVSPropertyOp34
 70
     1
102
RTVSPropertyOp35
 70
     1
102
RTVSPropertyOp36
 70
     1
102
RTVSPropertyOp37
 70
     1
102
RTVSPropertyOp38
 70
     1
102
RTVSPropertyOp39
 70
     1
102
RTVSPropertyOp40
 70
     1
102
RTVSPropertyOp41
 70
     1
102
RTVSPropertyOp42
 70
     1
102
RTVSPropertyOp43
 70
     1
102
RTVSPropertyOp44
 70
     1
102
RTVSPropertyOp45
 70
     1
102
RTVSPropertyOp46
 70
     1
102
RTVSPropertyOp47
 70
     1
102
RTVSPropertyOp48
 70
     1
102
RTVSPropertyOp49
 70
     1
102
RTVSPropertyOp50
 70
     1
102
RTVSPropertyOp51
 70
     0
102
RTVSPropertyOp52
 70
     0
102
RTVSPropertyOp53
 70
     1
102
RTVSPropertyOp54
 70
     1
102
RTVSPropertyOp55
 70
     1
102
RTVSPropertyOp56
 70
     1
102
RTVSPropertyOp57
 70
     1
102
RTVSPropertyOp58
 70
     1
102
RTVSPropertyOp59
 70
     1
102
RTVSPropertyOp60
 70
     1
102
RTVSPropertyOp61
 70
     1
102
RTVSPropertyOp62
 70
     1
  0
XRECORD
  5
399
102
{ACAD_REACTORS
330
398
102
}
330
398
100
AcDbXrecord
280
     1
102
RTVSPost2010Prop28
280
     0
102
RTVSPost2010PropOp28
 70
     1
102
RTVSPost2010Prop29
280
     1
102
RTVSPost2010PropOp29
 70
     1
102
RTVSPost2010Prop30
280
     1
102
RTVSPost2010PropOp30
 70
     1
102
RTVSPost2010Prop31
280
     0
102
RTVSPost2010PropOp31
 70
     1
102
RTVSPost2010Prop32
280
     0
102
RTVSPost2010PropOp32
 70
     1
102
RTVSPost2010Prop33
280
     0
102
RTVSPost2010PropOp33
 70
     1
102
RTVSPost2010Prop34
280
     0
102
RTVSPost2010PropOp34
 70
     1
102
RTVSPost2010Prop35
280
     0
102
RTVSPost2010PropOp35
 70
     1
102
RTVSPost2010Prop36
280
     0
102
RTVSPost2010PropOp36
 70
     1
102
RTVSPost2010Prop37
 90
       50
102
RTVSPost2010PropOp37
 70
     1
102
RTVSPost2010Prop38
140
0.0
102
RTVSPost2010PropOp38
 70
     1
102
RTVSPost2010Prop39
140
1.0
102
RTVSPost2010PropOp39
 70
     1
102
RTVSPost2010Prop40
 90
        0
102
RTVSPost2010PropOp40
 70
     1
102
RTVSPost2010Prop41ColorIndex
 90
       18
102
RTVSPost2010Prop41ColorRGB
 90
        0
102
RTVSPost2010PropOp41
 70
     1
102
RTVSPost2010Prop42
 90
       50
102
RTVSPost2010PropOp42
 70
     1
102
RTVSPost2010Prop43
 90
        3
102
RTVSPost2010PropOp43
 70
     1
102
RTVSPost2010Prop44ColorIndex
 90
        5
102
RTVSPost2010Prop44ColorRGB
 90
      255
102
RTVSPost2010PropOp44
 70
     1
102
RTVSPost2010Prop45
280
     0
102
RTVSPost2010PropOp45
 70
     1
102
RTVSPost2010Prop46
 90
       50
102
RTVSPost2010PropOp46
 70
     1
102
RTVSPost2010Prop47
 90
       50
102
RTVSPost2010PropOp47
 70
     1
102
RTVSPost2010Prop48
 90
       50
102
RTVSPost2010PropOp48
 70
     1
102
RTVSPost2010Prop49
280
     0
102
RTVSPost2010PropOp49
 70
     1
102
RTVSPost2010Prop50
 90
       50
102
RTVSPost2010PropOp50
 70
     1
102
RTVSPost2010Prop51ColorIndex
 90
      256
102
RTVSPost2010Prop51ColorRGB
 90
-16777216
102
RTVSPost2010PropOp51
 70
     0
102
RTVSPost2010Prop52
140
1.0
102
RTVSPost2010PropOp52
 70
     0
102
RTVSPost2010Prop53
 90
        2
102
RTVSPost2010PropOp53
 70
     1
102
RTVSPost2010Prop54
  1
strokes_ogs.tif
102
RTVSPost2010PropOp54
 70
     1
102
RTVSPost2010Prop55
280
     0
102
RTVSPost2010PropOp55
 70
     1
102
RTVSPost2010Prop56
140
1.0
102
RTVSPost2010PropOp56
 70
     1
102
RTVSPost2010Prop57
140
1.0
102
RTVSPost2010PropOp57
 70
     1
102
RTVSPropertyOp0
 70
     1
102
RTVSPropertyOp1
 70
     1
102
RTVSPropertyOp2
 70
     1
102
RTVSPropertyOp3
 70
     1
102
RTVSPropertyOp4
 70
     1
102
RTVSPropertyOp5
 70
     1
102
RTVSPropertyOp6
 70
     1
102
RTVSPropertyOp7
 70
     1
102
RTVSPropertyOp8
 70
     1
102
RTVSPropertyOp9
 70
     1
102
RTVSPropertyOp10
 70
     1
102
RTVSPropertyOp11
 70
     1
102
RTVSPropertyOp12
 70
     1
102
RTVSPropertyOp13
 70
     1
102
RTVSPropertyOp14
 70
     1
102
RTVSPropertyOp15
 70
     1
102
RTVSPropertyOp16
 70
     1
102
RTVSPropertyOp17
 70
     1
102
RTVSPropertyOp18
 70
     1
102
RTVSPropertyOp19
 70
     1
102
RTVSPropertyOp20
 70
     1
102
RTVSPropertyOp21
 70
     1
102
RTVSPropertyOp22
 70
     1
102
RTVSPropertyOp23
 70
     1
102
RTVSPropertyOp24
 70
     1
102
RTVSPropertyOp25
 70
     1
102
RTVSPropertyOp26
 70
     1
102
RTVSPropertyOp27
 70
     1
102
RTVSPropertyOp28
 70
     1
102
RTVSPropertyOp29
 70
     1
102
RTVSPropertyOp30
 70
     1
102
RTVSPropertyOp31
 70
     1
102
RTVSPropertyOp32
 70
     1
102
RTVSPropertyOp33
 70
     1
102
RTVSPropertyOp34
 70
     1
102
RTVSPropertyOp35
 70
     1
102
RTVSPropertyOp36
 70
     1
102
RTVSPropertyOp37
 70
     1
102
RTVSPropertyOp38
 70
     1
102
RTVSPropertyOp39
 70
     1
102
RTVSPropertyOp40
 70
     1
102
RTVSPropertyOp41
 70
     1
102
RTVSPropertyOp42
 70
     1
102
RTVSPropertyOp43
 70
     1
102
RTVSPropertyOp44
 70
     1
102
RTVSPropertyOp45
 70
     1
102
RTVSPropertyOp46
 70
     1
102
RTVSPropertyOp47
 70
     1
102
RTVSPropertyOp48
 70
     1
102
RTVSPropertyOp49
 70
     1
102
RTVSPropertyOp50
 70
     1
102
RTVSPropertyOp51
 70
     0
102
RTVSPropertyOp52
 70
     0
102
RTVSPropertyOp53
 70
     1
102
RTVSPropertyOp54
 70
     1
102
RTVSPropertyOp55
 70
     1
102
RTVSPropertyOp56
 70
     1
102
RTVSPropertyOp57
 70
     1
102
RTVSPropertyOp58
 70
     1
102
RTVSPropertyOp59
 70
     1
102
RTVSPropertyOp60
 70
     1
102
RTVSPropertyOp61
 70
     1
102
RTVSPropertyOp62
 70
     1
  0
XRECORD
  5
3A1
102
{ACAD_REACTORS
330
3A0
102
}
330
3A0
100
AcDbXrecord
280
     1
102
RTVSPost2010Prop28
280
     0
102
RTVSPost2010PropOp28
 70
     1
102
RTVSPost2010Prop29
280
     1
102
RTVSPost2010PropOp29
 70
     1
102
RTVSPost2010Prop30
280
     1
102
RTVSPost2010PropOp30
 70
     1
102
RTVSPost2010Prop31
280
     0
102
RTVSPost2010PropOp31
 70
     1
102
RTVSPost2010Prop32
280
     0
102
RTVSPost2010PropOp32
 70
     1
102
RTVSPost2010Prop33
280
     0
102
RTVSPost2010PropOp33
 70
     1
102
RTVSPost2010Prop34
280
     0
102
RTVSPost2010PropOp34
 70
     1
102
RTVSPost2010Prop35
280
     0
102
RTVSPost2010PropOp35
 70
     1
102
RTVSPost2010Prop36
280
     0
102
RTVSPost2010PropOp36
 70
     1
102
RTVSPost2010Prop37
 90
       50
102
RTVSPost2010PropOp37
 70
     1
102
RTVSPost2010Prop38
140
0.0
102
RTVSPost2010PropOp38
 70
     1
102
RTVSPost2010Prop39
140
1.0
102
RTVSPost2010PropOp39
 70
     1
102
RTVSPost2010Prop40
 90
        0
102
RTVSPost2010PropOp40
 70
     1
102
RTVSPost2010Prop41ColorIndex
 90
       18
102
RTVSPost2010Prop41ColorRGB
 90
        0
102
RTVSPost2010PropOp41
 70
     1
102
RTVSPost2010Prop42
 90
       50
102
RTVSPost2010PropOp42
 70
     1
102
RTVSPost2010Prop43
 90
        3
102
RTVSPost2010PropOp43
 70
     1
102
RTVSPost2010Prop44ColorIndex
 90
        5
102
RTVSPost2010Prop44ColorRGB
 90
      255
102
RTVSPost2010PropOp44
 70
     1
102
RTVSPost2010Prop45
280
     0
102
RTVSPost2010PropOp45
 70
     1
102
RTVSPost2010Prop46
 90
       50
102
RTVSPost2010PropOp46
 70
     1
102
RTVSPost2010Prop47
 90
       50
102
RTVSPost2010PropOp47
 70
     1
102
RTVSPost2010Prop48
 90
       50
102
RTVSPost2010PropOp48
 70
     1
102
RTVSPost2010Prop49
280
     0
102
RTVSPost2010PropOp49
 70
     1
102
RTVSPost2010Prop50
 90
       50
102
RTVSPost2010PropOp50
 70
     1
102
RTVSPost2010Prop51ColorIndex
 90
      256
102
RTVSPost2010Prop51ColorRGB
 90
-16777216
102
RTVSPost2010PropOp51
 70
     0
102
RTVSPost2010Prop52
140
1.0
102
RTVSPost2010PropOp52
 70
     0
102
RTVSPost2010Prop53
 90
        2
102
RTVSPost2010PropOp53
 70
     1
102
RTVSPost2010Prop54
  1
strokes_ogs.tif
102
RTVSPost2010PropOp54
 70
     1
102
RTVSPost2010Prop55
280
     0
102
RTVSPost2010PropOp55
 70
     1
102
RTVSPost2010Prop56
140
1.0
102
RTVSPost2010PropOp56
 70
     1
102
RTVSPost2010Prop57
140
1.0
102
RTVSPost2010PropOp57
 70
     1
102
RTVSPropertyOp0
 70
     1
102
RTVSPropertyOp1
 70
     1
102
RTVSPropertyOp2
 70
     1
102
RTVSPropertyOp3
 70
     1
102
RTVSPropertyOp4
 70
     1
102
RTVSPropertyOp5
 70
     1
102
RTVSPropertyOp6
 70
     1
102
RTVSPropertyOp7
 70
     1
102
RTVSPropertyOp8
 70
     1
102
RTVSPropertyOp9
 70
     1
102
RTVSPropertyOp10
 70
     1
102
RTVSPropertyOp11
 70
     1
102
RTVSPropertyOp12
 70
     1
102
RTVSPropertyOp13
 70
     1
102
RTVSPropertyOp14
 70
     1
102
RTVSPropertyOp15
 70
     1
102
RTVSPropertyOp16
 70
     1
102
RTVSPropertyOp17
 70
     1
102
RTVSPropertyOp18
 70
     1
102
RTVSPropertyOp19
 70
     1
102
RTVSPropertyOp20
 70
     1
102
RTVSPropertyOp21
 70
     1
102
RTVSPropertyOp22
 70
     1
102
RTVSPropertyOp23
 70
     1
102
RTVSPropertyOp24
 70
     1
102
RTVSPropertyOp25
 70
     1
102
RTVSPropertyOp26
 70
     1
102
RTVSPropertyOp27
 70
     1
102
RTVSPropertyOp28
 70
     1
102
RTVSPropertyOp29
 70
     1
102
RTVSPropertyOp30
 70
     1
102
RTVSPropertyOp31
 70
     1
102
RTVSPropertyOp32
 70
     1
102
RTVSPropertyOp33
 70
     1
102
RTVSPropertyOp34
 70
     1
102
RTVSPropertyOp35
 70
     1
102
RTVSPropertyOp36
 70
     1
102
RTVSPropertyOp37
 70
     1
102
RTVSPropertyOp38
 70
     1
102
RTVSPropertyOp39
 70
     1
102
RTVSPropertyOp40
 70
     1
102
RTVSPropertyOp41
 70
     1
102
RTVSPropertyOp42
 70
     1
102
RTVSPropertyOp43
 70
     1
102
RTVSPropertyOp44
 70
     1
102
RTVSPropertyOp45
 70
     1
102
RTVSPropertyOp46
 70
     1
102
RTVSPropertyOp47
 70
     1
102
RTVSPropertyOp48
 70
     1
102
RTVSPropertyOp49
 70
     1
102
RTVSPropertyOp50
 70
     1
102
RTVSPropertyOp51
 70
     0
102
RTVSPropertyOp52
 70
     0
102
RTVSPropertyOp53
 70
     1
102
RTVSPropertyOp54
 70
     1
102
RTVSPropertyOp55
 70
     1
102
RTVSPropertyOp56
 70
     1
102
RTVSPropertyOp57
 70
     1
102
RTVSPropertyOp58
 70
     1
102
RTVSPropertyOp59
 70
     1
102
RTVSPropertyOp60
 70
     1
102
RTVSPropertyOp61
 70
     1
102
RTVSPropertyOp62
 70
     1
  0
XRECORD
  5
3BD
102
{ACAD_REACTORS
330
3BC
102
}
330
3BC
100
AcDbXrecord
280
     1
102
RTVSPost2010Prop28
280
     0
102
RTVSPost2010PropOp28
 70
     0
102
RTVSPost2010Prop29
280
     1
102
RTVSPost2010PropOp29
 70
     0
102
RTVSPost2010Prop30
280
     1
102
RTVSPost2010PropOp30
 70
     0
102
RTVSPost2010Prop31
280
     0
102
RTVSPost2010PropOp31
 70
     0
102
RTVSPost2010Prop32
280
     0
102
RTVSPost2010PropOp32
 70
     0
102
RTVSPost2010Prop33
280
     0
102
RTVSPost2010PropOp33
 70
     0
102
RTVSPost2010Prop34
280
     0
102
RTVSPost2010PropOp34
 70
     0
102
RTVSPost2010Prop35
280
     0
102
RTVSPost2010PropOp35
 70
     0
102
RTVSPost2010Prop36
280
     0
102
RTVSPost2010PropOp36
 70
     0
102
RTVSPost2010Prop37
 90
       50
102
RTVSPost2010PropOp37
 70
     0
102
RTVSPost2010Prop38
140
0.0
102
RTVSPost2010PropOp38
 70
     0
102
RTVSPost2010Prop39
140
1.0
102
RTVSPost2010PropOp39
 70
     0
102
RTVSPost2010Prop40
 90
        0
102
RTVSPost2010PropOp40
 70
     0
102
RTVSPost2010Prop41ColorIndex
 90
       18
102
RTVSPost2010Prop41ColorRGB
 90
        0
102
RTVSPost2010PropOp41
 70
     0
102
RTVSPost2010Prop42
 90
       50
102
RTVSPost2010PropOp42
 70
     0
102
RTVSPost2010Prop43
 90
        3
102
RTVSPost2010PropOp43
 70
     0
102
RTVSPost2010Prop44ColorIndex
 90
        5
102
RTVSPost2010Prop44ColorRGB
 90
      255
102
RTVSPost2010PropOp44
 70
     0
102
RTVSPost2010Prop45
280
     0
102
RTVSPost2010PropOp45
 70
     0
102
RTVSPost2010Prop46
 90
       50
102
RTVSPost2010PropOp46
 70
     0
102
RTVSPost2010Prop47
 90
       50
102
RTVSPost2010PropOp47
 70
     0
102
RTVSPost2010Prop48
 90
       50
102
RTVSPost2010PropOp48
 70
     0
102
RTVSPost2010Prop49
280
     0
102
RTVSPost2010PropOp49
 70
     0
102
RTVSPost2010Prop50
 90
       50
102
RTVSPost2010PropOp50
 70
     0
102
RTVSPost2010Prop51ColorIndex
 90
      256
102
RTVSPost2010Prop51ColorRGB
 90
-16777216
102
RTVSPost2010PropOp51
 70
     0
102
RTVSPost2010Prop52
140
1.0
102
RTVSPost2010PropOp52
 70
     0
102
RTVSPost2010Prop53
 90
        2
102
RTVSPost2010PropOp53
 70
     0
102
RTVSPost2010Prop54
  1
strokes_ogs.tif
102
RTVSPost2010PropOp54
 70
     0
102
RTVSPost2010Prop55
280
     0
102
RTVSPost2010PropOp55
 70
     0
102
RTVSPost2010Prop56
140
1.0
102
RTVSPost2010PropOp56
 70
     0
102
RTVSPost2010Prop57
140
1.0
102
RTVSPost2010PropOp57
 70
     0
102
RTVSPropertyOp0
 70
     0
102
RTVSPropertyOp1
 70
     0
102
RTVSPropertyOp2
 70
     0
102
RTVSPropertyOp3
 70
     0
102
RTVSPropertyOp4
 70
     0
102
RTVSPropertyOp5
 70
     0
102
RTVSPropertyOp6
 70
     0
102
RTVSPropertyOp7
 70
     0
102
RTVSPropertyOp8
 70
     0
102
RTVSPropertyOp9
 70
     0
102
RTVSPropertyOp10
 70
     0
102
RTVSPropertyOp11
 70
     0
102
RTVSPropertyOp12
 70
     0
102
RTVSPropertyOp13
 70
     0
102
RTVSPropertyOp14
 70
     2
102
RTVSPropertyOp15
 70
     0
102
RTVSPropertyOp16
 70
     0
102
RTVSPropertyOp17
 70
     0
102
RTVSPropertyOp18
 70
     0
102
RTVSPropertyOp19
 70
     0
102
RTVSPropertyOp20
 70
     0
102
RTVSPropertyOp21
 70
     0
102
RTVSPropertyOp22
 70
     0
102
RTVSPropertyOp23
 70
     0
102
RTVSPropertyOp24
 70
     0
102
RTVSPropertyOp25
 70
     0
102
RTVSPropertyOp26
 70
     0
102
RTVSPropertyOp27
 70
     0
102
RTVSPropertyOp28
 70
     0
102
RTVSPropertyOp29
 70
     0
102
RTVSPropertyOp30
 70
     0
102
RTVSPropertyOp31
 70
     0
102
RTVSPropertyOp32
 70
     0
102
RTVSPropertyOp33
 70
     0
102
RTVSPropertyOp34
 70
     0
102
RTVSPropertyOp35
 70
     0
102
RTVSPropertyOp36
 70
     0
102
RTVSPropertyOp37
 70
     0
102
RTVSPropertyOp38
 70
     0
102
RTVSPropertyOp39
 70
     0
102
RTVSPropertyOp40
 70
     0
102
RTVSPropertyOp41
 70
     0
102
RTVSPropertyOp42
 70
     0
102
RTVSPropertyOp43
 70
     0
102
RTVSPropertyOp44
 70
     0
102
RTVSPropertyOp45
 70
     0
102
RTVSPropertyOp46
 70
     0
102
RTVSPropertyOp47
 70
     0
102
RTVSPropertyOp48
 70
     0
102
RTVSPropertyOp49
 70
     0
102
RTVSPropertyOp50
 70
     0
102
RTVSPropertyOp51
 70
     0
102
RTVSPropertyOp52
 70
     0
102
RTVSPropertyOp53
 70
     0
102
RTVSPropertyOp54
 70
     0
102
RTVSPropertyOp55
 70
     0
102
RTVSPropertyOp56
 70
     0
102
RTVSPropertyOp57
 70
     0
102
RTVSPropertyOp58
 70
     0
102
RTVSPropertyOp59
 70
     0
102
RTVSPropertyOp60
 70
     0
102
RTVSPropertyOp61
 70
     0
102
RTVSPropertyOp62
 70
     0
  0
XRECORD
  5
3AD
102
{ACAD_REACTORS
330
3AC
102
}
330
3AC
100
AcDbXrecord
280
     1
102
RTVSPost2010Prop28
280
     0
102
RTVSPost2010PropOp28
 70
     1
102
RTVSPost2010Prop29
280
     1
102
RTVSPost2010PropOp29
 70
     1
102
RTVSPost2010Prop30
280
     1
102
RTVSPost2010PropOp30
 70
     1
102
RTVSPost2010Prop31
280
     0
102
RTVSPost2010PropOp31
 70
     1
102
RTVSPost2010Prop32
280
     0
102
RTVSPost2010PropOp32
 70
     1
102
RTVSPost2010Prop33
280
     0
102
RTVSPost2010PropOp33
 70
     1
102
RTVSPost2010Prop34
280
     0
102
RTVSPost2010PropOp34
 70
     1
102
RTVSPost2010Prop35
280
     0
102
RTVSPost2010PropOp35
 70
     1
102
RTVSPost2010Prop36
280
     0
102
RTVSPost2010PropOp36
 70
     1
102
RTVSPost2010Prop37
 90
       50
102
RTVSPost2010PropOp37
 70
     1
102
RTVSPost2010Prop38
140
0.0
102
RTVSPost2010PropOp38
 70
     1
102
RTVSPost2010Prop39
140
1.0
102
RTVSPost2010PropOp39
 70
     1
102
RTVSPost2010Prop40
 90
        0
102
RTVSPost2010PropOp40
 70
     1
102
RTVSPost2010Prop41ColorIndex
 90
       18
102
RTVSPost2010Prop41ColorRGB
 90
        0
102
RTVSPost2010PropOp41
 70
     1
102
RTVSPost2010Prop42
 90
       50
102
RTVSPost2010PropOp42
 70
     1
102
RTVSPost2010Prop43
 90
        3
102
RTVSPost2010PropOp43
 70
     1
102
RTVSPost2010Prop44ColorIndex
 90
        5
102
RTVSPost2010Prop44ColorRGB
 90
      255
102
RTVSPost2010PropOp44
 70
     1
102
RTVSPost2010Prop45
280
     0
102
RTVSPost2010PropOp45
 70
     1
102
RTVSPost2010Prop46
 90
       50
102
RTVSPost2010PropOp46
 70
     1
102
RTVSPost2010Prop47
 90
       50
102
RTVSPost2010PropOp47
 70
     1
102
RTVSPost2010Prop48
 90
       50
102
RTVSPost2010PropOp48
 70
     1
102
RTVSPost2010Prop49
280
     0
102
RTVSPost2010PropOp49
 70
     1
102
RTVSPost2010Prop50
 90
       50
102
RTVSPost2010PropOp50
 70
     1
102
RTVSPost2010Prop51ColorIndex
 90
      256
102
RTVSPost2010Prop51ColorRGB
 90
-16777216
102
RTVSPost2010PropOp51
 70
     0
102
RTVSPost2010Prop52
140
1.0
102
RTVSPost2010PropOp52
 70
     0
102
RTVSPost2010Prop53
 90
        2
102
RTVSPost2010PropOp53
 70
     1
102
RTVSPost2010Prop54
  1
strokes_ogs.tif
102
RTVSPost2010PropOp54
 70
     1
102
RTVSPost2010Prop55
280
     0
102
RTVSPost2010PropOp55
 70
     1
102
RTVSPost2010Prop56
140
1.0
102
RTVSPost2010PropOp56
 70
     1
102
RTVSPost2010Prop57
140
1.0
102
RTVSPost2010PropOp57
 70
     1
102
RTVSPropertyOp0
 70
     1
102
RTVSPropertyOp1
 70
     1
102
RTVSPropertyOp2
 70
     1
102
RTVSPropertyOp3
 70
     1
102
RTVSPropertyOp4
 70
     1
102
RTVSPropertyOp5
 70
     1
102
RTVSPropertyOp6
 70
     1
102
RTVSPropertyOp7
 70
     1
102
RTVSPropertyOp8
 70
     1
102
RTVSPropertyOp9
 70
     1
102
RTVSPropertyOp10
 70
     1
102
RTVSPropertyOp11
 70
     1
102
RTVSPropertyOp12
 70
     1
102
RTVSPropertyOp13
 70
     1
102
RTVSPropertyOp14
 70
     1
102
RTVSPropertyOp15
 70
     1
102
RTVSPropertyOp16
 70
     1
102
RTVSPropertyOp17
 70
     1
102
RTVSPropertyOp18
 70
     1
102
RTVSPropertyOp19
 70
     1
102
RTVSPropertyOp20
 70
     1
102
RTVSPropertyOp21
 70
     1
102
RTVSPropertyOp22
 70
     1
102
RTVSPropertyOp23
 70
     1
102
RTVSPropertyOp24
 70
     1
102
RTVSPropertyOp25
 70
     1
102
RTVSPropertyOp26
 70
     1
102
RTVSPropertyOp27
 70
     1
102
RTVSPropertyOp28
 70
     1
102
RTVSPropertyOp29
 70
     1
102
RTVSPropertyOp30
 70
     1
102
RTVSPropertyOp31
 70
     1
102
RTVSPropertyOp32
 70
     1
102
RTVSPropertyOp33
 70
     1
102
RTVSPropertyOp34
 70
     1
102
RTVSPropertyOp35
 70
     1
102
RTVSPropertyOp36
 70
     1
102
RTVSPropertyOp37
 70
     1
102
RTVSPropertyOp38
 70
     1
102
RTVSPropertyOp39
 70
     1
102
RTVSPropertyOp40
 70
     1
102
RTVSPropertyOp41
 70
     1
102
RTVSPropertyOp42
 70
     1
102
RTVSPropertyOp43
 70
     1
102
RTVSPropertyOp44
 70
     1
102
RTVSPropertyOp45
 70
     1
102
RTVSPropertyOp46
 70
     1
102
RTVSPropertyOp47
 70
     1
102
RTVSPropertyOp48
 70
     1
102
RTVSPropertyOp49
 70
     1
102
RTVSPropertyOp50
 70
     1
102
RTVSPropertyOp51
 70
     0
102
RTVSPropertyOp52
 70
     0
102
RTVSPropertyOp53
 70
     1
102
RTVSPropertyOp54
 70
     1
102
RTVSPropertyOp55
 70
     1
102
RTVSPropertyOp56
 70
     1
102
RTVSPropertyOp57
 70
     1
102
RTVSPropertyOp58
 70
     1
102
RTVSPropertyOp59
 70
     1
102
RTVSPropertyOp60
 70
     1
102
RTVSPropertyOp61
 70
     1
102
RTVSPropertyOp62
 70
     1
  0
XRECORD
  5
3BF
102
{ACAD_REACTORS
330
3BE
102
}
330
3BE
100
AcDbXrecord
280
     1
102
RTVSPost2010Prop28
280
     0
102
RTVSPost2010PropOp28
 70
     0
102
RTVSPost2010Prop29
280
     1
102
RTVSPost2010PropOp29
 70
     0
102
RTVSPost2010Prop30
280
     1
102
RTVSPost2010PropOp30
 70
     0
102
RTVSPost2010Prop31
280
     0
102
RTVSPost2010PropOp31
 70
     0
102
RTVSPost2010Prop32
280
     0
102
RTVSPost2010PropOp32
 70
     0
102
RTVSPost2010Prop33
280
     0
102
RTVSPost2010PropOp33
 70
     0
102
RTVSPost2010Prop34
280
     0
102
RTVSPost2010PropOp34
 70
     0
102
RTVSPost2010Prop35
280
     0
102
RTVSPost2010PropOp35
 70
     0
102
RTVSPost2010Prop36
280
     0
102
RTVSPost2010PropOp36
 70
     0
102
RTVSPost2010Prop37
 90
       50
102
RTVSPost2010PropOp37
 70
     0
102
RTVSPost2010Prop38
140
0.0
102
RTVSPost2010PropOp38
 70
     0
102
RTVSPost2010Prop39
140
1.0
102
RTVSPost2010PropOp39
 70
     0
102
RTVSPost2010Prop40
 90
        0
102
RTVSPost2010PropOp40
 70
     0
102
RTVSPost2010Prop41ColorIndex
 90
       18
102
RTVSPost2010Prop41ColorRGB
 90
        0
102
RTVSPost2010PropOp41
 70
     0
102
RTVSPost2010Prop42
 90
       50
102
RTVSPost2010PropOp42
 70
     0
102
RTVSPost2010Prop43
 90
        3
102
RTVSPost2010PropOp43
 70
     0
102
RTVSPost2010Prop44ColorIndex
 90
        5
102
RTVSPost2010Prop44ColorRGB
 90
      255
102
RTVSPost2010PropOp44
 70
     0
102
RTVSPost2010Prop45
280
     0
102
RTVSPost2010PropOp45
 70
     0
102
RTVSPost2010Prop46
 90
       50
102
RTVSPost2010PropOp46
 70
     0
102
RTVSPost2010Prop47
 90
       50
102
RTVSPost2010PropOp47
 70
     0
102
RTVSPost2010Prop48
 90
       50
102
RTVSPost2010PropOp48
 70
     0
102
RTVSPost2010Prop49
280
     0
102
RTVSPost2010PropOp49
 70
     0
102
RTVSPost2010Prop50
 90
       50
102
RTVSPost2010PropOp50
 70
     0
102
RTVSPost2010Prop51ColorIndex
 90
      256
102
RTVSPost2010Prop51ColorRGB
 90
-16777216
102
RTVSPost2010PropOp51
 70
     0
102
RTVSPost2010Prop52
140
1.0
102
RTVSPost2010PropOp52
 70
     0
102
RTVSPost2010Prop53
 90
        2
102
RTVSPost2010PropOp53
 70
     0
102
RTVSPost2010Prop54
  1
strokes_ogs.tif
102
RTVSPost2010PropOp54
 70
     0
102
RTVSPost2010Prop55
280
     0
102
RTVSPost2010PropOp55
 70
     0
102
RTVSPost2010Prop56
140
1.0
102
RTVSPost2010PropOp56
 70
     0
102
RTVSPost2010Prop57
140
1.0
102
RTVSPost2010PropOp57
 70
     0
102
RTVSPropertyOp0
 70
     0
102
RTVSPropertyOp1
 70
     0
102
RTVSPropertyOp2
 70
     0
102
RTVSPropertyOp3
 70
     0
102
RTVSPropertyOp4
 70
     0
102
RTVSPropertyOp5
 70
     0
102
RTVSPropertyOp6
 70
     0
102
RTVSPropertyOp7
 70
     0
102
RTVSPropertyOp8
 70
     0
102
RTVSPropertyOp9
 70
     0
102
RTVSPropertyOp10
 70
     0
102
RTVSPropertyOp11
 70
     0
102
RTVSPropertyOp12
 70
     0
102
RTVSPropertyOp13
 70
     0
102
RTVSPropertyOp14
 70
     2
102
RTVSPropertyOp15
 70
     0
102
RTVSPropertyOp16
 70
     0
102
RTVSPropertyOp17
 70
     0
102
RTVSPropertyOp18
 70
     0
102
RTVSPropertyOp19
 70
     0
102
RTVSPropertyOp20
 70
     0
102
RTVSPropertyOp21
 70
     0
102
RTVSPropertyOp22
 70
     0
102
RTVSPropertyOp23
 70
     0
102
RTVSPropertyOp24
 70
     0
102
RTVSPropertyOp25
 70
     0
102
RTVSPropertyOp26
 70
     0
102
RTVSPropertyOp27
 70
     0
102
RTVSPropertyOp28
 70
     0
102
RTVSPropertyOp29
 70
     0
102
RTVSPropertyOp30
 70
     0
102
RTVSPropertyOp31
 70
     0
102
RTVSPropertyOp32
 70
     0
102
RTVSPropertyOp33
 70
     0
102
RTVSPropertyOp34
 70
     0
102
RTVSPropertyOp35
 70
     0
102
RTVSPropertyOp36
 70
     0
102
RTVSPropertyOp37
 70
     0
102
RTVSPropertyOp38
 70
     0
102
RTVSPropertyOp39
 70
     0
102
RTVSPropertyOp40
 70
     0
102
RTVSPropertyOp41
 70
     0
102
RTVSPropertyOp42
 70
     0
102
RTVSPropertyOp43
 70
     0
102
RTVSPropertyOp44
 70
     0
102
RTVSPropertyOp45
 70
     0
102
RTVSPropertyOp46
 70
     0
102
RTVSPropertyOp47
 70
     0
102
RTVSPropertyOp48
 70
     0
102
RTVSPropertyOp49
 70
     0
102
RTVSPropertyOp50
 70
     0
102
RTVSPropertyOp51
 70
     0
102
RTVSPropertyOp52
 70
     0
102
RTVSPropertyOp53
 70
     0
102
RTVSPropertyOp54
 70
     0
102
RTVSPropertyOp55
 70
     0
102
RTVSPropertyOp56
 70
     0
102
RTVSPropertyOp57
 70
     0
102
RTVSPropertyOp58
 70
     0
102
RTVSPropertyOp59
 70
     0
102
RTVSPropertyOp60
 70
     0
102
RTVSPropertyOp61
 70
     0
102
RTVSPropertyOp62
 70
     0
  0
XRECORD
  5
3A5
102
{ACAD_REACTORS
330
3A4
102
}
330
3A4
100
AcDbXrecord
280
     1
102
RTVSPost2010Prop28
280
     0
102
RTVSPost2010PropOp28
 70
     1
102
RTVSPost2010Prop29
280
     1
102
RTVSPost2010PropOp29
 70
     1
102
RTVSPost2010Prop30
280
     1
102
RTVSPost2010PropOp30
 70
     1
102
RTVSPost2010Prop31
280
     0
102
RTVSPost2010PropOp31
 70
     1
102
RTVSPost2010Prop32
280
     0
102
RTVSPost2010PropOp32
 70
     1
102
RTVSPost2010Prop33
280
     0
102
RTVSPost2010PropOp33
 70
     1
102
RTVSPost2010Prop34
280
     0
102
RTVSPost2010PropOp34
 70
     1
102
RTVSPost2010Prop35
280
     0
102
RTVSPost2010PropOp35
 70
     1
102
RTVSPost2010Prop36
280
     0
102
RTVSPost2010PropOp36
 70
     1
102
RTVSPost2010Prop37
 90
       50
102
RTVSPost2010PropOp37
 70
     1
102
RTVSPost2010Prop38
140
0.0
102
RTVSPost2010PropOp38
 70
     1
102
RTVSPost2010Prop39
140
1.0
102
RTVSPost2010PropOp39
 70
     1
102
RTVSPost2010Prop40
 90
        0
102
RTVSPost2010PropOp40
 70
     1
102
RTVSPost2010Prop41ColorIndex
 90
       18
102
RTVSPost2010Prop41ColorRGB
 90
        0
102
RTVSPost2010PropOp41
 70
     1
102
RTVSPost2010Prop42
 90
       50
102
RTVSPost2010PropOp42
 70
     1
102
RTVSPost2010Prop43
 90
        3
102
RTVSPost2010PropOp43
 70
     1
102
RTVSPost2010Prop44ColorIndex
 90
        5
102
RTVSPost2010Prop44ColorRGB
 90
      255
102
RTVSPost2010PropOp44
 70
     1
102
RTVSPost2010Prop45
280
     0
102
RTVSPost2010PropOp45
 70
     1
102
RTVSPost2010Prop46
 90
       50
102
RTVSPost2010PropOp46
 70
     1
102
RTVSPost2010Prop47
 90
       50
102
RTVSPost2010PropOp47
 70
     1
102
RTVSPost2010Prop48
 90
       50
102
RTVSPost2010PropOp48
 70
     1
102
RTVSPost2010Prop49
280
     0
102
RTVSPost2010PropOp49
 70
     1
102
RTVSPost2010Prop50
 90
       50
102
RTVSPost2010PropOp50
 70
     1
102
RTVSPost2010Prop51ColorIndex
 90
      256
102
RTVSPost2010Prop51ColorRGB
 90
-16777216
102
RTVSPost2010PropOp51
 70
     0
102
RTVSPost2010Prop52
140
1.0
102
RTVSPost2010PropOp52
 70
     0
102
RTVSPost2010Prop53
 90
        2
102
RTVSPost2010PropOp53
 70
     1
102
RTVSPost2010Prop54
  1
strokes_ogs.tif
102
RTVSPost2010PropOp54
 70
     1
102
RTVSPost2010Prop55
280
     0
102
RTVSPost2010PropOp55
 70
     1
102
RTVSPost2010Prop56
140
1.0
102
RTVSPost2010PropOp56
 70
     1
102
RTVSPost2010Prop57
140
1.0
102
RTVSPost2010PropOp57
 70
     1
102
RTVSPropertyOp0
 70
     1
102
RTVSPropertyOp1
 70
     1
102
RTVSPropertyOp2
 70
     1
102
RTVSPropertyOp3
 70
     1
102
RTVSPropertyOp4
 70
     1
102
RTVSPropertyOp5
 70
     1
102
RTVSPropertyOp6
 70
     1
102
RTVSPropertyOp7
 70
     1
102
RTVSPropertyOp8
 70
     1
102
RTVSPropertyOp9
 70
     1
102
RTVSPropertyOp10
 70
     1
102
RTVSPropertyOp11
 70
     1
102
RTVSPropertyOp12
 70
     1
102
RTVSPropertyOp13
 70
     1
102
RTVSPropertyOp14
 70
     1
102
RTVSPropertyOp15
 70
     1
102
RTVSPropertyOp16
 70
     1
102
RTVSPropertyOp17
 70
     1
102
RTVSPropertyOp18
 70
     1
102
RTVSPropertyOp19
 70
     1
102
RTVSPropertyOp20
 70
     1
102
RTVSPropertyOp21
 70
     1
102
RTVSPropertyOp22
 70
     1
102
RTVSPropertyOp23
 70
     1
102
RTVSPropertyOp24
 70
     1
102
RTVSPropertyOp25
 70
     1
102
RTVSPropertyOp26
 70
     1
102
RTVSPropertyOp27
 70
     1
102
RTVSPropertyOp28
 70
     1
102
RTVSPropertyOp29
 70
     1
102
RTVSPropertyOp30
 70
     1
102
RTVSPropertyOp31
 70
     1
102
RTVSPropertyOp32
 70
     1
102
RTVSPropertyOp33
 70
     1
102
RTVSPropertyOp34
 70
     1
102
RTVSPropertyOp35
 70
     1
102
RTVSPropertyOp36
 70
     1
102
RTVSPropertyOp37
 70
     1
102
RTVSPropertyOp38
 70
     1
102
RTVSPropertyOp39
 70
     1
102
RTVSPropertyOp40
 70
     1
102
RTVSPropertyOp41
 70
     1
102
RTVSPropertyOp42
 70
     1
102
RTVSPropertyOp43
 70
     1
102
RTVSPropertyOp44
 70
     1
102
RTVSPropertyOp45
 70
     1
102
RTVSPropertyOp46
 70
     1
102
RTVSPropertyOp47
 70
     1
102
RTVSPropertyOp48
 70
     1
102
RTVSPropertyOp49
 70
     1
102
RTVSPropertyOp50
 70
     1
102
RTVSPropertyOp51
 70
     0
102
RTVSPropertyOp52
 70
     0
102
RTVSPropertyOp53
 70
     1
102
RTVSPropertyOp54
 70
     1
102
RTVSPropertyOp55
 70
     1
102
RTVSPropertyOp56
 70
     1
102
RTVSPropertyOp57
 70
     1
102
RTVSPropertyOp58
 70
     1
102
RTVSPropertyOp59
 70
     1
102
RTVSPropertyOp60
 70
     1
102
RTVSPropertyOp61
 70
     1
102
RTVSPropertyOp62
 70
     1
  0
XRECORD
  5
3BB
102
{ACAD_REACTORS
330
3BA
102
}
330
3BA
100
AcDbXrecord
280
     1
102
RTVSPost2010Prop28
280
     0
102
RTVSPost2010PropOp28
 70
     1
102
RTVSPost2010Prop29
280
     1
102
RTVSPost2010PropOp29
 70
     1
102
RTVSPost2010Prop30
280
     1
102
RTVSPost2010PropOp30
 70
     1
102
RTVSPost2010Prop31
280
     0
102
RTVSPost2010PropOp31
 70
     1
102
RTVSPost2010Prop32
280
     0
102
RTVSPost2010PropOp32
 70
     1
102
RTVSPost2010Prop33
280
     0
102
RTVSPost2010PropOp33
 70
     1
102
RTVSPost2010Prop34
280
     0
102
RTVSPost2010PropOp34
 70
     1
102
RTVSPost2010Prop35
280
     0
102
RTVSPost2010PropOp35
 70
     1
102
RTVSPost2010Prop36
280
     0
102
RTVSPost2010PropOp36
 70
     1
102
RTVSPost2010Prop37
 90
       50
102
RTVSPost2010PropOp37
 70
     1
102
RTVSPost2010Prop38
140
0.0
102
RTVSPost2010PropOp38
 70
     1
102
RTVSPost2010Prop39
140
1.0
102
RTVSPost2010PropOp39
 70
     1
102
RTVSPost2010Prop40
 90
        0
102
RTVSPost2010PropOp40
 70
     1
102
RTVSPost2010Prop41ColorIndex
 90
       18
102
RTVSPost2010Prop41ColorRGB
 90
        0
102
RTVSPost2010PropOp41
 70
     1
102
RTVSPost2010Prop42
 90
       50
102
RTVSPost2010PropOp42
 70
     1
102
RTVSPost2010Prop43
 90
        3
102
RTVSPost2010PropOp43
 70
     1
102
RTVSPost2010Prop44ColorIndex
 90
        5
102
RTVSPost2010Prop44ColorRGB
 90
      255
102
RTVSPost2010PropOp44
 70
     1
102
RTVSPost2010Prop45
280
     0
102
RTVSPost2010PropOp45
 70
     1
102
RTVSPost2010Prop46
 90
       50
102
RTVSPost2010PropOp46
 70
     1
102
RTVSPost2010Prop47
 90
       50
102
RTVSPost2010PropOp47
 70
     1
102
RTVSPost2010Prop48
 90
       50
102
RTVSPost2010PropOp48
 70
     1
102
RTVSPost2010Prop49
280
     0
102
RTVSPost2010PropOp49
 70
     1
102
RTVSPost2010Prop50
 90
       50
102
RTVSPost2010PropOp50
 70
     1
102
RTVSPost2010Prop51ColorIndex
 90
      256
102
RTVSPost2010Prop51ColorRGB
 90
-16777216
102
RTVSPost2010PropOp51
 70
     0
102
RTVSPost2010Prop52
140
1.0
102
RTVSPost2010PropOp52
 70
     0
102
RTVSPost2010Prop53
 90
        2
102
RTVSPost2010PropOp53
 70
     1
102
RTVSPost2010Prop54
  1
strokes_ogs.tif
102
RTVSPost2010PropOp54
 70
     1
102
RTVSPost2010Prop55
280
     0
102
RTVSPost2010PropOp55
 70
     1
102
RTVSPost2010Prop56
140
1.0
102
RTVSPost2010PropOp56
 70
     1
102
RTVSPost2010Prop57
140
1.0
102
RTVSPost2010PropOp57
 70
     1
102
RTVSPropertyOp0
 70
     1
102
RTVSPropertyOp1
 70
     1
102
RTVSPropertyOp2
 70
     1
102
RTVSPropertyOp3
 70
     1
102
RTVSPropertyOp4
 70
     1
102
RTVSPropertyOp5
 70
     1
102
RTVSPropertyOp6
 70
     1
102
RTVSPropertyOp7
 70
     1
102
RTVSPropertyOp8
 70
     1
102
RTVSPropertyOp9
 70
     1
102
RTVSPropertyOp10
 70
     1
102
RTVSPropertyOp11
 70
     1
102
RTVSPropertyOp12
 70
     1
102
RTVSPropertyOp13
 70
     1
102
RTVSPropertyOp14
 70
     1
102
RTVSPropertyOp15
 70
     1
102
RTVSPropertyOp16
 70
     1
102
RTVSPropertyOp17
 70
     1
102
RTVSPropertyOp18
 70
     1
102
RTVSPropertyOp19
 70
     1
102
RTVSPropertyOp20
 70
     1
102
RTVSPropertyOp21
 70
     1
102
RTVSPropertyOp22
 70
     1
102
RTVSPropertyOp23
 70
     1
102
RTVSPropertyOp24
 70
     1
102
RTVSPropertyOp25
 70
     1
102
RTVSPropertyOp26
 70
     1
102
RTVSPropertyOp27
 70
     1
102
RTVSPropertyOp28
 70
     1
102
RTVSPropertyOp29
 70
     1
102
RTVSPropertyOp30
 70
     1
102
RTVSPropertyOp31
 70
     1
102
RTVSPropertyOp32
 70
     1
102
RTVSPropertyOp33
 70
     1
102
RTVSPropertyOp34
 70
     1
102
RTVSPropertyOp35
 70
     1
102
RTVSPropertyOp36
 70
     1
102
RTVSPropertyOp37
 70
     1
102
RTVSPropertyOp38
 70
     1
102
RTVSPropertyOp39
 70
     1
102
RTVSPropertyOp40
 70
     1
102
RTVSPropertyOp41
 70
     1
102
RTVSPropertyOp42
 70
     1
102
RTVSPropertyOp43
 70
     1
102
RTVSPropertyOp44
 70
     1
102
RTVSPropertyOp45
 70
     1
102
RTVSPropertyOp46
 70
     1
102
RTVSPropertyOp47
 70
     1
102
RTVSPropertyOp48
 70
     1
102
RTVSPropertyOp49
 70
     1
102
RTVSPropertyOp50
 70
     1
102
RTVSPropertyOp51
 70
     0
102
RTVSPropertyOp52
 70
     0
102
RTVSPropertyOp53
 70
     1
102
RTVSPropertyOp54
 70
     1
102
RTVSPropertyOp55
 70
     1
102
RTVSPropertyOp56
 70
     1
102
RTVSPropertyOp57
 70
     1
102
RTVSPropertyOp58
 70
     1
102
RTVSPropertyOp59
 70
     1
102
RTVSPropertyOp60
 70
     1
102
RTVSPropertyOp61
 70
     1
102
RTVSPropertyOp62
 70
     1
  0
XRECORD
  5
3B9
102
{ACAD_REACTORS
330
3B8
102
}
330
3B8
100
AcDbXrecord
280
     1
102
RTVSPost2010Prop28
280
     0
102
RTVSPost2010PropOp28
 70
     1
102
RTVSPost2010Prop29
280
     1
102
RTVSPost2010PropOp29
 70
     1
102
RTVSPost2010Prop30
280
     1
102
RTVSPost2010PropOp30
 70
     1
102
RTVSPost2010Prop31
280
     0
102
RTVSPost2010PropOp31
 70
     1
102
RTVSPost2010Prop32
280
     0
102
RTVSPost2010PropOp32
 70
     1
102
RTVSPost2010Prop33
280
     0
102
RTVSPost2010PropOp33
 70
     1
102
RTVSPost2010Prop34
280
     0
102
RTVSPost2010PropOp34
 70
     1
102
RTVSPost2010Prop35
280
     0
102
RTVSPost2010PropOp35
 70
     1
102
RTVSPost2010Prop36
280
     0
102
RTVSPost2010PropOp36
 70
     1
102
RTVSPost2010Prop37
 90
       50
102
RTVSPost2010PropOp37
 70
     1
102
RTVSPost2010Prop38
140
0.0
102
RTVSPost2010PropOp38
 70
     1
102
RTVSPost2010Prop39
140
1.0
102
RTVSPost2010PropOp39
 70
     1
102
RTVSPost2010Prop40
 90
        0
102
RTVSPost2010PropOp40
 70
     1
102
RTVSPost2010Prop41ColorIndex
 90
       18
102
RTVSPost2010Prop41ColorRGB
 90
        0
102
RTVSPost2010PropOp41
 70
     1
102
RTVSPost2010Prop42
 90
       50
102
RTVSPost2010PropOp42
 70
     1
102
RTVSPost2010Prop43
 90
        3
102
RTVSPost2010PropOp43
 70
     1
102
RTVSPost2010Prop44ColorIndex
 90
        5
102
RTVSPost2010Prop44ColorRGB
 90
      255
102
RTVSPost2010PropOp44
 70
     1
102
RTVSPost2010Prop45
280
     0
102
RTVSPost2010PropOp45
 70
     1
102
RTVSPost2010Prop46
 90
       50
102
RTVSPost2010PropOp46
 70
     1
102
RTVSPost2010Prop47
 90
       50
102
RTVSPost2010PropOp47
 70
     1
102
RTVSPost2010Prop48
 90
       50
102
RTVSPost2010PropOp48
 70
     1
102
RTVSPost2010Prop49
280
     0
102
RTVSPost2010PropOp49
 70
     1
102
RTVSPost2010Prop50
 90
       50
102
RTVSPost2010PropOp50
 70
     1
102
RTVSPost2010Prop51ColorIndex
 90
      256
102
RTVSPost2010Prop51ColorRGB
 90
-16777216
102
RTVSPost2010PropOp51
 70
     0
102
RTVSPost2010Prop52
140
1.0
102
RTVSPost2010PropOp52
 70
     0
102
RTVSPost2010Prop53
 90
        2
102
RTVSPost2010PropOp53
 70
     1
102
RTVSPost2010Prop54
  1
strokes_ogs.tif
102
RTVSPost2010PropOp54
 70
     1
102
RTVSPost2010Prop55
280
     0
102
RTVSPost2010PropOp55
 70
     1
102
RTVSPost2010Prop56
140
1.0
102
RTVSPost2010PropOp56
 70
     1
102
RTVSPost2010Prop57
140
1.0
102
RTVSPost2010PropOp57
 70
     1
102
RTVSPropertyOp0
 70
     1
102
RTVSPropertyOp1
 70
     1
102
RTVSPropertyOp2
 70
     1
102
RTVSPropertyOp3
 70
     1
102
RTVSPropertyOp4
 70
     1
102
RTVSPropertyOp5
 70
     1
102
RTVSPropertyOp6
 70
     1
102
RTVSPropertyOp7
 70
     1
102
RTVSPropertyOp8
 70
     1
102
RTVSPropertyOp9
 70
     1
102
RTVSPropertyOp10
 70
     1
102
RTVSPropertyOp11
 70
     1
102
RTVSPropertyOp12
 70
     1
102
RTVSPropertyOp13
 70
     1
102
RTVSPropertyOp14
 70
     1
102
RTVSPropertyOp15
 70
     1
102
RTVSPropertyOp16
 70
     1
102
RTVSPropertyOp17
 70
     1
102
RTVSPropertyOp18
 70
     1
102
RTVSPropertyOp19
 70
     1
102
RTVSPropertyOp20
 70
     1
102
RTVSPropertyOp21
 70
     1
102
RTVSPropertyOp22
 70
     1
102
RTVSPropertyOp23
 70
     1
102
RTVSPropertyOp24
 70
     1
102
RTVSPropertyOp25
 70
     1
102
RTVSPropertyOp26
 70
     1
102
RTVSPropertyOp27
 70
     1
102
RTVSPropertyOp28
 70
     1
102
RTVSPropertyOp29
 70
     1
102
RTVSPropertyOp30
 70
     1
102
RTVSPropertyOp31
 70
     1
102
RTVSPropertyOp32
 70
     1
102
RTVSPropertyOp33
 70
     1
102
RTVSPropertyOp34
 70
     1
102
RTVSPropertyOp35
 70
     1
102
RTVSPropertyOp36
 70
     1
102
RTVSPropertyOp37
 70
     1
102
RTVSPropertyOp38
 70
     1
102
RTVSPropertyOp39
 70
     1
102
RTVSPropertyOp40
 70
     1
102
RTVSPropertyOp41
 70
     1
102
RTVSPropertyOp42
 70
     1
102
RTVSPropertyOp43
 70
     1
102
RTVSPropertyOp44
 70
     1
102
RTVSPropertyOp45
 70
     1
102
RTVSPropertyOp46
 70
     1
102
RTVSPropertyOp47
 70
     1
102
RTVSPropertyOp48
 70
     1
102
RTVSPropertyOp49
 70
     1
102
RTVSPropertyOp50
 70
     1
102
RTVSPropertyOp51
 70
     0
102
RTVSPropertyOp52
 70
     0
102
RTVSPropertyOp53
 70
     1
102
RTVSPropertyOp54
 70
     1
102
RTVSPropertyOp55
 70
     1
102
RTVSPropertyOp56
 70
     1
102
RTVSPropertyOp57
 70
     1
102
RTVSPropertyOp58
 70
     1
102
RTVSPropertyOp59
 70
     1
102
RTVSPropertyOp60
 70
     1
102
RTVSPropertyOp61
 70
     1
102
RTVSPropertyOp62
 70
     1
  0
XRECORD
  5
3B3
102
{ACAD_REACTORS
330
3B2
102
}
330
3B2
100
AcDbXrecord
280
     1
102
RTVSPost2010Prop28
280
     0
102
RTVSPost2010PropOp28
 70
     1
102
RTVSPost2010Prop29
280
     1
102
RTVSPost2010PropOp29
 70
     1
102
RTVSPost2010Prop30
280
     1
102
RTVSPost2010PropOp30
 70
     1
102
RTVSPost2010Prop31
280
     0
102
RTVSPost2010PropOp31
 70
     1
102
RTVSPost2010Prop32
280
     0
102
RTVSPost2010PropOp32
 70
     1
102
RTVSPost2010Prop33
280
     0
102
RTVSPost2010PropOp33
 70
     1
102
RTVSPost2010Prop34
280
     0
102
RTVSPost2010PropOp34
 70
     1
102
RTVSPost2010Prop35
280
     0
102
RTVSPost2010PropOp35
 70
     1
102
RTVSPost2010Prop36
280
     0
102
RTVSPost2010PropOp36
 70
     1
102
RTVSPost2010Prop37
 90
       50
102
RTVSPost2010PropOp37
 70
     1
102
RTVSPost2010Prop38
140
0.0
102
RTVSPost2010PropOp38
 70
     1
102
RTVSPost2010Prop39
140
1.0
102
RTVSPost2010PropOp39
 70
     1
102
RTVSPost2010Prop40
 90
        0
102
RTVSPost2010PropOp40
 70
     1
102
RTVSPost2010Prop41ColorIndex
 90
       18
102
RTVSPost2010Prop41ColorRGB
 90
        0
102
RTVSPost2010PropOp41
 70
     1
102
RTVSPost2010Prop42
 90
       50
102
RTVSPost2010PropOp42
 70
     1
102
RTVSPost2010Prop43
 90
        3
102
RTVSPost2010PropOp43
 70
     1
102
RTVSPost2010Prop44ColorIndex
 90
        5
102
RTVSPost2010Prop44ColorRGB
 90
      255
102
RTVSPost2010PropOp44
 70
     1
102
RTVSPost2010Prop45
280
     0
102
RTVSPost2010PropOp45
 70
     1
102
RTVSPost2010Prop46
 90
       50
102
RTVSPost2010PropOp46
 70
     1
102
RTVSPost2010Prop47
 90
       50
102
RTVSPost2010PropOp47
 70
     1
102
RTVSPost2010Prop48
 90
       50
102
RTVSPost2010PropOp48
 70
     1
102
RTVSPost2010Prop49
280
     0
102
RTVSPost2010PropOp49
 70
     1
102
RTVSPost2010Prop50
 90
       50
102
RTVSPost2010PropOp50
 70
     1
102
RTVSPost2010Prop51ColorIndex
 90
      256
102
RTVSPost2010Prop51ColorRGB
 90
-16777216
102
RTVSPost2010PropOp51
 70
     0
102
RTVSPost2010Prop52
140
1.0
102
RTVSPost2010PropOp52
 70
     0
102
RTVSPost2010Prop53
 90
        2
102
RTVSPost2010PropOp53
 70
     1
102
RTVSPost2010Prop54
  1
strokes_ogs.tif
102
RTVSPost2010PropOp54
 70
     1
102
RTVSPost2010Prop55
280
     0
102
RTVSPost2010PropOp55
 70
     1
102
RTVSPost2010Prop56
140
1.0
102
RTVSPost2010PropOp56
 70
     1
102
RTVSPost2010Prop57
140
1.0
102
RTVSPost2010PropOp57
 70
     1
102
RTVSPropertyOp0
 70
     1
102
RTVSPropertyOp1
 70
     1
102
RTVSPropertyOp2
 70
     1
102
RTVSPropertyOp3
 70
     1
102
RTVSPropertyOp4
 70
     1
102
RTVSPropertyOp5
 70
     1
102
RTVSPropertyOp6
 70
     1
102
RTVSPropertyOp7
 70
     1
102
RTVSPropertyOp8
 70
     1
102
RTVSPropertyOp9
 70
     1
102
RTVSPropertyOp10
 70
     1
102
RTVSPropertyOp11
 70
     1
102
RTVSPropertyOp12
 70
     1
102
RTVSPropertyOp13
 70
     1
102
RTVSPropertyOp14
 70
     1
102
RTVSPropertyOp15
 70
     1
102
RTVSPropertyOp16
 70
     1
102
RTVSPropertyOp17
 70
     1
102
RTVSPropertyOp18
 70
     1
102
RTVSPropertyOp19
 70
     1
102
RTVSPropertyOp20
 70
     1
102
RTVSPropertyOp21
 70
     1
102
RTVSPropertyOp22
 70
     1
102
RTVSPropertyOp23
 70
     1
102
RTVSPropertyOp24
 70
     1
102
RTVSPropertyOp25
 70
     1
102
RTVSPropertyOp26
 70
     1
102
RTVSPropertyOp27
 70
     1
102
RTVSPropertyOp28
 70
     1
102
RTVSPropertyOp29
 70
     1
102
RTVSPropertyOp30
 70
     1
102
RTVSPropertyOp31
 70
     1
102
RTVSPropertyOp32
 70
     1
102
RTVSPropertyOp33
 70
     1
102
RTVSPropertyOp34
 70
     1
102
RTVSPropertyOp35
 70
     1
102
RTVSPropertyOp36
 70
     1
102
RTVSPropertyOp37
 70
     1
102
RTVSPropertyOp38
 70
     1
102
RTVSPropertyOp39
 70
     1
102
RTVSPropertyOp40
 70
     1
102
RTVSPropertyOp41
 70
     1
102
RTVSPropertyOp42
 70
     1
102
RTVSPropertyOp43
 70
     1
102
RTVSPropertyOp44
 70
     1
102
RTVSPropertyOp45
 70
     1
102
RTVSPropertyOp46
 70
     1
102
RTVSPropertyOp47
 70
     1
102
RTVSPropertyOp48
 70
     1
102
RTVSPropertyOp49
 70
     1
102
RTVSPropertyOp50
 70
     1
102
RTVSPropertyOp51
 70
     0
102
RTVSPropertyOp52
 70
     0
102
RTVSPropertyOp53
 70
     1
102
RTVSPropertyOp54
 70
     1
102
RTVSPropertyOp55
 70
     1
102
RTVSPropertyOp56
 70
     1
102
RTVSPropertyOp57
 70
     1
102
RTVSPropertyOp58
 70
     1
102
RTVSPropertyOp59
 70
     1
102
RTVSPropertyOp60
 70
     1
102
RTVSPropertyOp61
 70
     1
102
RTVSPropertyOp62
 70
     1
  0
XRECORD
  5
3B5
102
{ACAD_REACTORS
330
3B4
102
}
330
3B4
100
AcDbXrecord
280
     1
102
RTVSPost2010Prop28
280
     0
102
RTVSPost2010PropOp28
 70
     1
102
RTVSPost2010Prop29
280
     1
102
RTVSPost2010PropOp29
 70
     1
102
RTVSPost2010Prop30
280
     1
102
RTVSPost2010PropOp30
 70
     1
102
RTVSPost2010Prop31
280
     0
102
RTVSPost2010PropOp31
 70
     1
102
RTVSPost2010Prop32
280
     0
102
RTVSPost2010PropOp32
 70
     1
102
RTVSPost2010Prop33
280
     0
102
RTVSPost2010PropOp33
 70
     1
102
RTVSPost2010Prop34
280
     0
102
RTVSPost2010PropOp34
 70
     1
102
RTVSPost2010Prop35
280
     0
102
RTVSPost2010PropOp35
 70
     1
102
RTVSPost2010Prop36
280
     0
102
RTVSPost2010PropOp36
 70
     1
102
RTVSPost2010Prop37
 90
       50
102
RTVSPost2010PropOp37
 70
     1
102
RTVSPost2010Prop38
140
0.0
102
RTVSPost2010PropOp38
 70
     1
102
RTVSPost2010Prop39
140
1.0
102
RTVSPost2010PropOp39
 70
     1
102
RTVSPost2010Prop40
 90
        0
102
RTVSPost2010PropOp40
 70
     1
102
RTVSPost2010Prop41ColorIndex
 90
       18
102
RTVSPost2010Prop41ColorRGB
 90
        0
102
RTVSPost2010PropOp41
 70
     1
102
RTVSPost2010Prop42
 90
       50
102
RTVSPost2010PropOp42
 70
     1
102
RTVSPost2010Prop43
 90
        3
102
RTVSPost2010PropOp43
 70
     1
102
RTVSPost2010Prop44ColorIndex
 90
        5
102
RTVSPost2010Prop44ColorRGB
 90
      255
102
RTVSPost2010PropOp44
 70
     1
102
RTVSPost2010Prop45
280
     0
102
RTVSPost2010PropOp45
 70
     1
102
RTVSPost2010Prop46
 90
       50
102
RTVSPost2010PropOp46
 70
     1
102
RTVSPost2010Prop47
 90
       50
102
RTVSPost2010PropOp47
 70
     1
102
RTVSPost2010Prop48
 90
       50
102
RTVSPost2010PropOp48
 70
     1
102
RTVSPost2010Prop49
280
     0
102
RTVSPost2010PropOp49
 70
     1
102
RTVSPost2010Prop50
 90
       50
102
RTVSPost2010PropOp50
 70
     1
102
RTVSPost2010Prop51ColorIndex
 90
      256
102
RTVSPost2010Prop51ColorRGB
 90
-16777216
102
RTVSPost2010PropOp51
 70
     0
102
RTVSPost2010Prop52
140
1.0
102
RTVSPost2010PropOp52
 70
     0
102
RTVSPost2010Prop53
 90
        2
102
RTVSPost2010PropOp53
 70
     1
102
RTVSPost2010Prop54
  1
strokes_ogs.tif
102
RTVSPost2010PropOp54
 70
     1
102
RTVSPost2010Prop55
280
     0
102
RTVSPost2010PropOp55
 70
     1
102
RTVSPost2010Prop56
140
1.0
102
RTVSPost2010PropOp56
 70
     1
102
RTVSPost2010Prop57
140
1.0
102
RTVSPost2010PropOp57
 70
     1
102
RTVSPropertyOp0
 70
     1
102
RTVSPropertyOp1
 70
     1
102
RTVSPropertyOp2
 70
     1
102
RTVSPropertyOp3
 70
     1
102
RTVSPropertyOp4
 70
     1
102
RTVSPropertyOp5
 70
     1
102
RTVSPropertyOp6
 70
     1
102
RTVSPropertyOp7
 70
     1
102
RTVSPropertyOp8
 70
     1
102
RTVSPropertyOp9
 70
     1
102
RTVSPropertyOp10
 70
     1
102
RTVSPropertyOp11
 70
     1
102
RTVSPropertyOp12
 70
     1
102
RTVSPropertyOp13
 70
     1
102
RTVSPropertyOp14
 70
     1
102
RTVSPropertyOp15
 70
     1
102
RTVSPropertyOp16
 70
     1
102
RTVSPropertyOp17
 70
     1
102
RTVSPropertyOp18
 70
     1
102
RTVSPropertyOp19
 70
     1
102
RTVSPropertyOp20
 70
     1
102
RTVSPropertyOp21
 70
     1
102
RTVSPropertyOp22
 70
     1
102
RTVSPropertyOp23
 70
     1
102
RTVSPropertyOp24
 70
     1
102
RTVSPropertyOp25
 70
     1
102
RTVSPropertyOp26
 70
     1
102
RTVSPropertyOp27
 70
     1
102
RTVSPropertyOp28
 70
     1
102
RTVSPropertyOp29
 70
     1
102
RTVSPropertyOp30
 70
     1
102
RTVSPropertyOp31
 70
     1
102
RTVSPropertyOp32
 70
     1
102
RTVSPropertyOp33
 70
     1
102
RTVSPropertyOp34
 70
     1
102
RTVSPropertyOp35
 70
     1
102
RTVSPropertyOp36
 70
     1
102
RTVSPropertyOp37
 70
     1
102
RTVSPropertyOp38
 70
     1
102
RTVSPropertyOp39
 70
     1
102
RTVSPropertyOp40
 70
     1
102
RTVSPropertyOp41
 70
     1
102
RTVSPropertyOp42
 70
     1
102
RTVSPropertyOp43
 70
     1
102
RTVSPropertyOp44
 70
     1
102
RTVSPropertyOp45
 70
     1
102
RTVSPropertyOp46
 70
     1
102
RTVSPropertyOp47
 70
     1
102
RTVSPropertyOp48
 70
     1
102
RTVSPropertyOp49
 70
     1
102
RTVSPropertyOp50
 70
     1
102
RTVSPropertyOp51
 70
     0
102
RTVSPropertyOp52
 70
     0
102
RTVSPropertyOp53
 70
     1
102
RTVSPropertyOp54
 70
     1
102
RTVSPropertyOp55
 70
     1
102
RTVSPropertyOp56
 70
     1
102
RTVSPropertyOp57
 70
     1
102
RTVSPropertyOp58
 70
     1
102
RTVSPropertyOp59
 70
     1
102
RTVSPropertyOp60
 70
     1
102
RTVSPropertyOp61
 70
     1
102
RTVSPropertyOp62
 70
     1
  0
XRECORD
  5
3AB
102
{ACAD_REACTORS
330
3AA
102
}
330
3AA
100
AcDbXrecord
280
     1
102
RTVSPost2010Prop28
280
     0
102
RTVSPost2010PropOp28
 70
     1
102
RTVSPost2010Prop29
280
     1
102
RTVSPost2010PropOp29
 70
     1
102
RTVSPost2010Prop30
280
     1
102
RTVSPost2010PropOp30
 70
     1
102
RTVSPost2010Prop31
280
     0
102
RTVSPost2010PropOp31
 70
     1
102
RTVSPost2010Prop32
280
     0
102
RTVSPost2010PropOp32
 70
     1
102
RTVSPost2010Prop33
280
     0
102
RTVSPost2010PropOp33
 70
     1
102
RTVSPost2010Prop34
280
     0
102
RTVSPost2010PropOp34
 70
     1
102
RTVSPost2010Prop35
280
     0
102
RTVSPost2010PropOp35
 70
     1
102
RTVSPost2010Prop36
280
     0
102
RTVSPost2010PropOp36
 70
     1
102
RTVSPost2010Prop37
 90
       50
102
RTVSPost2010PropOp37
 70
     1
102
RTVSPost2010Prop38
140
0.0
102
RTVSPost2010PropOp38
 70
     1
102
RTVSPost2010Prop39
140
1.0
102
RTVSPost2010PropOp39
 70
     1
102
RTVSPost2010Prop40
 90
        0
102
RTVSPost2010PropOp40
 70
     1
102
RTVSPost2010Prop41ColorIndex
 90
       18
102
RTVSPost2010Prop41ColorRGB
 90
        0
102
RTVSPost2010PropOp41
 70
     1
102
RTVSPost2010Prop42
 90
       50
102
RTVSPost2010PropOp42
 70
     1
102
RTVSPost2010Prop43
 90
        3
102
RTVSPost2010PropOp43
 70
     1
102
RTVSPost2010Prop44ColorIndex
 90
        5
102
RTVSPost2010Prop44ColorRGB
 90
      255
102
RTVSPost2010PropOp44
 70
     1
102
RTVSPost2010Prop45
280
     0
102
RTVSPost2010PropOp45
 70
     1
102
RTVSPost2010Prop46
 90
       50
102
RTVSPost2010PropOp46
 70
     1
102
RTVSPost2010Prop47
 90
       50
102
RTVSPost2010PropOp47
 70
     1
102
RTVSPost2010Prop48
 90
       50
102
RTVSPost2010PropOp48
 70
     1
102
RTVSPost2010Prop49
280
     0
102
RTVSPost2010PropOp49
 70
     1
102
RTVSPost2010Prop50
 90
       50
102
RTVSPost2010PropOp50
 70
     1
102
RTVSPost2010Prop51ColorIndex
 90
      256
102
RTVSPost2010Prop51ColorRGB
 90
-16777216
102
RTVSPost2010PropOp51
 70
     0
102
RTVSPost2010Prop52
140
1.0
102
RTVSPost2010PropOp52
 70
     0
102
RTVSPost2010Prop53
 90
        2
102
RTVSPost2010PropOp53
 70
     1
102
RTVSPost2010Prop54
  1
strokes_ogs.tif
102
RTVSPost2010PropOp54
 70
     1
102
RTVSPost2010Prop55
280
     0
102
RTVSPost2010PropOp55
 70
     1
102
RTVSPost2010Prop56
140
1.0
102
RTVSPost2010PropOp56
 70
     1
102
RTVSPost2010Prop57
140
1.0
102
RTVSPost2010PropOp57
 70
     1
102
RTVSPropertyOp0
 70
     1
102
RTVSPropertyOp1
 70
     1
102
RTVSPropertyOp2
 70
     1
102
RTVSPropertyOp3
 70
     1
102
RTVSPropertyOp4
 70
     1
102
RTVSPropertyOp5
 70
     1
102
RTVSPropertyOp6
 70
     1
102
RTVSPropertyOp7
 70
     1
102
RTVSPropertyOp8
 70
     1
102
RTVSPropertyOp9
 70
     1
102
RTVSPropertyOp10
 70
     1
102
RTVSPropertyOp11
 70
     1
102
RTVSPropertyOp12
 70
     1
102
RTVSPropertyOp13
 70
     1
102
RTVSPropertyOp14
 70
     1
102
RTVSPropertyOp15
 70
     1
102
RTVSPropertyOp16
 70
     1
102
RTVSPropertyOp17
 70
     1
102
RTVSPropertyOp18
 70
     1
102
RTVSPropertyOp19
 70
     1
102
RTVSPropertyOp20
 70
     1
102
RTVSPropertyOp21
 70
     1
102
RTVSPropertyOp22
 70
     1
102
RTVSPropertyOp23
 70
     1
102
RTVSPropertyOp24
 70
     1
102
RTVSPropertyOp25
 70
     1
102
RTVSPropertyOp26
 70
     1
102
RTVSPropertyOp27
 70
     1
102
RTVSPropertyOp28
 70
     1
102
RTVSPropertyOp29
 70
     1
102
RTVSPropertyOp30
 70
     1
102
RTVSPropertyOp31
 70
     1
102
RTVSPropertyOp32
 70
     1
102
RTVSPropertyOp33
 70
     1
102
RTVSPropertyOp34
 70
     1
102
RTVSPropertyOp35
 70
     1
102
RTVSPropertyOp36
 70
     1
102
RTVSPropertyOp37
 70
     1
102
RTVSPropertyOp38
 70
     1
102
RTVSPropertyOp39
 70
     1
102
RTVSPropertyOp40
 70
     1
102
RTVSPropertyOp41
 70
     1
102
RTVSPropertyOp42
 70
     1
102
RTVSPropertyOp43
 70
     1
102
RTVSPropertyOp44
 70
     1
102
RTVSPropertyOp45
 70
     1
102
RTVSPropertyOp46
 70
     1
102
RTVSPropertyOp47
 70
     1
102
RTVSPropertyOp48
 70
     1
102
RTVSPropertyOp49
 70
     1
102
RTVSPropertyOp50
 70
     1
102
RTVSPropertyOp51
 70
     0
102
RTVSPropertyOp52
 70
     0
102
RTVSPropertyOp53
 70
     1
102
RTVSPropertyOp54
 70
     1
102
RTVSPropertyOp55
 70
     1
102
RTVSPropertyOp56
 70
     1
102
RTVSPropertyOp57
 70
     1
102
RTVSPropertyOp58
 70
     1
102
RTVSPropertyOp59
 70
     1
102
RTVSPropertyOp60
 70
     1
102
RTVSPropertyOp61
 70
     1
102
RTVSPropertyOp62
 70
     1
  0
XRECORD
  5
39F
102
{ACAD_REACTORS
330
39E
102
}
330
39E
100
AcDbXrecord
280
     1
102
RTVSPost2010Prop28
280
     0
102
RTVSPost2010PropOp28
 70
     1
102
RTVSPost2010Prop29
280
     1
102
RTVSPost2010PropOp29
 70
     1
102
RTVSPost2010Prop30
280
     1
102
RTVSPost2010PropOp30
 70
     1
102
RTVSPost2010Prop31
280
     0
102
RTVSPost2010PropOp31
 70
     1
102
RTVSPost2010Prop32
280
     0
102
RTVSPost2010PropOp32
 70
     1
102
RTVSPost2010Prop33
280
     0
102
RTVSPost2010PropOp33
 70
     1
102
RTVSPost2010Prop34
280
     0
102
RTVSPost2010PropOp34
 70
     1
102
RTVSPost2010Prop35
280
     0
102
RTVSPost2010PropOp35
 70
     1
102
RTVSPost2010Prop36
280
     0
102
RTVSPost2010PropOp36
 70
     1
102
RTVSPost2010Prop37
 90
       50
102
RTVSPost2010PropOp37
 70
     1
102
RTVSPost2010Prop38
140
0.0
102
RTVSPost2010PropOp38
 70
     1
102
RTVSPost2010Prop39
140
1.0
102
RTVSPost2010PropOp39
 70
     1
102
RTVSPost2010Prop40
 90
        0
102
RTVSPost2010PropOp40
 70
     1
102
RTVSPost2010Prop41ColorIndex
 90
       18
102
RTVSPost2010Prop41ColorRGB
 90
        0
102
RTVSPost2010PropOp41
 70
     1
102
RTVSPost2010Prop42
 90
       50
102
RTVSPost2010PropOp42
 70
     1
102
RTVSPost2010Prop43
 90
        3
102
RTVSPost2010PropOp43
 70
     1
102
RTVSPost2010Prop44ColorIndex
 90
        5
102
RTVSPost2010Prop44ColorRGB
 90
      255
102
RTVSPost2010PropOp44
 70
     1
102
RTVSPost2010Prop45
280
     0
102
RTVSPost2010PropOp45
 70
     1
102
RTVSPost2010Prop46
 90
       50
102
RTVSPost2010PropOp46
 70
     1
102
RTVSPost2010Prop47
 90
       50
102
RTVSPost2010PropOp47
 70
     1
102
RTVSPost2010Prop48
 90
       50
102
RTVSPost2010PropOp48
 70
     1
102
RTVSPost2010Prop49
280
     0
102
RTVSPost2010PropOp49
 70
     1
102
RTVSPost2010Prop50
 90
       50
102
RTVSPost2010PropOp50
 70
     1
102
RTVSPost2010Prop51ColorIndex
 90
      256
102
RTVSPost2010Prop51ColorRGB
 90
-16777216
102
RTVSPost2010PropOp51
 70
     0
102
RTVSPost2010Prop52
140
1.0
102
RTVSPost2010PropOp52
 70
     0
102
RTVSPost2010Prop53
 90
        2
102
RTVSPost2010PropOp53
 70
     1
102
RTVSPost2010Prop54
  1
strokes_ogs.tif
102
RTVSPost2010PropOp54
 70
     1
102
RTVSPost2010Prop55
280
     0
102
RTVSPost2010PropOp55
 70
     1
102
RTVSPost2010Prop56
140
1.0
102
RTVSPost2010PropOp56
 70
     1
102
RTVSPost2010Prop57
140
1.0
102
RTVSPost2010PropOp57
 70
     1
102
RTVSPropertyOp0
 70
     1
102
RTVSPropertyOp1
 70
     1
102
RTVSPropertyOp2
 70
     1
102
RTVSPropertyOp3
 70
     1
102
RTVSPropertyOp4
 70
     1
102
RTVSPropertyOp5
 70
     1
102
RTVSPropertyOp6
 70
     1
102
RTVSPropertyOp7
 70
     1
102
RTVSPropertyOp8
 70
     1
102
RTVSPropertyOp9
 70
     1
102
RTVSPropertyOp10
 70
     1
102
RTVSPropertyOp11
 70
     1
102
RTVSPropertyOp12
 70
     1
102
RTVSPropertyOp13
 70
     1
102
RTVSPropertyOp14
 70
     1
102
RTVSPropertyOp15
 70
     1
102
RTVSPropertyOp16
 70
     1
102
RTVSPropertyOp17
 70
     1
102
RTVSPropertyOp18
 70
     1
102
RTVSPropertyOp19
 70
     1
102
RTVSPropertyOp20
 70
     1
102
RTVSPropertyOp21
 70
     1
102
RTVSPropertyOp22
 70
     1
102
RTVSPropertyOp23
 70
     1
102
RTVSPropertyOp24
 70
     1
102
RTVSPropertyOp25
 70
     1
102
RTVSPropertyOp26
 70
     1
102
RTVSPropertyOp27
 70
     1
102
RTVSPropertyOp28
 70
     1
102
RTVSPropertyOp29
 70
     1
102
RTVSPropertyOp30
 70
     1
102
RTVSPropertyOp31
 70
     1
102
RTVSPropertyOp32
 70
     1
102
RTVSPropertyOp33
 70
     1
102
RTVSPropertyOp34
 70
     1
102
RTVSPropertyOp35
 70
     1
102
RTVSPropertyOp36
 70
     1
102
RTVSPropertyOp37
 70
     1
102
RTVSPropertyOp38
 70
     1
102
RTVSPropertyOp39
 70
     1
102
RTVSPropertyOp40
 70
     1
102
RTVSPropertyOp41
 70
     1
102
RTVSPropertyOp42
 70
     1
102
RTVSPropertyOp43
 70
     1
102
RTVSPropertyOp44
 70
     1
102
RTVSPropertyOp45
 70
     1
102
RTVSPropertyOp46
 70
     1
102
RTVSPropertyOp47
 70
     1
102
RTVSPropertyOp48
 70
     1
102
RTVSPropertyOp49
 70
     1
102
RTVSPropertyOp50
 70
     1
102
RTVSPropertyOp51
 70
     0
102
RTVSPropertyOp52
 70
     0
102
RTVSPropertyOp53
 70
     1
102
RTVSPropertyOp54
 70
     1
102
RTVSPropertyOp55
 70
     1
102
RTVSPropertyOp56
 70
     1
102
RTVSPropertyOp57
 70
     1
102
RTVSPropertyOp58
 70
     1
102
RTVSPropertyOp59
 70
     1
102
RTVSPropertyOp60
 70
     1
102
RTVSPropertyOp61
 70
     1
102
RTVSPropertyOp62
 70
     1
  0
XRECORD
  5
3B7
102
{ACAD_REACTORS
330
3B6
102
}
330
3B6
100
AcDbXrecord
280
     1
102
RTVSPost2010Prop28
280
     0
102
RTVSPost2010PropOp28
 70
     1
102
RTVSPost2010Prop29
280
     1
102
RTVSPost2010PropOp29
 70
     1
102
RTVSPost2010Prop30
280
     1
102
RTVSPost2010PropOp30
 70
     1
102
RTVSPost2010Prop31
280
     0
102
RTVSPost2010PropOp31
 70
     1
102
RTVSPost2010Prop32
280
     0
102
RTVSPost2010PropOp32
 70
     1
102
RTVSPost2010Prop33
280
     0
102
RTVSPost2010PropOp33
 70
     1
102
RTVSPost2010Prop34
280
     0
102
RTVSPost2010PropOp34
 70
     1
102
RTVSPost2010Prop35
280
     0
102
RTVSPost2010PropOp35
 70
     1
102
RTVSPost2010Prop36
280
     0
102
RTVSPost2010PropOp36
 70
     1
102
RTVSPost2010Prop37
 90
       50
102
RTVSPost2010PropOp37
 70
     1
102
RTVSPost2010Prop38
140
0.0
102
RTVSPost2010PropOp38
 70
     1
102
RTVSPost2010Prop39
140
1.0
102
RTVSPost2010PropOp39
 70
     1
102
RTVSPost2010Prop40
 90
        0
102
RTVSPost2010PropOp40
 70
     1
102
RTVSPost2010Prop41ColorIndex
 90
       18
102
RTVSPost2010Prop41ColorRGB
 90
        0
102
RTVSPost2010PropOp41
 70
     1
102
RTVSPost2010Prop42
 90
       50
102
RTVSPost2010PropOp42
 70
     1
102
RTVSPost2010Prop43
 90
        3
102
RTVSPost2010PropOp43
 70
     1
102
RTVSPost2010Prop44ColorIndex
 90
        5
102
RTVSPost2010Prop44ColorRGB
 90
      255
102
RTVSPost2010PropOp44
 70
     1
102
RTVSPost2010Prop45
280
     0
102
RTVSPost2010PropOp45
 70
     1
102
RTVSPost2010Prop46
 90
       50
102
RTVSPost2010PropOp46
 70
     1
102
RTVSPost2010Prop47
 90
       50
102
RTVSPost2010PropOp47
 70
     1
102
RTVSPost2010Prop48
 90
       50
102
RTVSPost2010PropOp48
 70
     1
102
RTVSPost2010Prop49
280
     0
102
RTVSPost2010PropOp49
 70
     1
102
RTVSPost2010Prop50
 90
       50
102
RTVSPost2010PropOp50
 70
     1
102
RTVSPost2010Prop51ColorIndex
 90
      256
102
RTVSPost2010Prop51ColorRGB
 90
-16777216
102
RTVSPost2010PropOp51
 70
     0
102
RTVSPost2010Prop52
140
1.0
102
RTVSPost2010PropOp52
 70
     0
102
RTVSPost2010Prop53
 90
        2
102
RTVSPost2010PropOp53
 70
     1
102
RTVSPost2010Prop54
  1
strokes_ogs.tif
102
RTVSPost2010PropOp54
 70
     1
102
RTVSPost2010Prop55
280
     0
102
RTVSPost2010PropOp55
 70
     1
102
RTVSPost2010Prop56
140
1.0
102
RTVSPost2010PropOp56
 70
     1
102
RTVSPost2010Prop57
140
1.0
102
RTVSPost2010PropOp57
 70
     1
102
RTVSPropertyOp0
 70
     1
102
RTVSPropertyOp1
 70
     1
102
RTVSPropertyOp2
 70
     1
102
RTVSPropertyOp3
 70
     1
102
RTVSPropertyOp4
 70
     1
102
RTVSPropertyOp5
 70
     1
102
RTVSPropertyOp6
 70
     1
102
RTVSPropertyOp7
 70
     1
102
RTVSPropertyOp8
 70
     1
102
RTVSPropertyOp9
 70
     1
102
RTVSPropertyOp10
 70
     1
102
RTVSPropertyOp11
 70
     1
102
RTVSPropertyOp12
 70
     1
102
RTVSPropertyOp13
 70
     1
102
RTVSPropertyOp14
 70
     1
102
RTVSPropertyOp15
 70
     1
102
RTVSPropertyOp16
 70
     1
102
RTVSPropertyOp17
 70
     1
102
RTVSPropertyOp18
 70
     1
102
RTVSPropertyOp19
 70
     1
102
RTVSPropertyOp20
 70
     1
102
RTVSPropertyOp21
 70
     1
102
RTVSPropertyOp22
 70
     1
102
RTVSPropertyOp23
 70
     1
102
RTVSPropertyOp24
 70
     1
102
RTVSPropertyOp25
 70
     1
102
RTVSPropertyOp26
 70
     1
102
RTVSPropertyOp27
 70
     1
102
RTVSPropertyOp28
 70
     1
102
RTVSPropertyOp29
 70
     1
102
RTVSPropertyOp30
 70
     1
102
RTVSPropertyOp31
 70
     1
102
RTVSPropertyOp32
 70
     1
102
RTVSPropertyOp33
 70
     1
102
RTVSPropertyOp34
 70
     1
102
RTVSPropertyOp35
 70
     1
102
RTVSPropertyOp36
 70
     1
102
RTVSPropertyOp37
 70
     1
102
RTVSPropertyOp38
 70
     1
102
RTVSPropertyOp39
 70
     1
102
RTVSPropertyOp40
 70
     1
102
RTVSPropertyOp41
 70
     1
102
RTVSPropertyOp42
 70
     1
102
RTVSPropertyOp43
 70
     1
102
RTVSPropertyOp44
 70
     1
102
RTVSPropertyOp45
 70
     1
102
RTVSPropertyOp46
 70
     1
102
RTVSPropertyOp47
 70
     1
102
RTVSPropertyOp48
 70
     1
102
RTVSPropertyOp49
 70
     1
102
RTVSPropertyOp50
 70
     1
102
RTVSPropertyOp51
 70
     0
102
RTVSPropertyOp52
 70
     0
102
RTVSPropertyOp53
 70
     1
102
RTVSPropertyOp54
 70
     1
102
RTVSPropertyOp55
 70
     1
102
RTVSPropertyOp56
 70
     1
102
RTVSPropertyOp57
 70
     1
102
RTVSPropertyOp58
 70
     1
102
RTVSPropertyOp59
 70
     1
102
RTVSPropertyOp60
 70
     1
102
RTVSPropertyOp61
 70
     1
102
RTVSPropertyOp62
 70
     1
  0
ENDSEC
  0
EOF
