  0
SECTION
  2
HEADER
  9
$ACADVER
  1
AC1024
  9
$ACADMAINTVER
 70
   109
  9
$DWGCODEPAGE
  3
ANSI_932
  9
$LASTSAVEDBY
  1
kuramoct
  9
$INSBASE
 10
0.0
 20
0.0
 30
0.0
  9
$EXTMIN
 10
-166.2067764525645
 20
102.1617287157123
 30
-0.0015258207003583
  9
$EXTMAX
 10
-79.24834784486211
 20
246.5694586406106
 30
0.0000000349246037
  9
$LIMMIN
 10
0.0
 20
0.0
  9
$LIMMAX
 10
420.0
 20
297.0
  9
$ORTHOMODE
 70
     0
  9
$REGENMODE
 70
     1
  9
$FILLMODE
 70
     1
  9
$QTEXTMODE
 70
     0
  9
$MIRRTEXT
 70
     0
  9
$LTSCALE
 40
1.0
  9
$ATTMODE
 70
     1
  9
$TEXTSIZE
 40
3.5
  9
$TRACEWID
 40
1.0
  9
$TEXTSTYLE
  7
romans
  9
$CLAYER
  8
DIM
  9
$CELTYPE
  6
ByLayer
  9
$CECOLOR
 62
   256
  9
$CELTSCALE
 40
0.1
  9
$DISPSILH
 70
     0
  9
$DIMSCALE
 40
1.0
  9
$DIMASZ
 40
2.5
  9
$DIMEXO
 40
1.0
  9
$DIMDLI
 40
8.0
  9
$DIMRND
 40
0.0
  9
$DIMDLE
 40
0.0
  9
$DIMEXE
 40
1.0
  9
$DIMTP
 40
0.1
  9
$DIMTM
 40
0.1000000001
  9
$DIMTXT
 40
3.5
  9
$DIMCEN
 40
2.0
  9
$DIMTSZ
 40
0.0
  9
$DIMTOL
 70
     0
  9
$DIMLIM
 70
     0
  9
$DIMTIH
 70
     0
  9
$DIMTOH
 70
     0
  9
$DIMSE1
 70
     0
  9
$DIMSE2
 70
     0
  9
$DIMTAD
 70
     3
  9
$DIMZIN
 70
     8
  9
$DIMBLK
  1

  9
$DIMASO
 70
     1
  9
$DIMSHO
 70
     1
  9
$DIMPOST
  1

  9
$DIMAPOST
  1

  9
$DIMALT
 70
     0
  9
$DIMALTD
 70
     3
  9
$DIMALTF
 40
0.03937007874016
  9
$DIMLFAC
 40
1.0
  9
$DIMTOFL
 70
     1
  9
$DIMTVP
 40
0.0
  9
$DIMTIX
 70
     0
  9
$DIMSOXD
 70
     0
  9
$DIMSAH
 70
     0
  9
$DIMBLK1
  1

  9
$DIMBLK2
  1

  9
$DIMSTYLE
  2
1：1
  9
$DIMCLRD
 70
   256
  9
$DIMCLRE
 70
   256
  9
$DIMCLRT
 70
   256
  9
$DIMTFAC
 40
0.5
  9
$DIMGAP
 40
0.5
  9
$DIMJUST
 70
     0
  9
$DIMSD1
 70
     0
  9
$DIMSD2
 70
     0
  9
$DIMTOLJ
 70
     1
  9
$DIMTZIN
 70
     8
  9
$DIMALTZ
 70
     0
  9
$DIMALTTZ
 70
     0
  9
$DIMUPT
 70
     0
  9
$DIMDEC
 70
     1
  9
$DIMTDEC
 70
     1
  9
$DIMALTU
 70
     2
  9
$DIMALTTD
 70
     3
  9
$DIMTXSTY
  7
romans
  9
$DIMAUNIT
 70
     0
  9
$DIMADEC
 70
     0
  9
$DIMALTRND
 40
0.0
  9
$DIMAZIN
 70
     2
  9
$DIMDSEP
 70
    46
  9
$DIMATFIT
 70
     3
  9
$DIMFRAC
 70
     0
  9
$DIMLDRBLK
  1

  9
$DIMLUNIT
 70
     2
  9
$DIMLWD
 70
    -1
  9
$DIMLWE
 70
    -1
  9
$DIMTMOVE
 70
     2
  9
$DIMFXL
 40
1.0
  9
$DIMFXLON
 70
     0
  9
$DIMJOGANG
 40
0.7853981633974483
  9
$DIMTFILL
 70
     0
  9
$DIMTFILLCLR
 70
     0
  9
$DIMARCSYM
 70
     0
  9
$DIMLTYPE
  6

  9
$DIMLTEX1
  6
ByLayer
  9
$DIMLTEX2
  6
ByLayer
  9
$DIMTXTDIRECTION
 70
     0
  9
$LUNITS
 70
     2
  9
$LUPREC
 70
     2
  9
$SKETCHINC
 40
1.0
  9
$FILLETRAD
 40
1.0
  9
$AUNITS
 70
     0
  9
$AUPREC
 70
     0
  9
$MENU
  1
.
  9
$ELEVATION
 40
0.0
  9
$PELEVATION
 40
0.0
  9
$THICKNESS
 40
0.0
  9
$LIMCHECK
 70
     0
  9
$CHAMFERA
 40
0.5
  9
$CHAMFERB
 40
0.5
  9
$CHAMFERC
 40
0.0
  9
$CHAMFERD
 40
0.0
  9
$SKPOLY
 70
     0
  9
$TDCREATE
 40
2455943.405778889
  9
$TDUCREATE
 40
2455943.030778889
  9
$TDUPDATE
 40
2456273.721627419
  9
$TDUUPDATE
 40
2456273.346627419
  9
$TDINDWG
 40
4.2438768287
  9
$TDUSRTIMER
 40
4.2438717361
  9
$USRTIMER
 70
     1
  9
$ANGBASE
 50
0.0
  9
$ANGDIR
 70
     0
  9
$PDMODE
 70
     0
  9
$PDSIZE
 40
0.0
  9
$PLINEWID
 40
0.0
  9
$SPLFRAME
 70
     0
  9
$SPLINETYPE
 70
     6
  9
$SPLINESEGS
 70
     8
  9
$HANDSEED
  5
1564B
  9
$SURFTAB1
 70
     6
  9
$SURFTAB2
 70
     6
  9
$SURFTYPE
 70
     6
  9
$SURFU
 70
     6
  9
$SURFV
 70
     6
  9
$UCSBASE
  2

  9
$UCSNAME
  2

  9
$UCSORG
 10
0.0
 20
0.0
 30
0.0
  9
$UCSXDIR
 10
1.0
 20
0.0
 30
0.0
  9
$UCSYDIR
 10
0.0
 20
1.0
 30
0.0
  9
$UCSORTHOREF
  2

  9
$UCSORTHOVIEW
 70
     0
  9
$UCSORGTOP
 10
0.0
 20
0.0
 30
0.0
  9
$UCSORGBOTTOM
 10
0.0
 20
0.0
 30
0.0
  9
$UCSORGLEFT
 10
0.0
 20
0.0
 30
0.0
  9
$UCSORGRIGHT
 10
0.0
 20
0.0
 30
0.0
  9
$UCSORGFRONT
 10
0.0
 20
0.0
 30
0.0
  9
$UCSORGBACK
 10
0.0
 20
0.0
 30
0.0
  9
$PUCSBASE
  2

  9
$PUCSNAME
  2

  9
$PUCSORG
 10
0.0
 20
0.0
 30
0.0
  9
$PUCSXDIR
 10
1.0
 20
0.0
 30
0.0
  9
$PUCSYDIR
 10
0.0
 20
1.0
 30
0.0
  9
$PUCSORTHOREF
  2

  9
$PUCSORTHOVIEW
 70
     0
  9
$PUCSORGTOP
 10
0.0
 20
0.0
 30
0.0
  9
$PUCSORGBOTTOM
 10
0.0
 20
0.0
 30
0.0
  9
$PUCSORGLEFT
 10
0.0
 20
0.0
 30
0.0
  9
$PUCSORGRIGHT
 10
0.0
 20
0.0
 30
0.0
  9
$PUCSORGFRONT
 10
0.0
 20
0.0
 30
0.0
  9
$PUCSORGBACK
 10
0.0
 20
0.0
 30
0.0
  9
$USERI1
 70
     0
  9
$USERI2
 70
     0
  9
$USERI3
 70
     0
  9
$USERI4
 70
     0
  9
$USERI5
 70
     0
  9
$USERR1
 40
0.0
  9
$USERR2
 40
0.0
  9
$USERR3
 40
0.0
  9
$USERR4
 40
0.0
  9
$USERR5
 40
0.0
  9
$WORLDVIEW
 70
     1
  9
$SHADEDGE
 70
     3
  9
$SHADEDIF
 70
    70
  9
$TILEMODE
 70
     1
  9
$MAXACTVP
 70
    64
  9
$PINSBASE
 10
0.0
 20
0.0
 30
0.0
  9
$PLIMCHECK
 70
     0
  9
$PEXTMIN
 10
26.66999878883363
 20
20.31999878883363
 30
0.0
  9
$PEXTMAX
 10
240.0299890995026
 20
182.8799890995025
 30
0.0
  9
$PLIMMIN
 10
-6.350006103515625
 20
-6.349999904632567
  9
$PLIMMAX
 10
273.0499877929688
 20
209.5499939918518
  9
$UNITMODE
 70
     0
  9
$VISRETAIN
 70
     1
  9
$PLINEGEN
 70
     0
  9
$PSLTSCALE
 70
     1
  9
$TREEDEPTH
 70
  3020
  9
$CMLSTYLE
  2
Standard
  9
$CMLJUST
 70
     0
  9
$CMLSCALE
 40
20.0
  9
$PROXYGRAPHICS
 70
     1
  9
$MEASUREMENT
 70
     1
  9
$CELWEIGHT
370
    -1
  9
$ENDCAPS
280
     0
  9
$JOINSTYLE
280
     0
  9
$LWDISPLAY
290
     0
  9
$INSUNITS
 70
     4
  9
$HYPERLINKBASE
  1

  9
$STYLESHEET
  1
SUGIYAMA_A4.STB
  9
$XEDIT
290
     1
  9
$CEPSNTYPE
380
     0
  9
$PSTYLEMODE
290
     0
  9
$FINGERPRINTGUID
  2
{171855D6-AF18-41DD-BCEA-2FB156BCF1D0}
  9
$VERSIONGUID
  2
{A943305E-E20B-447D-8894-50E5B0B2DD18}
  9
$EXTNAMES
290
     1
  9
$PSVPSCALE
 40
0.0
  9
$OLESTARTUP
290
     0
  9
$SORTENTS
280
   127
  9
$INDEXCTL
280
     0
  9
$HIDETEXT
280
     0
  9
$XCLIPFRAME
280
     2
  9
$HALOGAP
280
     0
  9
$OBSCOLOR
 70
   257
  9
$OBSLTYPE
280
     0
  9
$INTERSECTIONDISPLAY
280
     0
  9
$INTERSECTIONCOLOR
 70
   257
  9
$DIMASSOC
280
     1
  9
$PROJECTNAME
  1

  9
$CAMERADISPLAY
290
     0
  9
$LENSLENGTH
 40
50.0
  9
$CAMERAHEIGHT
 40
0.0
  9
$STEPSPERSEC
 40
2.0
  9
$STEPSIZE
 40
6.0
  9
$3DDWFPREC
 40
2.0
  9
$PSOLWIDTH
 40
0.25
  9
$PSOLHEIGHT
 40
4.0
  9
$LOFTANG1
 40
1.570796326794896
  9
$LOFTANG2
 40
1.570796326794896
  9
$LOFTMAG1
 40
0.0
  9
$LOFTMAG2
 40
0.0
  9
$LOFTPARAM
 70
     7
  9
$LOFTNORMALS
280
     1
  9
$LATITUDE
 40
37.795
  9
$LONGITUDE
 40
-122.394
  9
$NORTHDIRECTION
 40
0.0
  9
$TIMEZONE
 70
 -8000
  9
$LIGHTGLYPHDISPLAY
280
     1
  9
$TILEMODELIGHTSYNCH
280
     1
  9
$CMATERIAL
347
D42
  9
$SOLIDHIST
280
     0
  9
$SHOWHIST
280
     1
  9
$DWFFRAME
280
     2
  9
$DGNFRAME
280
     0
  9
$REALWORLDSCALE
290
     1
  9
$INTERFERECOLOR
 62
     1
  9
$INTERFEREOBJVS
345
D64
  9
$INTERFEREVPVS
346
D61
  9
$CSHADOW
280
     0
  9
$SHADOWPLANELOCATION
 40
0.0
  0
ENDSEC
  0
SECTION
  2
CLASSES
  0
CLASS
  1
ACDBDICTIONARYWDFLT
  2
AcDbDictionaryWithDefault
  3
ObjectDBX Classes
 90
        0
 91
        1
280
     0
281
     0
  0
CLASS
  1
DICTIONARYVAR
  2
AcDbDictionaryVar
  3
ObjectDBX Classes
 90
        0
 91
        9
280
     0
281
     0
  0
CLASS
  1
DIMASSOC
  2
AcDbDimAssoc
  3
"AcDbDimAssoc|Product Desc:     AcDim ARX App For Dimension|Company:          Autodesk, Inc.|WEB Address:      www.autodesk.com"
 90
        0
 91
        6
280
     0
281
     0
  0
CLASS
  1
MATERIAL
  2
AcDbMaterial
  3
ObjectDBX Classes
 90
     1153
 91
        3
280
     0
281
     0
  0
CLASS
  1
VISUALSTYLE
  2
AcDbVisualStyle
  3
ObjectDBX Classes
 90
     4095
 91
       26
280
     0
281
     0
  0
CLASS
  1
TABLESTYLE
  2
AcDbTableStyle
  3
ObjectDBX Classes
 90
     4095
 91
        2
280
     0
281
     0
  0
CLASS
  1
SCALE
  2
AcDbScale
  3
ObjectDBX Classes
 90
     1153
 91
       17
280
     0
281
     0
  0
CLASS
  1
MLEADERSTYLE
  2
AcDbMLeaderStyle
  3
ACDB_MLEADERSTYLE_CLASS
 90
     4095
 91
        2
280
     0
281
     0
  0
CLASS
  1
CELLSTYLEMAP
  2
AcDbCellStyleMap
  3
ObjectDBX Classes
 90
     1152
 91
        2
280
     0
281
     0
  0
CLASS
  1
RASTERVARIABLES
  2
AcDbRasterVariables
  3
ISM
 90
        0
 91
        1
280
     0
281
     0
  0
CLASS
  1
IMAGEDEF
  2
AcDbRasterImageDef
  3
ISM
 90
        0
 91
        0
280
     0
281
     0
  0
CLASS
  1
IMAGEDEF_REACTOR
  2
AcDbRasterImageDefReactor
  3
ISM
 90
        1
 91
        0
280
     0
281
     0
  0
CLASS
  1
IMAGE
  2
AcDbRasterImage
  3
ISM
 90
     2175
 91
        0
280
     0
281
     1
  0
CLASS
  1
SORTENTSTABLE
  2
AcDbSortentsTable
  3
ObjectDBX Classes
 90
        0
 91
        1
280
     0
281
     0
  0
CLASS
  1
MULTILEADER
  2
AcDbMLeader
  3
ACDB_MLEADER_CLASS
 90
     1025
 91
        2
280
     0
281
     1
  0
CLASS
  1
EXACXREFPANELOBJECT
  2
ExAcXREFPanelObject
  3
EXAC_ESW
 90
     1025
 91
        0
280
     0
281
     0
  0
CLASS
  1
NPOCOLLECTION
  2
AcDbImpNonPersistentObjectsCollection
  3
ObjectDBX Classes
 90
     1153
 91
        0
280
     0
281
     0
  0
CLASS
  1
ACAD_TABLE
  2
AcDbTable
  3
ObjectDBX Classes
 90
     1025
 91
        0
280
     0
281
     1
  0
CLASS
  1
WIPEOUT
  2
AcDbWipeout
  3
WipeOut|Product Desc: Object Enabler for WipeOut entity | Company: Autodesk, Inc. | WEB Address: www.autodesk.com
 90
     2175
 91
        0
280
     0
281
     1
  0
CLASS
  1
WIPEOUTVARIABLES
  2
AcDbWipeoutVariables
  3
"WipeOut|Product Desc:     WipeOut Dbx Application|Company:          Autodesk, Inc.|WEB Address:      www.autodesk.com"
 90
        0
 91
        1
280
     0
281
     0
  0
CLASS
  1
PLOTSETTINGS
  2
AcDbPlotSettings
  3
ObjectDBX Classes
 90
        0
 91
        2
280
     0
281
     0
  0
CLASS
  1
ACDBSECTIONVIEWSTYLE
  2
AcDbSectionViewStyle
  3
ObjectDBX Classes
 90
     1025
 91
        1
280
     0
281
     0
  0
CLASS
  1
ACDBDETAILVIEWSTYLE
  2
AcDbDetailViewStyle
  3
ObjectDBX Classes
 90
     1025
 91
        1
280
     0
281
     0
  0
CLASS
  1
ACME_DOCUMENT
  2
AcMeDbDoc
  3
AcMeServices
 90
     1024
 91
        2
280
     0
281
     0
  0
CLASS
  1
ACMESCOPE
  2
AcMeScope
  3
AcMeServices
 90
     1024
 91
        1
280
     0
281
     0
  0
CLASS
  1
ACMECOMMANDHISTORY
  2
AcMeCommandHistory
  3
AcMeServices
 90
     1024
 91
        1
280
     0
281
     0
  0
CLASS
  1
ACIMSYSVARMAN
  2
AcImSysVarManager
  3
AcMeServices
 90
     1024
 91
        3
280
     0
281
     0
  0
CLASS
  1
ACIMINTSYSVAR
  2
AcImIntSysVar
  3
AcMeServices
 90
     1024
 91
        2
280
     0
281
     0
  0
CLASS
  1
ACMESTATEMGR
  2
AcMeStateMgr
  3
AcMeServices
 90
     1024
 91
        1
280
     0
281
     0
  0
CLASS
  1
ACDBENTITYCACHE
  2
AcMeEntityCache
  3
AcMeServices
 90
     1024
 91
        1
280
     0
281
     0
  0
CLASS
  1
ACGREFMASTER
  2
AcGrefMaster
  3
AcAttribServices
 90
     1024
 91
        1
280
     0
281
     0
  0
CLASS
  1
ACME_DATABASE
  2
AcMeDbDatabase
  3
AcMeServices
 90
     1024
 91
        1
280
     0
281
     0
  0
CLASS
  1
ACRFINSADJUSTERMGR
  2
AcRfInsAdjusterMgr
  3
AcMeServices
 90
     1024
 91
        1
280
     0
281
     0
  0
CLASS
  1
ACGREFACADMASTER
  2
AcGrefacadMaster
  3
AcGrefServices
 90
     1024
 91
        1
280
     0
281
     0
  0
CLASS
  1
AMDTMENUSTATEMGR
  2
AmdtMenuStateMgr
  3
McadcomServices
 90
     1024
 91
        1
280
     0
281
     0
  0
CLASS
  1
AMDTMCOMMENUSTATE
  2
AmdtMcomMenuState
  3
McadcomServices
 90
     1024
 91
        1
280
     0
281
     0
  0
CLASS
  1
AMIMASTER
  2
AmiMaster
  3
AmiServices
 90
     1024
 91
        1
280
     0
281
     0
  0
CLASS
  1
AMGSETTINGSOBJ
  2
AmgSettingsObj
  3
"AcadM|Product Description: AutoCAD Mechanical|Company: Autodesk, Inc."
 90
     1024
 91
        2
280
     0
281
     0
  0
CLASS
  1
MAPIAMMOUDLE
  2
MApiAmModule
  3
MApiAmServices
 90
     1024
 91
        1
280
     0
281
     0
  0
CLASS
  1
ACIMSTRSYSVAR
  2
AcImStrSysVar
  3
AcMeServices
 90
     1024
 91
        5
280
     0
281
     0
  0
CLASS
  1
AMDTAMMENUSTATE
  2
AmdtAmMenuState
  3
DesignerAssemblies
 90
     1024
 91
        1
280
     0
281
     0
  0
CLASS
  1
ACAMPROJECT
  2
AcAmProject
  3
DesignerAssemblies
 90
     1024
 91
        1
280
     0
281
     0
  0
CLASS
  1
ACAMGRCOMPDEF
  2
AcAmGrCompDef
  3
DesignerAssemblies
 90
     1024
 91
        1
280
     0
281
     0
  0
CLASS
  1
ACAMCOMPDEF
  2
AcAmCompDef
  3
DesignerAssemblies
 90
     1024
 91
        1
280
     0
281
     0
  0
CLASS
  1
ACAMCOMPDEFMGR
  2
AcAmCompDefMgr
  3
DesignerAssemblies
 90
     1024
 91
        1
280
     0
281
     0
  0
CLASS
  1
AMCONTEXTMGR
  2
AcAmContextMgr
  3
DesignerAssemblies
 90
     1024
 91
        1
280
     0
281
     0
  0
CLASS
  1
ACAMCONTEXTMODELER
  2
AcAmContextModeler
  3
DesignerAssemblies
 90
     1024
 91
        1
280
     0
281
     0
  0
CLASS
  1
ACMDATADICTIONARY
  2
AcmDataDictionary
  3
"AcmSymBB|Product Description: AutoCAD Mechanical|Company: Autodesk, Inc."
 90
     1024
 91
        1
280
     0
281
     0
  0
CLASS
  1
ACAMGRCOMPDEFSET
  2
AcAmGrCompDefSet
  3
DesignerAssemblies
 90
     1024
 91
        1
280
     0
281
     0
  0
CLASS
  1
AMDTBROWSERDBTAB
  2
AmdtBrowserDbTab
  3
McadcomServices
 90
     1024
 91
        1
280
     0
281
     0
  0
CLASS
  1
CBROWSERAPPOBJECT
  2
CBrowserAppObject
  3
McadcomServices
 90
     1024
 91
        2
280
     0
281
     0
  0
CLASS
  1
DM_PLACEHOLDER
  2
AcDmSelsetPlaceholder
  3
McadcomServices
 90
     1024
 91
        1
280
     0
281
     0
  0
CLASS
  1
ACMSTANDARDISO
  2
AcmStandardISO
  3
"Amdt_StdImp|Product Description: AutoCAD Mechanical|Company: Autodesk, Inc."
 90
     1024
 91
        1
280
     0
281
     0
  0
CLASS
  1
AMDTEDGESTANDARDISO13715
  2
AmdtEdgeStdISO13715
  3
"Amdt_StdImp|Product Description: AutoCAD Mechanical|Company: Autodesk, Inc."
 90
     1024
 91
        1
280
     0
281
     0
  0
CLASS
  1
ACMSURFSTANDARDISO2002
  2
AcmSurfTextStdISO2002
  3
"Amdt_StdImp|Product Description: AutoCAD Mechanical|Company: Autodesk, Inc."
 90
     1024
 91
        1
280
     0
281
     0
  0
CLASS
  1
ACMFCFSTANDARDISO2004
  2
AcmFCFStdISO2004
  3
"Amdt_StdImp|Product Description: AutoCAD Mechanical|Company: Autodesk, Inc."
 90
     1024
 91
        1
280
     0
281
     0
  0
CLASS
  1
ACMWELDSTANDARDISO
  2
AcmWeldingStdISO
  3
"Amdt_StdImp|Product Description: AutoCAD Mechanical|Company: Autodesk, Inc."
 90
     1024
 91
        1
280
     0
281
     0
  0
CLASS
  1
ACMIDSTANDARDISO2004
  2
AcmIdStdISO2004
  3
"Amdt_StdImp|Product Description: AutoCAD Mechanical|Company: Autodesk, Inc."
 90
     1024
 91
        1
280
     0
281
     0
  0
CLASS
  1
ACMDATUMSTANDARDISO
  2
AcmDatumStdISO
  3
"Amdt_StdImp|Product Description: AutoCAD Mechanical|Company: Autodesk, Inc."
 90
     1024
 91
        1
280
     0
281
     0
  0
CLASS
  1
ACMBOMSTANDARDISO
  2
AcmBOMStdISO
  3
"Amdt_StdImp|Product Description: AutoCAD Mechanical|Company: Autodesk, Inc."
 90
     1024
 91
        1
280
     0
281
     0
  0
CLASS
  1
ACMDETAILSTANDARDISO
  2
AmdtDetailSymStdISO
  3
"Amdt_StdImp|Product Description: AutoCAD Mechanical|Company: Autodesk, Inc."
 90
     1024
 91
        1
280
     0
281
     0
  0
CLASS
  1
ACMSECTIONSTANDARDISO2001
  2
AmdtSectionSymStdISO2001
  3
"Amdt_StdImp|Product Description: AutoCAD Mechanical|Company: Autodesk, Inc."
 90
     1024
 91
        1
280
     0
281
     0
  0
CLASS
  1
ACMCENTERLINESTANDARDISO
  2
AmdtCenterLineStdISO
  3
"Amdt_StdImp|Product Description: AutoCAD Mechanical|Company: Autodesk, Inc."
 90
     1024
 91
        1
280
     0
281
     0
  0
CLASS
  1
ACMTHREADLINESTANDARDISO
  2
AmdtThreadLineStdISO
  3
"Amdt_StdImp|Product Description: AutoCAD Mechanical|Company: Autodesk, Inc."
 90
     1024
 91
        1
280
     0
281
     0
  0
CLASS
  1
ACMNOTESTANDARDISO
  2
AmdtNoteStdISO
  3
"Amdt_StdImp|Product Description: AutoCAD Mechanical|Company: Autodesk, Inc."
 90
     1024
 91
        1
280
     0
281
     0
  0
CLASS
  1
ACMTAPERSTANDARDISO
  2
AcmTaperStdISO
  3
"Amdt_StdImp|Product Description: AutoCAD Mechanical|Company: Autodesk, Inc."
 90
     1024
 91
        1
280
     0
281
     0
  0
CLASS
  1
ACMANOOTATIONVIEWSTANDARDISO
  2
AmdtAnViewStdISO
  3
"Amdt_StdImp|Product Description: AutoCAD Mechanical|Company: Autodesk, Inc."
 90
     1024
 91
        1
280
     0
281
     0
  0
CLASS
  1
ACAMGLAYSTD
  2
AcAmgLayStd
  3
"AmgLay|Product Description: AutoCAD Mechanical|Company: Autodesk, Inc."
 90
     1024
 91
        1
280
     0
281
     0
  0
CLASS
  1
ACAMGDIMSTD
  2
AcAmgDimStd
  3
"AmgDim|Product Description: AutoCAD Mechanical|Company: Autodesk, Inc."
 90
     1024
 91
        1
280
     0
281
     0
  0
CLASS
  1
AMGOBJPROPCFG
  2
AmgObjPropCfg
  3
"AmgLay|Product Description: AutoCAD Mechanical|Company: Autodesk, Inc."
 90
     1024
 91
        1
280
     0
281
     0
  0
CLASS
  1
ACAMGHOLECHARTSTDISO
  2
AcAmgHoleChartStdISO
  3
AmgDim|Product Description: AutoCAD Mechanical|Company: Autodesk, Inc.
 90
     1024
 91
        1
280
     0
281
     0
  0
CLASS
  1
ACAMGTITLESTD
  2
AcAmgTitleStd
  3
"AmgTitle|Product Description: AutoCAD Mechanical|Company: Autodesk, Inc."
 90
     1024
 91
        1
280
     0
281
     0
  0
CLASS
  1
AMDTNOTETEMPLATEDB
  2
AmdtNoteTemplateDB
  3
AcmSymBB|Product Description: AutoCAD Mechanical|Company: Autodesk, Inc.
 90
     1024
 91
        7
280
     0
281
     0
  0
CLASS
  1
CAMSSTRUCTBTNSTATE
  2
StructBtnState
  3
DesignerAssemblies
 90
     1024
 91
        1
280
     0
281
     0
  0
CLASS
  1
ACAMGFILTERDAT
  2
AcAmgFilterDat
  3
"AcadM|Product Description: AutoCAD Mechanical|Company: Autodesk, Inc."
 90
     1024
 91
        6
280
     0
281
     0
  0
ENDSEC
  0
SECTION
  2
TABLES
  0
TABLE
  2
VPORT
  5
8
102
{ACAD_XDICTIONARY
360
EEA
102
}
330
0
100
AcDbSymbolTable
 70
     1
  0
VPORT
  5
D40
330
8
100
AcDbSymbolTableRecord
100
AcDbViewportTableRecord
  2
*Active
 70
     0
 10
0.0
 20
0.0
 11
1.0
 21
1.0
 12
-27.054757697985
 22
145.880696574262
 13
0.0
 23
0.0
 14
10.0
 24
10.0
 15
10.0
 25
10.0
 16
0.0
 26
0.0
 36
1.0
 17
0.0
 27
0.0
 37
0.0
 40
302.4769704564238
 41
1.824705882352941
 42
50.0
 43
0.0
 44
0.0
 50
0.0
 51
0.0
 71
     0
 72
  1000
 73
     1
 74
     1
 75
     0
 76
     0
 77
     0
 78
     0
281
     0
 65
     0
110
0.0
120
0.0
130
0.0
111
1.0
121
0.0
131
0.0
112
0.0
122
1.0
132
0.0
 79
     0
146
0.0
348
D60
 60
     3
 61
     5
292
     1
282
     1
141
0.0
142
0.0
 63
   250
421
  3355443
1001
ACAD_NAV_VCDISPLAY
1070
     3
  0
ENDTAB
  0
TABLE
  2
LTYPE
  5
5
330
0
100
AcDbSymbolTable
 70
     8
  0
LTYPE
  5
14
330
5
100
AcDbSymbolTableRecord
100
AcDbLinetypeTableRecord
  2
ByBlock
 70
     0
  3

 72
    65
 73
     0
 40
0.0
  0
LTYPE
  5
15
330
5
100
AcDbSymbolTableRecord
100
AcDbLinetypeTableRecord
  2
ByLayer
 70
     0
  3

 72
    65
 73
     0
 40
0.0
  0
LTYPE
  5
16
330
5
100
AcDbSymbolTableRecord
100
AcDbLinetypeTableRecord
  2
Continuous
 70
     0
  3
Solid line
 72
    65
 73
     0
 40
0.0
  0
LTYPE
  5
18F1
330
5
100
AcDbSymbolTableRecord
100
AcDbLinetypeTableRecord
  2
CENTER2
 70
     0
  3
Center (.5x) ___ _ ___ _ ___ _ ___ _ ___ _ ___
 72
    65
 73
     4
 40
28.575
 49
19.05
 74
     0
 49
-3.174999999999998
 74
     0
 49
3.174999999999998
 74
     0
 49
-3.174999999999998
 74
     0
  0
LTYPE
  5
14E13
330
5
100
AcDbSymbolTableRecord
100
AcDbLinetypeTableRecord
  2
HIDDEN
 70
     0
  3
Hidden __ __ __ __ __ __ __ __ __ __ __ __ __ _
 72
    65
 73
     2
 40
9.524999999999998
 49
6.349999999999999
 74
     0
 49
-3.174999999999999
 74
     0
  0
LTYPE
  5
14E14
330
5
100
AcDbSymbolTableRecord
100
AcDbLinetypeTableRecord
  2
PHANTOM2
 70
     0
  3
Phantom (.5x) ___ _ _ ___ _ _ ___ _ _ ___ _ _
 72
    65
 73
     6
 40
31.75
 49
15.875
 74
     0
 49
-3.174999999999999
 74
     0
 49
3.174999999999999
 74
     0
 49
-3.174999999999999
 74
     0
 49
3.174999999999999
 74
     0
 49
-3.174999999999999
 74
     0
  0
LTYPE
  5
14E15
330
5
100
AcDbSymbolTableRecord
100
AcDbLinetypeTableRecord
  2
CENTER
 70
     0
  3
Center ____ _ ____ _ ____ _ ____ _ ____ _ ____
 72
    65
 73
     4
 40
50.8
 49
31.75
 74
     0
 49
-6.349999999999999
 74
     0
 49
6.349999999999999
 74
     0
 49
-6.349999999999999
 74
     0
  0
LTYPE
  5
14E60
330
5
100
AcDbSymbolTableRecord
100
AcDbLinetypeTableRecord
  2
ACISOWELD
 70
     0
  3
_ _ _ _ _
 72
    65
 73
     2
 40
2.0
 49
2.0
 74
     0
 49
-1.0
 74
     0
  0
LTYPE
  5
14E61
330
5
100
AcDbSymbolTableRecord
100
AcDbLinetypeTableRecord
  2
ACISOTGL
 70
     0
  3
_ _ _ _ _
 72
    65
 73
     2
 40
3.0
 49
2.0
 74
     0
 49
-1.0
 74
     0
  0
LTYPE
  5
14E62
330
5
100
AcDbSymbolTableRecord
100
AcDbLinetypeTableRecord
  2
ACISOTGB
 70
     0
  3
__ . . __ . .
 72
    65
 73
     6
 40
9.0
 49
4.0
 74
     0
 49
-1.0
 74
     0
 49
1.0
 74
     0
 49
-1.0
 74
     0
 49
1.0
 74
     0
 49
-1.0
 74
     0
  0
ENDTAB
  0
TABLE
  2
LAYER
  5
2
102
{ACAD_XDICTIONARY
360
F28
102
}
330
0
100
AcDbSymbolTable
 70
     9
  0
LAYER
  5
10
102
{ACAD_XDICTIONARY
360
D8C
102
}
330
2
100
AcDbSymbolTableRecord
100
AcDbLayerTableRecord
  2
0
 70
     0
 62
     7
  6
Continuous
370
    -3
390
F
347
D52
  0
LAYER
  5
DC
102
{ACAD_XDICTIONARY
360
D8E
102
}
330
2
100
AcDbSymbolTableRecord
100
AcDbLayerTableRecord
  2
FRAME 0.50
 70
     0
 62
   142
  6
Continuous
370
    -3
390
EB
347
D52
  0
LAYER
  5
E0
102
{ACAD_XDICTIONARY
360
D90
102
}
330
2
100
AcDbSymbolTableRecord
100
AcDbLayerTableRecord
  2
DIM
 70
     0
 62
   181
  6
Continuous
370
    -3
390
EA
347
D52
  0
LAYER
  5
F2
102
{ACAD_XDICTIONARY
360
D92
102
}
330
2
100
AcDbSymbolTableRecord
100
AcDbLayerTableRecord
  2
FRAME 0.35
 70
     0
 62
   103
  6
Continuous
370
    -3
390
F77
347
D52
  0
LAYER
  5
107
330
2
100
AcDbSymbolTableRecord
100
AcDbLayerTableRecord
  2
Defpoints
 70
     0
 62
     7
  6
Continuous
290
     0
370
    -3
390
F
347
D52
  0
LAYER
  5
5BF
102
{ACAD_XDICTIONARY
360
D9A
102
}
330
2
100
AcDbSymbolTableRecord
100
AcDbLayerTableRecord
  2
TEXT
 70
     0
 62
     7
  6
Continuous
370
    -3
390
E9
347
D52
  0
LAYER
  5
CBC
102
{ACAD_XDICTIONARY
360
D9E
102
}
330
2
100
AcDbSymbolTableRecord
100
AcDbLayerTableRecord
  2
LINE 0.25
 70
     0
 62
     4
  6
Continuous
370
    -3
390
F78
347
D52
  0
LAYER
  5
1174
102
{ACAD_XDICTIONARY
360
2C82
102
}
330
2
100
AcDbSymbolTableRecord
100
AcDbLayerTableRecord
  2
LINE 0.18
 70
     0
 62
     6
  6
Continuous
370
    -3
390
E9
347
D52
1001
AcAecLayerStandard
1000

1000

  0
LAYER
  5
1176
102
{ACAD_XDICTIONARY
360
2C84
102
}
330
2
100
AcDbSymbolTableRecord
100
AcDbLayerTableRecord
  2
SENTER
 70
     0
 62
     3
  6
CENTER2
370
    -3
390
E9
347
D52
1001
AcAecLayerStandard
1000

1000

  0
ENDTAB
  0
TABLE
  2
STYLE
  5
3
330
0
100
AcDbSymbolTable
 70
     6
  0
STYLE
  5
11
330
3
100
AcDbSymbolTableRecord
100
AcDbTextStyleTableRecord
  2
Standard
 70
     0
 40
0.0
 41
1.0
 50
0.0
 71
     0
 42
2.5
  3
txt
  4

  0
STYLE
  5
101
330
3
100
AcDbSymbolTableRecord
100
AcDbTextStyleTableRecord
  2
romans
 70
     0
 40
3.5
 41
1.0
 50
0.0
 71
     0
 42
3.5
  3
romans.shx
  4
bigfont.shx
  0
STYLE
  5
14E5E
330
3
100
AcDbSymbolTableRecord
100
AcDbTextStyleTableRecord
  2
ACISOTS
 70
     0
 40
1.0
 41
1.0
 50
0.0
 71
     0
 42
3.5
  3
isocp.shx
  4
extfont.shx
  0
STYLE
  5
14E5F
330
3
100
AcDbSymbolTableRecord
100
AcDbTextStyleTableRecord
  2
ACISOGDT
 70
     0
 40
0.0
 41
1.0
 50
0.0
 71
     0
 42
3.5
  3
amgdt.shx
  4

  0
ENDTAB
  0
TABLE
  2
VIEW
  5
6
330
0
100
AcDbSymbolTable
 70
     0
  0
ENDTAB
  0
TABLE
  2
UCS
  5
7
330
0
100
AcDbSymbolTable
 70
     0
  0
ENDTAB
  0
TABLE
  2
APPID
  5
9
330
0
100
AcDbSymbolTable
 70
    24
  0
APPID
  5
12
330
9
100
AcDbSymbolTableRecord
100
AcDbRegAppTableRecord
  2
ACAD
 70
     0
  0
APPID
  5
D81
330
9
100
AcDbSymbolTableRecord
100
AcDbRegAppTableRecord
  2
ACAD_MLEADERVER
 70
     0
  0
APPID
  5
DAA
330
9
100
AcDbSymbolTableRecord
100
AcDbRegAppTableRecord
  2
ACAD_PSEXT
 70
     0
  0
APPID
  5
DB3
330
9
100
AcDbSymbolTableRecord
100
AcDbRegAppTableRecord
  2
AcadAnnotative
 70
     0
  0
APPID
  5
F2A
330
9
100
AcDbSymbolTableRecord
100
AcDbRegAppTableRecord
  2
ACAD_EXEMPT_FROM_CAD_STANDARDS
 70
     0
  0
APPID
  5
1175
330
9
100
AcDbSymbolTableRecord
100
AcDbRegAppTableRecord
  2
AcAecLayerStandard
 70
     0
  0
APPID
  5
1FEA
330
9
100
AcDbSymbolTableRecord
100
AcDbRegAppTableRecord
  2
ACAD_DSTYLE_DIMJAG
 70
     0
  0
APPID
  5
1FEB
330
9
100
AcDbSymbolTableRecord
100
AcDbRegAppTableRecord
  2
ACAD_DSTYLE_DIMTALN
 70
     0
  0
APPID
  5
2229
330
9
100
AcDbSymbolTableRecord
100
AcDbRegAppTableRecord
  2
ACAD_DSTYLE_DIM_EXT1_LINETYPE
 70
     0
  0
APPID
  5
222A
330
9
100
AcDbSymbolTableRecord
100
AcDbRegAppTableRecord
  2
ACAD_DSTYLE_DIM_EXT2_LINETYPE
 70
     0
  0
APPID
  5
276F
330
9
100
AcDbSymbolTableRecord
100
AcDbRegAppTableRecord
  2
ACAD_DSTYLE_DIMRADIAL_EXTENSION
 70
     0
  0
APPID
  5
2847
330
9
100
AcDbSymbolTableRecord
100
AcDbRegAppTableRecord
  2
ACAD_DSTYLE_DIMJAG_POSITION
 70
     0
  0
APPID
  5
2CF7
330
9
100
AcDbSymbolTableRecord
100
AcDbRegAppTableRecord
  2
ACAD_DSTYLE_DIMBREAK
 70
     0
  0
APPID
  5
3215
330
9
100
AcDbSymbolTableRecord
100
AcDbRegAppTableRecord
  2
AcadAnnoPO
 70
     0
  0
APPID
  5
397C
330
9
100
AcDbSymbolTableRecord
100
AcDbRegAppTableRecord
  2
GradientColor1ACI
 70
     0
  0
APPID
  5
397D
330
9
100
AcDbSymbolTableRecord
100
AcDbRegAppTableRecord
  2
GradientColor2ACI
 70
     0
  0
APPID
  5
14E0C
330
9
100
AcDbSymbolTableRecord
100
AcDbRegAppTableRecord
  2
MCAD_NO_VIS
 70
     0
  0
APPID
  5
14E0D
330
9
100
AcDbSymbolTableRecord
100
AcDbRegAppTableRecord
  2
ACAD_TEMP_GRAPHIC
 70
     0
  0
APPID
  5
14E1A
330
9
100
AcDbSymbolTableRecord
100
AcDbRegAppTableRecord
  2
ACATTRIBSERVICES
 70
     0
  0
APPID
  5
14E36
330
9
100
AcDbSymbolTableRecord
100
AcDbRegAppTableRecord
  2
DESIGNERASSEMBLIES
 70
     0
  0
APPID
  5
14E6A
330
9
100
AcDbSymbolTableRecord
100
AcDbRegAppTableRecord
  2
GENIUS_GENSCREG_15
 70
     0
  0
APPID
  5
14E6B
330
9
100
AcDbSymbolTableRecord
100
AcDbRegAppTableRecord
  2
GENIUS_GENOBJ-N-SDF_13
 70
     0
  0
APPID
  5
14E6C
330
9
100
AcDbSymbolTableRecord
100
AcDbRegAppTableRecord
  2
GENIUS_GENODEF_13
 70
     0
  0
APPID
  5
14E6D
330
9
100
AcDbSymbolTableRecord
100
AcDbRegAppTableRecord
  2
ACAD_NAV_VCDISPLAY
 70
     0
  0
ENDTAB
  0
TABLE
  2
DIMSTYLE
  5
A
330
0
100
AcDbSymbolTable
 70
    11
100
AcDbDimStyleTable
 71
     1
340
557
  0
DIMSTYLE
105
1D5
330
A
100
AcDbSymbolTableRecord
100
AcDbDimStyleTableRecord
  2
STANDARD
 70
     0
279
     2
340
11
  0
DIMSTYLE
105
557
330
A
100
AcDbSymbolTableRecord
100
AcDbDimStyleTableRecord
  2
1：1
 70
     0
 41
2.5
 42
1.0
 43
8.0
 44
1.0
 47
0.1
 48
0.1000000001
 73
     0
 74
     0
 77
     3
 78
     8
 79
     2
140
3.5
141
2.0
143
0.03937007874016
146
0.5
147
0.5
171
     3
172
     1
176
   256
177
   256
178
   256
271
     1
272
     1
274
     3
279
     2
284
     8
340
101
346
15
347
15
371
    -1
372
    -1
1001
ACAD_DSTYLE_DIMJAG
1070
   388
1040
1.5
1001
ACAD_DSTYLE_DIMTALN
1070
   392
1070
     1
  0
DIMSTYLE
105
14E50
102
{ACAD_REACTORS
330
14E3F
102
}
330
A
100
AcDbSymbolTableRecord
100
AcDbDimStyleTableRecord
  2
AM_ISO
 70
     0
  4
"
 41
3.5
 42
1.0
 43
10.0
 44
1.0
 47
0.1
 48
0.1
 73
     0
 74
     0
 77
     1
 78
     8
 79
     2
 90
     1
140
3.5
141
0.0
143
0.0393701
146
0.71
147
1.5
172
     1
176
   256
177
   256
178
     2
271
     2
272
     3
274
     4
283
     0
284
     8
340
11
345
14
346
14
347
14
371
    -1
372
    -1
1001
ACAD_DSTYLE_DIMJAG
1070
   388
1040
1.5
1001
ACAD_DSTYLE_DIMBREAK
1070
   391
1040
3.75
  0
DIMSTYLE
105
14E52
330
A
100
AcDbSymbolTableRecord
100
AcDbDimStyleTableRecord
  2
AM_ISO$3
 70
     0
  4
"
 41
3.5
 42
1.0
 43
10.0
 44
1.0
 47
0.1
 48
0.1
 73
     0
 77
     1
 78
     8
 79
     2
 90
     1
140
3.5
141
0.0
143
0.0393701
146
0.71
147
1.5
176
   256
177
   256
178
     2
271
     2
272
     3
274
     4
283
     0
284
     8
288
     1
289
     0
340
11
345
14
346
14
347
14
371
    -1
372
    -1
1001
ACAD_DSTYLE_DIMBREAK
1070
   391
1040
3.75
1001
ACAD_DSTYLE_DIMJAG
1070
   388
1040
1.5
  0
DIMSTYLE
105
14E53
330
A
100
AcDbSymbolTableRecord
100
AcDbDimStyleTableRecord
  2
AM_ISO$4
 70
     0
  4
"
 41
3.5
 42
1.0
 43
10.0
 44
1.0
 47
0.1
 48
0.1
 73
     0
 77
     1
 78
     8
 79
     2
 90
     1
140
3.5
141
0.0
143
0.0393701
146
0.71
147
1.5
176
   256
177
   256
178
     2
271
     2
272
     3
274
     4
283
     0
284
     8
288
     1
289
     0
340
11
345
14
346
14
347
14
371
    -1
372
    -1
1001
ACAD_DSTYLE_DIMBREAK
1070
   391
1040
3.75
1001
ACAD_DSTYLE_DIMJAG
1070
   388
1040
1.5
  0
DIMSTYLE
105
14E54
330
A
100
AcDbSymbolTableRecord
100
AcDbDimStyleTableRecord
  2
AM_ISO$6
 70
     0
  4
"
 41
3.5
 42
1.0
 43
10.0
 44
1.0
 47
0.1
 48
0.1
 73
     0
 74
     0
 78
     8
 79
     2
 90
     1
140
3.5
141
0.0
143
0.0393701
146
0.71
147
1.5
172
     1
176
   256
177
   256
178
     2
271
     2
272
     3
274
     4
283
     0
284
     8
340
11
345
14
346
14
347
14
371
    -1
372
    -1
1001
ACAD_DSTYLE_DIMBREAK
1070
   391
1040
3.75
1001
ACAD_DSTYLE_DIMJAG
1070
   388
1040
1.5
  0
DIMSTYLE
105
14E55
330
A
100
AcDbSymbolTableRecord
100
AcDbDimStyleTableRecord
  2
AM_ISO$7
 70
     0
  4
"
 41
3.5
 42
1.0
 43
10.0
 44
1.0
 47
0.1
 48
0.1
 73
     0
 74
     0
 77
     1
 78
     8
 79
     2
 90
     1
140
3.5
141
0.0
143
0.0393701
146
0.71
147
1.5
172
     1
176
   256
177
   256
178
     2
271
     2
272
     3
274
     4
283
     0
284
     8
340
11
345
14
346
14
347
14
371
    -1
372
    -1
1001
ACAD_DSTYLE_DIMBREAK
1070
   391
1040
3.75
1001
ACAD_DSTYLE_DIMJAG
1070
   388
1040
1.5
  0
DIMSTYLE
105
14E56
330
A
100
AcDbSymbolTableRecord
100
AcDbDimStyleTableRecord
  2
AM_ISO$SF
 70
     0
  4
"
 41
3.5
 42
1.0
 43
10.0
 44
1.0
 47
0.1
 48
0.1
 73
     0
 74
     0
 75
     1
 76
     1
 77
     1
 78
     8
 79
     2
 90
     1
140
3.5
141
0.0
143
0.0393701
146
0.71
147
1.5
172
     1
176
   256
177
   256
178
     2
271
     2
272
     3
274
     4
283
     0
284
     8
340
11
345
14
346
14
347
14
371
    -1
372
    -1
1001
ACAD_DSTYLE_DIMBREAK
1070
   391
1040
3.75
1001
ACAD_DSTYLE_DIMJAG
1070
   388
1040
1.5
  0
DIMSTYLE
105
14E5B
330
A
100
AcDbSymbolTableRecord
100
AcDbDimStyleTableRecord
  2
AM_ISO$SH
 70
     0
  4
"
 41
3.5
 42
1.0
 43
10.0
 44
1.0
 47
0.1
 48
0.1
 73
     0
 74
     0
 75
     1
 76
     1
 77
     1
 78
     8
 79
     2
 90
     1
140
3.5
141
0.0
143
0.0393701
144
2.0
146
0.71
147
1.5
172
     1
173
     1
176
   256
177
   256
178
     2
271
     2
272
     3
274
     4
283
     0
284
     8
340
11
343
14E57
345
14
346
14
347
14
371
    -1
372
    -1
1001
ACAD_DSTYLE_DIMBREAK
1070
   391
1040
3.75
1001
ACAD_DSTYLE_DIMJAG
1070
   388
1040
1.5
  0
ENDTAB
  0
TABLE
  2
BLOCK_RECORD
  5
1
330
0
100
AcDbSymbolTable
 70
    15
  0
BLOCK_RECORD
  5
1F
102
{ACAD_XDICTIONARY
360
1139
102
}
330
1
100
AcDbSymbolTableRecord
100
AcDbBlockTableRecord
  2
*Model_Space
340
22
 70
     0
280
     1
281
     0
  0
BLOCK_RECORD
  5
59
330
1
100
AcDbSymbolTableRecord
100
AcDbBlockTableRecord
  2
*Paper_Space
340
5A
 70
     0
280
     1
281
     0
  0
BLOCK_RECORD
  5
5E
330
1
100
AcDbSymbolTableRecord
100
AcDbBlockTableRecord
  2
*Paper_Space0
340
5F
 70
     0
280
     1
281
     0
  0
BLOCK_RECORD
  5
3169
330
1
100
AcDbSymbolTableRecord
100
AcDbBlockTableRecord
  2
_None
340
0
 70
     0
280
     1
281
     0
  0
BLOCK_RECORD
  5
40BF
330
1
100
AcDbSymbolTableRecord
100
AcDbBlockTableRecord
  2
*D2
340
0
 70
     0
280
     1
281
     0
  0
BLOCK_RECORD
  5
40ED
330
1
100
AcDbSymbolTableRecord
100
AcDbBlockTableRecord
  2
*D3
340
0
 70
     0
280
     1
281
     0
  0
BLOCK_RECORD
  5
40F9
330
1
100
AcDbSymbolTableRecord
100
AcDbBlockTableRecord
  2
*D4
340
0
 70
     0
280
     1
281
     0
  0
BLOCK_RECORD
  5
4105
330
1
100
AcDbSymbolTableRecord
100
AcDbBlockTableRecord
  2
*D5
340
0
 70
     0
280
     1
281
     0
  0
BLOCK_RECORD
  5
4111
330
1
100
AcDbSymbolTableRecord
100
AcDbBlockTableRecord
  2
*D6
340
0
 70
     0
280
     1
281
     0
  0
BLOCK_RECORD
  5
413F
330
1
100
AcDbSymbolTableRecord
100
AcDbBlockTableRecord
  2
*D7
340
0
 70
     0
280
     1
281
     0
  0
BLOCK_RECORD
  5
4149
330
1
100
AcDbSymbolTableRecord
100
AcDbBlockTableRecord
  2
*D8
340
0
 70
     0
280
     1
281
     0
  0
BLOCK_RECORD
  5
41F6
330
1
100
AcDbSymbolTableRecord
100
AcDbBlockTableRecord
  2
*D9
340
0
 70
     0
280
     1
281
     0
  0
BLOCK_RECORD
  5
4202
330
1
100
AcDbSymbolTableRecord
100
AcDbBlockTableRecord
  2
*D10
340
0
 70
     0
280
     1
281
     0
  0
BLOCK_RECORD
  5
14E57
330
1
100
AcDbSymbolTableRecord
100
AcDbBlockTableRecord
  2
GENAXEH
340
0
 70
     0
280
     1
281
     0
  0
ENDTAB
  0
ENDSEC
  0
SECTION
  2
BLOCKS
  0
BLOCK
  5
20
330
1F
100
AcDbEntity
  8
0
100
AcDbBlockBegin
  2
*Model_Space
 70
     0
 10
0.0
 20
0.0
 30
0.0
  3
*Model_Space
  1

  0
ENDBLK
  5
21
330
1F
100
AcDbEntity
  8
0
100
AcDbBlockEnd
  0
BLOCK
  5
5B
330
59
100
AcDbEntity
 67
     1
  8
0
100
AcDbBlockBegin
  2
*Paper_Space
 70
     0
 10
0.0
 20
0.0
 30
0.0
  3
*Paper_Space
  1

  0
ENDBLK
  5
5C
330
59
100
AcDbEntity
 67
     1
  8
0
100
AcDbBlockEnd
  0
BLOCK
  5
60
330
5E
100
AcDbEntity
 67
     1
  8
0
100
AcDbBlockBegin
  2
*Paper_Space0
 70
     0
 10
0.0
 20
0.0
 30
0.0
  3
*Paper_Space0
  1

  0
VIEWPORT
  5
7A
330
5E
100
AcDbEntity
 67
     1
  8
0
100
AcDbViewport
 10
133.3499914952553
 20
101.599997546291
 30
0.0
 40
304.6610229148939
 41
164.4974852160289
 68
     0
 69
     0
 12
133.3499914952553
 22
101.599997546291
 13
0.0
 23
0.0
 14
10.0
 24
10.0
 15
10.0
 25
10.0
 16
0.0
 26
0.0
 36
1.0
 17
0.0
 27
0.0
 37
0.0
 42
50.0
 43
0.0
 44
0.0
 45
164.4974852160289
 50
0.0
 51
0.0
 72
  1000
 90
    32864
  1

281
     0
 71
     1
 74
     0
110
0.0
120
0.0
130
0.0
111
1.0
121
0.0
131
0.0
112
0.0
122
1.0
132
0.0
 79
     0
146
0.0
170
     0
 61
     5
348
D60
292
     1
282
     1
141
0.0
142
0.0
 63
   250
421
  3355443
1001
GENIUS_GENSCREG_15
1000
PF
1040
1.0
1000
DF
1040
1.0
1000
MIN
1011
-18.98051996219163
1021
19.35125493827655
1031
0.0
1000
MAX
1011
285.6805029527022
1021
183.8487401543054
1031
0.0
1000
FLAGS
1070
     4
1001
GENIUS_GENOBJ-N-SDF_13
1002
{
1000
OWNER
1000
GEN
1002
}
1001
GENIUS_GENODEF_13
1002
{
1000
HIER
1070
     0
1002
}
1002
{
1000
MANEDIT
1070
     0
1002
}
1002
{
1000
NOSEL
1070
     0
1002
}
1002
{
1000
BEHIND
1070
     0
1002
}
1002
{
1000
OTHER
1070
     0
1002
}
1002
{
1000
REACTOR
1002
}
  0
VIEWPORT
  5
7C
330
5E
100
AcDbEntity
 67
     1
  8
0
100
AcDbViewport
 10
133.3499939441681
 20
101.5999939441681
 30
0.0
 40
213.3599903106689
 41
162.5599903106689
 68
     0
 69
     0
 12
210.0
 22
148.5
 13
0.0
 23
0.0
 14
10.0
 24
10.0
 15
10.0
 25
10.0
 16
0.0
 26
0.0
 36
1.0
 17
0.0
 27
0.0
 37
0.0
 42
50.0
 43
0.0
 44
0.0
 45
324.0677920111345
 50
0.0
 51
0.0
 72
   100
 90
    32864
  1

281
     0
 71
     1
 74
     0
110
0.0
120
0.0
130
0.0
111
1.0
121
0.0
131
0.0
112
0.0
122
1.0
132
0.0
 79
     0
146
0.0
170
     0
 61
     5
348
D60
292
     1
282
     1
141
0.0
142
0.0
 63
   250
421
  3355443
1001
GENIUS_GENSCREG_15
1000
PF
1040
0.0
1000
DF
1040
0.0
1000
MIN
1011
26.66999878883363
1021
20.31999878883366
1031
0.0
1000
MAX
1011
240.0299890995025
1021
182.8799890995025
1031
0.0
1000
FLAGS
1070
     4
1001
GENIUS_GENOBJ-N-SDF_13
1002
{
1000
OWNER
1000
GEN
1002
}
1001
GENIUS_GENODEF_13
1002
{
1000
HIER
1070
     0
1002
}
1002
{
1000
MANEDIT
1070
     0
1002
}
1002
{
1000
NOSEL
1070
     0
1002
}
1002
{
1000
BEHIND
1070
     0
1002
}
1002
{
1000
OTHER
1070
     0
1002
}
1002
{
1000
REACTOR
1002
}
  0
ENDBLK
  5
61
330
5E
100
AcDbEntity
 67
     1
  8
0
100
AcDbBlockEnd
  0
BLOCK
  5
316A
330
3169
100
AcDbEntity
  8
0
 48
0.1
100
AcDbBlockBegin
  2
_None
 70
     0
 10
0.0
 20
0.0
 30
0.0
  3
_None
  1

  0
ENDBLK
  5
316B
330
3169
100
AcDbEntity
  8
0
 48
0.1
100
AcDbBlockEnd
  0
BLOCK
  5
40C0
330
40BF
100
AcDbEntity
  8
0
 48
0.1
100
AcDbBlockBegin
  2
*D2
 70
     1
 10
0.0
 20
0.0
 30
0.0
  3
*D2
  1

  0
LINE
  5
15564
330
40BF
100
AcDbEntity
  8
DIM
440
 16777216
 48
0.1
100
AcDbLine
 10
-134.9296285109711
 20
134.8079610449783
 30
0.0
 11
-155.1877104650602
 21
134.8079610449783
 31
0.0
  0
LINE
  5
15565
330
40BF
100
AcDbEntity
  8
DIM
440
 16777216
 48
0.1
100
AcDbLine
 10
-135.929628510971
 20
111.8079610449782
 30
0.0
 11
-155.1877104650602
 21
111.8079610449782
 31
0.0
  0
LINE
  5
15566
330
40BF
100
AcDbEntity
  8
DIM
440
 16777216
 48
0.1
100
AcDbLine
 10
-154.1877104650602
 20
132.3079610449783
 30
0.0
 11
-154.1877104650602
 21
114.3079610449782
 31
0.0
  0
SOLID
  5
15567
330
40BF
100
AcDbEntity
  8
DIM
440
 16777216
 48
0.1
100
AcDbTrace
 10
-154.6043771317268
 20
132.3079610449783
 30
0.0
 11
-153.7710437983935
 21
132.3079610449783
 31
0.0
 12
-154.1877104650602
 22
134.8079610449783
 32
0.0
 13
-154.1877104650602
 23
134.8079610449783
 33
0.0
  0
SOLID
  5
15568
330
40BF
100
AcDbEntity
  8
DIM
440
 16777216
 48
0.1
100
AcDbTrace
 10
-154.6043771317268
 20
114.3079610449782
 30
0.0
 11
-153.7710437983935
 21
114.3079610449782
 31
0.0
 12
-154.1877104650602
 22
111.8079610449782
 32
0.0
 13
-154.1877104650602
 23
111.8079610449782
 33
0.0
  0
MTEXT
  5
15569
330
40BF
100
AcDbEntity
  8
DIM
440
 16777216
 48
0.1
100
AcDbMText
 10
-156.4377104650602
 20
123.3079610449782
 30
0.0
 40
3.5
 41
0.0
 46
0.0
 71
     5
 72
     1
  1
\A1;23
  7
romans
 11
0.0000000000000001
 21
1.0
 31
0.0
 73
     1
 44
1.0
  0
POINT
  5
1556A
330
40BF
100
AcDbEntity
  8
Defpoints
 62
     0
440
 16777216
 48
0.1
100
AcDbPoint
 10
-133.9296285109711
 20
134.8079610449783
 30
0.0
  0
POINT
  5
1556B
330
40BF
100
AcDbEntity
  8
Defpoints
 62
     0
440
 16777216
 48
0.1
100
AcDbPoint
 10
-134.929628510971
 20
111.8079610449782
 30
0.0
  0
POINT
  5
1556C
330
40BF
100
AcDbEntity
  8
Defpoints
 62
     0
440
 16777216
 48
0.1
100
AcDbPoint
 10
-154.1877104650602
 20
111.8079610449782
 30
0.0
  0
ENDBLK
  5
40C1
330
40BF
100
AcDbEntity
  8
0
 48
0.1
100
AcDbBlockEnd
  0
BLOCK
  5
40EE
330
40ED
100
AcDbEntity
  8
0
 48
0.1
100
AcDbBlockBegin
  2
*D3
 70
     1
 10
0.0
 20
0.0
 30
0.0
  3
*D3
  1

  0
LINE
  5
15588
330
40ED
100
AcDbEntity
  8
DIM
440
 16777216
 48
0.1
100
AcDbLine
 10
-130.404628510971
 20
163.8079610449784
 30
0.0
 11
-147.1877104650602
 21
163.8079610449784
 31
0.0
  0
LINE
  5
15589
330
40ED
100
AcDbEntity
  8
DIM
440
 16777216
 48
0.1
100
AcDbLine
 10
-131.260628510971
 20
152.8079610449783
 30
0.0
 11
-147.1877104650602
 21
152.8079610449783
 31
0.0
  0
LINE
  5
1558A
330
40ED
100
AcDbEntity
  8
DIM
440
 16777216
 48
0.1
100
AcDbLine
 10
-146.1877104650602
 20
161.3079610449784
 30
0.0
 11
-146.1877104650602
 21
155.3079610449783
 31
0.0
  0
SOLID
  5
1558B
330
40ED
100
AcDbEntity
  8
DIM
440
 16777216
 48
0.1
100
AcDbTrace
 10
-146.6043771317268
 20
161.3079610449784
 30
0.0
 11
-145.7710437983935
 21
161.3079610449784
 31
0.0
 12
-146.1877104650602
 22
163.8079610449784
 32
0.0
 13
-146.1877104650602
 23
163.8079610449784
 33
0.0
  0
SOLID
  5
1558C
330
40ED
100
AcDbEntity
  8
DIM
440
 16777216
 48
0.1
100
AcDbTrace
 10
-146.6043771317268
 20
155.3079610449783
 30
0.0
 11
-145.7710437983935
 21
155.3079610449783
 31
0.0
 12
-146.1877104650602
 22
152.8079610449783
 32
0.0
 13
-146.1877104650602
 23
152.8079610449783
 33
0.0
  0
MTEXT
  5
1558D
330
40ED
100
AcDbEntity
  8
DIM
440
 16777216
 48
0.1
100
AcDbMText
 10
-148.4377104650602
 20
158.3079610449783
 30
0.0
 40
3.5
 41
0.0
 46
0.0
 71
     5
 72
     1
  1
\A1;11
  7
romans
 11
0.0000000000000001
 21
1.0
 31
0.0
 73
     1
 44
1.0
  0
POINT
  5
1558E
330
40ED
100
AcDbEntity
  8
Defpoints
 62
     0
440
 16777216
 48
0.1
100
AcDbPoint
 10
-129.404628510971
 20
163.8079610449784
 30
0.0
  0
POINT
  5
1558F
330
40ED
100
AcDbEntity
  8
Defpoints
 62
     0
440
 16777216
 48
0.1
100
AcDbPoint
 10
-130.260628510971
 20
152.8079610449783
 30
0.0
  0
POINT
  5
15590
330
40ED
100
AcDbEntity
  8
Defpoints
 62
     0
440
 16777216
 48
0.1
100
AcDbPoint
 10
-146.1877104650602
 20
152.8079610449783
 30
0.0
  0
ENDBLK
  5
40EF
330
40ED
100
AcDbEntity
  8
0
 48
0.1
100
AcDbBlockEnd
  0
BLOCK
  5
40FA
330
40F9
100
AcDbEntity
  8
0
 48
0.1
100
AcDbBlockBegin
  2
*D4
 70
     1
 10
0.0
 20
0.0
 30
0.0
  3
*D4
  1

  0
LINE
  5
1557F
330
40F9
100
AcDbEntity
  8
DIM
440
 16777216
 48
0.1
100
AcDbLine
 10
-130.404628510971
 20
163.8079610449784
 30
0.0
 11
-155.1877104650602
 21
163.8079610449784
 31
0.0
  0
LINE
  5
15580
330
40F9
100
AcDbEntity
  8
DIM
440
 16777216
 48
0.1
100
AcDbLine
 10
-131.260628510971
 20
148.8079610449783
 30
0.0
 11
-155.1877104650602
 21
148.8079610449783
 31
0.0
  0
LINE
  5
15581
330
40F9
100
AcDbEntity
  8
DIM
440
 16777216
 48
0.1
100
AcDbLine
 10
-154.1877104650602
 20
161.3079610449784
 30
0.0
 11
-154.1877104650602
 21
151.3079610449783
 31
0.0
  0
SOLID
  5
15582
330
40F9
100
AcDbEntity
  8
DIM
440
 16777216
 48
0.1
100
AcDbTrace
 10
-154.6043771317268
 20
161.3079610449784
 30
0.0
 11
-153.7710437983935
 21
161.3079610449784
 31
0.0
 12
-154.1877104650602
 22
163.8079610449784
 32
0.0
 13
-154.1877104650602
 23
163.8079610449784
 33
0.0
  0
SOLID
  5
15583
330
40F9
100
AcDbEntity
  8
DIM
440
 16777216
 48
0.1
100
AcDbTrace
 10
-154.6043771317268
 20
151.3079610449783
 30
0.0
 11
-153.7710437983935
 21
151.3079610449783
 31
0.0
 12
-154.1877104650602
 22
148.8079610449783
 32
0.0
 13
-154.1877104650602
 23
148.8079610449783
 33
0.0
  0
MTEXT
  5
15584
330
40F9
100
AcDbEntity
  8
DIM
440
 16777216
 48
0.1
100
AcDbMText
 10
-156.4377104650602
 20
156.3079610449783
 30
0.0
 40
3.5
 41
0.0
 46
0.0
 71
     5
 72
     1
  1
\A1;15
  7
romans
 11
0.0000000000000001
 21
1.0
 31
0.0
 73
     1
 44
1.0
  0
POINT
  5
15585
330
40F9
100
AcDbEntity
  8
Defpoints
 62
     0
440
 16777216
 48
0.1
100
AcDbPoint
 10
-129.404628510971
 20
163.8079610449784
 30
0.0
  0
POINT
  5
15586
330
40F9
100
AcDbEntity
  8
Defpoints
 62
     0
440
 16777216
 48
0.1
100
AcDbPoint
 10
-130.260628510971
 20
148.8079610449783
 30
0.0
  0
POINT
  5
15587
330
40F9
100
AcDbEntity
  8
Defpoints
 62
     0
440
 16777216
 48
0.1
100
AcDbPoint
 10
-154.1877104650602
 20
148.8079610449783
 30
0.0
  0
ENDBLK
  5
40FB
330
40F9
100
AcDbEntity
  8
0
 48
0.1
100
AcDbBlockEnd
  0
BLOCK
  5
4106
330
4105
100
AcDbEntity
  8
0
 48
0.1
100
AcDbBlockBegin
  2
*D5
 70
     1
 10
0.0
 20
0.0
 30
0.0
  3
*D5
  1

  0
LINE
  5
15576
330
4105
100
AcDbEntity
  8
DIM
440
 16777216
 48
0.1
100
AcDbLine
 10
-130.404628510971
 20
163.8079610449784
 30
0.0
 11
-163.1877104650602
 21
163.8079610449784
 31
0.0
  0
LINE
  5
15577
330
4105
100
AcDbEntity
  8
DIM
440
 16777216
 48
0.1
100
AcDbLine
 10
-134.929628510971
 20
111.8079610449782
 30
0.0
 11
-163.1877104650602
 21
111.8079610449782
 31
0.0
  0
LINE
  5
15578
330
4105
100
AcDbEntity
  8
DIM
440
 16777216
 48
0.1
100
AcDbLine
 10
-162.1877104650602
 20
161.3079610449784
 30
0.0
 11
-162.1877104650602
 21
114.3079610449782
 31
0.0
  0
SOLID
  5
15579
330
4105
100
AcDbEntity
  8
DIM
440
 16777216
 48
0.1
100
AcDbTrace
 10
-162.6043771317268
 20
161.3079610449784
 30
0.0
 11
-161.7710437983935
 21
161.3079610449784
 31
0.0
 12
-162.1877104650602
 22
163.8079610449784
 32
0.0
 13
-162.1877104650602
 23
163.8079610449784
 33
0.0
  0
SOLID
  5
1557A
330
4105
100
AcDbEntity
  8
DIM
440
 16777216
 48
0.1
100
AcDbTrace
 10
-162.6043771317268
 20
114.3079610449782
 30
0.0
 11
-161.7710437983935
 21
114.3079610449782
 31
0.0
 12
-162.1877104650602
 22
111.8079610449782
 32
0.0
 13
-162.1877104650602
 23
111.8079610449782
 33
0.0
  0
MTEXT
  5
1557B
330
4105
100
AcDbEntity
  8
DIM
440
 16777216
 48
0.1
100
AcDbMText
 10
-164.4377104650602
 20
137.8079610449782
 30
0.0
 40
3.5
 41
0.0
 46
0.0
 71
     5
 72
     1
  1
\A1;52
  7
romans
 11
0.0000000000000001
 21
1.0
 31
0.0
 73
     1
 44
1.0
  0
POINT
  5
1557C
330
4105
100
AcDbEntity
  8
Defpoints
 62
     0
440
 16777216
 48
0.1
100
AcDbPoint
 10
-129.404628510971
 20
163.8079610449784
 30
0.0
  0
POINT
  5
1557D
330
4105
100
AcDbEntity
  8
Defpoints
 62
     0
440
 16777216
 48
0.1
100
AcDbPoint
 10
-133.929628510971
 20
111.8079610449782
 30
0.0
  0
POINT
  5
1557E
330
4105
100
AcDbEntity
  8
Defpoints
 62
     0
440
 16777216
 48
0.1
100
AcDbPoint
 10
-162.1877104650602
 20
111.8079610449782
 30
0.0
  0
ENDBLK
  5
4107
330
4105
100
AcDbEntity
  8
0
 48
0.1
100
AcDbBlockEnd
  0
BLOCK
  5
4112
330
4111
100
AcDbEntity
  8
0
 48
0.1
100
AcDbBlockBegin
  2
*D6
 70
     1
 10
0.0
 20
0.0
 30
0.0
  3
*D6
  1

  0
LINE
  5
1556D
330
4111
100
AcDbEntity
  8
DIM
440
 16777216
 48
0.1
100
AcDbLine
 10
-131.260628510971
 20
148.8079610449783
 30
0.0
 11
-155.1877104650602
 21
148.8079610449783
 31
0.0
  0
LINE
  5
1556E
330
4111
100
AcDbEntity
  8
DIM
440
 16777216
 48
0.1
100
AcDbLine
 10
-134.9296285109711
 20
134.8079610449783
 30
0.0
 11
-155.1877104650602
 21
134.8079610449783
 31
0.0
  0
LINE
  5
1556F
330
4111
100
AcDbEntity
  8
DIM
440
 16777216
 48
0.1
100
AcDbLine
 10
-154.1877104650602
 20
146.3079610449783
 30
0.0
 11
-154.1877104650602
 21
137.3079610449783
 31
0.0
  0
SOLID
  5
15570
330
4111
100
AcDbEntity
  8
DIM
440
 16777216
 48
0.1
100
AcDbTrace
 10
-154.6043771317268
 20
146.3079610449783
 30
0.0
 11
-153.7710437983935
 21
146.3079610449783
 31
0.0
 12
-154.1877104650602
 22
148.8079610449783
 32
0.0
 13
-154.1877104650602
 23
148.8079610449783
 33
0.0
  0
SOLID
  5
15571
330
4111
100
AcDbEntity
  8
DIM
440
 16777216
 48
0.1
100
AcDbTrace
 10
-154.6043771317268
 20
137.3079610449783
 30
0.0
 11
-153.7710437983935
 21
137.3079610449783
 31
0.0
 12
-154.1877104650602
 22
134.8079610449783
 32
0.0
 13
-154.1877104650602
 23
134.8079610449783
 33
0.0
  0
MTEXT
  5
15572
330
4111
100
AcDbEntity
  8
DIM
440
 16777216
 48
0.1
100
AcDbMText
 10
-156.4377104650602
 20
141.8079610449783
 30
0.0
 40
3.5
 41
0.0
 46
0.0
 71
     5
 72
     1
  1
\A1;14
  7
romans
 11
0.0000000000000001
 21
1.0
 31
0.0
 73
     1
 44
1.0
  0
POINT
  5
15573
330
4111
100
AcDbEntity
  8
Defpoints
 62
     0
440
 16777216
 48
0.1
100
AcDbPoint
 10
-130.260628510971
 20
148.8079610449783
 30
0.0
  0
POINT
  5
15574
330
4111
100
AcDbEntity
  8
Defpoints
 62
     0
440
 16777216
 48
0.1
100
AcDbPoint
 10
-133.9296285109711
 20
134.8079610449783
 30
0.0
  0
POINT
  5
15575
330
4111
100
AcDbEntity
  8
Defpoints
 62
     0
440
 16777216
 48
0.1
100
AcDbPoint
 10
-154.1877104650602
 20
134.8079610449783
 30
0.0
  0
ENDBLK
  5
4113
330
4111
100
AcDbEntity
  8
0
 48
0.1
100
AcDbBlockEnd
  0
BLOCK
  5
4140
330
413F
100
AcDbEntity
  8
0
 48
0.1
100
AcDbBlockBegin
  2
*D7
 70
     1
 10
0.0
 20
0.0
 30
0.0
  3
*D7
  1

  0
LINE
  5
1555D
330
413F
100
AcDbEntity
  8
DIM
440
 16777216
 48
0.1
100
AcDbLine
 10
-116.829628510971
 20
163.8079610449782
 30
0.0
 11
-116.829628510971
 21
173.7582016290567
 31
0.0
  0
LINE
  5
1555E
330
413F
100
AcDbEntity
  8
DIM
440
 16777216
 48
0.1
100
AcDbLine
 10
-119.329628510971
 20
172.7582016290567
 30
0.0
 11
-127.029628510971
 21
172.7582016290567
 31
0.0
  0
MTEXT
  5
1555F
102
{ACAD_XDICTIONARY
360
1560A
102
}
330
413F
100
AcDbEntity
  8
DIM
440
 16777216
 48
0.1
100
AcDbMText
 10
-124.681641166886
 20
176.0193585033943
 30
0.0
 40
3.5
 41
0.0
 46
0.0
 71
     5
 72
     1
  1
φ10.2{\H0.5x;\S+0.1^  0;}
  7
romans
 73
     1
 44
1.0
  0
SOLID
  5
15560
330
413F
100
AcDbEntity
  8
DIM
440
 16777216
 48
0.1
100
AcDbTrace
 10
-119.329628510971
 20
173.1748682957233
 30
0.0
 11
-119.329628510971
 21
172.34153496239
 31
0.0
 12
-116.829628510971
 22
172.7582016290567
 32
0.0
 13
-116.829628510971
 23
172.7582016290567
 33
0.0
  0
POINT
  5
15561
330
413F
100
AcDbEntity
  8
Defpoints
 62
     0
440
 16777216
 48
0.1
100
AcDbPoint
 10
-116.829628510971
 20
162.8079610449782
 30
0.0
  0
POINT
  5
15562
330
413F
100
AcDbEntity
  8
Defpoints
 62
     0
440
 16777216
 48
0.1
100
AcDbPoint
 10
-127.029628510971
 20
162.8079610449782
 30
0.0
  0
POINT
  5
15563
330
413F
100
AcDbEntity
  8
Defpoints
 62
     0
440
 16777216
 48
0.1
100
AcDbPoint
 10
-127.029628510971
 20
172.7582016290567
 30
0.0
  0
ENDBLK
  5
4141
330
413F
100
AcDbEntity
  8
0
 48
0.1
100
AcDbBlockEnd
  0
BLOCK
  5
414A
330
4149
100
AcDbEntity
  8
0
 48
0.1
100
AcDbBlockBegin
  2
*D8
 70
     1
 10
0.0
 20
0.0
 30
0.0
  3
*D8
  1

  0
LINE
  5
15554
330
4149
100
AcDbEntity
  8
DIM
440
 16777216
 48
0.1
100
AcDbLine
 10
-111.929628510971
 20
148.1389610449783
 30
0.0
 11
-111.929628510971
 21
181.7582016290567
 31
0.0
  0
LINE
  5
15555
330
4149
100
AcDbEntity
  8
DIM
440
 16777216
 48
0.1
100
AcDbLine
 10
-131.929628510971
 20
148.1389610449783
 30
0.0
 11
-131.929628510971
 21
181.7582016290567
 31
0.0
  0
LINE
  5
15556
330
4149
100
AcDbEntity
  8
DIM
440
 16777216
 48
0.1
100
AcDbLine
 10
-114.429628510971
 20
180.7582016290567
 30
0.0
 11
-129.429628510971
 21
180.7582016290567
 31
0.0
  0
SOLID
  5
15557
330
4149
100
AcDbEntity
  8
DIM
440
 16777216
 48
0.1
100
AcDbTrace
 10
-114.429628510971
 20
181.1748682957233
 30
0.0
 11
-114.429628510971
 21
180.34153496239
 31
0.0
 12
-111.929628510971
 22
180.7582016290567
 32
0.0
 13
-111.929628510971
 23
180.7582016290567
 33
0.0
  0
SOLID
  5
15558
330
4149
100
AcDbEntity
  8
DIM
440
 16777216
 48
0.1
100
AcDbTrace
 10
-129.429628510971
 20
181.1748682957233
 30
0.0
 11
-129.429628510971
 21
180.34153496239
 31
0.0
 12
-131.929628510971
 22
180.7582016290567
 32
0.0
 13
-131.929628510971
 23
180.7582016290567
 33
0.0
  0
MTEXT
  5
15559
330
4149
100
AcDbEntity
  8
DIM
440
 16777216
 48
0.1
100
AcDbMText
 10
-121.9296285109709
 20
183.0082016290567
 30
0.0
 40
3.5
 41
0.0
 46
0.0
 71
     5
 72
     1
  1
\A1;φ20
  7
romans
 73
     1
 44
1.0
  0
POINT
  5
1555A
330
4149
100
AcDbEntity
  8
Defpoints
 62
     0
440
 16777216
 48
0.1
100
AcDbPoint
 10
-111.929628510971
 20
147.1389610449783
 30
0.0
  0
POINT
  5
1555B
330
4149
100
AcDbEntity
  8
Defpoints
 62
     0
440
 16777216
 48
0.1
100
AcDbPoint
 10
-131.929628510971
 20
147.1389610449783
 30
0.0
  0
POINT
  5
1555C
330
4149
100
AcDbEntity
  8
Defpoints
 62
     0
440
 16777216
 48
0.1
100
AcDbPoint
 10
-131.929628510971
 20
180.7582016290567
 30
0.0
  0
ENDBLK
  5
414B
330
4149
100
AcDbEntity
  8
0
 48
0.1
100
AcDbBlockEnd
  0
BLOCK
  5
41F7
330
41F6
100
AcDbEntity
  8
0
 48
0.1
100
AcDbBlockBegin
  2
*D9
 70
     1
 10
0.0
 20
0.0
 30
0.0
  3
*D9
  1

  0
LINE
  5
1554B
330
41F6
100
AcDbEntity
  8
DIM
440
 16777216
 48
0.1
100
AcDbLine
 10
-115.31157724741
 20
229.4683640419417
 30
0.0
 11
-91.69226496439383
 21
229.4683640419417
 31
0.0
  0
LINE
  5
1554C
330
41F6
100
AcDbEntity
  8
DIM
440
 16777216
 48
0.1
100
AcDbLine
 10
-115.31157724741
 20
205.4683640419417
 30
0.0
 11
-91.69226496439383
 21
205.4683640419417
 31
0.0
  0
LINE
  5
1554D
330
41F6
100
AcDbEntity
  8
DIM
440
 16777216
 48
0.1
100
AcDbLine
 10
-92.69226496439383
 20
226.9683640419417
 30
0.0
 11
-92.69226496439385
 21
207.9683640419417
 31
0.0
  0
SOLID
  5
1554E
330
41F6
100
AcDbEntity
  8
DIM
440
 16777216
 48
0.1
100
AcDbTrace
 10
-93.10893163106049
 20
226.9683640419417
 30
0.0
 11
-92.27559829772715
 21
226.9683640419417
 31
0.0
 12
-92.69226496439383
 22
229.4683640419417
 32
0.0
 13
-92.69226496439383
 23
229.4683640419417
 33
0.0
  0
SOLID
  5
1554F
330
41F6
100
AcDbEntity
  8
DIM
440
 16777216
 48
0.1
100
AcDbTrace
 10
-93.10893163106051
 20
207.9683640419417
 30
0.0
 11
-92.27559829772717
 21
207.9683640419417
 31
0.0
 12
-92.69226496439385
 22
205.4683640419417
 32
0.0
 13
-92.69226496439385
 23
205.4683640419417
 33
0.0
  0
MTEXT
  5
15550
330
41F6
100
AcDbEntity
  8
DIM
440
 16777216
 48
0.1
100
AcDbMText
 10
-94.94226496439386
 20
217.4683640419416
 30
0.0
 40
3.5
 41
0.0
 46
0.0
 71
     5
 72
     1
  1
\A1;24
  7
romans
 11
0.0000000000000001
 21
1.0
 31
0.0
 73
     1
 44
1.0
  0
POINT
  5
15551
330
41F6
100
AcDbEntity
  8
Defpoints
 62
     0
440
 16777216
 48
0.1
100
AcDbPoint
 10
-116.31157724741
 20
229.4683640419417
 30
0.0
  0
POINT
  5
15552
330
41F6
100
AcDbEntity
  8
Defpoints
 62
     0
440
 16777216
 48
0.1
100
AcDbPoint
 10
-116.31157724741
 20
205.4683640419417
 30
0.0
  0
POINT
  5
15553
330
41F6
100
AcDbEntity
  8
Defpoints
 62
     0
440
 16777216
 48
0.1
100
AcDbPoint
 10
-92.69226496439385
 20
205.4683640419417
 30
0.0
  0
ENDBLK
  5
41F8
330
41F6
100
AcDbEntity
  8
0
 48
0.1
100
AcDbBlockEnd
  0
BLOCK
  5
4203
330
4202
100
AcDbEntity
  8
0
 48
0.1
100
AcDbBlockBegin
  2
*D10
 70
     1
 10
0.0
 20
0.0
 30
0.0
  3
*D10
  1

  0
LINE
  5
15542
330
4202
100
AcDbEntity
  8
DIM
440
 16777216
 48
0.1
100
AcDbLine
 10
-135.179628510971
 20
218.4683640419416
 30
0.0
 11
-135.179628510971
 21
243.5587138457042
 31
0.0
  0
LINE
  5
15543
330
4202
100
AcDbEntity
  8
DIM
440
 16777216
 48
0.1
100
AcDbLine
 10
-108.679628510971
 20
218.4683640419416
 30
0.0
 11
-108.679628510971
 21
243.5587138457042
 31
0.0
  0
LINE
  5
15544
330
4202
100
AcDbEntity
  8
DIM
440
 16777216
 48
0.1
100
AcDbLine
 10
-132.679628510971
 20
242.5587138457042
 30
0.0
 11
-111.179628510971
 21
242.5587138457042
 31
0.0
  0
SOLID
  5
15545
330
4202
100
AcDbEntity
  8
DIM
440
 16777216
 48
0.1
100
AcDbTrace
 10
-132.679628510971
 20
242.9753805123709
 30
0.0
 11
-132.679628510971
 21
242.1420471790376
 31
0.0
 12
-135.179628510971
 22
242.5587138457042
 32
0.0
 13
-135.179628510971
 23
242.5587138457042
 33
0.0
  0
SOLID
  5
15546
330
4202
100
AcDbEntity
  8
DIM
440
 16777216
 48
0.1
100
AcDbTrace
 10
-111.179628510971
 20
242.9753805123709
 30
0.0
 11
-111.179628510971
 21
242.1420471790376
 31
0.0
 12
-108.679628510971
 22
242.5587138457042
 32
0.0
 13
-108.679628510971
 23
242.5587138457042
 33
0.0
  0
MTEXT
  5
15547
330
4202
100
AcDbEntity
  8
DIM
440
 16777216
 48
0.1
100
AcDbMText
 10
-121.9296285109709
 20
244.8087138457042
 30
0.0
 40
3.5
 41
0.0
 46
0.0
 71
     5
 72
     1
  1
\A1;φ26.5
  7
romans
 73
     1
 44
1.0
  0
POINT
  5
15548
330
4202
100
AcDbEntity
  8
Defpoints
 62
     0
440
 16777216
 48
0.1
100
AcDbPoint
 10
-135.179628510971
 20
217.4683640419416
 30
0.0
  0
POINT
  5
15549
330
4202
100
AcDbEntity
  8
Defpoints
 62
     0
440
 16777216
 48
0.1
100
AcDbPoint
 10
-108.679628510971
 20
217.4683640419416
 30
0.0
  0
POINT
  5
1554A
330
4202
100
AcDbEntity
  8
Defpoints
 62
     0
440
 16777216
 48
0.1
100
AcDbPoint
 10
-108.679628510971
 20
242.5587138457042
 30
0.0
  0
ENDBLK
  5
4204
330
4202
100
AcDbEntity
  8
0
 48
0.1
100
AcDbBlockEnd
  0
BLOCK
  5
14E59
330
14E57
100
AcDbEntity
  8
0
 48
0.1
100
AcDbBlockBegin
  2
GENAXEH
 70
     0
 10
0.0
 20
0.0
 30
0.0
  3
GENAXEH
  1

  0
LINE
  5
14E58
330
14E57
100
AcDbEntity
  8
0
100
AcDbLine
 10
-1.0
 20
0.0
 30
0.0
 11
1.0
 21
0.0
 31
0.0
  0
ENDBLK
  5
14E5A
330
14E57
100
AcDbEntity
  8
0
 48
0.1
100
AcDbBlockEnd
  0
ENDSEC
  0
SECTION
  2
ENTITIES
  0
LINE
  5
403D
330
1F
100
AcDbEntity
  8
SENTER
 62
     0
 48
0.5
100
AcDbLine
 10
-121.929628510971
 20
169.646549840923
 30
0.0
 11
-121.929628510971
 21
104.5978936256015
 31
0.0
  0
LINE
  5
403F
330
1F
100
AcDbEntity
  8
LINE 0.25
 62
     0
 48
0.1
100
AcDbLine
 10
-111.452128510971
 20
120.8079610449783
 30
0.0
 11
-111.452128510971
 21
111.8079610449782
 31
0.0
  0
LINE
  5
4040
330
1F
100
AcDbEntity
  8
LINE 0.18
 62
     0
 48
0.1
100
AcDbLine
 10
-112.614128510971
 20
121.9699610449782
 30
0.0
 11
-112.614128510971
 21
112.9699610449782
 31
0.0
  0
LINE
  5
4041
330
1F
100
AcDbEntity
  8
LINE 0.25
 62
     0
 48
0.1
100
AcDbLine
 10
-112.929628510971
 20
128.8079610449783
 30
0.0
 11
-112.929628510971
 21
122.2854610449782
 31
0.0
  0
LINE
  5
4042
330
1F
100
AcDbEntity
  8
LINE 0.25
 62
     0
 48
0.1
100
AcDbLine
 10
-114.404628510971
 20
145.3079610449784
 30
0.0
 11
-114.404628510971
 21
129.3079610449782
 31
0.0
  0
LINE
  5
4043
330
1F
100
AcDbEntity
  8
LINE 0.25
 62
     0
 48
0.1
100
AcDbLine
 10
-116.829628510971
 20
162.8079610449782
 30
0.0
 11
-116.829628510971
 21
145.8079610449783
 31
0.0
  0
LINE
  5
4044
330
1F
100
AcDbEntity
  8
LINE 0.25
 62
     0
 48
0.1
100
AcDbLine
 10
-115.829628510971
 20
163.8079610449784
 30
0.0
 11
-116.829628510971
 21
162.8079610449782
 31
0.0
  0
LINE
  5
4045
330
1F
100
AcDbEntity
  8
LINE 0.25
 62
     0
 48
0.1
100
AcDbLine
 10
-130.260628510971
 20
162.9519610449782
 30
0.0
 11
-130.260628510971
 21
148.8079610449783
 31
0.0
  0
LINE
  5
4046
330
1F
100
AcDbEntity
  8
LINE 0.18
 62
     0
 48
0.1
100
AcDbLine
 10
-129.404628510971
 20
163.8079610449784
 30
0.0
 11
-129.404628510971
 21
152.8079610449782
 31
0.0
  0
LINE
  5
4047
330
1F
100
AcDbEntity
  8
LINE 0.25
 62
     0
 48
0.1
100
AcDbLine
 10
-131.929628510971
 20
147.1389610449784
 30
0.0
 11
-131.929628510971
 21
134.8079610449783
 31
0.0
  0
LINE
  5
4048
330
1F
100
AcDbEntity
  8
LINE 0.25
 62
     0
 48
0.1
100
AcDbLine
 10
-129.5129077246037
 20
228.3337391559488
 30
0.0
 11
-135.1309589881648
 21
218.6029889279345
 31
0.0
  0
LINE
  5
4049
330
1F
100
AcDbEntity
  8
LINE 0.25
 62
     0
 48
0.1
100
AcDbLine
 10
-135.1309589881648
 20
216.3337391559488
 30
0.0
 11
-129.5129077246038
 21
206.6029889279346
 31
0.0
  0
LINE
  5
404A
330
1F
100
AcDbEntity
  8
LINE 0.25
 62
     0
 48
0.1
100
AcDbLine
 10
-127.5476797745321
 20
205.4683640419417
 30
0.0
 11
-116.31157724741
 21
205.4683640419417
 31
0.0
  0
LINE
  5
404B
330
1F
100
AcDbEntity
  8
LINE 0.25
 62
     0
 48
0.1
100
AcDbLine
 10
-114.3463492973383
 20
206.6029889279345
 30
0.0
 11
-108.7282980337772
 21
216.3337391559488
 31
0.0
  0
LINE
  5
404C
330
1F
100
AcDbEntity
  8
LINE 0.25
 62
     0
 48
0.1
100
AcDbLine
 10
-108.7282980337772
 20
218.6029889279345
 30
0.0
 11
-114.3463492973383
 21
228.3337391559488
 31
0.0
  0
LINE
  5
404D
330
1F
100
AcDbEntity
  8
LINE 0.25
 62
     0
 48
0.1
100
AcDbLine
 10
-116.31157724741
 20
229.4683640419417
 30
0.0
 11
-127.5476797745321
 21
229.4683640419417
 31
0.0
  0
ARC
  5
404E
330
1F
100
AcDbEntity
  8
LINE 0.25
 62
     0
 48
0.1
100
AcDbCircle
 10
-121.929628510971
 20
217.4683640419416
 30
0.0
 40
13.25
100
AcDbArc
 50
115.0876278415105
 51
124.9123721584872
  0
ARC
  5
404F
330
1F
100
AcDbEntity
  8
LINE 0.25
 62
     0
 48
0.1
100
AcDbCircle
 10
-121.929628510971
 20
217.4683640419416
 30
0.0
 40
13.25
100
AcDbArc
 50
175.0876278415113
 51
184.9123721584886
  0
ARC
  5
4050
330
1F
100
AcDbEntity
  8
LINE 0.25
 62
     0
 48
0.1
100
AcDbCircle
 10
-121.929628510971
 20
217.4683640419416
 30
0.0
 40
13.25
100
AcDbArc
 50
235.0876278415126
 51
244.9123721584895
  0
ARC
  5
4051
330
1F
100
AcDbEntity
  8
LINE 0.25
 62
     0
 48
0.1
100
AcDbCircle
 10
-121.929628510971
 20
217.4683640419416
 30
0.0
 40
13.25
100
AcDbArc
 50
295.0876278415105
 51
304.9123721584872
  0
ARC
  5
4052
330
1F
100
AcDbEntity
  8
LINE 0.25
 62
     0
 48
0.1
100
AcDbCircle
 10
-121.929628510971
 20
217.4683640419416
 30
0.0
 40
13.25
100
AcDbArc
 50
355.0876278415113
 51
4.912372158488664
  0
ARC
  5
4053
330
1F
100
AcDbEntity
  8
LINE 0.25
 62
     0
 48
0.1
100
AcDbCircle
 10
-121.929628510971
 20
217.4683640419416
 30
0.0
 40
13.25
100
AcDbArc
 50
55.08762784151265
 51
64.91237215848949
  0
LINE
  5
4054
330
1F
100
AcDbEntity
  8
LINE 0.25
 62
     0
 48
0.1
100
AcDbLine
 10
-135.179628510971
 20
134.0862732084913
 30
0.0
 11
-135.1796285109717
 21
112.5296488814653
 31
0.0
  0
LINE
  5
4055
330
1F
100
AcDbEntity
  8
LINE 0.25
 62
     0
 48
0.1
100
AcDbLine
 10
-133.9296285109711
 20
134.8079610449783
 30
0.0
 11
-121.929628510971
 21
134.8079610449782
 31
0.0
  0
LINE
  5
4056
330
1F
100
AcDbEntity
  8
LINE 0.25
 62
     0
 48
0.1
100
AcDbLine
 10
-130.260628510971
 20
148.8079610449783
 30
0.0
 11
-121.929628510971
 21
148.8079610449783
 31
0.0
  0
LINE
  5
4057
330
1F
100
AcDbEntity
  8
LINE 0.25
 62
     0
 48
0.1
100
AcDbLine
 10
-129.404628510971
 20
163.8079610449784
 30
0.0
 11
-121.929628510971
 21
163.8079610449784
 31
0.0
  0
LINE
  5
4058
330
1F
100
AcDbEntity
  8
LINE 0.18
 62
     0
 48
0.1
100
AcDbLine
 10
-130.260628510971
 20
162.9519610449782
 30
0.0
 11
-121.929628510971
 21
162.9519610449782
 31
0.0
  0
LINE
  5
4059
330
1F
100
AcDbEntity
  8
LINE 0.18
 62
     0
 48
0.1
100
AcDbLine
 10
-130.260628510971
 20
152.8079610449783
 30
0.0
 11
-121.929628510971
 21
152.8079610449783
 31
0.0
  0
LINE
  5
405A
330
1F
100
AcDbEntity
  8
LINE 0.18
 62
     0
 48
0.1
100
AcDbLine
 10
-130.260628510971
 20
151.3253255536992
 30
0.0
 11
-121.929628510971
 21
151.3253255536992
 31
0.0
  0
LINE
  5
405B
330
1F
100
AcDbEntity
  8
LINE 0.18
 62
     0
 48
0.1
100
AcDbLine
 10
-129.5129077246038
 20
134.0862732084913
 30
0.0
 11
-129.5129077246037
 21
112.262923837811
 31
0.0
  0
LINE
  5
405C
330
1F
100
AcDbEntity
  8
LINE 0.18
 62
     0
 48
0.1
100
AcDbLine
 10
-127.5476797745321
 20
134.0862732084913
 30
0.0
 11
-127.5476797745321
 21
112.262923837811
 31
0.0
  0
CIRCLE
  5
405D
330
1F
100
AcDbEntity
  8
LINE 0.18
 62
     0
 48
0.1
100
AcDbCircle
 10
-121.929628510971
 20
217.4683640419416
 30
0.0
 40
12.0
  0
LINE
  5
405E
330
1F
100
AcDbEntity
  8
SENTER
 62
     0
 48
0.5
100
AcDbLine
 10
-106.6407694982524
 20
217.4683640419416
 30
0.0
 11
-137.2184875236896
 21
217.4683640419416
 31
0.0
  0
LINE
  5
405F
330
1F
100
AcDbEntity
  8
LINE 0.18
 62
     0
 48
0.1
100
AcDbLine
 10
-129.5129077246037
 20
134.0862732084913
 30
0.0
 11
-127.5476797745321
 21
134.0862732084913
 31
0.0
  0
ARC
  5
4060
330
1F
100
AcDbEntity
  8
LINE 0.18
 62
     0
 48
0.1
100
AcDbCircle
 10
-132.3462681177874
 20
128.8757516159376
 30
0.0
 40
5.931059465570228
100
AcDbArc
 50
61.46368138280038
 51
118.5363186171992
  0
ARC
  5
4061
330
1F
100
AcDbEntity
  8
LINE 0.18
 62
     0
 48
0.1
100
AcDbCircle
 10
-122.6779749016699
 20
118.4055531307182
 30
0.0
 40
16.41947038446284
100
AcDbArc
 50
87.38773863975891
 51
107.2523723332128
  0
LINE
  5
4062
330
1F
100
AcDbEntity
  8
LINE 0.25
 62
     0
 48
0.1
100
AcDbLine
 10
-108.679628510971
 20
134.0862732084913
 30
0.0
 11
-108.6796285109706
 21
112.5296488814652
 31
0.0
  0
LINE
  5
4063
330
1F
100
AcDbEntity
  8
LINE 0.25
 62
     0
 48
0.1
100
AcDbLine
 10
-109.929628510971
 20
111.8079610449782
 30
0.0
 11
-121.929628510971
 21
111.8079610449782
 31
0.0
  0
LINE
  5
4064
330
1F
100
AcDbEntity
  8
LINE 0.18
 62
     0
 48
0.1
100
AcDbLine
 10
-111.452128510971
 20
112.9699610449782
 30
0.0
 11
-121.929628510971
 21
112.9699610449782
 31
0.0
  0
LINE
  5
4065
330
1F
100
AcDbEntity
  8
LINE 0.18
 62
     0
 48
0.1
100
AcDbLine
 10
-111.452128510971
 20
120.8079610449783
 30
0.0
 11
-112.679628510971
 21
120.8079610449783
 31
0.0
  0
LINE
  5
4066
330
1F
100
AcDbEntity
  8
LINE 0.25
 62
     0
 48
0.1
100
AcDbLine
 10
-112.614128510971
 20
121.9699610449782
 30
0.0
 11
-113.0676285109711
 21
121.9699610449782
 31
0.0
  0
LINE
  5
4067
330
1F
100
AcDbEntity
  8
LINE 0.25
 62
     0
 48
0.1
100
AcDbLine
 10
-112.929628510971
 20
128.8079610449783
 30
0.0
 11
-121.929628510971
 21
128.8079610449783
 31
0.0
  0
ARC
  5
4068
330
1F
100
AcDbEntity
  8
LINE 0.25
 62
     0
 48
0.1
100
AcDbCircle
 10
-113.904628510971
 20
129.3079610449782
 30
0.0
 40
0.5
100
AcDbArc
 50
180.0
 51
270.0
  0
LINE
  5
4069
330
1F
100
AcDbEntity
  8
LINE 0.25
 62
     0
 48
0.1
100
AcDbLine
 10
-114.404628510971
 20
145.3079610449784
 30
0.0
 11
-121.929628510971
 21
145.3079610449784
 31
0.0
  0
LINE
  5
406A
330
1F
100
AcDbEntity
  8
LINE 0.25
 62
     0
 48
0.1
100
AcDbLine
 10
-116.829628510971
 20
145.8079610449783
 30
0.0
 11
-116.329628510971
 21
145.3079610449784
 31
0.0
  0
LINE
  5
406B
330
1F
100
AcDbEntity
  8
LINE 0.25
 62
     0
 48
0.1
100
AcDbLine
 10
-109.929628510971
 20
134.8079610449783
 30
0.0
 11
-111.929628510971
 21
134.8079610449782
 31
0.0
  0
LINE
  5
406C
330
1F
100
AcDbEntity
  8
LINE 0.25
 62
     0
 48
0.1
100
AcDbLine
 10
-130.260628510971
 20
148.8079610449783
 30
0.0
 11
-131.929628510971
 21
147.1389610449783
 31
0.0
  0
LINE
  5
406D
330
1F
100
AcDbEntity
  8
LINE 0.25
 62
     0
 48
0.1
100
AcDbLine
 10
-129.404628510971
 20
163.8079610449784
 30
0.0
 11
-130.260628510971
 21
162.9519610449782
 31
0.0
  0
LINE
  5
406E
330
1F
100
AcDbEntity
  8
LINE 0.18
 62
     0
 48
0.1
100
AcDbLine
 10
-129.404628510971
 20
152.8079610449783
 30
0.0
 11
-130.260628510971
 21
151.3253255536992
 31
0.0
  0
LINE
  5
406F
330
1F
100
AcDbEntity
  8
LINE 0.25
 62
     0
 48
0.1
100
AcDbLine
 10
-113.598628510971
 20
162.9519610449782
 30
0.0
 11
-113.598628510971
 21
148.8079610449783
 31
0.0
  0
LINE
  5
4070
330
1F
100
AcDbEntity
  8
LINE 0.18
 62
     0
 48
0.1
100
AcDbLine
 10
-114.454628510971
 20
163.8079610449784
 30
0.0
 11
-114.454628510971
 21
152.8079610449782
 31
0.0
  0
LINE
  5
4071
330
1F
100
AcDbEntity
  8
LINE 0.25
 62
     0
 48
0.1
100
AcDbLine
 10
-111.929628510971
 20
147.1389610449784
 30
0.0
 11
-111.929628510971
 21
134.8079610449783
 31
0.0
  0
LINE
  5
4072
330
1F
100
AcDbEntity
  8
LINE 0.25
 62
     0
 48
0.1
100
AcDbLine
 10
-114.454628510971
 20
163.8079610449784
 30
0.0
 11
-115.829628510971
 21
163.8079610449784
 31
0.0
  0
LINE
  5
4073
330
1F
100
AcDbEntity
  8
LINE 0.25
 62
     0
 48
0.1
100
AcDbLine
 10
-113.598628510971
 20
148.8079610449783
 30
0.0
 11
-111.929628510971
 21
147.1389610449783
 31
0.0
  0
LINE
  5
4074
330
1F
100
AcDbEntity
  8
LINE 0.25
 62
     0
 48
0.1
100
AcDbLine
 10
-114.454628510971
 20
163.8079610449784
 30
0.0
 11
-113.598628510971
 21
162.9519610449782
 31
0.0
  0
LINE
  5
4075
330
1F
100
AcDbEntity
  8
LINE 0.18
 62
     0
 48
0.1
100
AcDbLine
 10
-114.4546285109711
 20
152.8079610449783
 30
0.0
 11
-113.598628510971
 21
151.3253255536992
 31
0.0
  0
LINE
  5
4076
330
1F
100
AcDbEntity
  8
LINE 0.25
 62
     0
 48
0.1
100
AcDbLine
 10
-131.929628510971
 20
147.1389610449783
 30
0.0
 11
-121.929628510971
 21
147.1389610449783
 31
0.0
  0
LINE
  5
4077
330
1F
100
AcDbEntity
  8
LINE 0.18
 62
     0
 48
0.1
100
AcDbLine
 10
-116.829628510971
 20
145.8079610449783
 30
0.0
 11
-121.929628510971
 21
145.8079610449783
 31
0.0
  0
LINE
  5
4078
330
1F
100
AcDbEntity
  8
LINE 0.25
 62
     0
 48
0.1
100
AcDbLine
 10
-112.9296285109711
 20
122.2854610449782
 30
0.0
 11
-111.452128510971
 21
120.8079610449783
 31
0.0
  0
LINE
  5
4079
330
1F
100
AcDbEntity
  8
LINE 0.18
 62
     0
 48
0.1
100
AcDbLine
 10
-112.614128510971
 20
112.9699610449782
 30
0.0
 11
-111.452128510971
 21
111.8079610449782
 31
0.0
  0
CIRCLE
  5
407A
330
1F
100
AcDbEntity
  8
LINE 0.25
 62
     0
 48
0.1
100
AcDbCircle
 10
-121.929628510971
 20
217.4683640419416
 30
0.0
 40
5.099999999999994
  0
CIRCLE
  5
407B
330
1F
100
AcDbEntity
  8
LINE 0.18
 62
     0
 48
0.1
100
AcDbCircle
 10
-121.929628510971
 20
217.4683640419416
 30
0.0
 40
7.474999999999994
  0
CIRCLE
  5
407C
330
1F
100
AcDbEntity
  8
LINE 0.25
 62
     0
 48
0.1
100
AcDbCircle
 10
-121.929628510971
 20
217.4683640419416
 30
0.0
 40
10.0
  0
CIRCLE
  5
407D
330
1F
100
AcDbEntity
  8
LINE 0.25
 62
     0
 48
0.1
100
AcDbCircle
 10
-121.929628510971
 20
217.4683640419416
 30
0.0
 40
8.330999999999987
  0
LINE
  5
407E
330
1F
100
AcDbEntity
  8
SENTER
 62
     0
 48
0.5
100
AcDbLine
 10
-121.929628510971
 20
232.7572230546603
 30
0.0
 11
-121.929628510971
 21
202.1795050292231
 31
0.0
  0
LINE
  5
4095
330
1F
100
AcDbEntity
  8
LINE 0.25
 62
     0
 48
0.1
100
AcDbLine
 10
-133.9296285109711
 20
134.8079610449783
 30
0.0
 11
-135.179628510971
 21
134.0862732084913
 31
0.0
  0
LINE
  5
4096
330
1F
100
AcDbEntity
  8
LINE 0.25
 62
     0
 48
0.1
100
AcDbLine
 10
-133.9296285109715
 20
111.8079610449782
 30
0.0
 11
-121.9296285109715
 21
111.8079610449782
 31
0.0
  0
LINE
  5
4097
330
1F
100
AcDbEntity
  8
LINE 0.18
 62
     0
 48
0.1
100
AcDbLine
 10
-129.5129077246042
 20
112.5296488814652
 30
0.0
 11
-127.5476797745325
 21
112.5296488814652
 31
0.0
  0
ARC
  5
4098
330
1F
100
AcDbEntity
  8
LINE 0.18
 62
     0
 48
0.1
100
AcDbCircle
 10
-132.3462681177879
 20
117.7401704740189
 30
0.0
 40
5.931059465570228
100
AcDbArc
 50
241.4636813828005
 51
298.5363186171996
  0
ARC
  5
4099
330
1F
100
AcDbEntity
  8
LINE 0.18
 62
     0
 48
0.1
100
AcDbCircle
 10
-122.6779749016703
 20
128.2103689592383
 30
0.0
 40
16.41947038446284
100
AcDbArc
 50
252.7476276667872
 51
272.6122613602411
  0
LINE
  5
409A
330
1F
100
AcDbEntity
  8
LINE 0.25
 62
     0
 48
0.1
100
AcDbLine
 10
-133.9296285109715
 20
111.8079610449782
 30
0.0
 11
-135.1796285109715
 21
112.5296488814652
 31
0.0
  0
LINE
  5
409B
330
1F
100
AcDbEntity
  8
LINE 0.25
 62
     0
 48
0.1
100
AcDbLine
 10
-109.929628510971
 20
134.8079610449783
 30
0.0
 11
-108.679628510971
 21
134.0862732084913
 31
0.0
  0
LINE
  5
409C
330
1F
100
AcDbEntity
  8
LINE 0.25
 62
     0
 48
0.1
100
AcDbLine
 10
-109.9296285109705
 20
111.8079610449782
 30
0.0
 11
-108.6796285109706
 21
112.5296488814652
 31
0.0
  0
LINE
  5
409E
330
1F
100
AcDbEntity
  8
LINE 0.25
 62
     0
 48
0.1
100
AcDbLine
 10
-115.829628510971
 20
163.8079610449784
 30
0.0
 11
-121.929628510971
 21
163.8079610449784
 31
0.0
  0
LINE
  5
409F
330
1F
100
AcDbEntity
  8
LINE 0.18
 62
     0
 48
0.1
100
AcDbLine
 10
-116.829628510971
 20
162.8079610449782
 30
0.0
 11
-121.929628510971
 21
162.8079610449782
 31
0.0
  0
LINE
  5
40BE
330
1F
100
AcDbEntity
  8
LINE 0.25
 62
     0
 48
0.1
100
AcDbLine
 10
-112.9296285109711
 20
122.2854610449782
 30
0.0
 11
-113.029628510971
 21
122.2854610449782
 31
0.0
  0
LINE
  5
41C7
330
1F
100
AcDbEntity
  8
LINE 0.18
 62
     0
 48
0.5
100
AcDbLine
 10
-114.529628510971
 20
145.3079610449782
 30
0.0
 11
-114.529628510971
 21
132.9079610449783
 31
0.0
  0
LINE
  5
41C8
330
1F
100
AcDbEntity
  8
LINE 0.18
 62
     0
 48
0.1
100
AcDbLine
 10
-114.529628510971
 20
143.8079610449783
 30
0.0
 11
-121.929628510971
 21
143.8079610449783
 31
0.0
  0
LINE
  5
41C9
330
1F
100
AcDbEntity
  8
LINE 0.18
 62
     0
 48
0.5
100
AcDbLine
 10
-114.529628510971
 20
129.3079610449782
 30
0.0
 11
-121.929628510971
 21
129.3079610449782
 31
0.0
  0
LINE
  5
41CA
330
1F
100
AcDbEntity
  8
LINE 0.18
 62
     0
 48
0.5
100
AcDbLine
 10
-114.529628510971
 20
130.6079610449782
 30
0.0
 11
-121.929628510971
 21
130.6079610449782
 31
0.0
  0
LINE
  5
41CB
330
1F
100
AcDbEntity
  8
LINE 0.18
 62
     0
 48
0.5
100
AcDbLine
 10
-114.529628510971
 20
132.9079610449783
 30
0.0
 11
-121.929628510971
 21
132.9079610449783
 31
0.0
  0
LINE
  5
41CC
330
1F
100
AcDbEntity
  8
LINE 0.18
 62
     0
 48
0.5
100
AcDbLine
 10
-115.929628510971
 20
132.9079610449783
 30
0.0
 11
-115.929628510971
 21
130.6079610449782
 31
0.0
  0
LINE
  5
41CD
330
1F
100
AcDbEntity
  8
LINE 0.18
 62
     0
 48
0.5
100
AcDbLine
 10
-114.529628510971
 20
130.6079610449782
 30
0.0
 11
-114.529628510971
 21
129.3079610449782
 31
0.0
  0
ELLIPSE
  5
41CF
330
1F
100
AcDbEntity
  8
LINE 0.18
 62
     0
 48
0.5
100
AcDbEllipse
 10
-115.167128510971
 20
131.7579610449782
 30
0.0
 11
0.0
 21
-1.150000000000034
 31
0.0
210
0.0
220
0.0
230
1.0
 40
0.6630434782608523
 41
0.0
 42
6.283185307179584
  0
LINE
  5
41D0
330
1F
100
AcDbEntity
  8
LINE 0.18
 62
     0
 48
0.5
100
AcDbLine
 10
-121.929628510971
 20
133.9959724817486
 30
0.0
 11
-120.929628510971
 21
133.9959724817486
 31
0.0
  0
LINE
  5
41D2
330
1F
100
AcDbEntity
  8
LINE 0.18
 62
     0
 48
0.5
100
AcDbLine
 10
-120.929628510971
 20
135.9959724817486
 30
0.0
 11
-120.929628510971
 21
133.9959724817486
 31
0.0
  0
LINE
  5
41D6
330
1F
100
AcDbEntity
  8
LINE 0.18
 62
     0
 48
0.5
100
AcDbLine
 10
-121.929628510971
 20
137.9959724817486
 30
0.0
 11
-119.929628510971
 21
135.9959724817486
 31
0.0
  0
LINE
  5
41D7
330
1F
100
AcDbEntity
  8
LINE 0.18
 62
     0
 48
0.5
100
AcDbLine
 10
-119.929628510971
 20
135.9959724817486
 30
0.0
 11
-120.929628510971
 21
135.9959724817486
 31
0.0
  0
LINE
  5
41D9
330
1F
100
AcDbEntity
  8
LINE 0.25
 62
     0
 48
0.1
100
AcDbLine
 10
-116.9296285109711
 20
128.8079610449783
 30
0.0
 11
-116.9296285109711
 21
121.5079610449782
 31
0.0
  0
LINE
  5
41DA
330
1F
100
AcDbEntity
  8
LINE 0.25
 62
     0
 48
0.1
100
AcDbLine
 10
-114.9296285109711
 20
126.3079610449782
 30
0.0
 11
-114.9296285109711
 21
124.0079610449782
 31
0.0
  0
ARC
  5
41DB
330
1F
100
AcDbEntity
  8
LINE 0.25
 62
     0
 48
0.1
100
AcDbCircle
 10
-114.4296285109711
 20
126.3079610449782
 30
0.0
 40
0.5
100
AcDbArc
 50
90.0
 51
180.0
  0
LINE
  5
41DC
330
1F
100
AcDbEntity
  8
LINE 0.25
 62
     0
 48
0.1
100
AcDbLine
 10
-113.0296285109711
 20
128.3079610449782
 30
0.0
 11
-113.0296285109711
 21
127.3079610449782
 31
0.0
  0
ARC
  5
41DD
330
1F
100
AcDbEntity
  8
LINE 0.25
 62
     0
 48
0.1
100
AcDbCircle
 10
-113.5296285109711
 20
127.3079610449782
 30
0.0
 40
0.5
100
AcDbArc
 50
270.0
 51
0.0
  0
LINE
  5
41DE
330
1F
100
AcDbEntity
  8
LINE 0.25
 62
     0
 48
0.1
100
AcDbLine
 10
-113.029628510971
 20
123.0079610449782
 30
0.0
 11
-113.0296285109711
 21
122.0079610449782
 31
0.0
  0
ARC
  5
41DF
330
1F
100
AcDbEntity
  8
LINE 0.25
 62
     0
 48
0.1
100
AcDbCircle
 10
-113.529628510971
 20
123.0079610449782
 30
0.0
 40
0.5
100
AcDbArc
 50
359.9999999999968
 51
90.0
  0
LINE
  5
41E0
330
1F
100
AcDbEntity
  8
LINE 0.25
 62
     0
 48
0.1
100
AcDbLine
 10
-113.5296285109711
 20
121.5079610449782
 30
0.0
 11
-113.0296285109711
 21
122.0079610449782
 31
0.0
  0
LINE
  5
41E1
330
1F
100
AcDbEntity
  8
LINE 0.25
 62
     0
 48
0.1
100
AcDbLine
 10
-121.929628510971
 20
121.5079610449782
 30
0.0
 11
-112.679628510971
 21
121.5079610449782
 31
0.0
  0
LINE
  5
41E3
330
1F
100
AcDbEntity
  8
LINE 0.25
 62
     0
 48
0.1
100
AcDbLine
 10
-113.0296285109711
 20
128.3079610449782
 30
0.0
 11
-113.5296285109711
 21
128.8079610449783
 31
0.0
  0
LINE
  5
41E4
330
1F
100
AcDbEntity
  8
LINE 0.25
 62
     0
 48
0.1
100
AcDbLine
 10
-113.5296285109711
 20
126.8079610449783
 30
0.0
 11
-114.4296285109711
 21
126.8079610449783
 31
0.0
  0
LINE
  5
41E5
330
1F
100
AcDbEntity
  8
LINE 0.25
 62
     0
 48
0.1
100
AcDbLine
 10
-114.4296285109711
 20
123.5079610449782
 30
0.0
 11
-113.529628510971
 21
123.5079610449782
 31
0.0
  0
ARC
  5
41E6
330
1F
100
AcDbEntity
  8
LINE 0.25
 62
     0
 48
0.1
100
AcDbCircle
 10
-114.4296285109711
 20
124.0079610449782
 30
0.0
 40
0.5
100
AcDbArc
 50
180.0
 51
270.0
  0
ELLIPSE
  5
41EB
330
1F
100
AcDbEntity
  8
LINE 0.18
 62
     0
 48
0.1
100
AcDbEllipse
 10
-113.9296285109711
 20
125.1579610449782
 30
0.0
 11
0.0
 21
-1.199999999999988
 31
0.0
210
0.0
220
0.0
230
1.0
 40
0.8333333333333767
 41
0.0
 42
6.283185307179584
  0
LINE
  5
4269
330
1F
100
AcDbEntity
  8
LINE 0.25
 62
     0
 48
0.1
100
AcDbLine
 10
-115.929628510971
 20
121.5079610449782
 30
0.0
 11
-115.929628510971
 21
119.5079610449782
 31
0.0
  0
LINE
  5
426A
330
1F
100
AcDbEntity
  8
LINE 0.25
 62
     0
 48
0.1
100
AcDbLine
 10
-112.679628510971
 20
121.5079610449782
 30
0.0
 11
-112.679628510971
 21
119.5079610449782
 31
0.0
  0
LINE
  5
426B
330
1F
100
AcDbEntity
  8
LINE 0.25
 62
     0
 48
0.1
100
AcDbLine
 10
-121.929628510971
 20
119.5079610449782
 30
0.0
 11
-112.679628510971
 21
119.5079610449782
 31
0.0
  0
LINE
  5
15591
330
1F
100
AcDbEntity
  8
DIM
 62
     0
 48
0.1
100
AcDbLine
 10
-135.179628510971
 20
218.4683640419416
 30
0.0
 11
-135.179628510971
 21
243.5587138457042
 31
0.0
  0
LINE
  5
15592
330
1F
100
AcDbEntity
  8
DIM
 62
     0
 48
0.1
100
AcDbLine
 10
-108.679628510971
 20
218.4683640419416
 30
0.0
 11
-108.679628510971
 21
243.5587138457042
 31
0.0
  0
LINE
  5
15593
330
1F
100
AcDbEntity
  8
DIM
 62
     0
 48
0.1
100
AcDbLine
 10
-132.679628510971
 20
242.5587138457042
 30
0.0
 11
-111.179628510971
 21
242.5587138457042
 31
0.0
  0
SOLID
  5
15594
330
1F
100
AcDbEntity
  8
DIM
 62
     0
 48
0.1
100
AcDbTrace
 10
-132.679628510971
 20
242.9753805123709
 30
0.0
 11
-132.679628510971
 21
242.1420471790376
 31
0.0
 12
-135.179628510971
 22
242.5587138457042
 32
0.0
 13
-135.179628510971
 23
242.5587138457042
 33
0.0
  0
SOLID
  5
15595
330
1F
100
AcDbEntity
  8
DIM
 62
     0
 48
0.1
100
AcDbTrace
 10
-111.179628510971
 20
242.9753805123709
 30
0.0
 11
-111.179628510971
 21
242.1420471790376
 31
0.0
 12
-108.679628510971
 22
242.5587138457042
 32
0.0
 13
-108.679628510971
 23
242.5587138457042
 33
0.0
  0
MTEXT
  5
15596
330
1F
100
AcDbEntity
  8
DIM
 62
     0
 48
0.1
100
AcDbMText
 10
-121.9296285109709
 20
244.8087138457042
 30
0.0
 40
3.5
 41
0.0
 46
0.0
 71
     5
 72
     1
  1
\A1;φ26.5
  7
romans
 73
     1
 44
1.0
  0
LINE
  5
15597
330
1F
100
AcDbEntity
  8
DIM
 62
     0
 48
0.1
100
AcDbLine
 10
-115.31157724741
 20
229.4683640419417
 30
0.0
 11
-91.69226496439383
 21
229.4683640419417
 31
0.0
  0
LINE
  5
15598
330
1F
100
AcDbEntity
  8
DIM
 62
     0
 48
0.1
100
AcDbLine
 10
-115.31157724741
 20
205.4683640419417
 30
0.0
 11
-91.69226496439383
 21
205.4683640419417
 31
0.0
  0
LINE
  5
15599
330
1F
100
AcDbEntity
  8
DIM
 62
     0
 48
0.1
100
AcDbLine
 10
-92.69226496439383
 20
226.9683640419417
 30
0.0
 11
-92.69226496439385
 21
207.9683640419417
 31
0.0
  0
SOLID
  5
1559A
330
1F
100
AcDbEntity
  8
DIM
 62
     0
 48
0.1
100
AcDbTrace
 10
-93.10893163106049
 20
226.9683640419417
 30
0.0
 11
-92.27559829772715
 21
226.9683640419417
 31
0.0
 12
-92.69226496439383
 22
229.4683640419417
 32
0.0
 13
-92.69226496439383
 23
229.4683640419417
 33
0.0
  0
SOLID
  5
1559B
330
1F
100
AcDbEntity
  8
DIM
 62
     0
 48
0.1
100
AcDbTrace
 10
-93.10893163106051
 20
207.9683640419417
 30
0.0
 11
-92.27559829772717
 21
207.9683640419417
 31
0.0
 12
-92.69226496439385
 22
205.4683640419417
 32
0.0
 13
-92.69226496439385
 23
205.4683640419417
 33
0.0
  0
MTEXT
  5
1559C
330
1F
100
AcDbEntity
  8
DIM
 62
     0
 48
0.1
100
AcDbMText
 10
-94.94226496439386
 20
217.4683640419416
 30
0.0
 40
3.5
 41
0.0
 46
0.0
 71
     5
 72
     1
  1
\A1;24
  7
romans
 11
0.0000000000000001
 21
1.0
 31
0.0
 73
     1
 44
1.0
  0
MTEXT
  5
1559D
330
1F
100
AcDbEntity
  8
DIM
 62
     0
 48
0.1
100
AcDbMText
 10
-100.7923021712748
 20
168.7319652369831
 30
0.0
 40
3.5
 41
0.0
 46
0.0
 71
     1
 72
     5
  1
G3/8
  7
romans
 73
     1
 44
1.0
1001
ACAD_MLEADERVER
1070
     2
  0
LINE
  5
1559E
330
1F
100
AcDbEntity
  8
DIM
 62
     0
 48
0.1
100
AcDbLine
 10
-102.1523021712748
 20
163.3986319036498
 30
0.0
 11
-101.7923021712748
 21
163.3986319036498
 31
0.0
1001
ACAD_MLEADERVER
1070
     2
  0
LWPOLYLINE
  5
1559F
330
1F
100
AcDbEntity
  8
DIM
 62
     0
 48
0.1
100
AcDbPolyline
 90
        2
 70
     0
 43
0.0
 10
-111.3016959098469
 20
159.4672432772087
 10
-102.1523021712748
 20
163.3986319036498
1001
ACAD_MLEADERVER
1070
     2
  0
SOLID
  5
155A0
330
1F
100
AcDbEntity
  8
DIM
 62
     0
 48
0.1
100
AcDbTrace
 10
-111.137201682838
 20
159.0844211770213
 30
0.0
 11
-113.598628510971
 21
158.4802779151551
 31
0.0
 12
-111.4661901368559
 22
159.850065377396
 32
0.0
 13
-111.4661901368559
 23
159.850065377396
 33
0.0
1001
ACAD_MLEADERVER
1070
     2
  0
LWPOLYLINE
  5
155A1
330
1F
100
AcDbEntity
  8
DIM
 62
     0
 48
0.1
100
AcDbPolyline
 90
        2
 70
     0
 43
0.0
 10
-101.7923021712748
 20
163.3986319036498
 10
-87.95896883794148
 20
163.3986319036498
1001
ACAD_MLEADERVER
1070
     2
  0
MTEXT
  5
155A2
330
1F
100
AcDbEntity
  8
DIM
 62
     0
 48
0.1
100
AcDbMText
 10
-101.9305197687567
 20
107.504973365298
 30
0.0
 40
3.5
 41
0.0
 46
0.0
 71
     1
 72
     5
  1
G1/2
  7
romans
 73
     1
 44
1.0
1001
ACAD_MLEADERVER
1070
     2
  0
LINE
  5
155A3
330
1F
100
AcDbEntity
  8
DIM
 62
     0
 48
0.1
100
AcDbLine
 10
-103.2905197687567
 20
102.1716400319647
 30
0.0
 11
-102.9305197687567
 21
102.1716400319647
 31
0.0
1001
ACAD_MLEADERVER
1070
     2
  0
LWPOLYLINE
  5
155A4
330
1F
100
AcDbEntity
  8
DIM
 62
     0
 48
0.1
100
AcDbPolyline
 90
        2
 70
     0
 43
0.0
 10
-110.202128510971
 20
114.1428975355172
 10
-103.2905197687567
 20
102.1716400319647
1001
ACAD_MLEADERVER
1070
     2
  0
SOLID
  5
155A5
330
1F
100
AcDbEntity
  8
DIM
 62
     0
 48
0.1
100
AcDbTrace
 10
-110.5629724292145
 20
113.9345642021838
 30
0.0
 11
-111.452128510971
 21
116.3079610449783
 31
0.0
 12
-109.8412845927275
 22
114.3512308688505
 32
0.0
 13
-109.8412845927275
 23
114.3512308688505
 33
0.0
1001
ACAD_MLEADERVER
1070
     2
  0
LWPOLYLINE
  5
155A6
330
1F
100
AcDbEntity
  8
DIM
 62
     0
 48
0.1
100
AcDbPolyline
 90
        2
 70
     0
 43
0.0
 10
-102.9305197687567
 20
102.1716400319647
 10
-89.09718643542337
 20
102.1716400319647
1001
ACAD_MLEADERVER
1070
     2
  0
LINE
  5
155A7
330
1F
100
AcDbEntity
  8
DIM
 62
     0
 48
0.1
100
AcDbLine
 10
-116.2226055202214
 20
121.5079610449782
 30
0.0
 11
-116.9296285109711
 21
122.2149840357279
 31
0.0
1001
GradientColor1ACI
1070
     5
1001
GradientColor2ACI
1070
     2
1001
ACAD
1010
0.0
1020
0.0
1030
0.0
  0
LINE
  5
155A8
330
1F
100
AcDbEntity
  8
DIM
 62
     0
 48
0.1
100
AcDbLine
 10
-113.9775414899541
 20
121.5079610449782
 30
0.0
 11
-116.9296285109711
 21
124.4600480659952
 31
0.0
1001
GradientColor1ACI
1070
     5
1001
GradientColor2ACI
1070
     2
1001
ACAD
1010
0.0
1020
0.0
1030
0.0
  0
LINE
  5
155A9
330
1F
100
AcDbEntity
  8
DIM
 62
     0
 48
0.1
100
AcDbLine
 10
-113.029628510971
 20
122.8051120962624
 30
0.0
 11
-113.7324774596868
 21
123.5079610449782
 31
0.0
1001
GradientColor1ACI
1070
     5
1001
GradientColor2ACI
1070
     2
1001
ACAD
1010
0.0
1020
0.0
1030
0.0
  0
LINE
  5
155AA
330
1F
100
AcDbEntity
  8
DIM
 62
     0
 48
0.1
100
AcDbLine
 10
-114.9296285109711
 20
124.7051120962625
 30
0.0
 11
-116.9296285109711
 21
126.7051120962625
 31
0.0
1001
GradientColor1ACI
1070
     5
1001
GradientColor2ACI
1070
     2
1001
ACAD
1010
0.0
1020
0.0
1030
0.0
  0
LINE
  5
155AB
330
1F
100
AcDbEntity
  8
DIM
 62
     0
 48
0.1
100
AcDbLine
 10
-114.7048498855992
 20
126.7253975011579
 30
0.0
 11
-116.7874134294196
 21
128.8079610449783
 31
0.0
1001
GradientColor1ACI
1070
     5
1001
GradientColor2ACI
1070
     2
1001
ACAD
1010
0.0
1020
0.0
1030
0.0
  0
LINE
  5
155AC
330
1F
100
AcDbEntity
  8
DIM
 62
     0
 48
0.1
100
AcDbLine
 10
-113.0297863656987
 20
127.2953980115247
 30
0.0
 11
-114.5423493991523
 21
128.8079610449783
 31
0.0
1001
GradientColor1ACI
1070
     5
1001
GradientColor2ACI
1070
     2
1001
ACAD
1010
0.0
1020
0.0
1030
0.0
  0
LINE
  5
155AD
330
1F
100
AcDbEntity
  8
DIM
 62
     0
 48
0.1
100
AcDbLine
 10
-111.929628510971
 20
148.1389610449783
 30
0.0
 11
-111.929628510971
 21
181.7582016290567
 31
0.0
  0
LINE
  5
155AE
330
1F
100
AcDbEntity
  8
DIM
 62
     0
 48
0.1
100
AcDbLine
 10
-131.929628510971
 20
148.1389610449783
 30
0.0
 11
-131.929628510971
 21
181.7582016290567
 31
0.0
  0
LINE
  5
155AF
330
1F
100
AcDbEntity
  8
DIM
 62
     0
 48
0.1
100
AcDbLine
 10
-114.429628510971
 20
180.7582016290567
 30
0.0
 11
-129.429628510971
 21
180.7582016290567
 31
0.0
  0
SOLID
  5
155B0
330
1F
100
AcDbEntity
  8
DIM
 62
     0
 48
0.1
100
AcDbTrace
 10
-114.429628510971
 20
181.1748682957233
 30
0.0
 11
-114.429628510971
 21
180.34153496239
 31
0.0
 12
-111.929628510971
 22
180.7582016290567
 32
0.0
 13
-111.929628510971
 23
180.7582016290567
 33
0.0
  0
SOLID
  5
155B1
330
1F
100
AcDbEntity
  8
DIM
 62
     0
 48
0.1
100
AcDbTrace
 10
-129.429628510971
 20
181.1748682957233
 30
0.0
 11
-129.429628510971
 21
180.34153496239
 31
0.0
 12
-131.929628510971
 22
180.7582016290567
 32
0.0
 13
-131.929628510971
 23
180.7582016290567
 33
0.0
  0
MTEXT
  5
155B2
330
1F
100
AcDbEntity
  8
DIM
 62
     0
 48
0.1
100
AcDbMText
 10
-121.9296285109709
 20
183.0082016290567
 30
0.0
 40
3.5
 41
0.0
 46
0.0
 71
     5
 72
     1
  1
\A1;φ20
  7
romans
 73
     1
 44
1.0
  0
LINE
  5
155B3
330
1F
100
AcDbEntity
  8
DIM
 62
     0
 48
0.1
100
AcDbLine
 10
-116.829628510971
 20
163.8079610449782
 30
0.0
 11
-116.829628510971
 21
173.7582016290567
 31
0.0
  0
LINE
  5
155B4
330
1F
100
AcDbEntity
  8
DIM
 62
     0
 48
0.1
100
AcDbLine
 10
-119.329628510971
 20
172.7582016290567
 30
0.0
 11
-127.029628510971
 21
172.7582016290567
 31
0.0
  0
MTEXT
  5
155B5
102
{ACAD_XDICTIONARY
360
1560C
102
}
330
1F
100
AcDbEntity
  8
DIM
 62
     0
 48
0.1
100
AcDbMText
 10
-124.681641166886
 20
176.0193585033943
 30
0.0
 40
3.5
 41
0.0
 46
0.0
 71
     5
 72
     1
  1
φ10.2{\H0.5x;\S+0.1^  0;}
  7
romans
 73
     1
 44
1.0
  0
SOLID
  5
155B6
330
1F
100
AcDbEntity
  8
DIM
 62
     0
 48
0.1
100
AcDbTrace
 10
-119.329628510971
 20
173.1748682957233
 30
0.0
 11
-119.329628510971
 21
172.34153496239
 31
0.0
 12
-116.829628510971
 22
172.7582016290567
 32
0.0
 13
-116.829628510971
 23
172.7582016290567
 33
0.0
  0
LINE
  5
155B7
330
1F
100
AcDbEntity
  8
DIM
 62
     0
 48
0.1
100
AcDbLine
 10
-134.9296285109711
 20
134.8079610449783
 30
0.0
 11
-155.1877104650602
 21
134.8079610449783
 31
0.0
  0
LINE
  5
155B8
330
1F
100
AcDbEntity
  8
DIM
 62
     0
 48
0.1
100
AcDbLine
 10
-135.929628510971
 20
111.8079610449782
 30
0.0
 11
-155.1877104650602
 21
111.8079610449782
 31
0.0
  0
LINE
  5
155B9
330
1F
100
AcDbEntity
  8
DIM
 62
     0
 48
0.1
100
AcDbLine
 10
-154.1877104650602
 20
132.3079610449783
 30
0.0
 11
-154.1877104650602
 21
114.3079610449782
 31
0.0
  0
SOLID
  5
155BA
330
1F
100
AcDbEntity
  8
DIM
 62
     0
 48
0.1
100
AcDbTrace
 10
-154.6043771317268
 20
132.3079610449783
 30
0.0
 11
-153.7710437983935
 21
132.3079610449783
 31
0.0
 12
-154.1877104650602
 22
134.8079610449783
 32
0.0
 13
-154.1877104650602
 23
134.8079610449783
 33
0.0
  0
SOLID
  5
155BB
330
1F
100
AcDbEntity
  8
DIM
 62
     0
 48
0.1
100
AcDbTrace
 10
-154.6043771317268
 20
114.3079610449782
 30
0.0
 11
-153.7710437983935
 21
114.3079610449782
 31
0.0
 12
-154.1877104650602
 22
111.8079610449782
 32
0.0
 13
-154.1877104650602
 23
111.8079610449782
 33
0.0
  0
MTEXT
  5
155BC
330
1F
100
AcDbEntity
  8
DIM
 62
     0
 48
0.1
100
AcDbMText
 10
-156.4377104650602
 20
123.3079610449782
 30
0.0
 40
3.5
 41
0.0
 46
0.0
 71
     5
 72
     1
  1
\A1;23
  7
romans
 11
0.0000000000000001
 21
1.0
 31
0.0
 73
     1
 44
1.0
  0
LINE
  5
155BD
330
1F
100
AcDbEntity
  8
DIM
 62
     0
 48
0.1
100
AcDbLine
 10
-131.260628510971
 20
148.8079610449783
 30
0.0
 11
-155.1877104650602
 21
148.8079610449783
 31
0.0
  0
LINE
  5
155BE
330
1F
100
AcDbEntity
  8
DIM
 62
     0
 48
0.1
100
AcDbLine
 10
-134.9296285109711
 20
134.8079610449783
 30
0.0
 11
-155.1877104650602
 21
134.8079610449783
 31
0.0
  0
LINE
  5
155BF
330
1F
100
AcDbEntity
  8
DIM
 62
     0
 48
0.1
100
AcDbLine
 10
-154.1877104650602
 20
146.3079610449783
 30
0.0
 11
-154.1877104650602
 21
137.3079610449783
 31
0.0
  0
SOLID
  5
155C0
330
1F
100
AcDbEntity
  8
DIM
 62
     0
 48
0.1
100
AcDbTrace
 10
-154.6043771317268
 20
146.3079610449783
 30
0.0
 11
-153.7710437983935
 21
146.3079610449783
 31
0.0
 12
-154.1877104650602
 22
148.8079610449783
 32
0.0
 13
-154.1877104650602
 23
148.8079610449783
 33
0.0
  0
SOLID
  5
155C1
330
1F
100
AcDbEntity
  8
DIM
 62
     0
 48
0.1
100
AcDbTrace
 10
-154.6043771317268
 20
137.3079610449783
 30
0.0
 11
-153.7710437983935
 21
137.3079610449783
 31
0.0
 12
-154.1877104650602
 22
134.8079610449783
 32
0.0
 13
-154.1877104650602
 23
134.8079610449783
 33
0.0
  0
MTEXT
  5
155C2
330
1F
100
AcDbEntity
  8
DIM
 62
     0
 48
0.1
100
AcDbMText
 10
-156.4377104650602
 20
141.8079610449783
 30
0.0
 40
3.5
 41
0.0
 46
0.0
 71
     5
 72
     1
  1
\A1;14
  7
romans
 11
0.0000000000000001
 21
1.0
 31
0.0
 73
     1
 44
1.0
  0
LINE
  5
155C3
330
1F
100
AcDbEntity
  8
DIM
 62
     0
 48
0.1
100
AcDbLine
 10
-130.404628510971
 20
163.8079610449784
 30
0.0
 11
-163.1877104650602
 21
163.8079610449784
 31
0.0
  0
LINE
  5
155C4
330
1F
100
AcDbEntity
  8
DIM
 62
     0
 48
0.1
100
AcDbLine
 10
-134.929628510971
 20
111.8079610449782
 30
0.0
 11
-163.1877104650602
 21
111.8079610449782
 31
0.0
  0
LINE
  5
155C5
330
1F
100
AcDbEntity
  8
DIM
 62
     0
 48
0.1
100
AcDbLine
 10
-162.1877104650602
 20
161.3079610449784
 30
0.0
 11
-162.1877104650602
 21
114.3079610449782
 31
0.0
  0
SOLID
  5
155C6
330
1F
100
AcDbEntity
  8
DIM
 62
     0
 48
0.1
100
AcDbTrace
 10
-162.6043771317268
 20
161.3079610449784
 30
0.0
 11
-161.7710437983935
 21
161.3079610449784
 31
0.0
 12
-162.1877104650602
 22
163.8079610449784
 32
0.0
 13
-162.1877104650602
 23
163.8079610449784
 33
0.0
  0
SOLID
  5
155C7
330
1F
100
AcDbEntity
  8
DIM
 62
     0
 48
0.1
100
AcDbTrace
 10
-162.6043771317268
 20
114.3079610449782
 30
0.0
 11
-161.7710437983935
 21
114.3079610449782
 31
0.0
 12
-162.1877104650602
 22
111.8079610449782
 32
0.0
 13
-162.1877104650602
 23
111.8079610449782
 33
0.0
  0
MTEXT
  5
155C8
330
1F
100
AcDbEntity
  8
DIM
 62
     0
 48
0.1
100
AcDbMText
 10
-164.4377104650602
 20
137.8079610449782
 30
0.0
 40
3.5
 41
0.0
 46
0.0
 71
     5
 72
     1
  1
\A1;52
  7
romans
 11
0.0000000000000001
 21
1.0
 31
0.0
 73
     1
 44
1.0
  0
LINE
  5
155C9
330
1F
100
AcDbEntity
  8
DIM
 62
     0
 48
0.1
100
AcDbLine
 10
-130.404628510971
 20
163.8079610449784
 30
0.0
 11
-155.1877104650602
 21
163.8079610449784
 31
0.0
  0
LINE
  5
155CA
330
1F
100
AcDbEntity
  8
DIM
 62
     0
 48
0.1
100
AcDbLine
 10
-131.260628510971
 20
148.8079610449783
 30
0.0
 11
-155.1877104650602
 21
148.8079610449783
 31
0.0
  0
LINE
  5
155CB
330
1F
100
AcDbEntity
  8
DIM
 62
     0
 48
0.1
100
AcDbLine
 10
-154.1877104650602
 20
161.3079610449784
 30
0.0
 11
-154.1877104650602
 21
151.3079610449783
 31
0.0
  0
SOLID
  5
155CC
330
1F
100
AcDbEntity
  8
DIM
 62
     0
 48
0.1
100
AcDbTrace
 10
-154.6043771317268
 20
161.3079610449784
 30
0.0
 11
-153.7710437983935
 21
161.3079610449784
 31
0.0
 12
-154.1877104650602
 22
163.8079610449784
 32
0.0
 13
-154.1877104650602
 23
163.8079610449784
 33
0.0
  0
SOLID
  5
155CD
330
1F
100
AcDbEntity
  8
DIM
 62
     0
 48
0.1
100
AcDbTrace
 10
-154.6043771317268
 20
151.3079610449783
 30
0.0
 11
-153.7710437983935
 21
151.3079610449783
 31
0.0
 12
-154.1877104650602
 22
148.8079610449783
 32
0.0
 13
-154.1877104650602
 23
148.8079610449783
 33
0.0
  0
MTEXT
  5
155CE
330
1F
100
AcDbEntity
  8
DIM
 62
     0
 48
0.1
100
AcDbMText
 10
-156.4377104650602
 20
156.3079610449783
 30
0.0
 40
3.5
 41
0.0
 46
0.0
 71
     5
 72
     1
  1
\A1;15
  7
romans
 11
0.0000000000000001
 21
1.0
 31
0.0
 73
     1
 44
1.0
  0
LINE
  5
155CF
330
1F
100
AcDbEntity
  8
DIM
 62
     0
 48
0.1
100
AcDbLine
 10
-130.404628510971
 20
163.8079610449784
 30
0.0
 11
-147.1877104650602
 21
163.8079610449784
 31
0.0
  0
LINE
  5
155D0
330
1F
100
AcDbEntity
  8
DIM
 62
     0
 48
0.1
100
AcDbLine
 10
-131.260628510971
 20
152.8079610449783
 30
0.0
 11
-147.1877104650602
 21
152.8079610449783
 31
0.0
  0
LINE
  5
155D1
330
1F
100
AcDbEntity
  8
DIM
 62
     0
 48
0.1
100
AcDbLine
 10
-146.1877104650602
 20
161.3079610449784
 30
0.0
 11
-146.1877104650602
 21
155.3079610449783
 31
0.0
  0
SOLID
  5
155D2
330
1F
100
AcDbEntity
  8
DIM
 62
     0
 48
0.1
100
AcDbTrace
 10
-146.6043771317268
 20
161.3079610449784
 30
0.0
 11
-145.7710437983935
 21
161.3079610449784
 31
0.0
 12
-146.1877104650602
 22
163.8079610449784
 32
0.0
 13
-146.1877104650602
 23
163.8079610449784
 33
0.0
  0
SOLID
  5
155D3
330
1F
100
AcDbEntity
  8
DIM
 62
     0
 48
0.1
100
AcDbTrace
 10
-146.6043771317268
 20
155.3079610449783
 30
0.0
 11
-145.7710437983935
 21
155.3079610449783
 31
0.0
 12
-146.1877104650602
 22
152.8079610449783
 32
0.0
 13
-146.1877104650602
 23
152.8079610449783
 33
0.0
  0
MTEXT
  5
155D4
330
1F
100
AcDbEntity
  8
DIM
 62
     0
 48
0.1
100
AcDbMText
 10
-148.4377104650602
 20
158.3079610449783
 30
0.0
 40
3.5
 41
0.0
 46
0.0
 71
     5
 72
     1
  1
\A1;11
  7
romans
 11
0.0000000000000001
 21
1.0
 31
0.0
 73
     1
 44
1.0
  0
LINE
  5
155D5
330
1F
100
AcDbEntity
  8
DIM
 62
     0
 48
0.1
100
AcDbLine
 10
-116.829628510971
 20
161.5583112421725
 30
0.0
 11
-114.5799787081651
 21
163.8079610449784
 31
0.0
1001
GradientColor1ACI
1070
     5
1001
GradientColor2ACI
1070
     2
1001
ACAD
1010
0.0
1020
0.0
1030
0.0
  0
LINE
  5
155D6
330
1F
100
AcDbEntity
  8
DIM
 62
     0
 48
0.1
100
AcDbLine
 10
-116.829628510971
 20
159.3132472119052
 30
0.0
 11
-114.454628510971
 21
161.6882472119052
 31
0.0
1001
GradientColor1ACI
1070
     5
1001
GradientColor2ACI
1070
     2
1001
ACAD
1010
0.0
1020
0.0
1030
0.0
  0
LINE
  5
155D7
330
1F
100
AcDbEntity
  8
DIM
 62
     0
 48
0.1
100
AcDbLine
 10
-116.829628510971
 20
157.0681831816379
 30
0.0
 11
-114.454628510971
 21
159.4431831816379
 31
0.0
1001
GradientColor1ACI
1070
     5
1001
GradientColor2ACI
1070
     2
1001
ACAD
1010
0.0
1020
0.0
1030
0.0
  0
LINE
  5
155D8
330
1F
100
AcDbEntity
  8
DIM
 62
     0
 48
0.1
100
AcDbLine
 10
-116.829628510971
 20
154.8231191513706
 30
0.0
 11
-114.454628510971
 21
157.1981191513706
 31
0.0
1001
GradientColor1ACI
1070
     5
1001
GradientColor2ACI
1070
     2
1001
ACAD
1010
0.0
1020
0.0
1030
0.0
  0
LINE
  5
155D9
330
1F
100
AcDbEntity
  8
DIM
 62
     0
 48
0.1
100
AcDbLine
 10
-116.829628510971
 20
152.5780551211034
 30
0.0
 11
-114.454628510971
 21
154.9530551211034
 31
0.0
1001
GradientColor1ACI
1070
     5
1001
GradientColor2ACI
1070
     2
1001
ACAD
1010
0.0
1020
0.0
1030
0.0
  0
LINE
  5
155DA
330
1F
100
AcDbEntity
  8
DIM
 62
     0
 48
0.1
100
AcDbLine
 10
-116.829628510971
 20
150.3329910908361
 30
0.0
 11
-114.4180369681398
 21
152.7445826336673
 31
0.0
1001
GradientColor1ACI
1070
     5
1001
GradientColor2ACI
1070
     2
1001
ACAD
1010
0.0
1020
0.0
1030
0.0
  0
LINE
  5
155DB
330
1F
100
AcDbEntity
  8
DIM
 62
     0
 48
0.1
100
AcDbLine
 10
-116.829628510971
 20
148.0879270605688
 30
0.0
 11
-113.598628510971
 21
151.3189270605688
 31
0.0
1001
GradientColor1ACI
1070
     5
1001
GradientColor2ACI
1070
     2
1001
ACAD
1010
0.0
1020
0.0
1030
0.0
  0
LINE
  5
155DC
330
1F
100
AcDbEntity
  8
DIM
 62
     0
 48
0.1
100
AcDbLine
 10
-116.829628510971
 20
145.8428630303015
 30
0.0
 11
-113.598628510971
 21
149.0738630303015
 31
0.0
1001
GradientColor1ACI
1070
     5
1001
GradientColor2ACI
1070
     2
1001
ACAD
1010
0.0
1020
0.0
1030
0.0
  0
LINE
  5
155DD
330
1F
100
AcDbEntity
  8
DIM
 62
     0
 48
0.1
100
AcDbLine
 10
-115.1194664660268
 20
145.3079610449784
 30
0.0
 11
-112.6090474884989
 21
147.8183800225063
 31
0.0
1001
GradientColor1ACI
1070
     5
1001
GradientColor2ACI
1070
     2
1001
ACAD
1010
0.0
1020
0.0
1030
0.0
  0
LINE
  5
155DE
330
1F
100
AcDbEntity
  8
DIM
 62
     0
 48
0.1
100
AcDbLine
 10
-114.404628510971
 20
143.7777349697669
 30
0.0
 11
-111.929628510971
 21
146.2527349697669
 31
0.0
1001
GradientColor1ACI
1070
     5
1001
GradientColor2ACI
1070
     2
1001
ACAD
1010
0.0
1020
0.0
1030
0.0
  0
LINE
  5
155DF
330
1F
100
AcDbEntity
  8
DIM
 62
     0
 48
0.1
100
AcDbLine
 10
-114.404628510971
 20
141.5326709394996
 30
0.0
 11
-111.929628510971
 21
144.0076709394996
 31
0.0
1001
GradientColor1ACI
1070
     5
1001
GradientColor2ACI
1070
     2
1001
ACAD
1010
0.0
1020
0.0
1030
0.0
  0
LINE
  5
155E0
330
1F
100
AcDbEntity
  8
DIM
 62
     0
 48
0.1
100
AcDbLine
 10
-114.404628510971
 20
139.2876069092323
 30
0.0
 11
-111.929628510971
 21
141.7626069092323
 31
0.0
1001
GradientColor1ACI
1070
     5
1001
GradientColor2ACI
1070
     2
1001
ACAD
1010
0.0
1020
0.0
1030
0.0
  0
LINE
  5
155E1
330
1F
100
AcDbEntity
  8
DIM
 62
     0
 48
0.1
100
AcDbLine
 10
-114.404628510971
 20
137.042542878965
 30
0.0
 11
-111.929628510971
 21
139.5175428789651
 31
0.0
1001
GradientColor1ACI
1070
     5
1001
GradientColor2ACI
1070
     2
1001
ACAD
1010
0.0
1020
0.0
1030
0.0
  0
LINE
  5
155E2
330
1F
100
AcDbEntity
  8
DIM
 62
     0
 48
0.1
100
AcDbLine
 10
-114.404628510971
 20
134.7974788486977
 30
0.0
 11
-111.929628510971
 21
137.2724788486978
 31
0.0
1001
GradientColor1ACI
1070
     5
1001
GradientColor2ACI
1070
     2
1001
ACAD
1010
0.0
1020
0.0
1030
0.0
  0
LINE
  5
155E3
330
1F
100
AcDbEntity
  8
DIM
 62
     0
 48
0.1
100
AcDbLine
 10
-114.404628510971
 20
132.5524148184305
 30
0.0
 11
-111.929628510971
 21
135.0274148184305
 31
0.0
1001
GradientColor1ACI
1070
     5
1001
GradientColor2ACI
1070
     2
1001
ACAD
1010
0.0
1020
0.0
1030
0.0
  0
LINE
  5
155E4
330
1F
100
AcDbEntity
  8
DIM
 62
     0
 48
0.1
100
AcDbLine
 10
-114.404628510971
 20
130.3073507881632
 30
0.0
 11
-109.9133922587476
 21
134.7985870403865
 31
0.0
1001
GradientColor1ACI
1070
     5
1001
GradientColor2ACI
1070
     2
1001
ACAD
1010
0.0
1020
0.0
1030
0.0
  0
LINE
  5
155E5
330
1F
100
AcDbEntity
  8
DIM
 62
     0
 48
0.1
100
AcDbLine
 10
-113.6589542238886
 20
128.8079610449783
 30
0.0
 11
-108.679628510971
 21
133.7872867578959
 31
0.0
1001
GradientColor1ACI
1070
     5
1001
GradientColor2ACI
1070
     2
1001
ACAD
1010
0.0
1020
0.0
1030
0.0
  0
LINE
  5
155E6
330
1F
100
AcDbEntity
  8
DIM
 62
     0
 48
0.1
100
AcDbLine
 10
-112.929628510971
 20
127.2922227276286
 30
0.0
 11
-108.6796285109709
 21
131.5422227276286
 31
0.0
1001
GradientColor1ACI
1070
     5
1001
GradientColor2ACI
1070
     2
1001
ACAD
1010
0.0
1020
0.0
1030
0.0
  0
LINE
  5
155E7
330
1F
100
AcDbEntity
  8
DIM
 62
     0
 48
0.1
100
AcDbLine
 10
-112.929628510971
 20
125.0471586973613
 30
0.0
 11
-108.6796285109709
 21
129.2971586973614
 31
0.0
1001
GradientColor1ACI
1070
     5
1001
GradientColor2ACI
1070
     2
1001
ACAD
1010
0.0
1020
0.0
1030
0.0
  0
LINE
  5
155E8
330
1F
100
AcDbEntity
  8
DIM
 62
     0
 48
0.1
100
AcDbLine
 10
-112.9296285109711
 20
122.802094667094
 30
0.0
 11
-108.6796285109708
 21
127.0520946670942
 31
0.0
1001
GradientColor1ACI
1070
     5
1001
GradientColor2ACI
1070
     2
1001
ACAD
1010
0.0
1020
0.0
1030
0.0
  0
LINE
  5
155E9
330
1F
100
AcDbEntity
  8
DIM
 62
     0
 48
0.1
100
AcDbLine
 10
-112.0654133068952
 20
121.4212458409025
 30
0.0
 11
-108.6796285109708
 21
124.8070306368269
 31
0.0
1001
GradientColor1ACI
1070
     5
1001
GradientColor2ACI
1070
     2
1001
ACAD
1010
0.0
1020
0.0
1030
0.0
  0
LINE
  5
155EA
330
1F
100
AcDbEntity
  8
DIM
 62
     0
 48
0.1
100
AcDbLine
 10
-111.452128510971
 20
119.7894666065595
 30
0.0
 11
-108.6796285109707
 21
122.5619666065597
 31
0.0
1001
GradientColor1ACI
1070
     5
1001
GradientColor2ACI
1070
     2
1001
ACAD
1010
0.0
1020
0.0
1030
0.0
  0
LINE
  5
155EB
330
1F
100
AcDbEntity
  8
DIM
 62
     0
 48
0.1
100
AcDbLine
 10
-111.4521285109709
 20
117.5444025762922
 30
0.0
 11
-108.6796285109707
 21
120.3169025762925
 31
0.0
1001
GradientColor1ACI
1070
     5
1001
GradientColor2ACI
1070
     2
1001
ACAD
1010
0.0
1020
0.0
1030
0.0
  0
LINE
  5
155EC
330
1F
100
AcDbEntity
  8
DIM
 62
     0
 48
0.1
100
AcDbLine
 10
-111.452128510971
 20
115.2993385460249
 30
0.0
 11
-108.6796285109707
 21
118.0718385460252
 31
0.0
1001
GradientColor1ACI
1070
     5
1001
GradientColor2ACI
1070
     2
1001
ACAD
1010
0.0
1020
0.0
1030
0.0
  0
LINE
  5
155ED
330
1F
100
AcDbEntity
  8
DIM
 62
     0
 48
0.1
100
AcDbLine
 10
-111.4521285109709
 20
113.0542745157576
 30
0.0
 11
-108.6796285109706
 21
115.826774515758
 31
0.0
1001
GradientColor1ACI
1070
     5
1001
GradientColor2ACI
1070
     2
1001
ACAD
1010
0.0
1020
0.0
1030
0.0
  0
LINE
  5
155EE
330
1F
100
AcDbEntity
  8
DIM
 62
     0
 48
0.1
100
AcDbLine
 10
-110.4533779514831
 20
111.8079610449782
 30
0.0
 11
-108.6796285109706
 21
113.5817104854907
 31
0.0
1001
GradientColor1ACI
1070
     5
1001
GradientColor2ACI
1070
     2
1001
ACAD
1010
0.0
1020
0.0
1030
0.0
  0
LINE
  5
155EF
330
1F
100
AcDbEntity
  8
DIM
 62
     0
 48
0.1
100
AcDbLine
 10
-115.929628510971
 20
120.5973221313163
 30
0.0
 11
-115.0189895973091
 21
121.5079610449782
 31
0.0
1001
GradientColor1ACI
1070
     5
1001
GradientColor2ACI
1070
     2
1001
ACAD
1010
0.0
1020
0.0
1030
0.0
  0
LINE
  5
155F0
330
1F
100
AcDbEntity
  8
DIM
 62
     0
 48
0.1
100
AcDbLine
 10
-114.7739255670418
 20
119.5079610449782
 30
0.0
 11
-112.7739255670418
 21
121.5079610449782
 31
0.0
1001
GradientColor1ACI
1070
     5
1001
GradientColor2ACI
1070
     2
1001
ACAD
1010
0.0
1020
0.0
1030
0.0
  0
LINE
  5
155F1
330
1F
100
AcDbEntity
  8
DIM
 62
     0
 48
0.1
100
AcDbLine
 10
-114.2226055202214
 20
119.5079610449782
 30
0.0
 11
-115.929628510971
 21
121.2149840357278
 31
0.0
1001
GradientColor1ACI
1070
     5
1001
GradientColor2ACI
1070
     2
1001
ACAD
1010
0.0
1020
0.0
1030
0.0
  0
LINE
  5
155F2
330
1F
100
AcDbEntity
  8
DIM
 62
     0
 48
0.1
100
AcDbLine
 10
-112.679628510971
 20
120.2100480659951
 30
0.0
 11
-113.9775414899541
 21
121.5079610449782
 31
0.0
1001
GradientColor1ACI
1070
     5
1001
GradientColor2ACI
1070
     2
1001
ACAD
1010
0.0
1020
0.0
1030
0.0
  0
VIEWPORT
  5
74
330
59
100
AcDbEntity
 67
     1
  8
0
100
AcDbViewport
 10
133.3499914952553
 20
109.9132374361155
 30
0.0
 40
304.6610229148939
 41
181.1239649956781
 68
     1
 69
     1
 12
133.3499914952553
 22
109.9132374361155
 13
0.0
 23
0.0
 14
10.0
 24
10.0
 15
10.0
 25
10.0
 16
0.0
 26
0.0
 36
1.0
 17
0.0
 27
0.0
 37
0.0
 42
50.0
 43
0.0
 44
0.0
 45
181.1239649956781
 50
0.0
 51
0.0
 72
  1000
 90
    32864
  1

281
     0
 71
     1
 74
     0
110
0.0
120
0.0
130
0.0
111
1.0
121
0.0
131
0.0
112
0.0
122
1.0
132
0.0
 79
     0
146
0.0
170
     0
 61
     5
348
D60
292
     1
282
     1
141
0.0
142
0.0
 63
   250
421
  3355443
1001
GENIUS_GENSCREG_15
1000
PF
1040
1.0
1000
DF
1040
1.0
1000
MIN
1011
-18.98051996219163
1021
19.35125493827644
1031
0.0
1000
MAX
1011
285.6805029527022
1021
200.4752199339546
1031
0.0
1000
FLAGS
1070
     4
1001
GENIUS_GENOBJ-N-SDF_13
1002
{
1000
OWNER
1000
GEN
1002
}
1001
GENIUS_GENODEF_13
1002
{
1000
HIER
1070
     0
1002
}
1002
{
1000
MANEDIT
1070
     0
1002
}
1002
{
1000
NOSEL
1070
     0
1002
}
1002
{
1000
BEHIND
1070
     0
1002
}
1002
{
1000
OTHER
1070
     0
1002
}
1002
{
1000
REACTOR
1002
}
  0
VIEWPORT
  5
76
330
59
100
AcDbEntity
 67
     1
  8
0
100
AcDbViewport
 10
133.3499939441681
 20
101.5999939441681
 30
0.0
 40
213.3599903106689
 41
162.5599903106689
 68
     2
 69
     2
 12
210.0
 22
148.5
 13
0.0
 23
0.0
 14
10.0
 24
10.0
 15
10.0
 25
10.0
 16
0.0
 26
0.0
 36
1.0
 17
0.0
 27
0.0
 37
0.0
 42
50.0
 43
0.0
 44
0.0
 45
324.0677920111345
 50
0.0
 51
0.0
 72
   100
 90
    32864
  1

281
     0
 71
     1
 74
     0
110
0.0
120
0.0
130
0.0
111
1.0
121
0.0
131
0.0
112
0.0
122
1.0
132
0.0
 79
     0
146
0.0
170
     0
 61
     5
348
D60
292
     1
282
     1
141
0.0
142
0.0
 63
   250
421
  3355443
1001
GENIUS_GENSCREG_15
1000
PF
1040
0.0
1000
DF
1040
0.0
1000
MIN
1011
26.66999878883363
1021
20.31999878883366
1031
0.0
1000
MAX
1011
240.0299890995025
1021
182.8799890995025
1031
0.0
1000
FLAGS
1070
     4
1001
GENIUS_GENOBJ-N-SDF_13
1002
{
1000
OWNER
1000
GEN
1002
}
1001
GENIUS_GENODEF_13
1002
{
1000
HIER
1070
     0
1002
}
1002
{
1000
MANEDIT
1070
     0
1002
}
1002
{
1000
NOSEL
1070
     0
1002
}
1002
{
1000
BEHIND
1070
     0
1002
}
1002
{
1000
OTHER
1070
     0
1002
}
1002
{
1000
REACTOR
1002
}
  0
ENDSEC
  0
SECTION
  2
OBJECTS
  0
DICTIONARY
  5
C
330
0
100
AcDbDictionary
281
     1
  3
ACAD_CIP_PREVIOUS_PRODUCT_INFO
350
14E0A
  3
ACAD_COLOR
350
8E
  3
ACAD_DETAILVIEWSTYLE
350
14D68
  3
ACAD_GROUP
350
D
  3
ACAD_IMAGE_DICT
350
F08
  3
ACAD_IMAGE_VARS
350
F09
  3
ACAD_LAYOUT
350
1A
  3
ACAD_MATERIAL
350
8D
  3
ACAD_MLEADERSTYLE
350
D7F
  3
ACAD_MLINESTYLE
350
17
  3
ACAD_PLOTSETTINGS
350
19
  3
ACAD_PLOTSTYLENAME
350
E
  3
ACAD_SCALELIST
350
D6D
  3
ACAD_SECTIONVIEWSTYLE
350
14D66
  3
ACAD_TABLESTYLE
350
D6B
  3
ACAD_VISUALSTYLE
350
D5A
  3
ACAD_WIPEOUT_VARS
350
22FF
  3
AcadDim
350
593
  3
ACDB_RECOMPOSE_DATA
350
1560E
  3
AcDbVariableDictionary
350
14E72
  3
AcDsDecomposeData
350
15614
  3
AcmDictionary
350
14E37
  3
AMG
350
14E1F
  3
AMGSNAPSETTINGS
350
14E95
  0
DICTIONARY
  5
EEA
330
8
100
AcDbDictionary
280
     1
281
     1
  0
DICTIONARY
  5
F28
330
2
100
AcDbDictionary
280
     1
281
     1
  3
ACAD_LAYERSTATES
360
1AA2
  3
ACLYDICTIONARY
360
F29
  0
DICTIONARY
  5
D8C
330
10
100
AcDbDictionary
280
     1
281
     1
  3
ADSK_XREC_LAYER_RECONCILED
360
3AB1
  0
DICTIONARY
  5
D8E
330
DC
100
AcDbDictionary
280
     1
281
     1
  3
ADSK_XREC_LAYER_RECONCILED
360
3AB2
  0
DICTIONARY
  5
D90
330
E0
100
AcDbDictionary
280
     1
281
     1
  3
ADSK_XREC_LAYER_RECONCILED
360
3AB3
  0
DICTIONARY
  5
D92
330
F2
100
AcDbDictionary
280
     1
281
     1
  3
ADSK_XREC_LAYER_RECONCILED
360
3AB4
  0
DICTIONARY
  5
D9A
330
5BF
100
AcDbDictionary
280
     1
281
     1
  3
ADSK_XREC_LAYER_RECONCILED
360
3AB5
  0
DICTIONARY
  5
D9E
330
CBC
100
AcDbDictionary
280
     1
281
     1
  3
ADSK_XREC_LAYER_RECONCILED
360
3AB7
  0
DICTIONARY
  5
2C82
330
1174
100
AcDbDictionary
280
     1
281
     1
  3
ADSK_XREC_LAYER_RECONCILED
360
3AB9
  0
DICTIONARY
  5
2C84
330
1176
100
AcDbDictionary
280
     1
281
     1
  3
ADSK_XREC_LAYER_RECONCILED
360
3ABA
  0
DICTIONARY
  5
1139
330
1F
100
AcDbDictionary
280
     1
281
     1
  3
ACAD_SORTENTS
360
113A
  0
DICTIONARY
  5
1560A
330
1555F
100
AcDbDictionary
280
     1
281
     1
  3
ACAD_MTEXT_2008_RT
360
1560B
  0
DICTIONARY
  5
1560C
330
155B5
100
AcDbDictionary
280
     1
281
     1
  3
ACAD_MTEXT_2008_RT
360
1560D
  0
XRECORD
  5
14E0A
102
{ACAD_REACTORS
330
C
102
}
330
C
100
AcDbXrecord
280
     1
300
AMECH_PP
300
2013
300
PDSU_F_S_TL
  0
DICTIONARY
  5
8E
102
{ACAD_REACTORS
330
C
102
}
330
C
100
AcDbDictionary
281
     1
  0
DICTIONARY
  5
14D68
102
{ACAD_REACTORS
330
C
102
}
330
C
100
AcDbDictionary
281
     1
  3
Metric50
350
14D69
  0
DICTIONARY
  5
D
102
{ACAD_REACTORS
330
C
102
}
330
C
100
AcDbDictionary
281
     1
  0
DICTIONARY
  5
F08
102
{ACAD_REACTORS
330
C
102
}
330
C
100
AcDbDictionary
281
     1
  0
RASTERVARIABLES
  5
F09
102
{ACAD_REACTORS
330
C
102
}
330
C
100
AcDbRasterVariables
 90
        0
 70
     1
 71
     1
 72
     1
  0
DICTIONARY
  5
1A
102
{ACAD_REACTORS
330
C
102
}
330
C
100
AcDbDictionary
281
     1
  3
Model
350
22
  3
レイアウト1
350
5A
  3
レイアウト2
350
5F
  0
DICTIONARY
  5
8D
102
{ACAD_REACTORS
330
C
102
}
330
C
100
AcDbDictionary
281
     1
  3
ByBlock
350
D4A
  3
ByLayer
350
D42
  3
Global
350
D52
  0
DICTIONARY
  5
D7F
102
{ACAD_REACTORS
330
C
102
}
330
C
100
AcDbDictionary
281
     1
  3
romans
350
22E1
  3
Standard
350
D80
  0
DICTIONARY
  5
17
102
{ACAD_REACTORS
330
C
102
}
330
C
100
AcDbDictionary
281
     1
  3
Standard
350
18
  0
DICTIONARY
  5
19
102
{ACAD_REACTORS
330
C
102
}
330
C
100
AcDbDictionary
281
     1
  3
A4 PDF
350
2F49
  3
A4 Print
350
2F2B
  0
ACDBDICTIONARYWDFLT
  5
E
102
{ACAD_REACTORS
330
C
102
}
330
C
100
AcDbDictionary
281
     1
  3
0.13
350
EA
  3
0.18
350
E9
  3
0.25
350
F78
  3
0.35
350
F77
  3
0.50
350
EB
  3
Normal
350
F
100
AcDbDictionaryWithDefault
340
F
  0
DICTIONARY
  5
D6D
102
{ACAD_REACTORS
330
C
102
}
330
C
100
AcDbDictionary
281
     1
  3
A0
350
D6E
  3
A1
350
D6F
  3
A2
350
D70
  3
A3
350
D71
  3
A4
350
D72
  3
A5
350
D73
  3
A6
350
D74
  3
A7
350
D75
  3
A8
350
D76
  3
A9
350
D77
  3
B0
350
D78
  3
B1
350
D79
  3
B2
350
D7A
  3
B3
350
D7B
  3
B4
350
D7C
  3
B5
350
D7D
  3
B6
350
D7E
  0
DICTIONARY
  5
14D66
102
{ACAD_REACTORS
330
C
102
}
330
C
100
AcDbDictionary
281
     1
  3
Metric50
350
14D67
  0
DICTIONARY
  5
D6B
102
{ACAD_REACTORS
330
C
102
}
330
C
100
AcDbDictionary
281
     1
  3
romans
350
22EC
  3
Standard
350
D6C
  0
DICTIONARY
  5
D5A
102
{ACAD_REACTORS
330
C
102
}
330
C
100
AcDbDictionary
281
     1
  3
2dWireframe
350
D60
  3
3D Hidden
350
D62
  3
3dWireframe
350
D61
  3
Basic
350
D5F
  3
Brighten
350
D66
  3
ColorChange
350
D6A
  3
Conceptual
350
D63
  3
Dim
350
D65
  3
EdgeColorOff
350
3181
  3
Facepattern
350
D69
  3
Flat
350
D5B
  3
FlatWithEdges
350
D5C
  3
Gouraud
350
D5D
  3
GouraudWithEdges
350
D5E
  3
Hidden
350
3179
  3
JitterOff
350
317F
  3
Linepattern
350
D68
  3
OverhangOff
350
3180
  3
Realistic
350
D64
  3
Shaded
350
317E
  3
Shaded with edges
350
317D
  3
Shades of Gray
350
317A
  3
Sketchy
350
317B
  3
Thicken
350
D67
  3
Wireframe
350
3178
  3
X-Ray
350
317C
  0
WIPEOUTVARIABLES
  5
22FF
102
{ACAD_REACTORS
330
C
102
}
330
C
100
AcDbWipeoutVariables
 70
     1
  0
XRECORD
  5
593
102
{ACAD_REACTORS
330
C
102
}
330
C
100
AcDbXrecord
280
     1
 90
   990106
  3

 60
     0
 61
     0
 62
     4
 63
     4
 64
     1
 65
     0
 66
     0
 67
     3
 68
     1
 69
     0
 70
     0
 71
     0
 72
     0
 40
0.0
170
     0
340
0
  0
XRECORD
  5
1560E
102
{ACAD_REACTORS
330
C
102
}
330
C
100
AcDbXrecord
280
     1
 90
        1
330
D6C
330
22EC
330
1555F
330
155B5
  0
DICTIONARY
  5
14E72
102
{ACAD_REACTORS
330
C
102
}
330
C
100
AcDbDictionary
281
     1
  3
CANNOSCALE
350
14E78
  3
CMLEADERSTYLE
350
14E74
  3
CTABLESTYLE
350
14E73
  3
CVIEWDETAILSTYLE
350
14E75
  3
CVIEWSECTIONSTYLE
350
14E76
  3
LAYEREVAL
350
14E7A
  3
LAYERNOTIFY
350
14E7B
  3
LIGHTINGUNITS
350
14E79
  3
MSLTSCALE
350
14E77
  0
DICTIONARY
  5
15614
102
{ACAD_REACTORS
330
C
102
}
330
C
100
AcDbDictionary
281
     1
  3
AcDsRecords
350
15616
  3
AcDsSchemas
350
15615
1001
ACAD
1070
     2
  0
DICTIONARY
  5
14E37
102
{ACAD_REACTORS
330
C
102
}
330
C
100
AcDbDictionary
281
     1
  3
AcmStdDictionary
350
14E3E
  0
DICTIONARY
  5
14E1F
102
{ACAD_REACTORS
330
C
102
}
330
C
100
AcDbDictionary
281
     1
  0
DICTIONARY
  5
14E95
102
{ACAD_REACTORS
330
C
102
}
330
C
100
AcDbDictionary
281
     1
  0
DICTIONARY
  5
1AA2
102
{ACAD_REACTORS
330
F28
102
}
330
F28
100
AcDbDictionary
281
     1
  0
DICTIONARY
  5
F29
102
{ACAD_REACTORS
330
F28
102
}
330
F28
100
AcDbDictionary
281
     1
1001
ACAD
1000
<All
  0
XRECORD
  5
3AB1
102
{ACAD_REACTORS
330
D8C
102
}
330
D8C
100
AcDbXrecord
280
     1
290
     1
  0
XRECORD
  5
3AB2
102
{ACAD_REACTORS
330
D8E
102
}
330
D8E
100
AcDbXrecord
280
     1
290
     1
  0
XRECORD
  5
3AB3
102
{ACAD_REACTORS
330
D90
102
}
330
D90
100
AcDbXrecord
280
     1
290
     1
  0
XRECORD
  5
3AB4
102
{ACAD_REACTORS
330
D92
102
}
330
D92
100
AcDbXrecord
280
     1
290
     1
  0
XRECORD
  5
3AB5
102
{ACAD_REACTORS
330
D9A
102
}
330
D9A
100
AcDbXrecord
280
     1
290
     1
  0
XRECORD
  5
3AB7
102
{ACAD_REACTORS
330
D9E
102
}
330
D9E
100
AcDbXrecord
280
     1
290
     1
  0
XRECORD
  5
3AB9
102
{ACAD_REACTORS
330
2C82
102
}
330
2C82
100
AcDbXrecord
280
     1
290
     1
  0
XRECORD
  5
3ABA
102
{ACAD_REACTORS
330
2C84
102
}
330
2C84
100
AcDbXrecord
280
     1
290
     1
  0
SORTENTSTABLE
  5
113A
102
{ACAD_REACTORS
330
1139
102
}
330
1139
100
AcDbSortentsTable
330
1F
331
155B7
  5
1559A
331
155B3
  5
155AA
331
41DF
  5
155C5
331
41DB
  5
155C1
331
405F
  5
409A
331
155EF
  5
4043
331
405B
  5
4096
331
155EB
  5
4064
331
4096
  5
155A1
331
4057
  5
408E
331
4053
  5
407E
331
155AF
  5
155B0
331
155AB
  5
155BD
331
155A7
  5
155B9
331
155A3
  5
155CF
331
41D7
  5
155B8
331
41CF
  5
155B5
331
41CB
  5
41CC
331
155E7
  5
4060
331
155E3
  5
405C
331
404F
  5
407A
331
155DF
  5
4058
331
404B
  5
4076
331
155DB
  5
4054
331
4047
  5
4072
331
4043
  5
406E
331
1559F
  5
155D5
331
1559B
  5
155DC
331
15597
  5
155D8
331
15593
  5
155E0
331
41C7
  5
404C
331
155D7
  5
4050
331
155D3
  5
4245
331
155CF
  5
422A
331
407E
  5
4225
331
403F
  5
4068
331
155CB
  5
4249
331
407A
  5
41F3
331
4076
  5
41EB
331
4072
  5
41E3
331
4269
  5
4048
331
41E6
  5
155CC
331
409C
  5
155A7
331
4098
  5
155A3
331
155C7
  5
15592
331
155C3
  5
4267
331
155BF
  5
15596
331
406E
  5
41DD
331
155BB
  5
1559E
331
406A
  5
41CF
331
4066
  5
40BA
331
4062
  5
409D
331
155B6
  5
155AD
331
155B2
  5
155B3
331
41DE
  5
155C4
331
41DA
  5
155C0
331
155F2
  5
4046
331
405E
  5
4099
331
155EE
  5
4067
331
405A
  5
4095
331
155EA
  5
4063
331
4095
  5
155A0
331
4056
  5
408B
331
4052
  5
407D
331
155AE
  5
155AF
331
155AA
  5
155BC
331
155A6
  5
155D2
331
155A2
  5
155CE
331
41D6
  5
155B7
331
41D2
  5
404A
331
41CA
  5
41C8
331
155E6
  5
405F
331
155E2
  5
405B
331
404E
  5
4079
331
155DE
  5
4057
331
404A
  5
4075
331
155DA
  5
4053
331
4046
  5
4071
331
4042
  5
406C
331
1559E
  5
155D4
331
1559A
  5
155DB
331
15596
  5
155E3
331
15592
  5
155DF
331
155D6
  5
404F
331
155D2
  5
422D
331
155CE
  5
424C
331
407D
  5
4224
331
155CA
  5
4248
331
4079
  5
41F0
331
4075
  5
41E6
331
4071
  5
41E1
331
409F
  5
155A9
331
41E5
  5
155CB
331
409B
  5
155A6
331
41E1
  5
155C7
331
155C6
  5
15591
331
155C2
  5
15599
331
155BE
  5
15595
331
406D
  5
41DC
331
155BA
  5
1559D
331
4069
  5
418A
331
4065
  5
40B8
331
4061
  5
409C
331
155B5
  5
155AC
331
155B1
  5
155B2
331
41DD
  5
155C3
331
41D9
  5
155BF
331
155F1
  5
4045
331
405D
  5
4098
331
155ED
  5
4066
331
4059
  5
4092
331
155E9
  5
4062
331
4055
  5
4088
331
4051
  5
407C
331
155AD
  5
155AE
331
155A9
  5
155BB
331
155A5
  5
155D1
331
155A1
  5
155D7
331
41CD
  5
404D
331
41C9
  5
418D
331
155E5
  5
405E
331
155E1
  5
405A
331
404D
  5
4078
331
155DD
  5
4056
331
4049
  5
4074
331
155D9
  5
4052
331
4045
  5
4070
331
4041
  5
406B
331
1559D
  5
155D3
331
15599
  5
155DA
331
15595
  5
155E2
331
15591
  5
155DE
331
40BE
  5
155B4
331
155D5
  5
404E
331
155D1
  5
422C
331
155CD
  5
424B
331
407C
  5
4223
331
403D
  5
403D
331
155C9
  5
4247
331
4078
  5
41EF
331
4074
  5
41E5
331
4070
  5
41E0
331
426B
  5
155C8
331
409E
  5
155A8
331
41E4
  5
155CA
331
409A
  5
155A5
331
41E0
  5
155C6
331
155C5
  5
4269
331
155C1
  5
15598
331
155BD
  5
15594
331
406C
  5
41DB
331
155B9
  5
1559C
331
4068
  5
4187
331
4064
  5
40A0
331
4060
  5
409B
331
155B4
  5
155AB
331
155B0
  5
155B1
331
41DC
  5
155C2
331
155F0
  5
4044
331
405C
  5
4097
331
155EC
  5
4065
331
4097
  5
155A2
331
155E8
  5
4061
331
4058
  5
4091
331
4054
  5
4085
331
4050
  5
407B
331
155AC
  5
155BE
331
155A8
  5
155BA
331
155A4
  5
155D0
331
155A0
  5
155D6
331
41D0
  5
155B6
331
41CC
  5
404B
331
41C8
  5
41CD
331
155E4
  5
405D
331
155E0
  5
4059
331
404C
  5
4077
331
155DC
  5
4055
331
4048
  5
4073
331
155D8
  5
4051
331
4044
  5
406F
331
4040
  5
4069
331
1559C
  5
155DD
331
15598
  5
155D9
331
15594
  5
155E1
331
155D4
  5
4246
331
155D0
  5
422B
331
155CC
  5
424A
331
407B
  5
4220
331
155C8
  5
15593
331
4077
  5
41EC
331
4073
  5
41E4
331
41EB
  5
155CD
331
426A
  5
4047
331
41E3
  5
155C9
331
4099
  5
155A4
331
155C4
  5
4268
331
155C0
  5
15597
331
406F
  5
41DE
331
155BC
  5
1559F
331
406B
  5
41D6
331
155B8
  5
1559B
331
4067
  5
40BE
331
4063
  5
409E
  0
XRECORD
  5
1560B
102
{ACAD_REACTORS
330
1560A
102
}
330
1560A
100
AcDbXrecord
280
     1
 40
21043.0
  1
φ10.2{\H1.750000;\S+0.1~. 0;}
  0
XRECORD
  5
1560D
102
{ACAD_REACTORS
330
1560C
102
}
330
1560C
100
AcDbXrecord
280
     1
 40
21043.0
  1
φ10.2{\H1.750000;\S+0.1~. 0;}
  0
ACDBDETAILVIEWSTYLE
  5
14D69
102
{ACAD_REACTORS
330
14D68
102
}
330
14D68
100
AcDbModelDocViewStyle
 70
     0
  3
Metric50
290
     0
100
AcDbDetailViewStyle
 70
     0
 71
     0
 90
        3
 71
     1
340
11
 62
   256
 40
5.0
340
0
 62
   256
 40
5.0
300

 40
0.0
280
     1
 71
     2
340
16
 90
       25
 62
   256
 71
     3
340
11
 62
   256
 40
5.0
 90
        0
 40
15.0
 90
        1
300
%<\AcVar ViewDetailId>% (%<\AcVar ViewScale \f "%sn">%)
 71
     4
340
16
 90
       25
 62
   256
340
16
 90
       25
 62
   256
280
     0
  0
LAYOUT
  5
22
102
{ACAD_REACTORS
330
1A
102
}
330
1A
100
AcDbPlotSettings
  1

  2
RICOH IPSiO SP 6110 RPCS
  4
A4
  6

 40
5.873749732971191
 41
5.873747825622557
 42
5.873748779296875
 43
5.873748779296875
 44
209.9733276367186
 45
296.9259948730469
 46
-5.887085437774657
 47
-5.910750865936276
 48
-229.0783166424526
 49
0.0
140
-19.07831664245259
141
297.0
142
1.0
143
1.0
 70
 11956
 72
     1
 73
     0
 74
     4
  7
sugiyama_A4.stb
 75
    16
147
1.0
 76
     0
 77
     2
 78
   300
148
229.0783166424526
149
0.0
100
AcDbLayout
  1
Model
 70
     1
 71
     0
 10
0.0
 20
0.0
 11
12.0
 21
9.0
 12
0.0
 22
0.0
 32
0.0
 14
0.0
 24
0.0
 34
0.0
 15
0.0
 25
0.0
 35
0.0
146
0.0
 13
0.0
 23
0.0
 33
0.0
 16
1.0
 26
0.0
 36
0.0
 17
0.0
 27
1.0
 37
0.0
 76
     0
330
1F
331
D40
1001
ACAD_PSEXT
1000
RICOH IPSiO SP 6110 RPCS
1000
RICOH IPSiO SP 6110 RPCS
1000
192.168.0.90_@
1000
RPCS Driver (Windows 2000/XP/Server 2003)
1070
     0
  0
LAYOUT
  5
5A
102
{ACAD_XDICTIONARY
360
1AA6
102
}
102
{ACAD_REACTORS
330
1A
102
}
330
1A
100
AcDbPlotSettings
  1

  2
none_device
  4
Letter_(8.50_x_11.00_Inches)
  6

 40
6.349999904632567
 41
6.349999904632567
 42
6.350006103515625
 43
6.350006103515625
 44
215.8999938964844
 45
279.3999938964844
 46
0.0
 47
0.0
 48
0.0
 49
0.0
140
0.0
141
0.0
142
1.0
143
1.0
 70
   688
 72
     1
 73
     1
 74
     5
  7
sugiyama_A4.stb
 75
    16
147
1.0
 76
     0
 77
     2
 78
   300
148
0.0
149
0.0
100
AcDbLayout
  1
レイアウト1
 70
     1
 71
     1
 10
-6.350006103515625
 20
-6.349999904632567
 11
273.0499877929688
 21
209.5499939918518
 12
0.0
 22
0.0
 32
0.0
 14
26.66999878883363
 24
20.31999878883363
 34
0.0
 15
240.0299890995026
 25
182.8799890995025
 35
0.0
146
0.0
 13
0.0
 23
0.0
 33
0.0
 16
1.0
 26
0.0
 36
0.0
 17
0.0
 27
1.0
 37
0.0
 76
     0
330
59
331
74
  0
LAYOUT
  5
5F
102
{ACAD_REACTORS
330
1A
102
}
330
1A
100
AcDbPlotSettings
  1

  2
none_device
  4
Letter_(8.50_x_11.00_Inches)
  6

 40
6.349999904632567
 41
6.349999904632567
 42
6.350006103515625
 43
6.350006103515625
 44
215.8999938964844
 45
279.3999938964844
 46
0.0
 47
0.0
 48
0.0
 49
0.0
140
0.0
141
0.0
142
1.0
143
1.0
 70
   688
 72
     1
 73
     1
 74
     5
  7
sugiyama_A4.stb
 75
    16
147
1.0
 76
     0
 77
     2
 78
   300
148
0.0
149
0.0
100
AcDbLayout
  1
レイアウト2
 70
     1
 71
     2
 10
-6.350006103515625
 20
-6.349999904632567
 11
273.0499877929688
 21
209.5499939918518
 12
0.0
 22
0.0
 32
0.0
 14
26.66076962115563
 24
20.31135699206658
 34
-0.0000000000000058
 15
240.039213369355
 25
182.8886381005154
 35
0.0000000000000104
146
0.0
 13
0.0
 23
0.0
 33
0.0
 16
1.0
 26
0.0
 36
0.0
 17
0.0
 27
1.0
 37
0.0
 76
     0
330
5E
331
7A
  0
MATERIAL
  5
D4A
102
{ACAD_XDICTIONARY
360
D4B
102
}
102
{ACAD_REACTORS
330
8D
102
}
330
8D
100
AcDbMaterial
  1
ByBlock
 72
     0
 43
0.0008202099737533
 43
0.0
 43
0.0
 43
0.0
 43
0.0
 43
0.0008202099737533
 43
0.0
 43
0.0
 43
0.0
 43
0.0
 43
1.0
 43
0.0
 43
0.0
 43
0.0
 43
0.0
 43
1.0
 77
     0
 47
0.0008202099737533
 47
0.0
 47
0.0
 47
0.0
 47
0.0
 47
0.0008202099737533
 47
0.0
 47
0.0
 47
0.0
 47
0.0
 47
1.0
 47
0.0
 47
0.0
 47
0.0
 47
0.0
 47
1.0
171
     0
 49
0.0008202099737533
 49
0.0
 49
0.0
 49
0.0
 49
0.0
 49
0.0008202099737533
 49
0.0
 49
0.0
 49
0.0
 49
0.0
 49
1.0
 49
0.0
 49
0.0
 49
0.0
 49
0.0
 49
1.0
175
     0
142
0.0008202099737533
142
0.0
142
0.0
142
0.0
142
0.0
142
0.0008202099737533
142
0.0
142
0.0
142
0.0
142
0.0
142
1.0
142
0.0
142
0.0
142
0.0
142
0.0
142
1.0
179
     0
144
0.0008202099737533
144
0.0
144
0.0
144
0.0
144
0.0
144
0.0008202099737533
144
0.0
144
0.0
144
0.0
144
0.0
144
1.0
144
0.0
144
0.0
144
0.0
144
0.0
144
1.0
147
0.0008202099737533
147
0.0
147
0.0
147
0.0
147
0.0
147
0.0008202099737533
147
0.0
147
0.0
147
0.0
147
0.0
147
1.0
147
0.0
147
0.0
147
0.0
147
0.0
147
1.0
  0
MATERIAL
  5
D42
102
{ACAD_XDICTIONARY
360
D43
102
}
102
{ACAD_REACTORS
330
8D
102
}
330
8D
100
AcDbMaterial
  1
ByLayer
 72
     0
 43
0.0008202099737533
 43
0.0
 43
0.0
 43
0.0
 43
0.0
 43
0.0008202099737533
 43
0.0
 43
0.0
 43
0.0
 43
0.0
 43
1.0
 43
0.0
 43
0.0
 43
0.0
 43
0.0
 43
1.0
 77
     0
 47
0.0008202099737533
 47
0.0
 47
0.0
 47
0.0
 47
0.0
 47
0.0008202099737533
 47
0.0
 47
0.0
 47
0.0
 47
0.0
 47
1.0
 47
0.0
 47
0.0
 47
0.0
 47
0.0
 47
1.0
171
     0
 49
0.0008202099737533
 49
0.0
 49
0.0
 49
0.0
 49
0.0
 49
0.0008202099737533
 49
0.0
 49
0.0
 49
0.0
 49
0.0
 49
1.0
 49
0.0
 49
0.0
 49
0.0
 49
0.0
 49
1.0
175
     0
142
0.0008202099737533
142
0.0
142
0.0
142
0.0
142
0.0
142
0.0008202099737533
142
0.0
142
0.0
142
0.0
142
0.0
142
1.0
142
0.0
142
0.0
142
0.0
142
0.0
142
1.0
179
     0
144
0.0008202099737533
144
0.0
144
0.0
144
0.0
144
0.0
144
0.0008202099737533
144
0.0
144
0.0
144
0.0
144
0.0
144
1.0
144
0.0
144
0.0
144
0.0
144
0.0
144
1.0
147
0.0008202099737533
147
0.0
147
0.0
147
0.0
147
0.0
147
0.0008202099737533
147
0.0
147
0.0
147
0.0
147
0.0
147
1.0
147
0.0
147
0.0
147
0.0
147
0.0
147
1.0
  0
MATERIAL
  5
D52
102
{ACAD_XDICTIONARY
360
D53
102
}
102
{ACAD_REACTORS
330
8D
102
}
330
8D
100
AcDbMaterial
  1
Global
 72
     0
 43
0.0008202099737533
 43
0.0
 43
0.0
 43
0.0
 43
0.0
 43
0.0008202099737533
 43
0.0
 43
0.0
 43
0.0
 43
0.0
 43
1.0
 43
0.0
 43
0.0
 43
0.0
 43
0.0
 43
1.0
 77
     0
 47
0.0008202099737533
 47
0.0
 47
0.0
 47
0.0
 47
0.0
 47
0.0008202099737533
 47
0.0
 47
0.0
 47
0.0
 47
0.0
 47
1.0
 47
0.0
 47
0.0
 47
0.0
 47
0.0
 47
1.0
171
     0
 49
0.0008202099737533
 49
0.0
 49
0.0
 49
0.0
 49
0.0
 49
0.0008202099737533
 49
0.0
 49
0.0
 49
0.0
 49
0.0
 49
1.0
 49
0.0
 49
0.0
 49
0.0
 49
0.0
 49
1.0
175
     0
142
0.0008202099737533
142
0.0
142
0.0
142
0.0
142
0.0
142
0.0008202099737533
142
0.0
142
0.0
142
0.0
142
0.0
142
1.0
142
0.0
142
0.0
142
0.0
142
0.0
142
1.0
179
     0
144
0.0008202099737533
144
0.0
144
0.0
144
0.0
144
0.0
144
0.0008202099737533
144
0.0
144
0.0
144
0.0
144
0.0
144
1.0
144
0.0
144
0.0
144
0.0
144
0.0
144
1.0
147
0.0008202099737533
147
0.0
147
0.0
147
0.0
147
0.0
147
0.0008202099737533
147
0.0
147
0.0
147
0.0
147
0.0
147
1.0
147
0.0
147
0.0
147
0.0
147
0.0
147
1.0
  0
MLEADERSTYLE
  5
22E1
102
{ACAD_REACTORS
330
D7F
102
}
330
D7F
100
AcDbMLeaderStyle
179
     2
170
     2
171
     1
172
     0
 90
        2
 40
1.047197551196594
 41
0.0
173
     1
 91
-1073741824
340
15
 92
       -1
290
     1
 42
1.0
291
     1
 43
0.36
  3
Standard
 44
2.5
300

342
101
174
     5
178
     5
175
     1
176
     0
 93
-1073741824
 45
3.5
292
     0
297
     0
 46
4.0
 94
-1056964608
 47
1.0
 49
1.0
140
1.0
293
     1
141
0.0
294
     1
177
     0
142
1.0
295
     0
296
     0
143
0.125
271
     0
272
     9
273
     9
1001
ACAD_MLEADERVER
1070
     2
  0
MLEADERSTYLE
  5
D80
102
{ACAD_REACTORS
330
D7F
102
}
330
D7F
100
AcDbMLeaderStyle
179
     2
170
     2
171
     1
172
     0
 90
        2
 40
0.0
 41
0.0
173
     1
 91
-1056964608
340
14
 92
       -2
290
     1
 42
2.0
291
     1
 43
0.36
  3
Standard
 44
4.0
300

342
11
174
     1
178
     6
175
     1
176
     0
 93
-1056964608
 45
4.0
292
     0
297
     0
 46
4.0
 94
-1056964608
 47
1.0
 49
1.0
140
1.0
293
     1
141
0.0
294
     1
177
     0
142
1.0
295
     0
296
     0
143
0.125
271
     0
272
     9
273
     9
1001
ACAD_MLEADERVER
1070
     2
  0
MLINESTYLE
  5
18
102
{ACAD_REACTORS
330
17
102
}
330
17
100
AcDbMlineStyle
  2
STANDARD
 70
     0
  3

 62
   256
 51
90.0
 52
90.0
 71
     2
 49
0.5
 62
   256
  6
BYLAYER
 49
-0.5
 62
   256
  6
BYLAYER
  0
PLOTSETTINGS
  5
2F49
102
{ACAD_REACTORS
330
19
102
}
330
19
100
AcDbPlotSettings
  1
A4 PDF
  2
DWG To PDF.pc3
  4
UserDefinedMetric (210.00 X 297.00ミリ)
  6

 40
0.0
 41
0.0
 42
0.0
 43
0.0
 44
210.0
 45
297.0
 46
0.0
 47
0.0
 48
-229.0783166424526
 49
0.0
140
-19.07831664245259
141
297.0
142
1.0
143
1.0
 70
 11940
 72
     1
 73
     0
 74
     4
  7
C:\Documents and Settings\nagata\Application Data\Autodesk\AutoCAD LT 2009\R14\jpn\Plot Styles\sugiyama_A4.stb
 75
     0
147
0.9273147743559043
 76
     0
 77
     2
 78
   300
148
229.0783166424526
149
0.0
1001
ACAD_PSEXT
1000
DWG To PDF.pc3
1000
PDF
1000
ファイル
1000

1070
     0
  0
PLOTSETTINGS
  5
2F2B
102
{ACAD_REACTORS
330
19
102
}
330
19
100
AcDbPlotSettings
  1
A4 Print
  2
RICOH IPSiO SP 6110 RPCS.pc3
  4
A4
  6

 40
5.873749732971191
 41
5.873747825622557
 42
5.873748779296875
 43
5.873748779296875
 44
209.9733276367186
 45
296.9259948730469
 46
-5.887085437774657
 47
-5.910750865936276
 48
-229.0783166424526
 49
0.0
140
-19.07831664245259
141
297.0
142
1.0
143
1.0
 70
 11956
 72
     1
 73
     0
 74
     4
  7
C:\Documents and Settings\nagata\Application Data\Autodesk\AutoCAD LT 2009\R14\jpn\Plot Styles\sugiyama_A4.stb
 75
    16
147
1.0
 76
     0
 77
     2
 78
   300
148
229.0783166424526
149
0.0
1001
ACAD_PSEXT
1000
RICOH IPSiO SP 6110 RPCS.pc3
1000
RICOH IPSiO SP 6110 RPCS
1000
192.168.0.90_@
1000
RPCS Driver (Windows 2000/XP/Server 2003)
1070
     0
  0
ACDBPLACEHOLDER
  5
EA
102
{ACAD_REACTORS
330
E
102
}
330
E
  0
ACDBPLACEHOLDER
  5
E9
102
{ACAD_REACTORS
330
E
102
}
330
E
  0
ACDBPLACEHOLDER
  5
F78
102
{ACAD_REACTORS
330
E
102
}
330
E
  0
ACDBPLACEHOLDER
  5
F77
102
{ACAD_REACTORS
330
E
102
}
330
E
  0
ACDBPLACEHOLDER
  5
EB
102
{ACAD_REACTORS
330
E
102
}
330
E
  0
ACDBPLACEHOLDER
  5
F
102
{ACAD_REACTORS
330
E
102
}
330
E
  0
SCALE
  5
D6E
102
{ACAD_REACTORS
330
D6D
102
}
330
D6D
100
AcDbScale
 70
     0
300
1:1
140
1.0
141
1.0
290
     1
  0
SCALE
  5
D6F
102
{ACAD_REACTORS
330
D6D
102
}
330
D6D
100
AcDbScale
 70
     0
300
1:2
140
1.0
141
2.0
290
     0
  0
SCALE
  5
D70
102
{ACAD_REACTORS
330
D6D
102
}
330
D6D
100
AcDbScale
 70
     0
300
1:4
140
1.0
141
4.0
290
     0
  0
SCALE
  5
D71
102
{ACAD_REACTORS
330
D6D
102
}
330
D6D
100
AcDbScale
 70
     0
300
1:5
140
1.0
141
5.0
290
     0
  0
SCALE
  5
D72
102
{ACAD_REACTORS
330
D6D
102
}
330
D6D
100
AcDbScale
 70
     0
300
1:8
140
1.0
141
8.0
290
     0
  0
SCALE
  5
D73
102
{ACAD_REACTORS
330
D6D
102
}
330
D6D
100
AcDbScale
 70
     0
300
1:10
140
1.0
141
10.0
290
     0
  0
SCALE
  5
D74
102
{ACAD_REACTORS
330
D6D
102
}
330
D6D
100
AcDbScale
 70
     0
300
1:16
140
1.0
141
16.0
290
     0
  0
SCALE
  5
D75
102
{ACAD_REACTORS
330
D6D
102
}
330
D6D
100
AcDbScale
 70
     0
300
1:20
140
1.0
141
20.0
290
     0
  0
SCALE
  5
D76
102
{ACAD_REACTORS
330
D6D
102
}
330
D6D
100
AcDbScale
 70
     0
300
1:30
140
1.0
141
30.0
290
     0
  0
SCALE
  5
D77
102
{ACAD_REACTORS
330
D6D
102
}
330
D6D
100
AcDbScale
 70
     0
300
1:40
140
1.0
141
40.0
290
     0
  0
SCALE
  5
D78
102
{ACAD_REACTORS
330
D6D
102
}
330
D6D
100
AcDbScale
 70
     0
300
1:50
140
1.0
141
50.0
290
     0
  0
SCALE
  5
D79
102
{ACAD_REACTORS
330
D6D
102
}
330
D6D
100
AcDbScale
 70
     0
300
1:100
140
1.0
141
100.0
290
     0
  0
SCALE
  5
D7A
102
{ACAD_REACTORS
330
D6D
102
}
330
D6D
100
AcDbScale
 70
     0
300
2:1
140
2.0
141
1.0
290
     0
  0
SCALE
  5
D7B
102
{ACAD_REACTORS
330
D6D
102
}
330
D6D
100
AcDbScale
 70
     0
300
4:1
140
4.0
141
1.0
290
     0
  0
SCALE
  5
D7C
102
{ACAD_REACTORS
330
D6D
102
}
330
D6D
100
AcDbScale
 70
     0
300
8:1
140
8.0
141
1.0
290
     0
  0
SCALE
  5
D7D
102
{ACAD_REACTORS
330
D6D
102
}
330
D6D
100
AcDbScale
 70
     0
300
10:1
140
10.0
141
1.0
290
     0
  0
SCALE
  5
D7E
102
{ACAD_REACTORS
330
D6D
102
}
330
D6D
100
AcDbScale
 70
     0
300
100:1
140
100.0
141
1.0
290
     0
  0
ACDBSECTIONVIEWSTYLE
  5
14D67
102
{ACAD_REACTORS
330
14D66
102
}
330
14D66
100
AcDbModelDocViewStyle
 70
     0
  3
Metric50
290
     0
100
AcDbSectionViewStyle
 70
     0
 71
     0
 90
      102
 71
     1
340
11
 62
   256
 40
5.0
340
0
340
0
 62
   256
 40
5.0
300
I, O, Q, S, X, Z
 40
10.0
 90
        0
 40
2.5
 90
        0
 71
     2
340
16
 90
       25
 62
   256
340
16
 90
       50
 62
   256
 40
5.0
 40
2.5
 40
5.0
 71
     3
340
11
 62
   256
 40
5.0
 90
        0
 40
15.0
 90
        1
300
%<\AcVar ViewSectionStartId>%-%<\AcVar ViewSectionEndId>% (%<\AcVar ViewScale \f "%sn">%)
 71
     4
 62
   256
 62
   257
300
ANSI31
 40
1.0
 90
        0
290
     0
290
     0
 90
        6
 40
0.0
 40
1.570796326794896
 40
0.2617993877991494
 40
1.308996938995747
 40
-0.2617993877991494
 40
1.832595714594046
  0
TABLESTYLE
  5
22EC
102
{ACAD_XDICTIONARY
360
236C
102
}
102
{ACAD_REACTORS
330
D6B
102
}
330
D6B
100
AcDbTableStyle
280
     0
  3
Standard
 70
     1
 71
     0
 40
1.5
 41
1.5
280
     0
281
     0
  7
romans
140
4.5
170
     2
 62
   256
 63
     7
283
     0
 90
      512
 91
        0
  1

274
    -2
284
     1
 64
     0
275
    -1
285
     1
 65
     0
276
    -1
286
     1
 66
     0
277
    -2
287
     1
 67
     0
278
    -2
288
     1
 68
     0
279
    -2
289
     1
 69
     0
  7
Standard
140
6.0
170
     5
 62
     0
 63
     7
283
     0
 90
      512
 91
        0
  1

274
    -2
284
     1
 64
     0
275
    -2
285
     1
 65
     0
276
    -2
286
     1
 66
     0
277
    -2
287
     1
 67
     0
278
    -2
288
     1
 68
     0
279
    -2
289
     1
 69
     0
  7
Standard
140
4.5
170
     5
 62
     0
 63
     7
283
     0
 90
      512
 91
        0
  1

274
    -2
284
     1
 64
     0
275
    -2
285
     1
 65
     0
276
    -2
286
     1
 66
     0
277
    -2
287
     1
 67
     0
278
    -2
288
     1
 68
     0
279
    -2
289
     1
 69
     0
  0
TABLESTYLE
  5
D6C
102
{ACAD_XDICTIONARY
360
EE7
102
}
102
{ACAD_REACTORS
330
D6B
102
}
330
D6B
100
AcDbTableStyle
280
     0
  3
Standard
 70
     0
 71
     0
 40
1.5
 41
1.5
280
     0
281
     0
  7
Standard
140
4.5
170
     2
 62
     0
 63
     7
283
     0
 90
      512
 91
        0
  1

274
    -2
284
     1
 64
     0
275
    -2
285
     1
 65
     0
276
    -2
286
     1
 66
     0
277
    -2
287
     1
 67
     0
278
    -2
288
     1
 68
     0
279
    -2
289
     1
 69
     0
  7
Standard
140
6.0
170
     5
 62
     0
 63
     7
283
     0
 90
      512
 91
        0
  1

274
    -2
284
     1
 64
     0
275
    -2
285
     1
 65
     0
276
    -2
286
     1
 66
     0
277
    -2
287
     1
 67
     0
278
    -2
288
     1
 68
     0
279
    -2
289
     1
 69
     0
  7
Standard
140
4.5
170
     5
 62
     0
 63
     7
283
     0
 90
      512
 91
        0
  1

274
    -2
284
     1
 64
     0
275
    -2
285
     1
 65
     0
276
    -2
286
     1
 66
     0
277
    -2
287
     1
 67
     0
278
    -2
288
     1
 68
     0
279
    -2
289
     1
 69
     0
  0
VISUALSTYLE
  5
D60
102
{ACAD_XDICTIONARY
360
15621
102
}
102
{ACAD_REACTORS
330
D5A
102
}
330
D5A
100
AcDbVisualStyle
  2

 70
     4
177
     2
291
     0
 71
     0
176
     1
 72
     2
176
     1
 73
     0
176
     1
 90
        0
176
     1
 40
0.6
176
     1
 41
30.0
176
     1
 63
     7
176
     1
 74
     1
176
     1
 91
        4
176
     1
 64
     7
176
     1
 65
   257
176
     1
 75
     1
176
     1
175
     1
176
     1
 42
1.0
176
     1
 92
        0
176
     1
 66
   257
176
     1
 43
1.0
176
     1
 76
     1
176
     1
 77
     6
176
     1
 78
     2
176
     1
 67
     7
176
     1
 79
     5
176
     1
170
     0
176
     1
171
     0
176
     1
290
     0
176
     1
 93
        1
176
     1
 44
0.0
176
     1
173
     0
176
     1
1001
ACAD
1000
AcDbSavedByObjectVersion
1070
     0
  0
VISUALSTYLE
  5
D62
102
{ACAD_XDICTIONARY
360
15625
102
}
102
{ACAD_REACTORS
330
D5A
102
}
330
D5A
100
AcDbVisualStyle
  2

 70
     6
177
     2
291
     0
 71
     1
176
     1
 72
     2
176
     1
 73
     2
176
     1
 90
        0
176
     1
 40
0.6
176
     1
 41
30.0
176
     1
 63
     7
176
     1
 74
     2
176
     1
 91
        2
176
     1
 64
     7
176
     1
 65
   257
176
     1
 75
     2
176
     1
175
     1
176
     1
 42
40.0
176
     1
 92
        0
176
     1
 66
   257
176
     1
 43
1.0
176
     1
 76
     1
176
     1
 77
     6
176
     1
 78
     2
176
     1
 67
     7
176
     1
 79
     3
176
     1
170
     0
176
     1
171
     0
176
     1
290
     0
176
     1
 93
        1
176
     1
 44
0.0
176
     1
173
     0
176
     1
1001
ACAD
1000
AcDbSavedByObjectVersion
1070
     0
  0
VISUALSTYLE
  5
D61
102
{ACAD_XDICTIONARY
360
15623
102
}
102
{ACAD_REACTORS
330
D5A
102
}
330
D5A
100
AcDbVisualStyle
  2

 70
     5
177
     2
291
     0
 71
     0
176
     1
 72
     2
176
     1
 73
     0
176
     1
 90
        0
176
     1
 40
0.6
176
     1
 41
30.0
176
     1
 63
     7
176
     1
 74
     1
176
     1
 91
        4
176
     1
 64
     7
176
     1
 65
   257
176
     1
 75
     1
176
     1
175
     1
176
     1
 42
1.0
176
     1
 92
        0
176
     1
 66
   257
176
     1
 43
1.0
176
     1
 76
     1
176
     1
 77
     6
176
     1
 78
     2
176
     1
 67
     7
176
     1
 79
     5
176
     1
170
     0
176
     1
171
     0
176
     1
290
     0
176
     1
 93
        1
176
     1
 44
0.0
176
     1
173
     0
176
     1
1001
ACAD
1000
AcDbSavedByObjectVersion
1070
     0
  0
VISUALSTYLE
  5
D5F
102
{ACAD_XDICTIONARY
360
1561F
102
}
102
{ACAD_REACTORS
330
D5A
102
}
330
D5A
100
AcDbVisualStyle
  2

 70
     7
177
     2
291
     1
 71
     1
176
     1
 72
     0
176
     1
 73
     1
176
     1
 90
        0
176
     1
 40
0.6
176
     1
 41
30.0
176
     1
 63
     7
176
     1
 74
     0
176
     1
 91
        4
176
     1
 64
     7
176
     1
 65
   257
176
     1
 75
     1
176
     1
175
     1
176
     1
 42
1.0
176
     1
 92
        8
176
     1
 66
     7
176
     1
 43
1.0
176
     1
 76
     1
176
     1
 77
     6
176
     1
 78
     2
176
     1
 67
     7
176
     1
 79
     5
176
     1
170
     0
176
     1
171
     0
176
     1
290
     0
176
     1
 93
        1
176
     1
 44
0.0
176
     1
173
     0
176
     1
1001
ACAD
1000
AcDbSavedByObjectVersion
1070
     0
  0
VISUALSTYLE
  5
D66
102
{ACAD_XDICTIONARY
360
1562D
102
}
102
{ACAD_REACTORS
330
D5A
102
}
330
D5A
100
AcDbVisualStyle
  2

 70
    12
177
     2
291
     1
 71
     2
176
     1
 72
     2
176
     1
 73
     0
176
     1
 90
        0
176
     1
 40
0.6
176
     1
 41
30.0
176
     1
 63
     7
176
     1
 74
     1
176
     1
 91
        4
176
     1
 64
     7
176
     1
 65
   257
176
     1
 75
     1
176
     1
175
     1
176
     1
 42
1.0
176
     1
 92
        8
176
     1
 66
     7
176
     1
 43
1.0
176
     1
 76
     1
176
     1
 77
     6
176
     1
 78
     2
176
     1
 67
     7
176
     1
 79
     5
176
     1
170
     0
176
     1
171
     0
176
     1
290
     0
176
     1
 93
        1
176
     1
 44
50.0
176
     1
173
     0
176
     1
1001
ACAD
1000
AcDbSavedByObjectVersion
1070
     0
  0
VISUALSTYLE
  5
D6A
102
{ACAD_XDICTIONARY
360
15635
102
}
102
{ACAD_REACTORS
330
D5A
102
}
330
D5A
100
AcDbVisualStyle
  2

 70
    16
177
     2
291
     1
 71
     2
176
     1
 72
     2
176
     1
 73
     3
176
     1
 90
        0
176
     1
 40
0.6
176
     1
 41
30.0
176
     1
 63
     8
176
     1
 74
     1
176
     1
 91
        4
176
     1
 64
     7
176
     1
 65
   257
176
     1
 75
     1
176
     1
175
     1
176
     1
 42
1.0
176
     1
 92
        8
176
     1
 66
     8
176
     1
 43
1.0
176
     1
 76
     1
176
     1
 77
     6
176
     1
 78
     2
176
     1
 67
     7
176
     1
 79
     5
176
     1
170
     0
176
     1
171
     0
176
     1
290
     0
176
     1
 93
        1
176
     1
 44
0.0
176
     1
173
     0
176
     1
1001
ACAD
1000
AcDbSavedByObjectVersion
1070
     0
  0
VISUALSTYLE
  5
D63
102
{ACAD_XDICTIONARY
360
15627
102
}
102
{ACAD_REACTORS
330
D5A
102
}
330
D5A
100
AcDbVisualStyle
  2

 70
     9
177
     2
291
     0
 71
     3
176
     1
 72
     2
176
     1
 73
     0
176
     1
 90
        0
176
     1
 40
0.6
176
     1
 41
30.0
176
     1
 63
     7
176
     1
 74
     2
176
     1
 91
        2
176
     1
 64
     7
176
     1
 65
   257
176
     1
 75
     1
176
     1
175
     1
176
     1
 42
40.0
176
     1
 92
        8
176
     1
 66
     7
176
     1
 43
1.0
176
     1
 76
     1
176
     1
 77
     6
176
     1
 78
     2
176
     1
 67
     7
176
     1
 79
     3
176
     1
170
     0
176
     1
171
     0
176
     1
290
     0
176
     1
 93
        1
176
     1
 44
0.0
176
     1
173
     0
176
     1
1001
ACAD
1000
AcDbSavedByObjectVersion
1070
     0
  0
VISUALSTYLE
  5
D65
102
{ACAD_XDICTIONARY
360
1562B
102
}
102
{ACAD_REACTORS
330
D5A
102
}
330
D5A
100
AcDbVisualStyle
  2

 70
    11
177
     2
291
     1
 71
     2
176
     1
 72
     2
176
     1
 73
     0
176
     1
 90
        0
176
     1
 40
0.6
176
     1
 41
30.0
176
     1
 63
     7
176
     1
 74
     1
176
     1
 91
        4
176
     1
 64
     7
176
     1
 65
   257
176
     1
 75
     1
176
     1
175
     1
176
     1
 42
1.0
176
     1
 92
        8
176
     1
 66
     7
176
     1
 43
1.0
176
     1
 76
     1
176
     1
 77
     6
176
     1
 78
     2
176
     1
 67
     7
176
     1
 79
     5
176
     1
170
     0
176
     1
171
     0
176
     1
290
     0
176
     1
 93
        1
176
     1
 44
-50.0
176
     1
173
     0
176
     1
1001
ACAD
1000
AcDbSavedByObjectVersion
1070
     0
  0
VISUALSTYLE
  5
3181
102
{ACAD_XDICTIONARY
360
15649
102
}
102
{ACAD_REACTORS
330
D5A
102
}
330
D5A
100
AcDbVisualStyle
  2

 70
    22
177
     2
291
     1
 71
     2
176
     0
 72
     2
176
     0
 73
     0
176
     0
 90
        0
176
     0
 40
0.6
176
     0
 41
30.0
176
     0
 63
     7
176
     0
 74
     1
176
     0
 91
        4
176
     0
 64
     7
176
     0
 65
   257
176
     0
 75
     1
176
     0
175
     1
176
     0
 42
1.0
176
     0
 92
        8
176
     2
 66
     7
176
     0
 43
1.0
176
     0
 76
     1
176
     0
 77
     6
176
     0
 78
     2
176
     0
 67
     7
176
     0
 79
     5
176
     0
170
     0
176
     0
171
     0
176
     0
290
     0
176
     0
 93
        1
176
     0
 44
0.0
176
     0
173
     0
176
     0
1001
ACAD
1000
AcDbSavedByObjectVersion
1070
     0
  0
VISUALSTYLE
  5
D69
102
{ACAD_XDICTIONARY
360
15633
102
}
102
{ACAD_REACTORS
330
D5A
102
}
330
D5A
100
AcDbVisualStyle
  2

 70
    15
177
     2
291
     1
 71
     2
176
     1
 72
     2
176
     1
 73
     0
176
     1
 90
        0
176
     1
 40
0.6
176
     1
 41
30.0
176
     1
 63
     7
176
     1
 74
     1
176
     1
 91
        4
176
     1
 64
     7
176
     1
 65
   257
176
     1
 75
     1
176
     1
175
     1
176
     1
 42
1.0
176
     1
 92
        8
176
     1
 66
     7
176
     1
 43
1.0
176
     1
 76
     1
176
     1
 77
     6
176
     1
 78
     2
176
     1
 67
     7
176
     1
 79
     5
176
     1
170
     0
176
     1
171
     0
176
     1
290
     0
176
     1
 93
        1
176
     1
 44
0.0
176
     1
173
     0
176
     1
1001
ACAD
1000
AcDbSavedByObjectVersion
1070
     0
  0
VISUALSTYLE
  5
D5B
102
{ACAD_XDICTIONARY
360
15617
102
}
102
{ACAD_REACTORS
330
D5A
102
}
330
D5A
100
AcDbVisualStyle
  2

 70
     0
177
     2
291
     1
 71
     2
176
     1
 72
     1
176
     1
 73
     1
176
     1
 90
        2
176
     1
 40
0.6
176
     1
 41
30.0
176
     1
 63
     7
176
     1
 74
     0
176
     1
 91
        4
176
     1
 64
     7
176
     1
 65
   257
176
     1
 75
     1
176
     1
175
     1
176
     1
 42
1.0
176
     1
 92
        8
176
     1
 66
     7
176
     1
 43
1.0
176
     1
 76
     1
176
     1
 77
     6
176
     1
 78
     2
176
     1
 67
     7
176
     1
 79
     5
176
     1
170
     0
176
     1
171
     0
176
     1
290
     0
176
     1
 93
       13
176
     1
 44
0.0
176
     1
173
     0
176
     1
1001
ACAD
1000
AcDbSavedByObjectVersion
1070
     0
  0
VISUALSTYLE
  5
D5C
102
{ACAD_XDICTIONARY
360
15619
102
}
102
{ACAD_REACTORS
330
D5A
102
}
330
D5A
100
AcDbVisualStyle
  2

 70
     1
177
     2
291
     1
 71
     2
176
     1
 72
     1
176
     1
 73
     1
176
     1
 90
        2
176
     1
 40
0.6
176
     1
 41
30.0
176
     1
 63
     7
176
     1
 74
     1
176
     1
 91
        4
176
     1
 64
     7
176
     1
 65
   257
176
     1
 75
     1
176
     1
175
     1
176
     1
 42
1.0
176
     1
 92
        0
176
     1
 66
   257
176
     1
 43
1.0
176
     1
 76
     1
176
     1
 77
     6
176
     1
 78
     2
176
     1
 67
     7
176
     1
 79
     5
176
     1
170
     0
176
     1
171
     0
176
     1
290
     0
176
     1
 93
       13
176
     1
 44
0.0
176
     1
173
     0
176
     1
1001
ACAD
1000
AcDbSavedByObjectVersion
1070
     0
  0
VISUALSTYLE
  5
D5D
102
{ACAD_XDICTIONARY
360
1561B
102
}
102
{ACAD_REACTORS
330
D5A
102
}
330
D5A
100
AcDbVisualStyle
  2

 70
     2
177
     2
291
     1
 71
     2
176
     1
 72
     2
176
     1
 73
     1
176
     1
 90
        2
176
     1
 40
0.6
176
     1
 41
30.0
176
     1
 63
     7
176
     1
 74
     0
176
     1
 91
        4
176
     1
 64
     7
176
     1
 65
   257
176
     1
 75
     1
176
     1
175
     1
176
     1
 42
1.0
176
     1
 92
        0
176
     1
 66
     7
176
     1
 43
1.0
176
     1
 76
     1
176
     1
 77
     6
176
     1
 78
     2
176
     1
 67
     7
176
     1
 79
     5
176
     1
170
     0
176
     1
171
     0
176
     1
290
     0
176
     1
 93
       13
176
     1
 44
0.0
176
     1
173
     0
176
     1
1001
ACAD
1000
AcDbSavedByObjectVersion
1070
     0
  0
VISUALSTYLE
  5
D5E
102
{ACAD_XDICTIONARY
360
1561D
102
}
102
{ACAD_REACTORS
330
D5A
102
}
330
D5A
100
AcDbVisualStyle
  2

 70
     3
177
     2
291
     1
 71
     2
176
     1
 72
     2
176
     1
 73
     1
176
     1
 90
        2
176
     1
 40
0.6
176
     1
 41
30.0
176
     1
 63
     7
176
     1
 74
     1
176
     1
 91
        4
176
     1
 64
     7
176
     1
 65
   257
176
     1
 75
     1
176
     1
175
     1
176
     1
 42
1.0
176
     1
 92
        0
176
     1
 66
   257
176
     1
 43
1.0
176
     1
 76
     1
176
     1
 77
     6
176
     1
 78
     2
176
     1
 67
     7
176
     1
 79
     5
176
     1
170
     0
176
     1
171
     0
176
     1
290
     0
176
     1
 93
       13
176
     1
 44
0.0
176
     1
173
     0
176
     1
1001
ACAD
1000
AcDbSavedByObjectVersion
1070
     0
  0
VISUALSTYLE
  5
3179
102
{ACAD_XDICTIONARY
360
15639
102
}
102
{ACAD_REACTORS
330
D5A
102
}
330
D5A
100
AcDbVisualStyle
  2

 70
     6
177
     2
291
     0
 71
     1
176
     1
 72
     2
176
     1
 73
     2
176
     1
 90
        0
176
     1
 40
0.6
176
     1
 41
30.0
176
     1
 63
     7
176
     1
 74
     2
176
     1
 91
        2
176
     1
 64
     7
176
     1
 65
   257
176
     1
 75
     2
176
     1
175
     1
176
     1
 42
40.0
176
     1
 92
        0
176
     1
 66
   257
176
     1
 43
1.0
176
     1
 76
     1
176
     1
 77
     6
176
     1
 78
     2
176
     1
 67
     7
176
     1
 79
     3
176
     1
170
     0
176
     1
171
     0
176
     1
290
     0
176
     1
 93
        1
176
     1
 44
0.0
176
     1
173
     0
176
     1
1001
ACAD
1000
AcDbSavedByObjectVersion
1070
     0
  0
VISUALSTYLE
  5
317F
102
{ACAD_XDICTIONARY
360
15645
102
}
102
{ACAD_REACTORS
330
D5A
102
}
330
D5A
100
AcDbVisualStyle
  2

 70
    20
177
     2
291
     1
 71
     2
176
     0
 72
     2
176
     0
 73
     0
176
     0
 90
        0
176
     0
 40
0.6
176
     0
 41
30.0
176
     0
 63
     7
176
     0
 74
     1
176
     0
 91
        4
176
     0
 64
     7
176
     0
 65
   257
176
     0
 75
     1
176
     0
175
     1
176
     0
 42
1.0
176
     0
 92
       10
176
     2
 66
     7
176
     0
 43
1.0
176
     0
 76
     1
176
     0
 77
     6
176
     0
 78
     2
176
     0
 67
     7
176
     0
 79
     5
176
     0
170
     0
176
     0
171
     0
176
     0
290
     0
176
     0
 93
        1
176
     0
 44
0.0
176
     0
173
     0
176
     0
1001
ACAD
1000
AcDbSavedByObjectVersion
1070
     0
  0
VISUALSTYLE
  5
D68
102
{ACAD_XDICTIONARY
360
15631
102
}
102
{ACAD_REACTORS
330
D5A
102
}
330
D5A
100
AcDbVisualStyle
  2

 70
    14
177
     2
291
     1
 71
     2
176
     1
 72
     2
176
     1
 73
     0
176
     1
 90
        0
176
     1
 40
0.6
176
     1
 41
30.0
176
     1
 63
     7
176
     1
 74
     1
176
     1
 91
        4
176
     1
 64
     7
176
     1
 65
   257
176
     1
 75
     7
176
     1
175
     7
176
     1
 42
1.0
176
     1
 92
        8
176
     1
 66
     7
176
     1
 43
1.0
176
     1
 76
     1
176
     1
 77
     6
176
     1
 78
     2
176
     1
 67
     7
176
     1
 79
     5
176
     1
170
     0
176
     1
171
     0
176
     1
290
     0
176
     1
 93
        1
176
     1
 44
0.0
176
     1
173
     0
176
     1
1001
ACAD
1000
AcDbSavedByObjectVersion
1070
     0
  0
VISUALSTYLE
  5
3180
102
{ACAD_XDICTIONARY
360
15647
102
}
102
{ACAD_REACTORS
330
D5A
102
}
330
D5A
100
AcDbVisualStyle
  2

 70
    21
177
     2
291
     1
 71
     2
176
     0
 72
     2
176
     0
 73
     0
176
     0
 90
        0
176
     0
 40
0.6
176
     0
 41
30.0
176
     0
 63
     7
176
     0
 74
     1
176
     0
 91
        4
176
     0
 64
     7
176
     0
 65
   257
176
     0
 75
     1
176
     0
175
     1
176
     0
 42
1.0
176
     0
 92
        9
176
     2
 66
     7
176
     0
 43
1.0
176
     0
 76
     1
176
     0
 77
     6
176
     0
 78
     2
176
     0
 67
     7
176
     0
 79
     5
176
     0
170
     0
176
     0
171
     0
176
     0
290
     0
176
     0
 93
        1
176
     0
 44
0.0
176
     0
173
     0
176
     0
1001
ACAD
1000
AcDbSavedByObjectVersion
1070
     0
  0
VISUALSTYLE
  5
D64
102
{ACAD_XDICTIONARY
360
15629
102
}
102
{ACAD_REACTORS
330
D5A
102
}
330
D5A
100
AcDbVisualStyle
  2

 70
     8
177
     2
291
     0
 71
     2
176
     1
 72
     2
176
     1
 73
     0
176
     1
 90
        0
176
     1
 40
0.6
176
     1
 41
30.0
176
     1
 63
     7
176
     1
 74
     1
176
     1
 91
        0
176
     1
 64
     7
176
     1
 65
   257
176
     1
 75
     1
176
     1
175
     1
176
     1
 42
1.0
176
     1
 92
        8
176
     1
 66
     8
176
     1
 43
1.0
176
     1
 76
     1
176
     1
 77
     6
176
     1
 78
     2
176
     1
 67
     7
176
     1
 79
     5
176
     1
170
     0
176
     1
171
     0
176
     1
290
     0
176
     1
 93
       13
176
     1
 44
0.0
176
     1
173
     0
176
     1
1001
ACAD
1000
AcDbSavedByObjectVersion
1070
     0
  0
VISUALSTYLE
  5
317E
102
{ACAD_XDICTIONARY
360
15643
102
}
102
{ACAD_REACTORS
330
D5A
102
}
330
D5A
100
AcDbVisualStyle
  2

 70
    27
177
     2
291
     0
 71
     2
176
     1
 72
     2
176
     1
 73
     1
176
     1
 90
        2
176
     1
 40
0.6
176
     1
 41
30.0
176
     1
 63
     7
176
     1
 74
     0
176
     1
 91
        4
176
     1
 64
     7
176
     1
 65
   257
176
     1
 75
     1
176
     1
175
     1
176
     1
 42
1.0
176
     1
 92
        8
176
     1
 66
   257
176
     1
 43
1.0
176
     1
 76
     1
176
     1
 77
     6
176
     1
 78
     2
176
     1
 67
     8
176
     1
 79
     3
176
     1
170
     0
176
     1
171
     0
176
     1
290
     0
176
     1
 93
        5
176
     1
 44
0.0
176
     1
173
     0
176
     1
1001
ACAD
1000
AcDbSavedByObjectVersion
1070
     0
  0
VISUALSTYLE
  5
317D
102
{ACAD_XDICTIONARY
360
15641
102
}
102
{ACAD_REACTORS
330
D5A
102
}
330
D5A
100
AcDbVisualStyle
  2

 70
    26
177
     2
291
     0
 71
     2
176
     1
 72
     2
176
     1
 73
     1
176
     1
 90
        2
176
     1
 40
0.6
176
     1
 41
30.0
176
     1
 63
     7
176
     1
 74
     1
176
     1
 91
       10
176
     1
 64
     7
176
     1
 65
   257
176
     1
 75
     2
176
     1
175
     1
176
     1
 42
1.0
176
     1
 92
        8
176
     1
 66
   257
176
     1
 43
1.0
176
     1
 76
     1
176
     1
 77
     6
176
     1
 78
     2
176
     1
 67
     7
176
     1
 79
     3
176
     1
170
     0
176
     1
171
     0
176
     1
290
     0
176
     1
 93
        5
176
     1
 44
0.0
176
     1
173
     0
176
     1
1001
ACAD
1000
AcDbSavedByObjectVersion
1070
     0
  0
VISUALSTYLE
  5
317A
102
{ACAD_XDICTIONARY
360
1563B
102
}
102
{ACAD_REACTORS
330
D5A
102
}
330
D5A
100
AcDbVisualStyle
  2

 70
    23
177
     2
291
     0
 71
     2
176
     1
 72
     2
176
     1
 73
     3
176
     1
 90
        0
176
     1
 40
0.6
176
     1
 41
30.0
176
     1
 63
     7
176
     1
 74
     2
176
     1
 91
        2
176
     1
 64
     7
176
     1
 65
     7
176
     1
 75
     1
176
     1
175
     1
176
     1
 42
40.0
176
     1
 92
        8
176
     1
 66
     7
176
     1
 43
1.0
176
     1
 76
     1
176
     1
 77
     6
176
     1
 78
     2
176
     1
 67
     7
176
     1
 79
     3
176
     1
170
     0
176
     1
171
     0
176
     1
290
     0
176
     1
 93
        1
176
     1
 44
0.0
176
     1
173
     0
176
     1
1001
ACAD
1000
AcDbSavedByObjectVersion
1070
     0
  0
VISUALSTYLE
  5
317B
102
{ACAD_XDICTIONARY
360
1563D
102
}
102
{ACAD_REACTORS
330
D5A
102
}
330
D5A
100
AcDbVisualStyle
  2

 70
    24
177
     2
291
     0
 71
     1
176
     1
 72
     2
176
     1
 73
     2
176
     1
 90
        0
176
     1
 40
0.6
176
     1
 41
30.0
176
     1
 63
     7
176
     1
 74
     2
176
     1
 91
        2
176
     1
 64
     7
176
     1
 65
     7
176
     1
 75
     1
176
     1
175
     1
176
     1
 42
40.0
176
     1
 92
       11
176
     1
 66
     7
176
     1
 43
1.0
176
     1
 76
     1
176
     1
 77
     6
176
     1
 78
     2
176
     1
 67
     7
176
     1
 79
     6
176
     1
170
     0
176
     1
171
     0
176
     1
290
     0
176
     1
 93
        1
176
     1
 44
0.0
176
     1
173
     0
176
     1
1001
ACAD
1000
AcDbSavedByObjectVersion
1070
     0
  0
VISUALSTYLE
  5
D67
102
{ACAD_XDICTIONARY
360
1562F
102
}
102
{ACAD_REACTORS
330
D5A
102
}
330
D5A
100
AcDbVisualStyle
  2

 70
    13
177
     2
291
     1
 71
     2
176
     1
 72
     2
176
     1
 73
     0
176
     1
 90
        0
176
     1
 40
0.6
176
     1
 41
30.0
176
     1
 63
     7
176
     1
 74
     1
176
     1
 91
        4
176
     1
 64
     7
176
     1
 65
   257
176
     1
 75
     1
176
     1
175
     1
176
     1
 42
1.0
176
     1
 92
       12
176
     1
 66
     7
176
     1
 43
1.0
176
     1
 76
     1
176
     1
 77
     6
176
     1
 78
     2
176
     1
 67
     7
176
     1
 79
     5
176
     1
170
     0
176
     1
171
     0
176
     1
290
     0
176
     1
 93
        1
176
     1
 44
0.0
176
     1
173
     0
176
     1
1001
ACAD
1000
AcDbSavedByObjectVersion
1070
     0
  0
VISUALSTYLE
  5
3178
102
{ACAD_XDICTIONARY
360
15637
102
}
102
{ACAD_REACTORS
330
D5A
102
}
330
D5A
100
AcDbVisualStyle
  2

 70
     5
177
     2
291
     0
 71
     0
176
     1
 72
     2
176
     1
 73
     0
176
     1
 90
        0
176
     1
 40
0.6
176
     1
 41
30.0
176
     1
 63
     7
176
     1
 74
     1
176
     1
 91
        4
176
     1
 64
     7
176
     1
 65
   257
176
     1
 75
     1
176
     1
175
     1
176
     1
 42
1.0
176
     1
 92
        0
176
     1
 66
   257
176
     1
 43
1.0
176
     1
 76
     1
176
     1
 77
     6
176
     1
 78
     2
176
     1
 67
     7
176
     1
 79
     3
176
     1
170
     0
176
     1
171
     0
176
     1
290
     0
176
     1
 93
        1
176
     1
 44
0.0
176
     1
173
     0
176
     1
1001
ACAD
1000
AcDbSavedByObjectVersion
1070
     0
  0
VISUALSTYLE
  5
317C
102
{ACAD_XDICTIONARY
360
1563F
102
}
102
{ACAD_REACTORS
330
D5A
102
}
330
D5A
100
AcDbVisualStyle
  2

 70
    25
177
     2
291
     0
 71
     2
176
     1
 72
     2
176
     1
 73
     1
176
     1
 90
        1
176
     1
 40
0.5
176
     1
 41
30.0
176
     1
 63
     7
176
     1
 74
     1
176
     1
 91
        0
176
     1
 64
     7
176
     1
 65
   257
176
     1
 75
     1
176
     1
175
     1
176
     1
 42
1.0
176
     1
 92
        8
176
     1
 66
     7
176
     1
 43
1.0
176
     1
 76
     1
176
     1
 77
     6
176
     1
 78
     2
176
     1
 67
     7
176
     1
 79
     3
176
     1
170
     0
176
     1
171
     0
176
     1
290
     0
176
     1
 93
       13
176
     1
 44
0.0
176
     1
173
     0
176
     1
1001
ACAD
1000
AcDbSavedByObjectVersion
1070
     0
  0
DICTIONARYVAR
  5
14E78
102
{ACAD_REACTORS
330
14E72
102
}
330
14E72
100
DictionaryVariables
280
     0
  1
1:1
  0
DICTIONARYVAR
  5
14E74
102
{ACAD_REACTORS
330
14E72
102
}
330
14E72
100
DictionaryVariables
280
     0
  1
STANDARD
  0
DICTIONARYVAR
  5
14E73
102
{ACAD_REACTORS
330
14E72
102
}
330
14E72
100
DictionaryVariables
280
     0
  1
STANDARD
  0
DICTIONARYVAR
  5
14E75
102
{ACAD_REACTORS
330
14E72
102
}
330
14E72
100
DictionaryVariables
280
     0
  1
Metric50
  0
DICTIONARYVAR
  5
14E76
102
{ACAD_REACTORS
330
14E72
102
}
330
14E72
100
DictionaryVariables
280
     0
  1
Metric50
  0
DICTIONARYVAR
  5
14E7A
102
{ACAD_REACTORS
330
14E72
102
}
330
14E72
100
DictionaryVariables
280
     0
  1
1
  0
DICTIONARYVAR
  5
14E7B
102
{ACAD_REACTORS
330
14E72
102
}
330
14E72
100
DictionaryVariables
280
     0
  1
15
  0
DICTIONARYVAR
  5
14E79
102
{ACAD_REACTORS
330
14E72
102
}
330
14E72
100
DictionaryVariables
280
     0
  1
0
  0
DICTIONARYVAR
  5
14E77
102
{ACAD_REACTORS
330
14E72
102
}
330
14E72
100
DictionaryVariables
280
     0
  1
0
  0
DICTIONARY
  5
15616
102
{ACAD_REACTORS
330
15614
102
}
330
15614
100
AcDbDictionary
281
     1
  0
DICTIONARY
  5
15615
102
{ACAD_REACTORS
330
15614
102
}
330
15614
100
AcDbDictionary
281
     1
  3
8796083705200
350
1560F
  3
8796083705216
350
15610
  3
8796083705232
350
15611
  3
8796083705248
350
15612
  3
8796083705264
350
15613
  0
DICTIONARY
  5
14E3E
102
{ACAD_REACTORS
330
14E37
102
}
330
14E37
100
AcDbDictionary
281
     1
  0
DICTIONARY
  5
1AA6
330
5A
100
AcDbDictionary
280
     1
281
     1
  0
DICTIONARY
  5
D4B
330
D4A
100
AcDbDictionary
280
     1
281
     1
  3
ACAD_XREC_ROUNDTRIP
360
43A9
  3
BUMPTILE
360
D4D
  3
DIFFUSETILE
360
D4C
  3
OPACITYTILE
360
D50
  3
REFLECTIONTILE
360
D4F
  3
REFRACTIONTILE
360
D51
  3
SPECULARTILE
360
D4E
  0
DICTIONARY
  5
D43
330
D42
100
AcDbDictionary
280
     1
281
     1
  3
ACAD_XREC_ROUNDTRIP
360
43A8
  3
BUMPTILE
360
D45
  3
DIFFUSETILE
360
D44
  3
OPACITYTILE
360
D48
  3
REFLECTIONTILE
360
D47
  3
REFRACTIONTILE
360
D49
  3
SPECULARTILE
360
D46
  0
DICTIONARY
  5
D53
330
D52
100
AcDbDictionary
280
     1
281
     1
  3
ACAD_XREC_ROUNDTRIP
360
43AA
  3
BUMPTILE
360
D55
  3
DIFFUSETILE
360
D54
  3
OPACITYTILE
360
D58
  3
REFLECTIONTILE
360
D57
  3
REFRACTIONTILE
360
D59
  3
SPECULARTILE
360
D56
  0
DICTIONARY
  5
236C
330
22EC
100
AcDbDictionary
280
     1
281
     1
  3
ACAD_ROUNDTRIP_2008_TABLESTYLE_CELLSTYLEMAP
360
15609
  0
DICTIONARY
  5
EE7
330
D6C
100
AcDbDictionary
280
     1
281
     1
  3
ACAD_ROUNDTRIP_2008_TABLESTYLE_CELLSTYLEMAP
360
15608
  0
DICTIONARY
  5
15621
330
D60
100
AcDbDictionary
280
     1
281
     1
  3
ACAD_XREC_ROUNDTRIP
360
15622
  0
DICTIONARY
  5
15625
330
D62
100
AcDbDictionary
280
     1
281
     1
  3
ACAD_XREC_ROUNDTRIP
360
15626
  0
DICTIONARY
  5
15623
330
D61
100
AcDbDictionary
280
     1
281
     1
  3
ACAD_XREC_ROUNDTRIP
360
15624
  0
DICTIONARY
  5
1561F
330
D5F
100
AcDbDictionary
280
     1
281
     1
  3
ACAD_XREC_ROUNDTRIP
360
15620
  0
DICTIONARY
  5
1562D
330
D66
100
AcDbDictionary
280
     1
281
     1
  3
ACAD_XREC_ROUNDTRIP
360
1562E
  0
DICTIONARY
  5
15635
330
D6A
100
AcDbDictionary
280
     1
281
     1
  3
ACAD_XREC_ROUNDTRIP
360
15636
  0
DICTIONARY
  5
15627
330
D63
100
AcDbDictionary
280
     1
281
     1
  3
ACAD_XREC_ROUNDTRIP
360
15628
  0
DICTIONARY
  5
1562B
330
D65
100
AcDbDictionary
280
     1
281
     1
  3
ACAD_XREC_ROUNDTRIP
360
1562C
  0
DICTIONARY
  5
15649
330
3181
100
AcDbDictionary
280
     1
281
     1
  3
ACAD_XREC_ROUNDTRIP
360
1564A
  0
DICTIONARY
  5
15633
330
D69
100
AcDbDictionary
280
     1
281
     1
  3
ACAD_XREC_ROUNDTRIP
360
15634
  0
DICTIONARY
  5
15617
330
D5B
100
AcDbDictionary
280
     1
281
     1
  3
ACAD_XREC_ROUNDTRIP
360
15618
  0
DICTIONARY
  5
15619
330
D5C
100
AcDbDictionary
280
     1
281
     1
  3
ACAD_XREC_ROUNDTRIP
360
1561A
  0
DICTIONARY
  5
1561B
330
D5D
100
AcDbDictionary
280
     1
281
     1
  3
ACAD_XREC_ROUNDTRIP
360
1561C
  0
DICTIONARY
  5
1561D
330
D5E
100
AcDbDictionary
280
     1
281
     1
  3
ACAD_XREC_ROUNDTRIP
360
1561E
  0
DICTIONARY
  5
15639
330
3179
100
AcDbDictionary
280
     1
281
     1
  3
ACAD_XREC_ROUNDTRIP
360
1563A
  0
DICTIONARY
  5
15645
330
317F
100
AcDbDictionary
280
     1
281
     1
  3
ACAD_XREC_ROUNDTRIP
360
15646
  0
DICTIONARY
  5
15631
330
D68
100
AcDbDictionary
280
     1
281
     1
  3
ACAD_XREC_ROUNDTRIP
360
15632
  0
DICTIONARY
  5
15647
330
3180
100
AcDbDictionary
280
     1
281
     1
  3
ACAD_XREC_ROUNDTRIP
360
15648
  0
DICTIONARY
  5
15629
330
D64
100
AcDbDictionary
280
     1
281
     1
  3
ACAD_XREC_ROUNDTRIP
360
1562A
  0
DICTIONARY
  5
15643
330
317E
100
AcDbDictionary
280
     1
281
     1
  3
ACAD_XREC_ROUNDTRIP
360
15644
  0
DICTIONARY
  5
15641
330
317D
100
AcDbDictionary
280
     1
281
     1
  3
ACAD_XREC_ROUNDTRIP
360
15642
  0
DICTIONARY
  5
1563B
330
317A
100
AcDbDictionary
280
     1
281
     1
  3
ACAD_XREC_ROUNDTRIP
360
1563C
  0
DICTIONARY
  5
1563D
330
317B
100
AcDbDictionary
280
     1
281
     1
  3
ACAD_XREC_ROUNDTRIP
360
1563E
  0
DICTIONARY
  5
1562F
330
D67
100
AcDbDictionary
280
     1
281
     1
  3
ACAD_XREC_ROUNDTRIP
360
15630
  0
DICTIONARY
  5
15637
330
3178
100
AcDbDictionary
280
     1
281
     1
  3
ACAD_XREC_ROUNDTRIP
360
15638
  0
DICTIONARY
  5
1563F
330
317C
100
AcDbDictionary
280
     1
281
     1
  3
ACAD_XREC_ROUNDTRIP
360
15640
  0
XRECORD
  5
1560F
102
{ACAD_REACTORS
330
15615
102
}
330
15615
100
AcDbXrecord
280
     1
  1
AcDb_Thumbnail_Schema
102
{ATTRRECORD
341
15610
  2
AcDbDs::TreatedAsObjectData
280
     1
291
     1
102
ATTRRECORD}
102
{ATTRRECORD
341
15611
  2
AcDbDs::Legacy
280
     1
291
     1
102
ATTRRECORD}
  2
AcDbDs::ID
280
    10
 91
        8
102
{ATTRRECORD
341
15612
  2
AcDs:Indexable
280
     1
291
     1
102
ATTRRECORD}
102
{ATTRRECORD
341
15613
  2
AcDbDs::HandleAttribute
280
     7
282
     1
102
ATTRRECORD}
  2
Thumbnail_Data
280
    15
 91
        0
  0
XRECORD
  5
15610
102
{ACAD_REACTORS
330
15615
102
}
330
15615
100
AcDbXrecord
280
     1
  1
AcDbDs::TreatedAsObjectDataSchema
  2
AcDbDs::TreatedAsObjectData
280
     1
 91
        0
  0
XRECORD
  5
15611
102
{ACAD_REACTORS
330
15615
102
}
330
15615
100
AcDbXrecord
280
     1
  1
AcDbDs::LegacySchema
  2
AcDbDs::Legacy
280
     1
 91
        0
  0
XRECORD
  5
15612
102
{ACAD_REACTORS
330
15615
102
}
330
15615
100
AcDbXrecord
280
     1
  1
AcDbDs::IndexedPropertySchema
  2
AcDs:Indexable
280
     1
 91
        0
  0
XRECORD
  5
15613
102
{ACAD_REACTORS
330
15615
102
}
330
15615
100
AcDbXrecord
280
     1
  1
AcDbDs::HandleAttributeSchema
  2
AcDbDs::HandleAttribute
280
     7
 91
        1
284
     1
  0
XRECORD
  5
43A9
102
{ACAD_REACTORS
330
D4B
102
}
330
D4B
100
AcDbXrecord
280
     1
102
MATERIAL
148
0.0
149
0.0
149
0.0
 93
        0
 94
      127
282
     0
 72
     0
 77
     0
171
     0
175
     0
179
     0
273
     0
  0
XRECORD
  5
D4D
102
{ACAD_REACTORS
330
D4B
102
}
330
D4B
100
AcDbXrecord
280
     1
270
     1
271
     1
  0
XRECORD
  5
D4C
102
{ACAD_REACTORS
330
D4B
102
}
330
D4B
100
AcDbXrecord
280
     1
270
     1
271
     1
  0
XRECORD
  5
D50
102
{ACAD_REACTORS
330
D4B
102
}
330
D4B
100
AcDbXrecord
280
     1
270
     1
271
     1
  0
XRECORD
  5
D4F
102
{ACAD_REACTORS
330
D4B
102
}
330
D4B
100
AcDbXrecord
280
     1
270
     1
271
     1
  0
XRECORD
  5
D51
102
{ACAD_REACTORS
330
D4B
102
}
330
D4B
100
AcDbXrecord
280
     1
270
     1
271
     1
  0
XRECORD
  5
D4E
102
{ACAD_REACTORS
330
D4B
102
}
330
D4B
100
AcDbXrecord
280
     1
270
     1
271
     1
  0
XRECORD
  5
43A8
102
{ACAD_REACTORS
330
D43
102
}
330
D43
100
AcDbXrecord
280
     1
102
MATERIAL
148
0.0
149
0.0
149
0.0
 93
        0
 94
      127
282
     0
 72
     0
 77
     0
171
     0
175
     0
179
     0
273
     0
  0
XRECORD
  5
D45
102
{ACAD_REACTORS
330
D43
102
}
330
D43
100
AcDbXrecord
280
     1
270
     1
271
     1
  0
XRECORD
  5
D44
102
{ACAD_REACTORS
330
D43
102
}
330
D43
100
AcDbXrecord
280
     1
270
     1
271
     1
  0
XRECORD
  5
D48
102
{ACAD_REACTORS
330
D43
102
}
330
D43
100
AcDbXrecord
280
     1
270
     1
271
     1
  0
XRECORD
  5
D47
102
{ACAD_REACTORS
330
D43
102
}
330
D43
100
AcDbXrecord
280
     1
270
     1
271
     1
  0
XRECORD
  5
D49
102
{ACAD_REACTORS
330
D43
102
}
330
D43
100
AcDbXrecord
280
     1
270
     1
271
     1
  0
XRECORD
  5
D46
102
{ACAD_REACTORS
330
D43
102
}
330
D43
100
AcDbXrecord
280
     1
270
     1
271
     1
  0
XRECORD
  5
43AA
102
{ACAD_REACTORS
330
D53
102
}
330
D53
100
AcDbXrecord
280
     1
102
MATERIAL
148
0.0
149
0.0
149
0.0
 93
        0
 94
      127
282
     0
 72
     0
 77
     0
171
     0
175
     0
179
     0
273
     0
  0
XRECORD
  5
D55
102
{ACAD_REACTORS
330
D53
102
}
330
D53
100
AcDbXrecord
280
     1
270
     1
271
     1
  0
XRECORD
  5
D54
102
{ACAD_REACTORS
330
D53
102
}
330
D53
100
AcDbXrecord
280
     1
270
     1
271
     1
  0
XRECORD
  5
D58
102
{ACAD_REACTORS
330
D53
102
}
330
D53
100
AcDbXrecord
280
     1
270
     1
271
     1
  0
XRECORD
  5
D57
102
{ACAD_REACTORS
330
D53
102
}
330
D53
100
AcDbXrecord
280
     1
270
     1
271
     1
  0
XRECORD
  5
D59
102
{ACAD_REACTORS
330
D53
102
}
330
D53
100
AcDbXrecord
280
     1
270
     1
271
     1
  0
XRECORD
  5
D56
102
{ACAD_REACTORS
330
D53
102
}
330
D53
100
AcDbXrecord
280
     1
270
     1
271
     1
  0
CELLSTYLEMAP
  5
15609
102
{ACAD_REACTORS
330
236C
102
}
330
236C
100
AcDbCellStyleMap
 90
        3
300
CELLSTYLE
  1
TABLEFORMAT_BEGIN
 90
        5
170
     1
 91
        0
 92
    32768
 62
   257
 93
        1
300
CONTENTFORMAT
  1
CONTENTFORMAT_BEGIN
 90
        0
 91
        0
 92
      512
 93
        0
300

 40
0.0
140
1.0
 94
        5
 62
     0
340
11
144
6.0
309
CONTENTFORMAT_END
171
     1
301
MARGIN
  1
CELLMARGIN_BEGIN
 40
1.5
 40
1.5
 40
1.5
 40
1.5
 40
0.18
 40
0.18
309
CELLMARGIN_END
 94
        6
 95
        1
302
GRIDFORMAT
  1
GRIDFORMAT_BEGIN
 90
        0
 91
        1
 62
     0
 92
       -2
340
0
 93
        0
 40
1.125
309
GRIDFORMAT_END
 95
        2
302
GRIDFORMAT
  1
GRIDFORMAT_BEGIN
 90
        0
 91
        1
 62
     0
 92
       -2
340
0
 93
        0
 40
1.125
309
GRIDFORMAT_END
 95
        4
302
GRIDFORMAT
  1
GRIDFORMAT_BEGIN
 90
        0
 91
        1
 62
     0
 92
       -2
340
0
 93
        0
 40
1.125
309
GRIDFORMAT_END
 95
        8
302
GRIDFORMAT
  1
GRIDFORMAT_BEGIN
 90
        0
 91
        1
 62
     0
 92
       -2
340
0
 93
        0
 40
1.125
309
GRIDFORMAT_END
 95
       16
302
GRIDFORMAT
  1
GRIDFORMAT_BEGIN
 90
        0
 91
        1
 62
     0
 92
       -2
340
0
 93
        0
 40
1.125
309
GRIDFORMAT_END
 95
       32
302
GRIDFORMAT
  1
GRIDFORMAT_BEGIN
 90
        0
 91
        1
 62
     0
 92
       -2
340
0
 93
        0
 40
1.125
309
GRIDFORMAT_END
309
TABLEFORMAT_END
  1
CELLSTYLE_BEGIN
 90
        1
 91
        1
300
_TITLE
309
CELLSTYLE_END
300
CELLSTYLE
  1
TABLEFORMAT_BEGIN
 90
        5
170
     1
 91
        0
 92
        0
 62
   257
 93
        1
300
CONTENTFORMAT
  1
CONTENTFORMAT_BEGIN
 90
        0
 91
        0
 92
      512
 93
        0
300

 40
0.0
140
1.0
 94
        5
 62
     0
340
11
144
4.5
309
CONTENTFORMAT_END
171
     1
301
MARGIN
  1
CELLMARGIN_BEGIN
 40
1.5
 40
1.5
 40
1.5
 40
1.5
 40
0.18
 40
0.18
309
CELLMARGIN_END
 94
        6
 95
        1
302
GRIDFORMAT
  1
GRIDFORMAT_BEGIN
 90
        0
 91
        1
 62
     0
 92
       -2
340
0
 93
        0
 40
1.125
309
GRIDFORMAT_END
 95
        2
302
GRIDFORMAT
  1
GRIDFORMAT_BEGIN
 90
        0
 91
        1
 62
     0
 92
       -2
340
0
 93
        0
 40
1.125
309
GRIDFORMAT_END
 95
        4
302
GRIDFORMAT
  1
GRIDFORMAT_BEGIN
 90
        0
 91
        1
 62
     0
 92
       -2
340
0
 93
        0
 40
1.125
309
GRIDFORMAT_END
 95
        8
302
GRIDFORMAT
  1
GRIDFORMAT_BEGIN
 90
        0
 91
        1
 62
     0
 92
       -2
340
0
 93
        0
 40
1.125
309
GRIDFORMAT_END
 95
       16
302
GRIDFORMAT
  1
GRIDFORMAT_BEGIN
 90
        0
 91
        1
 62
     0
 92
       -2
340
0
 93
        0
 40
1.125
309
GRIDFORMAT_END
 95
       32
302
GRIDFORMAT
  1
GRIDFORMAT_BEGIN
 90
        0
 91
        1
 62
     0
 92
       -2
340
0
 93
        0
 40
1.125
309
GRIDFORMAT_END
309
TABLEFORMAT_END
  1
CELLSTYLE_BEGIN
 90
        2
 91
        1
300
_HEADER
309
CELLSTYLE_END
300
CELLSTYLE
  1
TABLEFORMAT_BEGIN
 90
        5
170
     1
 91
        0
 92
        0
 62
   257
 93
        1
300
CONTENTFORMAT
  1
CONTENTFORMAT_BEGIN
 90
        0
 91
        0
 92
      512
 93
        0
300

 40
0.0
140
1.0
 94
        2
 62
   256
340
101
144
4.5
309
CONTENTFORMAT_END
171
     1
301
MARGIN
  1
CELLMARGIN_BEGIN
 40
1.5
 40
1.5
 40
1.5
 40
1.5
 40
0.18
 40
0.18
309
CELLMARGIN_END
 94
        6
 95
        1
302
GRIDFORMAT
  1
GRIDFORMAT_BEGIN
 90
        0
 91
        1
 62
     0
 92
       -2
340
0
 93
        0
 40
1.125
309
GRIDFORMAT_END
 95
        2
302
GRIDFORMAT
  1
GRIDFORMAT_BEGIN
 90
        0
 91
        1
 62
     0
 92
       -1
340
15
 93
        0
 40
1.125
309
GRIDFORMAT_END
 95
        4
302
GRIDFORMAT
  1
GRIDFORMAT_BEGIN
 90
        0
 91
        1
 62
     0
 92
       -1
340
15
 93
        0
 40
1.125
309
GRIDFORMAT_END
 95
        8
302
GRIDFORMAT
  1
GRIDFORMAT_BEGIN
 90
        0
 91
        1
 62
     0
 92
       -2
340
0
 93
        0
 40
1.125
309
GRIDFORMAT_END
 95
       16
302
GRIDFORMAT
  1
GRIDFORMAT_BEGIN
 90
        0
 91
        1
 62
     0
 92
       -2
340
0
 93
        0
 40
1.125
309
GRIDFORMAT_END
 95
       32
302
GRIDFORMAT
  1
GRIDFORMAT_BEGIN
 90
        0
 91
        1
 62
     0
 92
       -2
340
0
 93
        0
 40
1.125
309
GRIDFORMAT_END
309
TABLEFORMAT_END
  1
CELLSTYLE_BEGIN
 90
        3
 91
        2
300
_DATA
309
CELLSTYLE_END
  0
CELLSTYLEMAP
  5
15608
102
{ACAD_REACTORS
330
EE7
102
}
330
EE7
100
AcDbCellStyleMap
 90
        3
300
CELLSTYLE
  1
TABLEFORMAT_BEGIN
 90
        5
170
     1
 91
        0
 92
    32768
 62
   257
 93
        1
300
CONTENTFORMAT
  1
CONTENTFORMAT_BEGIN
 90
        0
 91
        0
 92
      512
 93
        0
300

 40
0.0
140
1.0
 94
        5
 62
     0
340
11
144
6.0
309
CONTENTFORMAT_END
171
     1
301
MARGIN
  1
CELLMARGIN_BEGIN
 40
1.5
 40
1.5
 40
1.5
 40
1.5
 40
0.18
 40
0.18
309
CELLMARGIN_END
 94
        6
 95
        1
302
GRIDFORMAT
  1
GRIDFORMAT_BEGIN
 90
        0
 91
        1
 62
     0
 92
       -2
340
0
 93
        0
 40
1.125
309
GRIDFORMAT_END
 95
        2
302
GRIDFORMAT
  1
GRIDFORMAT_BEGIN
 90
        0
 91
        1
 62
     0
 92
       -2
340
0
 93
        0
 40
1.125
309
GRIDFORMAT_END
 95
        4
302
GRIDFORMAT
  1
GRIDFORMAT_BEGIN
 90
        0
 91
        1
 62
     0
 92
       -2
340
0
 93
        0
 40
1.125
309
GRIDFORMAT_END
 95
        8
302
GRIDFORMAT
  1
GRIDFORMAT_BEGIN
 90
        0
 91
        1
 62
     0
 92
       -2
340
0
 93
        0
 40
1.125
309
GRIDFORMAT_END
 95
       16
302
GRIDFORMAT
  1
GRIDFORMAT_BEGIN
 90
        0
 91
        1
 62
     0
 92
       -2
340
0
 93
        0
 40
1.125
309
GRIDFORMAT_END
 95
       32
302
GRIDFORMAT
  1
GRIDFORMAT_BEGIN
 90
        0
 91
        1
 62
     0
 92
       -2
340
0
 93
        0
 40
1.125
309
GRIDFORMAT_END
309
TABLEFORMAT_END
  1
CELLSTYLE_BEGIN
 90
        1
 91
        1
300
_TITLE
309
CELLSTYLE_END
300
CELLSTYLE
  1
TABLEFORMAT_BEGIN
 90
        5
170
     1
 91
        0
 92
        0
 62
   257
 93
        1
300
CONTENTFORMAT
  1
CONTENTFORMAT_BEGIN
 90
        0
 91
        0
 92
      512
 93
        0
300

 40
0.0
140
1.0
 94
        5
 62
     0
340
11
144
4.5
309
CONTENTFORMAT_END
171
     1
301
MARGIN
  1
CELLMARGIN_BEGIN
 40
1.5
 40
1.5
 40
1.5
 40
1.5
 40
0.18
 40
0.18
309
CELLMARGIN_END
 94
        6
 95
        1
302
GRIDFORMAT
  1
GRIDFORMAT_BEGIN
 90
        0
 91
        1
 62
     0
 92
       -2
340
0
 93
        0
 40
1.125
309
GRIDFORMAT_END
 95
        2
302
GRIDFORMAT
  1
GRIDFORMAT_BEGIN
 90
        0
 91
        1
 62
     0
 92
       -2
340
0
 93
        0
 40
1.125
309
GRIDFORMAT_END
 95
        4
302
GRIDFORMAT
  1
GRIDFORMAT_BEGIN
 90
        0
 91
        1
 62
     0
 92
       -2
340
0
 93
        0
 40
1.125
309
GRIDFORMAT_END
 95
        8
302
GRIDFORMAT
  1
GRIDFORMAT_BEGIN
 90
        0
 91
        1
 62
     0
 92
       -2
340
0
 93
        0
 40
1.125
309
GRIDFORMAT_END
 95
       16
302
GRIDFORMAT
  1
GRIDFORMAT_BEGIN
 90
        0
 91
        1
 62
     0
 92
       -2
340
0
 93
        0
 40
1.125
309
GRIDFORMAT_END
 95
       32
302
GRIDFORMAT
  1
GRIDFORMAT_BEGIN
 90
        0
 91
        1
 62
     0
 92
       -2
340
0
 93
        0
 40
1.125
309
GRIDFORMAT_END
309
TABLEFORMAT_END
  1
CELLSTYLE_BEGIN
 90
        2
 91
        1
300
_HEADER
309
CELLSTYLE_END
300
CELLSTYLE
  1
TABLEFORMAT_BEGIN
 90
        5
170
     1
 91
        0
 92
        0
 62
   257
 93
        1
300
CONTENTFORMAT
  1
CONTENTFORMAT_BEGIN
 90
        0
 91
        0
 92
      512
 93
        0
300

 40
0.0
140
1.0
 94
        2
 62
     0
340
11
144
4.5
309
CONTENTFORMAT_END
171
     1
301
MARGIN
  1
CELLMARGIN_BEGIN
 40
1.5
 40
1.5
 40
1.5
 40
1.5
 40
0.18
 40
0.18
309
CELLMARGIN_END
 94
        6
 95
        1
302
GRIDFORMAT
  1
GRIDFORMAT_BEGIN
 90
        0
 91
        1
 62
     0
 92
       -2
340
0
 93
        0
 40
1.125
309
GRIDFORMAT_END
 95
        2
302
GRIDFORMAT
  1
GRIDFORMAT_BEGIN
 90
        0
 91
        1
 62
     0
 92
       -2
340
0
 93
        0
 40
1.125
309
GRIDFORMAT_END
 95
        4
302
GRIDFORMAT
  1
GRIDFORMAT_BEGIN
 90
        0
 91
        1
 62
     0
 92
       -2
340
0
 93
        0
 40
1.125
309
GRIDFORMAT_END
 95
        8
302
GRIDFORMAT
  1
GRIDFORMAT_BEGIN
 90
        0
 91
        1
 62
     0
 92
       -2
340
0
 93
        0
 40
1.125
309
GRIDFORMAT_END
 95
       16
302
GRIDFORMAT
  1
GRIDFORMAT_BEGIN
 90
        0
 91
        1
 62
     0
 92
       -2
340
0
 93
        0
 40
1.125
309
GRIDFORMAT_END
 95
       32
302
GRIDFORMAT
  1
GRIDFORMAT_BEGIN
 90
        0
 91
        1
 62
     0
 92
       -2
340
0
 93
        0
 40
1.125
309
GRIDFORMAT_END
309
TABLEFORMAT_END
  1
CELLSTYLE_BEGIN
 90
        3
 91
        2
300
_DATA
309
CELLSTYLE_END
  0
XRECORD
  5
15622
102
{ACAD_REACTORS
330
15621
102
}
330
15621
100
AcDbXrecord
280
     1
102
RTVSPost2010Prop28
280
     1
102
RTVSPost2010PropOp28
 70
     1
102
RTVSPost2010Prop29
280
     1
102
RTVSPost2010PropOp29
 70
     1
102
RTVSPost2010Prop30
280
     0
102
RTVSPost2010PropOp30
 70
     1
102
RTVSPost2010Prop31
280
     0
102
RTVSPost2010PropOp31
 70
     1
102
RTVSPost2010Prop32
280
     0
102
RTVSPost2010PropOp32
 70
     1
102
RTVSPost2010Prop33
280
     0
102
RTVSPost2010PropOp33
 70
     1
102
RTVSPost2010Prop34
280
     0
102
RTVSPost2010PropOp34
 70
     1
102
RTVSPost2010Prop35
280
     0
102
RTVSPost2010PropOp35
 70
     1
102
RTVSPost2010Prop36
280
     0
102
RTVSPost2010PropOp36
 70
     1
102
RTVSPost2010Prop37
 90
       50
102
RTVSPost2010PropOp37
 70
     1
102
RTVSPost2010Prop38
140
0.0
102
RTVSPost2010PropOp38
 70
     1
102
RTVSPost2010Prop39
140
1.0
102
RTVSPost2010PropOp39
 70
     1
102
RTVSPost2010Prop40
 90
        0
102
RTVSPost2010PropOp40
 70
     1
102
RTVSPost2010Prop41ColorIndex
 90
       18
102
RTVSPost2010Prop41ColorRGB
 90
        0
102
RTVSPost2010PropOp41
 70
     1
102
RTVSPost2010Prop42
 90
       50
102
RTVSPost2010PropOp42
 70
     1
102
RTVSPost2010Prop43
 90
        3
102
RTVSPost2010PropOp43
 70
     1
102
RTVSPost2010Prop44ColorIndex
 90
        5
102
RTVSPost2010Prop44ColorRGB
 90
      255
102
RTVSPost2010PropOp44
 70
     1
102
RTVSPost2010Prop45
280
     0
102
RTVSPost2010PropOp45
 70
     1
102
RTVSPost2010Prop46
 90
       50
102
RTVSPost2010PropOp46
 70
     1
102
RTVSPost2010Prop47
 90
       50
102
RTVSPost2010PropOp47
 70
     1
102
RTVSPost2010Prop48
 90
       50
102
RTVSPost2010PropOp48
 70
     1
102
RTVSPost2010Prop49
280
     0
102
RTVSPost2010PropOp49
 70
     1
102
RTVSPost2010Prop50
 90
       50
102
RTVSPost2010PropOp50
 70
     1
102
RTVSPost2010Prop51ColorIndex
 90
      256
102
RTVSPost2010Prop51ColorRGB
 90
-16777216
102
RTVSPost2010PropOp51
 70
     0
102
RTVSPost2010Prop52
140
1.0
102
RTVSPost2010PropOp52
 70
     0
102
RTVSPost2010Prop53
 90
        2
102
RTVSPost2010PropOp53
 70
     1
102
RTVSPost2010Prop54
  1
strokes_ogs.tif
102
RTVSPost2010PropOp54
 70
     1
102
RTVSPost2010Prop55
280
     0
102
RTVSPost2010PropOp55
 70
     1
102
RTVSPost2010Prop56
140
1.0
102
RTVSPost2010PropOp56
 70
     1
102
RTVSPost2010Prop57
140
1.0
102
RTVSPost2010PropOp57
 70
     1
  0
XRECORD
  5
15626
102
{ACAD_REACTORS
330
15625
102
}
330
15625
100
AcDbXrecord
280
     1
102
RTVSPost2010Prop28
280
     0
102
RTVSPost2010PropOp28
 70
     1
102
RTVSPost2010Prop29
280
     1
102
RTVSPost2010PropOp29
 70
     1
102
RTVSPost2010Prop30
280
     1
102
RTVSPost2010PropOp30
 70
     1
102
RTVSPost2010Prop31
280
     0
102
RTVSPost2010PropOp31
 70
     1
102
RTVSPost2010Prop32
280
     0
102
RTVSPost2010PropOp32
 70
     1
102
RTVSPost2010Prop33
280
     0
102
RTVSPost2010PropOp33
 70
     1
102
RTVSPost2010Prop34
280
     0
102
RTVSPost2010PropOp34
 70
     1
102
RTVSPost2010Prop35
280
     0
102
RTVSPost2010PropOp35
 70
     1
102
RTVSPost2010Prop36
280
     0
102
RTVSPost2010PropOp36
 70
     1
102
RTVSPost2010Prop37
 90
       50
102
RTVSPost2010PropOp37
 70
     1
102
RTVSPost2010Prop38
140
0.0
102
RTVSPost2010PropOp38
 70
     1
102
RTVSPost2010Prop39
140
1.0
102
RTVSPost2010PropOp39
 70
     1
102
RTVSPost2010Prop40
 90
        0
102
RTVSPost2010PropOp40
 70
     1
102
RTVSPost2010Prop41ColorIndex
 90
       18
102
RTVSPost2010Prop41ColorRGB
 90
        0
102
RTVSPost2010PropOp41
 70
     1
102
RTVSPost2010Prop42
 90
       50
102
RTVSPost2010PropOp42
 70
     1
102
RTVSPost2010Prop43
 90
        3
102
RTVSPost2010PropOp43
 70
     1
102
RTVSPost2010Prop44ColorIndex
 90
        5
102
RTVSPost2010Prop44ColorRGB
 90
      255
102
RTVSPost2010PropOp44
 70
     1
102
RTVSPost2010Prop45
280
     0
102
RTVSPost2010PropOp45
 70
     1
102
RTVSPost2010Prop46
 90
       50
102
RTVSPost2010PropOp46
 70
     1
102
RTVSPost2010Prop47
 90
       50
102
RTVSPost2010PropOp47
 70
     1
102
RTVSPost2010Prop48
 90
       50
102
RTVSPost2010PropOp48
 70
     1
102
RTVSPost2010Prop49
280
     0
102
RTVSPost2010PropOp49
 70
     1
102
RTVSPost2010Prop50
 90
       50
102
RTVSPost2010PropOp50
 70
     1
102
RTVSPost2010Prop51ColorIndex
 90
      256
102
RTVSPost2010Prop51ColorRGB
 90
-16777216
102
RTVSPost2010PropOp51
 70
     0
102
RTVSPost2010Prop52
140
1.0
102
RTVSPost2010PropOp52
 70
     0
102
RTVSPost2010Prop53
 90
        2
102
RTVSPost2010PropOp53
 70
     1
102
RTVSPost2010Prop54
  1
strokes_ogs.tif
102
RTVSPost2010PropOp54
 70
     1
102
RTVSPost2010Prop55
280
     0
102
RTVSPost2010PropOp55
 70
     1
102
RTVSPost2010Prop56
140
1.0
102
RTVSPost2010PropOp56
 70
     1
102
RTVSPost2010Prop57
140
1.0
102
RTVSPost2010PropOp57
 70
     1
  0
XRECORD
  5
15624
102
{ACAD_REACTORS
330
15623
102
}
330
15623
100
AcDbXrecord
280
     1
102
RTVSPost2010Prop28
280
     0
102
RTVSPost2010PropOp28
 70
     1
102
RTVSPost2010Prop29
280
     1
102
RTVSPost2010PropOp29
 70
     1
102
RTVSPost2010Prop30
280
     1
102
RTVSPost2010PropOp30
 70
     1
102
RTVSPost2010Prop31
280
     0
102
RTVSPost2010PropOp31
 70
     1
102
RTVSPost2010Prop32
280
     0
102
RTVSPost2010PropOp32
 70
     1
102
RTVSPost2010Prop33
280
     0
102
RTVSPost2010PropOp33
 70
     1
102
RTVSPost2010Prop34
280
     0
102
RTVSPost2010PropOp34
 70
     1
102
RTVSPost2010Prop35
280
     0
102
RTVSPost2010PropOp35
 70
     1
102
RTVSPost2010Prop36
280
     0
102
RTVSPost2010PropOp36
 70
     1
102
RTVSPost2010Prop37
 90
       50
102
RTVSPost2010PropOp37
 70
     1
102
RTVSPost2010Prop38
140
0.0
102
RTVSPost2010PropOp38
 70
     1
102
RTVSPost2010Prop39
140
1.0
102
RTVSPost2010PropOp39
 70
     1
102
RTVSPost2010Prop40
 90
        0
102
RTVSPost2010PropOp40
 70
     1
102
RTVSPost2010Prop41ColorIndex
 90
       18
102
RTVSPost2010Prop41ColorRGB
 90
        0
102
RTVSPost2010PropOp41
 70
     1
102
RTVSPost2010Prop42
 90
       50
102
RTVSPost2010PropOp42
 70
     1
102
RTVSPost2010Prop43
 90
        3
102
RTVSPost2010PropOp43
 70
     1
102
RTVSPost2010Prop44ColorIndex
 90
        5
102
RTVSPost2010Prop44ColorRGB
 90
      255
102
RTVSPost2010PropOp44
 70
     1
102
RTVSPost2010Prop45
280
     0
102
RTVSPost2010PropOp45
 70
     1
102
RTVSPost2010Prop46
 90
       50
102
RTVSPost2010PropOp46
 70
     1
102
RTVSPost2010Prop47
 90
       50
102
RTVSPost2010PropOp47
 70
     1
102
RTVSPost2010Prop48
 90
       50
102
RTVSPost2010PropOp48
 70
     1
102
RTVSPost2010Prop49
280
     0
102
RTVSPost2010PropOp49
 70
     1
102
RTVSPost2010Prop50
 90
       50
102
RTVSPost2010PropOp50
 70
     1
102
RTVSPost2010Prop51ColorIndex
 90
      256
102
RTVSPost2010Prop51ColorRGB
 90
-16777216
102
RTVSPost2010PropOp51
 70
     0
102
RTVSPost2010Prop52
140
1.0
102
RTVSPost2010PropOp52
 70
     0
102
RTVSPost2010Prop53
 90
        2
102
RTVSPost2010PropOp53
 70
     1
102
RTVSPost2010Prop54
  1
strokes_ogs.tif
102
RTVSPost2010PropOp54
 70
     1
102
RTVSPost2010Prop55
280
     0
102
RTVSPost2010PropOp55
 70
     1
102
RTVSPost2010Prop56
140
1.0
102
RTVSPost2010PropOp56
 70
     1
102
RTVSPost2010Prop57
140
1.0
102
RTVSPost2010PropOp57
 70
     1
  0
XRECORD
  5
15620
102
{ACAD_REACTORS
330
1561F
102
}
330
1561F
100
AcDbXrecord
280
     1
102
RTVSPost2010Prop28
280
     0
102
RTVSPost2010PropOp28
 70
     1
102
RTVSPost2010Prop29
280
     1
102
RTVSPost2010PropOp29
 70
     1
102
RTVSPost2010Prop30
280
     1
102
RTVSPost2010PropOp30
 70
     1
102
RTVSPost2010Prop31
280
     0
102
RTVSPost2010PropOp31
 70
     1
102
RTVSPost2010Prop32
280
     0
102
RTVSPost2010PropOp32
 70
     1
102
RTVSPost2010Prop33
280
     0
102
RTVSPost2010PropOp33
 70
     1
102
RTVSPost2010Prop34
280
     0
102
RTVSPost2010PropOp34
 70
     1
102
RTVSPost2010Prop35
280
     0
102
RTVSPost2010PropOp35
 70
     1
102
RTVSPost2010Prop36
280
     0
102
RTVSPost2010PropOp36
 70
     1
102
RTVSPost2010Prop37
 90
       50
102
RTVSPost2010PropOp37
 70
     1
102
RTVSPost2010Prop38
140
0.0
102
RTVSPost2010PropOp38
 70
     1
102
RTVSPost2010Prop39
140
1.0
102
RTVSPost2010PropOp39
 70
     1
102
RTVSPost2010Prop40
 90
        0
102
RTVSPost2010PropOp40
 70
     1
102
RTVSPost2010Prop41ColorIndex
 90
       18
102
RTVSPost2010Prop41ColorRGB
 90
        0
102
RTVSPost2010PropOp41
 70
     1
102
RTVSPost2010Prop42
 90
       50
102
RTVSPost2010PropOp42
 70
     1
102
RTVSPost2010Prop43
 90
        3
102
RTVSPost2010PropOp43
 70
     1
102
RTVSPost2010Prop44ColorIndex
 90
        5
102
RTVSPost2010Prop44ColorRGB
 90
      255
102
RTVSPost2010PropOp44
 70
     1
102
RTVSPost2010Prop45
280
     0
102
RTVSPost2010PropOp45
 70
     1
102
RTVSPost2010Prop46
 90
       50
102
RTVSPost2010PropOp46
 70
     1
102
RTVSPost2010Prop47
 90
       50
102
RTVSPost2010PropOp47
 70
     1
102
RTVSPost2010Prop48
 90
       50
102
RTVSPost2010PropOp48
 70
     1
102
RTVSPost2010Prop49
280
     0
102
RTVSPost2010PropOp49
 70
     1
102
RTVSPost2010Prop50
 90
       50
102
RTVSPost2010PropOp50
 70
     1
102
RTVSPost2010Prop51ColorIndex
 90
      256
102
RTVSPost2010Prop51ColorRGB
 90
-16777216
102
RTVSPost2010PropOp51
 70
     0
102
RTVSPost2010Prop52
140
1.0
102
RTVSPost2010PropOp52
 70
     0
102
RTVSPost2010Prop53
 90
        2
102
RTVSPost2010PropOp53
 70
     1
102
RTVSPost2010Prop54
  1
strokes_ogs.tif
102
RTVSPost2010PropOp54
 70
     1
102
RTVSPost2010Prop55
280
     0
102
RTVSPost2010PropOp55
 70
     1
102
RTVSPost2010Prop56
140
1.0
102
RTVSPost2010PropOp56
 70
     1
102
RTVSPost2010Prop57
140
1.0
102
RTVSPost2010PropOp57
 70
     1
  0
XRECORD
  5
1562E
102
{ACAD_REACTORS
330
1562D
102
}
330
1562D
100
AcDbXrecord
280
     1
102
RTVSPost2010Prop28
280
     0
102
RTVSPost2010PropOp28
 70
     1
102
RTVSPost2010Prop29
280
     1
102
RTVSPost2010PropOp29
 70
     1
102
RTVSPost2010Prop30
280
     1
102
RTVSPost2010PropOp30
 70
     1
102
RTVSPost2010Prop31
280
     0
102
RTVSPost2010PropOp31
 70
     1
102
RTVSPost2010Prop32
280
     0
102
RTVSPost2010PropOp32
 70
     1
102
RTVSPost2010Prop33
280
     0
102
RTVSPost2010PropOp33
 70
     1
102
RTVSPost2010Prop34
280
     0
102
RTVSPost2010PropOp34
 70
     1
102
RTVSPost2010Prop35
280
     0
102
RTVSPost2010PropOp35
 70
     1
102
RTVSPost2010Prop36
280
     0
102
RTVSPost2010PropOp36
 70
     1
102
RTVSPost2010Prop37
 90
       50
102
RTVSPost2010PropOp37
 70
     1
102
RTVSPost2010Prop38
140
0.0
102
RTVSPost2010PropOp38
 70
     1
102
RTVSPost2010Prop39
140
1.0
102
RTVSPost2010PropOp39
 70
     1
102
RTVSPost2010Prop40
 90
        0
102
RTVSPost2010PropOp40
 70
     1
102
RTVSPost2010Prop41ColorIndex
 90
       18
102
RTVSPost2010Prop41ColorRGB
 90
        0
102
RTVSPost2010PropOp41
 70
     1
102
RTVSPost2010Prop42
 90
       50
102
RTVSPost2010PropOp42
 70
     1
102
RTVSPost2010Prop43
 90
        3
102
RTVSPost2010PropOp43
 70
     1
102
RTVSPost2010Prop44ColorIndex
 90
        5
102
RTVSPost2010Prop44ColorRGB
 90
      255
102
RTVSPost2010PropOp44
 70
     1
102
RTVSPost2010Prop45
280
     0
102
RTVSPost2010PropOp45
 70
     1
102
RTVSPost2010Prop46
 90
       50
102
RTVSPost2010PropOp46
 70
     1
102
RTVSPost2010Prop47
 90
       50
102
RTVSPost2010PropOp47
 70
     1
102
RTVSPost2010Prop48
 90
       50
102
RTVSPost2010PropOp48
 70
     1
102
RTVSPost2010Prop49
280
     0
102
RTVSPost2010PropOp49
 70
     1
102
RTVSPost2010Prop50
 90
       50
102
RTVSPost2010PropOp50
 70
     1
102
RTVSPost2010Prop51ColorIndex
 90
      256
102
RTVSPost2010Prop51ColorRGB
 90
-16777216
102
RTVSPost2010PropOp51
 70
     0
102
RTVSPost2010Prop52
140
1.0
102
RTVSPost2010PropOp52
 70
     0
102
RTVSPost2010Prop53
 90
        2
102
RTVSPost2010PropOp53
 70
     1
102
RTVSPost2010Prop54
  1
strokes_ogs.tif
102
RTVSPost2010PropOp54
 70
     1
102
RTVSPost2010Prop55
280
     0
102
RTVSPost2010PropOp55
 70
     1
102
RTVSPost2010Prop56
140
1.0
102
RTVSPost2010PropOp56
 70
     1
102
RTVSPost2010Prop57
140
1.0
102
RTVSPost2010PropOp57
 70
     1
  0
XRECORD
  5
15636
102
{ACAD_REACTORS
330
15635
102
}
330
15635
100
AcDbXrecord
280
     1
102
RTVSPost2010Prop28
280
     0
102
RTVSPost2010PropOp28
 70
     1
102
RTVSPost2010Prop29
280
     1
102
RTVSPost2010PropOp29
 70
     1
102
RTVSPost2010Prop30
280
     1
102
RTVSPost2010PropOp30
 70
     1
102
RTVSPost2010Prop31
280
     0
102
RTVSPost2010PropOp31
 70
     1
102
RTVSPost2010Prop32
280
     0
102
RTVSPost2010PropOp32
 70
     1
102
RTVSPost2010Prop33
280
     0
102
RTVSPost2010PropOp33
 70
     1
102
RTVSPost2010Prop34
280
     0
102
RTVSPost2010PropOp34
 70
     1
102
RTVSPost2010Prop35
280
     0
102
RTVSPost2010PropOp35
 70
     1
102
RTVSPost2010Prop36
280
     0
102
RTVSPost2010PropOp36
 70
     1
102
RTVSPost2010Prop37
 90
       50
102
RTVSPost2010PropOp37
 70
     1
102
RTVSPost2010Prop38
140
0.0
102
RTVSPost2010PropOp38
 70
     1
102
RTVSPost2010Prop39
140
1.0
102
RTVSPost2010PropOp39
 70
     1
102
RTVSPost2010Prop40
 90
        0
102
RTVSPost2010PropOp40
 70
     1
102
RTVSPost2010Prop41ColorIndex
 90
       18
102
RTVSPost2010Prop41ColorRGB
 90
        0
102
RTVSPost2010PropOp41
 70
     1
102
RTVSPost2010Prop42
 90
       50
102
RTVSPost2010PropOp42
 70
     1
102
RTVSPost2010Prop43
 90
        3
102
RTVSPost2010PropOp43
 70
     1
102
RTVSPost2010Prop44ColorIndex
 90
        5
102
RTVSPost2010Prop44ColorRGB
 90
      255
102
RTVSPost2010PropOp44
 70
     1
102
RTVSPost2010Prop45
280
     0
102
RTVSPost2010PropOp45
 70
     1
102
RTVSPost2010Prop46
 90
       50
102
RTVSPost2010PropOp46
 70
     1
102
RTVSPost2010Prop47
 90
       50
102
RTVSPost2010PropOp47
 70
     1
102
RTVSPost2010Prop48
 90
       50
102
RTVSPost2010PropOp48
 70
     1
102
RTVSPost2010Prop49
280
     0
102
RTVSPost2010PropOp49
 70
     1
102
RTVSPost2010Prop50
 90
       50
102
RTVSPost2010PropOp50
 70
     1
102
RTVSPost2010Prop51ColorIndex
 90
      256
102
RTVSPost2010Prop51ColorRGB
 90
-16777216
102
RTVSPost2010PropOp51
 70
     0
102
RTVSPost2010Prop52
140
1.0
102
RTVSPost2010PropOp52
 70
     0
102
RTVSPost2010Prop53
 90
        2
102
RTVSPost2010PropOp53
 70
     1
102
RTVSPost2010Prop54
  1
strokes_ogs.tif
102
RTVSPost2010PropOp54
 70
     1
102
RTVSPost2010Prop55
280
     0
102
RTVSPost2010PropOp55
 70
     1
102
RTVSPost2010Prop56
140
1.0
102
RTVSPost2010PropOp56
 70
     1
102
RTVSPost2010Prop57
140
1.0
102
RTVSPost2010PropOp57
 70
     1
  0
XRECORD
  5
15628
102
{ACAD_REACTORS
330
15627
102
}
330
15627
100
AcDbXrecord
280
     1
102
RTVSPost2010Prop28
280
     0
102
RTVSPost2010PropOp28
 70
     1
102
RTVSPost2010Prop29
280
     1
102
RTVSPost2010PropOp29
 70
     1
102
RTVSPost2010Prop30
280
     1
102
RTVSPost2010PropOp30
 70
     1
102
RTVSPost2010Prop31
280
     0
102
RTVSPost2010PropOp31
 70
     1
102
RTVSPost2010Prop32
280
     0
102
RTVSPost2010PropOp32
 70
     1
102
RTVSPost2010Prop33
280
     0
102
RTVSPost2010PropOp33
 70
     1
102
RTVSPost2010Prop34
280
     0
102
RTVSPost2010PropOp34
 70
     1
102
RTVSPost2010Prop35
280
     0
102
RTVSPost2010PropOp35
 70
     1
102
RTVSPost2010Prop36
280
     0
102
RTVSPost2010PropOp36
 70
     1
102
RTVSPost2010Prop37
 90
       50
102
RTVSPost2010PropOp37
 70
     1
102
RTVSPost2010Prop38
140
0.0
102
RTVSPost2010PropOp38
 70
     1
102
RTVSPost2010Prop39
140
1.0
102
RTVSPost2010PropOp39
 70
     1
102
RTVSPost2010Prop40
 90
        0
102
RTVSPost2010PropOp40
 70
     1
102
RTVSPost2010Prop41ColorIndex
 90
       18
102
RTVSPost2010Prop41ColorRGB
 90
        0
102
RTVSPost2010PropOp41
 70
     1
102
RTVSPost2010Prop42
 90
       50
102
RTVSPost2010PropOp42
 70
     1
102
RTVSPost2010Prop43
 90
        3
102
RTVSPost2010PropOp43
 70
     1
102
RTVSPost2010Prop44ColorIndex
 90
        5
102
RTVSPost2010Prop44ColorRGB
 90
      255
102
RTVSPost2010PropOp44
 70
     1
102
RTVSPost2010Prop45
280
     0
102
RTVSPost2010PropOp45
 70
     1
102
RTVSPost2010Prop46
 90
       50
102
RTVSPost2010PropOp46
 70
     1
102
RTVSPost2010Prop47
 90
       50
102
RTVSPost2010PropOp47
 70
     1
102
RTVSPost2010Prop48
 90
       50
102
RTVSPost2010PropOp48
 70
     1
102
RTVSPost2010Prop49
280
     0
102
RTVSPost2010PropOp49
 70
     1
102
RTVSPost2010Prop50
 90
       50
102
RTVSPost2010PropOp50
 70
     1
102
RTVSPost2010Prop51ColorIndex
 90
      256
102
RTVSPost2010Prop51ColorRGB
 90
-16777216
102
RTVSPost2010PropOp51
 70
     0
102
RTVSPost2010Prop52
140
1.0
102
RTVSPost2010PropOp52
 70
     0
102
RTVSPost2010Prop53
 90
        2
102
RTVSPost2010PropOp53
 70
     1
102
RTVSPost2010Prop54
  1
strokes_ogs.tif
102
RTVSPost2010PropOp54
 70
     1
102
RTVSPost2010Prop55
280
     0
102
RTVSPost2010PropOp55
 70
     1
102
RTVSPost2010Prop56
140
1.0
102
RTVSPost2010PropOp56
 70
     1
102
RTVSPost2010Prop57
140
1.0
102
RTVSPost2010PropOp57
 70
     1
  0
XRECORD
  5
1562C
102
{ACAD_REACTORS
330
1562B
102
}
330
1562B
100
AcDbXrecord
280
     1
102
RTVSPost2010Prop28
280
     0
102
RTVSPost2010PropOp28
 70
     1
102
RTVSPost2010Prop29
280
     1
102
RTVSPost2010PropOp29
 70
     1
102
RTVSPost2010Prop30
280
     1
102
RTVSPost2010PropOp30
 70
     1
102
RTVSPost2010Prop31
280
     0
102
RTVSPost2010PropOp31
 70
     1
102
RTVSPost2010Prop32
280
     0
102
RTVSPost2010PropOp32
 70
     1
102
RTVSPost2010Prop33
280
     0
102
RTVSPost2010PropOp33
 70
     1
102
RTVSPost2010Prop34
280
     0
102
RTVSPost2010PropOp34
 70
     1
102
RTVSPost2010Prop35
280
     0
102
RTVSPost2010PropOp35
 70
     1
102
RTVSPost2010Prop36
280
     0
102
RTVSPost2010PropOp36
 70
     1
102
RTVSPost2010Prop37
 90
       50
102
RTVSPost2010PropOp37
 70
     1
102
RTVSPost2010Prop38
140
0.0
102
RTVSPost2010PropOp38
 70
     1
102
RTVSPost2010Prop39
140
1.0
102
RTVSPost2010PropOp39
 70
     1
102
RTVSPost2010Prop40
 90
        0
102
RTVSPost2010PropOp40
 70
     1
102
RTVSPost2010Prop41ColorIndex
 90
       18
102
RTVSPost2010Prop41ColorRGB
 90
        0
102
RTVSPost2010PropOp41
 70
     1
102
RTVSPost2010Prop42
 90
       50
102
RTVSPost2010PropOp42
 70
     1
102
RTVSPost2010Prop43
 90
        3
102
RTVSPost2010PropOp43
 70
     1
102
RTVSPost2010Prop44ColorIndex
 90
        5
102
RTVSPost2010Prop44ColorRGB
 90
      255
102
RTVSPost2010PropOp44
 70
     1
102
RTVSPost2010Prop45
280
     0
102
RTVSPost2010PropOp45
 70
     1
102
RTVSPost2010Prop46
 90
       50
102
RTVSPost2010PropOp46
 70
     1
102
RTVSPost2010Prop47
 90
       50
102
RTVSPost2010PropOp47
 70
     1
102
RTVSPost2010Prop48
 90
       50
102
RTVSPost2010PropOp48
 70
     1
102
RTVSPost2010Prop49
280
     0
102
RTVSPost2010PropOp49
 70
     1
102
RTVSPost2010Prop50
 90
       50
102
RTVSPost2010PropOp50
 70
     1
102
RTVSPost2010Prop51ColorIndex
 90
      256
102
RTVSPost2010Prop51ColorRGB
 90
-16777216
102
RTVSPost2010PropOp51
 70
     0
102
RTVSPost2010Prop52
140
1.0
102
RTVSPost2010PropOp52
 70
     0
102
RTVSPost2010Prop53
 90
        2
102
RTVSPost2010PropOp53
 70
     1
102
RTVSPost2010Prop54
  1
strokes_ogs.tif
102
RTVSPost2010PropOp54
 70
     1
102
RTVSPost2010Prop55
280
     0
102
RTVSPost2010PropOp55
 70
     1
102
RTVSPost2010Prop56
140
1.0
102
RTVSPost2010PropOp56
 70
     1
102
RTVSPost2010Prop57
140
1.0
102
RTVSPost2010PropOp57
 70
     1
  0
XRECORD
  5
1564A
102
{ACAD_REACTORS
330
15649
102
}
330
15649
100
AcDbXrecord
280
     1
102
RTVSPost2010Prop28
280
     0
102
RTVSPost2010PropOp28
 70
     1
102
RTVSPost2010Prop29
280
     1
102
RTVSPost2010PropOp29
 70
     1
102
RTVSPost2010Prop30
280
     1
102
RTVSPost2010PropOp30
 70
     1
102
RTVSPost2010Prop31
280
     0
102
RTVSPost2010PropOp31
 70
     1
102
RTVSPost2010Prop32
280
     0
102
RTVSPost2010PropOp32
 70
     1
102
RTVSPost2010Prop33
280
     0
102
RTVSPost2010PropOp33
 70
     1
102
RTVSPost2010Prop34
280
     0
102
RTVSPost2010PropOp34
 70
     1
102
RTVSPost2010Prop35
280
     0
102
RTVSPost2010PropOp35
 70
     1
102
RTVSPost2010Prop36
280
     0
102
RTVSPost2010PropOp36
 70
     1
102
RTVSPost2010Prop37
 90
       50
102
RTVSPost2010PropOp37
 70
     1
102
RTVSPost2010Prop38
140
0.0
102
RTVSPost2010PropOp38
 70
     1
102
RTVSPost2010Prop39
140
1.0
102
RTVSPost2010PropOp39
 70
     1
102
RTVSPost2010Prop40
 90
        0
102
RTVSPost2010PropOp40
 70
     1
102
RTVSPost2010Prop41ColorIndex
 90
       18
102
RTVSPost2010Prop41ColorRGB
 90
        0
102
RTVSPost2010PropOp41
 70
     1
102
RTVSPost2010Prop42
 90
       50
102
RTVSPost2010PropOp42
 70
     1
102
RTVSPost2010Prop43
 90
        3
102
RTVSPost2010PropOp43
 70
     1
102
RTVSPost2010Prop44ColorIndex
 90
        5
102
RTVSPost2010Prop44ColorRGB
 90
      255
102
RTVSPost2010PropOp44
 70
     1
102
RTVSPost2010Prop45
280
     0
102
RTVSPost2010PropOp45
 70
     1
102
RTVSPost2010Prop46
 90
       50
102
RTVSPost2010PropOp46
 70
     1
102
RTVSPost2010Prop47
 90
       50
102
RTVSPost2010PropOp47
 70
     1
102
RTVSPost2010Prop48
 90
       50
102
RTVSPost2010PropOp48
 70
     1
102
RTVSPost2010Prop49
280
     0
102
RTVSPost2010PropOp49
 70
     1
102
RTVSPost2010Prop50
 90
       50
102
RTVSPost2010PropOp50
 70
     1
102
RTVSPost2010Prop51ColorIndex
 90
      256
102
RTVSPost2010Prop51ColorRGB
 90
-16777216
102
RTVSPost2010PropOp51
 70
     0
102
RTVSPost2010Prop52
140
1.0
102
RTVSPost2010PropOp52
 70
     0
102
RTVSPost2010Prop53
 90
        2
102
RTVSPost2010PropOp53
 70
     1
102
RTVSPost2010Prop54
  1
strokes_ogs.tif
102
RTVSPost2010PropOp54
 70
     1
102
RTVSPost2010Prop55
280
     0
102
RTVSPost2010PropOp55
 70
     1
102
RTVSPost2010Prop56
140
1.0
102
RTVSPost2010PropOp56
 70
     1
102
RTVSPost2010Prop57
140
1.0
102
RTVSPost2010PropOp57
 70
     1
  0
XRECORD
  5
15634
102
{ACAD_REACTORS
330
15633
102
}
330
15633
100
AcDbXrecord
280
     1
102
RTVSPost2010Prop28
280
     0
102
RTVSPost2010PropOp28
 70
     1
102
RTVSPost2010Prop29
280
     1
102
RTVSPost2010PropOp29
 70
     1
102
RTVSPost2010Prop30
280
     1
102
RTVSPost2010PropOp30
 70
     1
102
RTVSPost2010Prop31
280
     0
102
RTVSPost2010PropOp31
 70
     1
102
RTVSPost2010Prop32
280
     0
102
RTVSPost2010PropOp32
 70
     1
102
RTVSPost2010Prop33
280
     0
102
RTVSPost2010PropOp33
 70
     1
102
RTVSPost2010Prop34
280
     0
102
RTVSPost2010PropOp34
 70
     1
102
RTVSPost2010Prop35
280
     0
102
RTVSPost2010PropOp35
 70
     1
102
RTVSPost2010Prop36
280
     0
102
RTVSPost2010PropOp36
 70
     1
102
RTVSPost2010Prop37
 90
       50
102
RTVSPost2010PropOp37
 70
     1
102
RTVSPost2010Prop38
140
0.0
102
RTVSPost2010PropOp38
 70
     1
102
RTVSPost2010Prop39
140
1.0
102
RTVSPost2010PropOp39
 70
     1
102
RTVSPost2010Prop40
 90
        0
102
RTVSPost2010PropOp40
 70
     1
102
RTVSPost2010Prop41ColorIndex
 90
       18
102
RTVSPost2010Prop41ColorRGB
 90
        0
102
RTVSPost2010PropOp41
 70
     1
102
RTVSPost2010Prop42
 90
       50
102
RTVSPost2010PropOp42
 70
     1
102
RTVSPost2010Prop43
 90
        3
102
RTVSPost2010PropOp43
 70
     1
102
RTVSPost2010Prop44ColorIndex
 90
        5
102
RTVSPost2010Prop44ColorRGB
 90
      255
102
RTVSPost2010PropOp44
 70
     1
102
RTVSPost2010Prop45
280
     0
102
RTVSPost2010PropOp45
 70
     1
102
RTVSPost2010Prop46
 90
       50
102
RTVSPost2010PropOp46
 70
     1
102
RTVSPost2010Prop47
 90
       50
102
RTVSPost2010PropOp47
 70
     1
102
RTVSPost2010Prop48
 90
       50
102
RTVSPost2010PropOp48
 70
     1
102
RTVSPost2010Prop49
280
     0
102
RTVSPost2010PropOp49
 70
     1
102
RTVSPost2010Prop50
 90
       50
102
RTVSPost2010PropOp50
 70
     1
102
RTVSPost2010Prop51ColorIndex
 90
      256
102
RTVSPost2010Prop51ColorRGB
 90
-16777216
102
RTVSPost2010PropOp51
 70
     0
102
RTVSPost2010Prop52
140
1.0
102
RTVSPost2010PropOp52
 70
     0
102
RTVSPost2010Prop53
 90
        2
102
RTVSPost2010PropOp53
 70
     1
102
RTVSPost2010Prop54
  1
strokes_ogs.tif
102
RTVSPost2010PropOp54
 70
     1
102
RTVSPost2010Prop55
280
     0
102
RTVSPost2010PropOp55
 70
     1
102
RTVSPost2010Prop56
140
1.0
102
RTVSPost2010PropOp56
 70
     1
102
RTVSPost2010Prop57
140
1.0
102
RTVSPost2010PropOp57
 70
     1
  0
XRECORD
  5
15618
102
{ACAD_REACTORS
330
15617
102
}
330
15617
100
AcDbXrecord
280
     1
102
RTVSPost2010Prop28
280
     0
102
RTVSPost2010PropOp28
 70
     1
102
RTVSPost2010Prop29
280
     1
102
RTVSPost2010PropOp29
 70
     1
102
RTVSPost2010Prop30
280
     1
102
RTVSPost2010PropOp30
 70
     1
102
RTVSPost2010Prop31
280
     0
102
RTVSPost2010PropOp31
 70
     1
102
RTVSPost2010Prop32
280
     0
102
RTVSPost2010PropOp32
 70
     1
102
RTVSPost2010Prop33
280
     0
102
RTVSPost2010PropOp33
 70
     1
102
RTVSPost2010Prop34
280
     0
102
RTVSPost2010PropOp34
 70
     1
102
RTVSPost2010Prop35
280
     0
102
RTVSPost2010PropOp35
 70
     1
102
RTVSPost2010Prop36
280
     0
102
RTVSPost2010PropOp36
 70
     1
102
RTVSPost2010Prop37
 90
       50
102
RTVSPost2010PropOp37
 70
     1
102
RTVSPost2010Prop38
140
0.0
102
RTVSPost2010PropOp38
 70
     1
102
RTVSPost2010Prop39
140
1.0
102
RTVSPost2010PropOp39
 70
     1
102
RTVSPost2010Prop40
 90
        0
102
RTVSPost2010PropOp40
 70
     1
102
RTVSPost2010Prop41ColorIndex
 90
       18
102
RTVSPost2010Prop41ColorRGB
 90
        0
102
RTVSPost2010PropOp41
 70
     1
102
RTVSPost2010Prop42
 90
       50
102
RTVSPost2010PropOp42
 70
     1
102
RTVSPost2010Prop43
 90
        3
102
RTVSPost2010PropOp43
 70
     1
102
RTVSPost2010Prop44ColorIndex
 90
        5
102
RTVSPost2010Prop44ColorRGB
 90
      255
102
RTVSPost2010PropOp44
 70
     1
102
RTVSPost2010Prop45
280
     0
102
RTVSPost2010PropOp45
 70
     1
102
RTVSPost2010Prop46
 90
       50
102
RTVSPost2010PropOp46
 70
     1
102
RTVSPost2010Prop47
 90
       50
102
RTVSPost2010PropOp47
 70
     1
102
RTVSPost2010Prop48
 90
       50
102
RTVSPost2010PropOp48
 70
     1
102
RTVSPost2010Prop49
280
     0
102
RTVSPost2010PropOp49
 70
     1
102
RTVSPost2010Prop50
 90
       50
102
RTVSPost2010PropOp50
 70
     1
102
RTVSPost2010Prop51ColorIndex
 90
      256
102
RTVSPost2010Prop51ColorRGB
 90
-16777216
102
RTVSPost2010PropOp51
 70
     0
102
RTVSPost2010Prop52
140
1.0
102
RTVSPost2010PropOp52
 70
     0
102
RTVSPost2010Prop53
 90
        2
102
RTVSPost2010PropOp53
 70
     1
102
RTVSPost2010Prop54
  1
strokes_ogs.tif
102
RTVSPost2010PropOp54
 70
     1
102
RTVSPost2010Prop55
280
     0
102
RTVSPost2010PropOp55
 70
     1
102
RTVSPost2010Prop56
140
1.0
102
RTVSPost2010PropOp56
 70
     1
102
RTVSPost2010Prop57
140
1.0
102
RTVSPost2010PropOp57
 70
     1
  0
XRECORD
  5
1561A
102
{ACAD_REACTORS
330
15619
102
}
330
15619
100
AcDbXrecord
280
     1
102
RTVSPost2010Prop28
280
     0
102
RTVSPost2010PropOp28
 70
     1
102
RTVSPost2010Prop29
280
     1
102
RTVSPost2010PropOp29
 70
     1
102
RTVSPost2010Prop30
280
     1
102
RTVSPost2010PropOp30
 70
     1
102
RTVSPost2010Prop31
280
     0
102
RTVSPost2010PropOp31
 70
     1
102
RTVSPost2010Prop32
280
     0
102
RTVSPost2010PropOp32
 70
     1
102
RTVSPost2010Prop33
280
     0
102
RTVSPost2010PropOp33
 70
     1
102
RTVSPost2010Prop34
280
     0
102
RTVSPost2010PropOp34
 70
     1
102
RTVSPost2010Prop35
280
     0
102
RTVSPost2010PropOp35
 70
     1
102
RTVSPost2010Prop36
280
     0
102
RTVSPost2010PropOp36
 70
     1
102
RTVSPost2010Prop37
 90
       50
102
RTVSPost2010PropOp37
 70
     1
102
RTVSPost2010Prop38
140
0.0
102
RTVSPost2010PropOp38
 70
     1
102
RTVSPost2010Prop39
140
1.0
102
RTVSPost2010PropOp39
 70
     1
102
RTVSPost2010Prop40
 90
        0
102
RTVSPost2010PropOp40
 70
     1
102
RTVSPost2010Prop41ColorIndex
 90
       18
102
RTVSPost2010Prop41ColorRGB
 90
        0
102
RTVSPost2010PropOp41
 70
     1
102
RTVSPost2010Prop42
 90
       50
102
RTVSPost2010PropOp42
 70
     1
102
RTVSPost2010Prop43
 90
        3
102
RTVSPost2010PropOp43
 70
     1
102
RTVSPost2010Prop44ColorIndex
 90
        5
102
RTVSPost2010Prop44ColorRGB
 90
      255
102
RTVSPost2010PropOp44
 70
     1
102
RTVSPost2010Prop45
280
     0
102
RTVSPost2010PropOp45
 70
     1
102
RTVSPost2010Prop46
 90
       50
102
RTVSPost2010PropOp46
 70
     1
102
RTVSPost2010Prop47
 90
       50
102
RTVSPost2010PropOp47
 70
     1
102
RTVSPost2010Prop48
 90
       50
102
RTVSPost2010PropOp48
 70
     1
102
RTVSPost2010Prop49
280
     0
102
RTVSPost2010PropOp49
 70
     1
102
RTVSPost2010Prop50
 90
       50
102
RTVSPost2010PropOp50
 70
     1
102
RTVSPost2010Prop51ColorIndex
 90
      256
102
RTVSPost2010Prop51ColorRGB
 90
-16777216
102
RTVSPost2010PropOp51
 70
     0
102
RTVSPost2010Prop52
140
1.0
102
RTVSPost2010PropOp52
 70
     0
102
RTVSPost2010Prop53
 90
        2
102
RTVSPost2010PropOp53
 70
     1
102
RTVSPost2010Prop54
  1
strokes_ogs.tif
102
RTVSPost2010PropOp54
 70
     1
102
RTVSPost2010Prop55
280
     0
102
RTVSPost2010PropOp55
 70
     1
102
RTVSPost2010Prop56
140
1.0
102
RTVSPost2010PropOp56
 70
     1
102
RTVSPost2010Prop57
140
1.0
102
RTVSPost2010PropOp57
 70
     1
  0
XRECORD
  5
1561C
102
{ACAD_REACTORS
330
1561B
102
}
330
1561B
100
AcDbXrecord
280
     1
102
RTVSPost2010Prop28
280
     0
102
RTVSPost2010PropOp28
 70
     1
102
RTVSPost2010Prop29
280
     1
102
RTVSPost2010PropOp29
 70
     1
102
RTVSPost2010Prop30
280
     1
102
RTVSPost2010PropOp30
 70
     1
102
RTVSPost2010Prop31
280
     0
102
RTVSPost2010PropOp31
 70
     1
102
RTVSPost2010Prop32
280
     0
102
RTVSPost2010PropOp32
 70
     1
102
RTVSPost2010Prop33
280
     0
102
RTVSPost2010PropOp33
 70
     1
102
RTVSPost2010Prop34
280
     0
102
RTVSPost2010PropOp34
 70
     1
102
RTVSPost2010Prop35
280
     0
102
RTVSPost2010PropOp35
 70
     1
102
RTVSPost2010Prop36
280
     0
102
RTVSPost2010PropOp36
 70
     1
102
RTVSPost2010Prop37
 90
       50
102
RTVSPost2010PropOp37
 70
     1
102
RTVSPost2010Prop38
140
0.0
102
RTVSPost2010PropOp38
 70
     1
102
RTVSPost2010Prop39
140
1.0
102
RTVSPost2010PropOp39
 70
     1
102
RTVSPost2010Prop40
 90
        0
102
RTVSPost2010PropOp40
 70
     1
102
RTVSPost2010Prop41ColorIndex
 90
       18
102
RTVSPost2010Prop41ColorRGB
 90
        0
102
RTVSPost2010PropOp41
 70
     1
102
RTVSPost2010Prop42
 90
       50
102
RTVSPost2010PropOp42
 70
     1
102
RTVSPost2010Prop43
 90
        3
102
RTVSPost2010PropOp43
 70
     1
102
RTVSPost2010Prop44ColorIndex
 90
        5
102
RTVSPost2010Prop44ColorRGB
 90
      255
102
RTVSPost2010PropOp44
 70
     1
102
RTVSPost2010Prop45
280
     0
102
RTVSPost2010PropOp45
 70
     1
102
RTVSPost2010Prop46
 90
       50
102
RTVSPost2010PropOp46
 70
     1
102
RTVSPost2010Prop47
 90
       50
102
RTVSPost2010PropOp47
 70
     1
102
RTVSPost2010Prop48
 90
       50
102
RTVSPost2010PropOp48
 70
     1
102
RTVSPost2010Prop49
280
     0
102
RTVSPost2010PropOp49
 70
     1
102
RTVSPost2010Prop50
 90
       50
102
RTVSPost2010PropOp50
 70
     1
102
RTVSPost2010Prop51ColorIndex
 90
      256
102
RTVSPost2010Prop51ColorRGB
 90
-16777216
102
RTVSPost2010PropOp51
 70
     0
102
RTVSPost2010Prop52
140
1.0
102
RTVSPost2010PropOp52
 70
     0
102
RTVSPost2010Prop53
 90
        2
102
RTVSPost2010PropOp53
 70
     1
102
RTVSPost2010Prop54
  1
strokes_ogs.tif
102
RTVSPost2010PropOp54
 70
     1
102
RTVSPost2010Prop55
280
     0
102
RTVSPost2010PropOp55
 70
     1
102
RTVSPost2010Prop56
140
1.0
102
RTVSPost2010PropOp56
 70
     1
102
RTVSPost2010Prop57
140
1.0
102
RTVSPost2010PropOp57
 70
     1
  0
XRECORD
  5
1561E
102
{ACAD_REACTORS
330
1561D
102
}
330
1561D
100
AcDbXrecord
280
     1
102
RTVSPost2010Prop28
280
     0
102
RTVSPost2010PropOp28
 70
     1
102
RTVSPost2010Prop29
280
     1
102
RTVSPost2010PropOp29
 70
     1
102
RTVSPost2010Prop30
280
     1
102
RTVSPost2010PropOp30
 70
     1
102
RTVSPost2010Prop31
280
     0
102
RTVSPost2010PropOp31
 70
     1
102
RTVSPost2010Prop32
280
     0
102
RTVSPost2010PropOp32
 70
     1
102
RTVSPost2010Prop33
280
     0
102
RTVSPost2010PropOp33
 70
     1
102
RTVSPost2010Prop34
280
     0
102
RTVSPost2010PropOp34
 70
     1
102
RTVSPost2010Prop35
280
     0
102
RTVSPost2010PropOp35
 70
     1
102
RTVSPost2010Prop36
280
     0
102
RTVSPost2010PropOp36
 70
     1
102
RTVSPost2010Prop37
 90
       50
102
RTVSPost2010PropOp37
 70
     1
102
RTVSPost2010Prop38
140
0.0
102
RTVSPost2010PropOp38
 70
     1
102
RTVSPost2010Prop39
140
1.0
102
RTVSPost2010PropOp39
 70
     1
102
RTVSPost2010Prop40
 90
        0
102
RTVSPost2010PropOp40
 70
     1
102
RTVSPost2010Prop41ColorIndex
 90
       18
102
RTVSPost2010Prop41ColorRGB
 90
        0
102
RTVSPost2010PropOp41
 70
     1
102
RTVSPost2010Prop42
 90
       50
102
RTVSPost2010PropOp42
 70
     1
102
RTVSPost2010Prop43
 90
        3
102
RTVSPost2010PropOp43
 70
     1
102
RTVSPost2010Prop44ColorIndex
 90
        5
102
RTVSPost2010Prop44ColorRGB
 90
      255
102
RTVSPost2010PropOp44
 70
     1
102
RTVSPost2010Prop45
280
     0
102
RTVSPost2010PropOp45
 70
     1
102
RTVSPost2010Prop46
 90
       50
102
RTVSPost2010PropOp46
 70
     1
102
RTVSPost2010Prop47
 90
       50
102
RTVSPost2010PropOp47
 70
     1
102
RTVSPost2010Prop48
 90
       50
102
RTVSPost2010PropOp48
 70
     1
102
RTVSPost2010Prop49
280
     0
102
RTVSPost2010PropOp49
 70
     1
102
RTVSPost2010Prop50
 90
       50
102
RTVSPost2010PropOp50
 70
     1
102
RTVSPost2010Prop51ColorIndex
 90
      256
102
RTVSPost2010Prop51ColorRGB
 90
-16777216
102
RTVSPost2010PropOp51
 70
     0
102
RTVSPost2010Prop52
140
1.0
102
RTVSPost2010PropOp52
 70
     0
102
RTVSPost2010Prop53
 90
        2
102
RTVSPost2010PropOp53
 70
     1
102
RTVSPost2010Prop54
  1
strokes_ogs.tif
102
RTVSPost2010PropOp54
 70
     1
102
RTVSPost2010Prop55
280
     0
102
RTVSPost2010PropOp55
 70
     1
102
RTVSPost2010Prop56
140
1.0
102
RTVSPost2010PropOp56
 70
     1
102
RTVSPost2010Prop57
140
1.0
102
RTVSPost2010PropOp57
 70
     1
  0
XRECORD
  5
1563A
102
{ACAD_REACTORS
330
15639
102
}
330
15639
100
AcDbXrecord
280
     1
102
RTVSPost2010Prop28
280
     0
102
RTVSPost2010PropOp28
 70
     1
102
RTVSPost2010Prop29
280
     1
102
RTVSPost2010PropOp29
 70
     1
102
RTVSPost2010Prop30
280
     1
102
RTVSPost2010PropOp30
 70
     1
102
RTVSPost2010Prop31
280
     0
102
RTVSPost2010PropOp31
 70
     1
102
RTVSPost2010Prop32
280
     0
102
RTVSPost2010PropOp32
 70
     1
102
RTVSPost2010Prop33
280
     0
102
RTVSPost2010PropOp33
 70
     1
102
RTVSPost2010Prop34
280
     0
102
RTVSPost2010PropOp34
 70
     1
102
RTVSPost2010Prop35
280
     0
102
RTVSPost2010PropOp35
 70
     1
102
RTVSPost2010Prop36
280
     0
102
RTVSPost2010PropOp36
 70
     1
102
RTVSPost2010Prop37
 90
       50
102
RTVSPost2010PropOp37
 70
     1
102
RTVSPost2010Prop38
140
0.0
102
RTVSPost2010PropOp38
 70
     1
102
RTVSPost2010Prop39
140
1.0
102
RTVSPost2010PropOp39
 70
     1
102
RTVSPost2010Prop40
 90
        0
102
RTVSPost2010PropOp40
 70
     1
102
RTVSPost2010Prop41ColorIndex
 90
       18
102
RTVSPost2010Prop41ColorRGB
 90
        0
102
RTVSPost2010PropOp41
 70
     1
102
RTVSPost2010Prop42
 90
       50
102
RTVSPost2010PropOp42
 70
     1
102
RTVSPost2010Prop43
 90
        3
102
RTVSPost2010PropOp43
 70
     1
102
RTVSPost2010Prop44ColorIndex
 90
        5
102
RTVSPost2010Prop44ColorRGB
 90
      255
102
RTVSPost2010PropOp44
 70
     1
102
RTVSPost2010Prop45
280
     0
102
RTVSPost2010PropOp45
 70
     1
102
RTVSPost2010Prop46
 90
       50
102
RTVSPost2010PropOp46
 70
     1
102
RTVSPost2010Prop47
 90
       50
102
RTVSPost2010PropOp47
 70
     1
102
RTVSPost2010Prop48
 90
       50
102
RTVSPost2010PropOp48
 70
     1
102
RTVSPost2010Prop49
280
     0
102
RTVSPost2010PropOp49
 70
     1
102
RTVSPost2010Prop50
 90
       50
102
RTVSPost2010PropOp50
 70
     1
102
RTVSPost2010Prop51ColorIndex
 90
      256
102
RTVSPost2010Prop51ColorRGB
 90
-16777216
102
RTVSPost2010PropOp51
 70
     0
102
RTVSPost2010Prop52
140
1.0
102
RTVSPost2010PropOp52
 70
     0
102
RTVSPost2010Prop53
 90
        2
102
RTVSPost2010PropOp53
 70
     1
102
RTVSPost2010Prop54
  1
strokes_ogs.tif
102
RTVSPost2010PropOp54
 70
     1
102
RTVSPost2010Prop55
280
     0
102
RTVSPost2010PropOp55
 70
     1
102
RTVSPost2010Prop56
140
1.0
102
RTVSPost2010PropOp56
 70
     1
102
RTVSPost2010Prop57
140
1.0
102
RTVSPost2010PropOp57
 70
     1
  0
XRECORD
  5
15646
102
{ACAD_REACTORS
330
15645
102
}
330
15645
100
AcDbXrecord
280
     1
102
RTVSPost2010Prop28
280
     0
102
RTVSPost2010PropOp28
 70
     1
102
RTVSPost2010Prop29
280
     1
102
RTVSPost2010PropOp29
 70
     1
102
RTVSPost2010Prop30
280
     1
102
RTVSPost2010PropOp30
 70
     1
102
RTVSPost2010Prop31
280
     0
102
RTVSPost2010PropOp31
 70
     1
102
RTVSPost2010Prop32
280
     0
102
RTVSPost2010PropOp32
 70
     1
102
RTVSPost2010Prop33
280
     0
102
RTVSPost2010PropOp33
 70
     1
102
RTVSPost2010Prop34
280
     0
102
RTVSPost2010PropOp34
 70
     1
102
RTVSPost2010Prop35
280
     0
102
RTVSPost2010PropOp35
 70
     1
102
RTVSPost2010Prop36
280
     0
102
RTVSPost2010PropOp36
 70
     1
102
RTVSPost2010Prop37
 90
       50
102
RTVSPost2010PropOp37
 70
     1
102
RTVSPost2010Prop38
140
0.0
102
RTVSPost2010PropOp38
 70
     1
102
RTVSPost2010Prop39
140
1.0
102
RTVSPost2010PropOp39
 70
     1
102
RTVSPost2010Prop40
 90
        0
102
RTVSPost2010PropOp40
 70
     1
102
RTVSPost2010Prop41ColorIndex
 90
       18
102
RTVSPost2010Prop41ColorRGB
 90
        0
102
RTVSPost2010PropOp41
 70
     1
102
RTVSPost2010Prop42
 90
       50
102
RTVSPost2010PropOp42
 70
     1
102
RTVSPost2010Prop43
 90
        3
102
RTVSPost2010PropOp43
 70
     1
102
RTVSPost2010Prop44ColorIndex
 90
        5
102
RTVSPost2010Prop44ColorRGB
 90
      255
102
RTVSPost2010PropOp44
 70
     1
102
RTVSPost2010Prop45
280
     0
102
RTVSPost2010PropOp45
 70
     1
102
RTVSPost2010Prop46
 90
       50
102
RTVSPost2010PropOp46
 70
     1
102
RTVSPost2010Prop47
 90
       50
102
RTVSPost2010PropOp47
 70
     1
102
RTVSPost2010Prop48
 90
       50
102
RTVSPost2010PropOp48
 70
     1
102
RTVSPost2010Prop49
280
     0
102
RTVSPost2010PropOp49
 70
     1
102
RTVSPost2010Prop50
 90
       50
102
RTVSPost2010PropOp50
 70
     1
102
RTVSPost2010Prop51ColorIndex
 90
      256
102
RTVSPost2010Prop51ColorRGB
 90
-16777216
102
RTVSPost2010PropOp51
 70
     0
102
RTVSPost2010Prop52
140
1.0
102
RTVSPost2010PropOp52
 70
     0
102
RTVSPost2010Prop53
 90
        2
102
RTVSPost2010PropOp53
 70
     1
102
RTVSPost2010Prop54
  1
strokes_ogs.tif
102
RTVSPost2010PropOp54
 70
     1
102
RTVSPost2010Prop55
280
     0
102
RTVSPost2010PropOp55
 70
     1
102
RTVSPost2010Prop56
140
1.0
102
RTVSPost2010PropOp56
 70
     1
102
RTVSPost2010Prop57
140
1.0
102
RTVSPost2010PropOp57
 70
     1
  0
XRECORD
  5
15632
102
{ACAD_REACTORS
330
15631
102
}
330
15631
100
AcDbXrecord
280
     1
102
RTVSPost2010Prop28
280
     0
102
RTVSPost2010PropOp28
 70
     1
102
RTVSPost2010Prop29
280
     1
102
RTVSPost2010PropOp29
 70
     1
102
RTVSPost2010Prop30
280
     1
102
RTVSPost2010PropOp30
 70
     1
102
RTVSPost2010Prop31
280
     0
102
RTVSPost2010PropOp31
 70
     1
102
RTVSPost2010Prop32
280
     0
102
RTVSPost2010PropOp32
 70
     1
102
RTVSPost2010Prop33
280
     0
102
RTVSPost2010PropOp33
 70
     1
102
RTVSPost2010Prop34
280
     0
102
RTVSPost2010PropOp34
 70
     1
102
RTVSPost2010Prop35
280
     0
102
RTVSPost2010PropOp35
 70
     1
102
RTVSPost2010Prop36
280
     0
102
RTVSPost2010PropOp36
 70
     1
102
RTVSPost2010Prop37
 90
       50
102
RTVSPost2010PropOp37
 70
     1
102
RTVSPost2010Prop38
140
0.0
102
RTVSPost2010PropOp38
 70
     1
102
RTVSPost2010Prop39
140
1.0
102
RTVSPost2010PropOp39
 70
     1
102
RTVSPost2010Prop40
 90
        0
102
RTVSPost2010PropOp40
 70
     1
102
RTVSPost2010Prop41ColorIndex
 90
       18
102
RTVSPost2010Prop41ColorRGB
 90
        0
102
RTVSPost2010PropOp41
 70
     1
102
RTVSPost2010Prop42
 90
       50
102
RTVSPost2010PropOp42
 70
     1
102
RTVSPost2010Prop43
 90
        3
102
RTVSPost2010PropOp43
 70
     1
102
RTVSPost2010Prop44ColorIndex
 90
        5
102
RTVSPost2010Prop44ColorRGB
 90
      255
102
RTVSPost2010PropOp44
 70
     1
102
RTVSPost2010Prop45
280
     0
102
RTVSPost2010PropOp45
 70
     1
102
RTVSPost2010Prop46
 90
       50
102
RTVSPost2010PropOp46
 70
     1
102
RTVSPost2010Prop47
 90
       50
102
RTVSPost2010PropOp47
 70
     1
102
RTVSPost2010Prop48
 90
       50
102
RTVSPost2010PropOp48
 70
     1
102
RTVSPost2010Prop49
280
     0
102
RTVSPost2010PropOp49
 70
     1
102
RTVSPost2010Prop50
 90
       50
102
RTVSPost2010PropOp50
 70
     1
102
RTVSPost2010Prop51ColorIndex
 90
      256
102
RTVSPost2010Prop51ColorRGB
 90
-16777216
102
RTVSPost2010PropOp51
 70
     0
102
RTVSPost2010Prop52
140
1.0
102
RTVSPost2010PropOp52
 70
     0
102
RTVSPost2010Prop53
 90
        2
102
RTVSPost2010PropOp53
 70
     1
102
RTVSPost2010Prop54
  1
strokes_ogs.tif
102
RTVSPost2010PropOp54
 70
     1
102
RTVSPost2010Prop55
280
     0
102
RTVSPost2010PropOp55
 70
     1
102
RTVSPost2010Prop56
140
1.0
102
RTVSPost2010PropOp56
 70
     1
102
RTVSPost2010Prop57
140
1.0
102
RTVSPost2010PropOp57
 70
     1
  0
XRECORD
  5
15648
102
{ACAD_REACTORS
330
15647
102
}
330
15647
100
AcDbXrecord
280
     1
102
RTVSPost2010Prop28
280
     0
102
RTVSPost2010PropOp28
 70
     1
102
RTVSPost2010Prop29
280
     1
102
RTVSPost2010PropOp29
 70
     1
102
RTVSPost2010Prop30
280
     1
102
RTVSPost2010PropOp30
 70
     1
102
RTVSPost2010Prop31
280
     0
102
RTVSPost2010PropOp31
 70
     1
102
RTVSPost2010Prop32
280
     0
102
RTVSPost2010PropOp32
 70
     1
102
RTVSPost2010Prop33
280
     0
102
RTVSPost2010PropOp33
 70
     1
102
RTVSPost2010Prop34
280
     0
102
RTVSPost2010PropOp34
 70
     1
102
RTVSPost2010Prop35
280
     0
102
RTVSPost2010PropOp35
 70
     1
102
RTVSPost2010Prop36
280
     0
102
RTVSPost2010PropOp36
 70
     1
102
RTVSPost2010Prop37
 90
       50
102
RTVSPost2010PropOp37
 70
     1
102
RTVSPost2010Prop38
140
0.0
102
RTVSPost2010PropOp38
 70
     1
102
RTVSPost2010Prop39
140
1.0
102
RTVSPost2010PropOp39
 70
     1
102
RTVSPost2010Prop40
 90
        0
102
RTVSPost2010PropOp40
 70
     1
102
RTVSPost2010Prop41ColorIndex
 90
       18
102
RTVSPost2010Prop41ColorRGB
 90
        0
102
RTVSPost2010PropOp41
 70
     1
102
RTVSPost2010Prop42
 90
       50
102
RTVSPost2010PropOp42
 70
     1
102
RTVSPost2010Prop43
 90
        3
102
RTVSPost2010PropOp43
 70
     1
102
RTVSPost2010Prop44ColorIndex
 90
        5
102
RTVSPost2010Prop44ColorRGB
 90
      255
102
RTVSPost2010PropOp44
 70
     1
102
RTVSPost2010Prop45
280
     0
102
RTVSPost2010PropOp45
 70
     1
102
RTVSPost2010Prop46
 90
       50
102
RTVSPost2010PropOp46
 70
     1
102
RTVSPost2010Prop47
 90
       50
102
RTVSPost2010PropOp47
 70
     1
102
RTVSPost2010Prop48
 90
       50
102
RTVSPost2010PropOp48
 70
     1
102
RTVSPost2010Prop49
280
     0
102
RTVSPost2010PropOp49
 70
     1
102
RTVSPost2010Prop50
 90
       50
102
RTVSPost2010PropOp50
 70
     1
102
RTVSPost2010Prop51ColorIndex
 90
      256
102
RTVSPost2010Prop51ColorRGB
 90
-16777216
102
RTVSPost2010PropOp51
 70
     0
102
RTVSPost2010Prop52
140
1.0
102
RTVSPost2010PropOp52
 70
     0
102
RTVSPost2010Prop53
 90
        2
102
RTVSPost2010PropOp53
 70
     1
102
RTVSPost2010Prop54
  1
strokes_ogs.tif
102
RTVSPost2010PropOp54
 70
     1
102
RTVSPost2010Prop55
280
     0
102
RTVSPost2010PropOp55
 70
     1
102
RTVSPost2010Prop56
140
1.0
102
RTVSPost2010PropOp56
 70
     1
102
RTVSPost2010Prop57
140
1.0
102
RTVSPost2010PropOp57
 70
     1
  0
XRECORD
  5
1562A
102
{ACAD_REACTORS
330
15629
102
}
330
15629
100
AcDbXrecord
280
     1
102
RTVSPost2010Prop28
280
     0
102
RTVSPost2010PropOp28
 70
     1
102
RTVSPost2010Prop29
280
     1
102
RTVSPost2010PropOp29
 70
     1
102
RTVSPost2010Prop30
280
     1
102
RTVSPost2010PropOp30
 70
     1
102
RTVSPost2010Prop31
280
     0
102
RTVSPost2010PropOp31
 70
     1
102
RTVSPost2010Prop32
280
     0
102
RTVSPost2010PropOp32
 70
     1
102
RTVSPost2010Prop33
280
     0
102
RTVSPost2010PropOp33
 70
     1
102
RTVSPost2010Prop34
280
     0
102
RTVSPost2010PropOp34
 70
     1
102
RTVSPost2010Prop35
280
     0
102
RTVSPost2010PropOp35
 70
     1
102
RTVSPost2010Prop36
280
     0
102
RTVSPost2010PropOp36
 70
     1
102
RTVSPost2010Prop37
 90
       50
102
RTVSPost2010PropOp37
 70
     1
102
RTVSPost2010Prop38
140
0.0
102
RTVSPost2010PropOp38
 70
     1
102
RTVSPost2010Prop39
140
1.0
102
RTVSPost2010PropOp39
 70
     1
102
RTVSPost2010Prop40
 90
        0
102
RTVSPost2010PropOp40
 70
     1
102
RTVSPost2010Prop41ColorIndex
 90
       18
102
RTVSPost2010Prop41ColorRGB
 90
        0
102
RTVSPost2010PropOp41
 70
     1
102
RTVSPost2010Prop42
 90
       50
102
RTVSPost2010PropOp42
 70
     1
102
RTVSPost2010Prop43
 90
        3
102
RTVSPost2010PropOp43
 70
     1
102
RTVSPost2010Prop44ColorIndex
 90
        5
102
RTVSPost2010Prop44ColorRGB
 90
      255
102
RTVSPost2010PropOp44
 70
     1
102
RTVSPost2010Prop45
280
     0
102
RTVSPost2010PropOp45
 70
     1
102
RTVSPost2010Prop46
 90
       50
102
RTVSPost2010PropOp46
 70
     1
102
RTVSPost2010Prop47
 90
       50
102
RTVSPost2010PropOp47
 70
     1
102
RTVSPost2010Prop48
 90
       50
102
RTVSPost2010PropOp48
 70
     1
102
RTVSPost2010Prop49
280
     0
102
RTVSPost2010PropOp49
 70
     1
102
RTVSPost2010Prop50
 90
       50
102
RTVSPost2010PropOp50
 70
     1
102
RTVSPost2010Prop51ColorIndex
 90
      256
102
RTVSPost2010Prop51ColorRGB
 90
-16777216
102
RTVSPost2010PropOp51
 70
     0
102
RTVSPost2010Prop52
140
1.0
102
RTVSPost2010PropOp52
 70
     0
102
RTVSPost2010Prop53
 90
        2
102
RTVSPost2010PropOp53
 70
     1
102
RTVSPost2010Prop54
  1
strokes_ogs.tif
102
RTVSPost2010PropOp54
 70
     1
102
RTVSPost2010Prop55
280
     0
102
RTVSPost2010PropOp55
 70
     1
102
RTVSPost2010Prop56
140
1.0
102
RTVSPost2010PropOp56
 70
     1
102
RTVSPost2010Prop57
140
1.0
102
RTVSPost2010PropOp57
 70
     1
  0
XRECORD
  5
15644
102
{ACAD_REACTORS
330
15643
102
}
330
15643
100
AcDbXrecord
280
     1
102
RTVSPost2010Prop28
280
     0
102
RTVSPost2010PropOp28
 70
     1
102
RTVSPost2010Prop29
280
     1
102
RTVSPost2010PropOp29
 70
     1
102
RTVSPost2010Prop30
280
     1
102
RTVSPost2010PropOp30
 70
     1
102
RTVSPost2010Prop31
280
     0
102
RTVSPost2010PropOp31
 70
     1
102
RTVSPost2010Prop32
280
     0
102
RTVSPost2010PropOp32
 70
     1
102
RTVSPost2010Prop33
280
     0
102
RTVSPost2010PropOp33
 70
     1
102
RTVSPost2010Prop34
280
     0
102
RTVSPost2010PropOp34
 70
     1
102
RTVSPost2010Prop35
280
     0
102
RTVSPost2010PropOp35
 70
     1
102
RTVSPost2010Prop36
280
     0
102
RTVSPost2010PropOp36
 70
     1
102
RTVSPost2010Prop37
 90
       50
102
RTVSPost2010PropOp37
 70
     1
102
RTVSPost2010Prop38
140
0.0
102
RTVSPost2010PropOp38
 70
     1
102
RTVSPost2010Prop39
140
1.0
102
RTVSPost2010PropOp39
 70
     1
102
RTVSPost2010Prop40
 90
        0
102
RTVSPost2010PropOp40
 70
     1
102
RTVSPost2010Prop41ColorIndex
 90
       18
102
RTVSPost2010Prop41ColorRGB
 90
        0
102
RTVSPost2010PropOp41
 70
     1
102
RTVSPost2010Prop42
 90
       50
102
RTVSPost2010PropOp42
 70
     1
102
RTVSPost2010Prop43
 90
        3
102
RTVSPost2010PropOp43
 70
     1
102
RTVSPost2010Prop44ColorIndex
 90
        5
102
RTVSPost2010Prop44ColorRGB
 90
      255
102
RTVSPost2010PropOp44
 70
     1
102
RTVSPost2010Prop45
280
     0
102
RTVSPost2010PropOp45
 70
     1
102
RTVSPost2010Prop46
 90
       50
102
RTVSPost2010PropOp46
 70
     1
102
RTVSPost2010Prop47
 90
       50
102
RTVSPost2010PropOp47
 70
     1
102
RTVSPost2010Prop48
 90
       50
102
RTVSPost2010PropOp48
 70
     1
102
RTVSPost2010Prop49
280
     0
102
RTVSPost2010PropOp49
 70
     1
102
RTVSPost2010Prop50
 90
       50
102
RTVSPost2010PropOp50
 70
     1
102
RTVSPost2010Prop51ColorIndex
 90
      256
102
RTVSPost2010Prop51ColorRGB
 90
-16777216
102
RTVSPost2010PropOp51
 70
     0
102
RTVSPost2010Prop52
140
1.0
102
RTVSPost2010PropOp52
 70
     0
102
RTVSPost2010Prop53
 90
        2
102
RTVSPost2010PropOp53
 70
     1
102
RTVSPost2010Prop54
  1
strokes_ogs.tif
102
RTVSPost2010PropOp54
 70
     1
102
RTVSPost2010Prop55
280
     0
102
RTVSPost2010PropOp55
 70
     1
102
RTVSPost2010Prop56
140
1.0
102
RTVSPost2010PropOp56
 70
     1
102
RTVSPost2010Prop57
140
1.0
102
RTVSPost2010PropOp57
 70
     1
  0
XRECORD
  5
15642
102
{ACAD_REACTORS
330
15641
102
}
330
15641
100
AcDbXrecord
280
     1
102
RTVSPost2010Prop28
280
     0
102
RTVSPost2010PropOp28
 70
     1
102
RTVSPost2010Prop29
280
     1
102
RTVSPost2010PropOp29
 70
     1
102
RTVSPost2010Prop30
280
     1
102
RTVSPost2010PropOp30
 70
     1
102
RTVSPost2010Prop31
280
     0
102
RTVSPost2010PropOp31
 70
     1
102
RTVSPost2010Prop32
280
     0
102
RTVSPost2010PropOp32
 70
     1
102
RTVSPost2010Prop33
280
     0
102
RTVSPost2010PropOp33
 70
     1
102
RTVSPost2010Prop34
280
     0
102
RTVSPost2010PropOp34
 70
     1
102
RTVSPost2010Prop35
280
     0
102
RTVSPost2010PropOp35
 70
     1
102
RTVSPost2010Prop36
280
     0
102
RTVSPost2010PropOp36
 70
     1
102
RTVSPost2010Prop37
 90
       50
102
RTVSPost2010PropOp37
 70
     1
102
RTVSPost2010Prop38
140
0.0
102
RTVSPost2010PropOp38
 70
     1
102
RTVSPost2010Prop39
140
1.0
102
RTVSPost2010PropOp39
 70
     1
102
RTVSPost2010Prop40
 90
        0
102
RTVSPost2010PropOp40
 70
     1
102
RTVSPost2010Prop41ColorIndex
 90
       18
102
RTVSPost2010Prop41ColorRGB
 90
        0
102
RTVSPost2010PropOp41
 70
     1
102
RTVSPost2010Prop42
 90
       50
102
RTVSPost2010PropOp42
 70
     1
102
RTVSPost2010Prop43
 90
        3
102
RTVSPost2010PropOp43
 70
     1
102
RTVSPost2010Prop44ColorIndex
 90
        5
102
RTVSPost2010Prop44ColorRGB
 90
      255
102
RTVSPost2010PropOp44
 70
     1
102
RTVSPost2010Prop45
280
     0
102
RTVSPost2010PropOp45
 70
     1
102
RTVSPost2010Prop46
 90
       50
102
RTVSPost2010PropOp46
 70
     1
102
RTVSPost2010Prop47
 90
       50
102
RTVSPost2010PropOp47
 70
     1
102
RTVSPost2010Prop48
 90
       50
102
RTVSPost2010PropOp48
 70
     1
102
RTVSPost2010Prop49
280
     0
102
RTVSPost2010PropOp49
 70
     1
102
RTVSPost2010Prop50
 90
       50
102
RTVSPost2010PropOp50
 70
     1
102
RTVSPost2010Prop51ColorIndex
 90
      256
102
RTVSPost2010Prop51ColorRGB
 90
-16777216
102
RTVSPost2010PropOp51
 70
     0
102
RTVSPost2010Prop52
140
1.0
102
RTVSPost2010PropOp52
 70
     0
102
RTVSPost2010Prop53
 90
        2
102
RTVSPost2010PropOp53
 70
     1
102
RTVSPost2010Prop54
  1
strokes_ogs.tif
102
RTVSPost2010PropOp54
 70
     1
102
RTVSPost2010Prop55
280
     0
102
RTVSPost2010PropOp55
 70
     1
102
RTVSPost2010Prop56
140
1.0
102
RTVSPost2010PropOp56
 70
     1
102
RTVSPost2010Prop57
140
1.0
102
RTVSPost2010PropOp57
 70
     1
  0
XRECORD
  5
1563C
102
{ACAD_REACTORS
330
1563B
102
}
330
1563B
100
AcDbXrecord
280
     1
102
RTVSPost2010Prop28
280
     0
102
RTVSPost2010PropOp28
 70
     1
102
RTVSPost2010Prop29
280
     1
102
RTVSPost2010PropOp29
 70
     1
102
RTVSPost2010Prop30
280
     1
102
RTVSPost2010PropOp30
 70
     1
102
RTVSPost2010Prop31
280
     0
102
RTVSPost2010PropOp31
 70
     1
102
RTVSPost2010Prop32
280
     0
102
RTVSPost2010PropOp32
 70
     1
102
RTVSPost2010Prop33
280
     0
102
RTVSPost2010PropOp33
 70
     1
102
RTVSPost2010Prop34
280
     0
102
RTVSPost2010PropOp34
 70
     1
102
RTVSPost2010Prop35
280
     0
102
RTVSPost2010PropOp35
 70
     1
102
RTVSPost2010Prop36
280
     0
102
RTVSPost2010PropOp36
 70
     1
102
RTVSPost2010Prop37
 90
       50
102
RTVSPost2010PropOp37
 70
     1
102
RTVSPost2010Prop38
140
0.0
102
RTVSPost2010PropOp38
 70
     1
102
RTVSPost2010Prop39
140
1.0
102
RTVSPost2010PropOp39
 70
     1
102
RTVSPost2010Prop40
 90
        0
102
RTVSPost2010PropOp40
 70
     1
102
RTVSPost2010Prop41ColorIndex
 90
       18
102
RTVSPost2010Prop41ColorRGB
 90
        0
102
RTVSPost2010PropOp41
 70
     1
102
RTVSPost2010Prop42
 90
       50
102
RTVSPost2010PropOp42
 70
     1
102
RTVSPost2010Prop43
 90
        3
102
RTVSPost2010PropOp43
 70
     1
102
RTVSPost2010Prop44ColorIndex
 90
        5
102
RTVSPost2010Prop44ColorRGB
 90
      255
102
RTVSPost2010PropOp44
 70
     1
102
RTVSPost2010Prop45
280
     0
102
RTVSPost2010PropOp45
 70
     1
102
RTVSPost2010Prop46
 90
       50
102
RTVSPost2010PropOp46
 70
     1
102
RTVSPost2010Prop47
 90
       50
102
RTVSPost2010PropOp47
 70
     1
102
RTVSPost2010Prop48
 90
       50
102
RTVSPost2010PropOp48
 70
     1
102
RTVSPost2010Prop49
280
     0
102
RTVSPost2010PropOp49
 70
     1
102
RTVSPost2010Prop50
 90
       50
102
RTVSPost2010PropOp50
 70
     1
102
RTVSPost2010Prop51ColorIndex
 90
      256
102
RTVSPost2010Prop51ColorRGB
 90
-16777216
102
RTVSPost2010PropOp51
 70
     0
102
RTVSPost2010Prop52
140
1.0
102
RTVSPost2010PropOp52
 70
     0
102
RTVSPost2010Prop53
 90
        2
102
RTVSPost2010PropOp53
 70
     1
102
RTVSPost2010Prop54
  1
strokes_ogs.tif
102
RTVSPost2010PropOp54
 70
     1
102
RTVSPost2010Prop55
280
     0
102
RTVSPost2010PropOp55
 70
     1
102
RTVSPost2010Prop56
140
1.0
102
RTVSPost2010PropOp56
 70
     1
102
RTVSPost2010Prop57
140
1.0
102
RTVSPost2010PropOp57
 70
     1
  0
XRECORD
  5
1563E
102
{ACAD_REACTORS
330
1563D
102
}
330
1563D
100
AcDbXrecord
280
     1
102
RTVSPost2010Prop28
280
     0
102
RTVSPost2010PropOp28
 70
     1
102
RTVSPost2010Prop29
280
     1
102
RTVSPost2010PropOp29
 70
     1
102
RTVSPost2010Prop30
280
     1
102
RTVSPost2010PropOp30
 70
     1
102
RTVSPost2010Prop31
280
     0
102
RTVSPost2010PropOp31
 70
     1
102
RTVSPost2010Prop32
280
     0
102
RTVSPost2010PropOp32
 70
     1
102
RTVSPost2010Prop33
280
     0
102
RTVSPost2010PropOp33
 70
     1
102
RTVSPost2010Prop34
280
     0
102
RTVSPost2010PropOp34
 70
     1
102
RTVSPost2010Prop35
280
     0
102
RTVSPost2010PropOp35
 70
     1
102
RTVSPost2010Prop36
280
     0
102
RTVSPost2010PropOp36
 70
     1
102
RTVSPost2010Prop37
 90
       50
102
RTVSPost2010PropOp37
 70
     1
102
RTVSPost2010Prop38
140
0.0
102
RTVSPost2010PropOp38
 70
     1
102
RTVSPost2010Prop39
140
1.0
102
RTVSPost2010PropOp39
 70
     1
102
RTVSPost2010Prop40
 90
        0
102
RTVSPost2010PropOp40
 70
     1
102
RTVSPost2010Prop41ColorIndex
 90
       18
102
RTVSPost2010Prop41ColorRGB
 90
        0
102
RTVSPost2010PropOp41
 70
     1
102
RTVSPost2010Prop42
 90
       50
102
RTVSPost2010PropOp42
 70
     1
102
RTVSPost2010Prop43
 90
        3
102
RTVSPost2010PropOp43
 70
     1
102
RTVSPost2010Prop44ColorIndex
 90
        5
102
RTVSPost2010Prop44ColorRGB
 90
      255
102
RTVSPost2010PropOp44
 70
     1
102
RTVSPost2010Prop45
280
     0
102
RTVSPost2010PropOp45
 70
     1
102
RTVSPost2010Prop46
 90
       50
102
RTVSPost2010PropOp46
 70
     1
102
RTVSPost2010Prop47
 90
       50
102
RTVSPost2010PropOp47
 70
     1
102
RTVSPost2010Prop48
 90
       50
102
RTVSPost2010PropOp48
 70
     1
102
RTVSPost2010Prop49
280
     0
102
RTVSPost2010PropOp49
 70
     1
102
RTVSPost2010Prop50
 90
       50
102
RTVSPost2010PropOp50
 70
     1
102
RTVSPost2010Prop51ColorIndex
 90
      256
102
RTVSPost2010Prop51ColorRGB
 90
-16777216
102
RTVSPost2010PropOp51
 70
     0
102
RTVSPost2010Prop52
140
1.0
102
RTVSPost2010PropOp52
 70
     0
102
RTVSPost2010Prop53
 90
        2
102
RTVSPost2010PropOp53
 70
     1
102
RTVSPost2010Prop54
  1
strokes_ogs.tif
102
RTVSPost2010PropOp54
 70
     1
102
RTVSPost2010Prop55
280
     0
102
RTVSPost2010PropOp55
 70
     1
102
RTVSPost2010Prop56
140
1.0
102
RTVSPost2010PropOp56
 70
     1
102
RTVSPost2010Prop57
140
1.0
102
RTVSPost2010PropOp57
 70
     1
  0
XRECORD
  5
15630
102
{ACAD_REACTORS
330
1562F
102
}
330
1562F
100
AcDbXrecord
280
     1
102
RTVSPost2010Prop28
280
     0
102
RTVSPost2010PropOp28
 70
     1
102
RTVSPost2010Prop29
280
     1
102
RTVSPost2010PropOp29
 70
     1
102
RTVSPost2010Prop30
280
     1
102
RTVSPost2010PropOp30
 70
     1
102
RTVSPost2010Prop31
280
     0
102
RTVSPost2010PropOp31
 70
     1
102
RTVSPost2010Prop32
280
     0
102
RTVSPost2010PropOp32
 70
     1
102
RTVSPost2010Prop33
280
     0
102
RTVSPost2010PropOp33
 70
     1
102
RTVSPost2010Prop34
280
     0
102
RTVSPost2010PropOp34
 70
     1
102
RTVSPost2010Prop35
280
     0
102
RTVSPost2010PropOp35
 70
     1
102
RTVSPost2010Prop36
280
     0
102
RTVSPost2010PropOp36
 70
     1
102
RTVSPost2010Prop37
 90
       50
102
RTVSPost2010PropOp37
 70
     1
102
RTVSPost2010Prop38
140
0.0
102
RTVSPost2010PropOp38
 70
     1
102
RTVSPost2010Prop39
140
1.0
102
RTVSPost2010PropOp39
 70
     1
102
RTVSPost2010Prop40
 90
        0
102
RTVSPost2010PropOp40
 70
     1
102
RTVSPost2010Prop41ColorIndex
 90
       18
102
RTVSPost2010Prop41ColorRGB
 90
        0
102
RTVSPost2010PropOp41
 70
     1
102
RTVSPost2010Prop42
 90
       50
102
RTVSPost2010PropOp42
 70
     1
102
RTVSPost2010Prop43
 90
        3
102
RTVSPost2010PropOp43
 70
     1
102
RTVSPost2010Prop44ColorIndex
 90
        5
102
RTVSPost2010Prop44ColorRGB
 90
      255
102
RTVSPost2010PropOp44
 70
     1
102
RTVSPost2010Prop45
280
     0
102
RTVSPost2010PropOp45
 70
     1
102
RTVSPost2010Prop46
 90
       50
102
RTVSPost2010PropOp46
 70
     1
102
RTVSPost2010Prop47
 90
       50
102
RTVSPost2010PropOp47
 70
     1
102
RTVSPost2010Prop48
 90
       50
102
RTVSPost2010PropOp48
 70
     1
102
RTVSPost2010Prop49
280
     0
102
RTVSPost2010PropOp49
 70
     1
102
RTVSPost2010Prop50
 90
       50
102
RTVSPost2010PropOp50
 70
     1
102
RTVSPost2010Prop51ColorIndex
 90
      256
102
RTVSPost2010Prop51ColorRGB
 90
-16777216
102
RTVSPost2010PropOp51
 70
     0
102
RTVSPost2010Prop52
140
1.0
102
RTVSPost2010PropOp52
 70
     0
102
RTVSPost2010Prop53
 90
        2
102
RTVSPost2010PropOp53
 70
     1
102
RTVSPost2010Prop54
  1
strokes_ogs.tif
102
RTVSPost2010PropOp54
 70
     1
102
RTVSPost2010Prop55
280
     0
102
RTVSPost2010PropOp55
 70
     1
102
RTVSPost2010Prop56
140
1.0
102
RTVSPost2010PropOp56
 70
     1
102
RTVSPost2010Prop57
140
1.0
102
RTVSPost2010PropOp57
 70
     1
  0
XRECORD
  5
15638
102
{ACAD_REACTORS
330
15637
102
}
330
15637
100
AcDbXrecord
280
     1
102
RTVSPost2010Prop28
280
     0
102
RTVSPost2010PropOp28
 70
     1
102
RTVSPost2010Prop29
280
     1
102
RTVSPost2010PropOp29
 70
     1
102
RTVSPost2010Prop30
280
     1
102
RTVSPost2010PropOp30
 70
     1
102
RTVSPost2010Prop31
280
     0
102
RTVSPost2010PropOp31
 70
     1
102
RTVSPost2010Prop32
280
     0
102
RTVSPost2010PropOp32
 70
     1
102
RTVSPost2010Prop33
280
     0
102
RTVSPost2010PropOp33
 70
     1
102
RTVSPost2010Prop34
280
     0
102
RTVSPost2010PropOp34
 70
     1
102
RTVSPost2010Prop35
280
     0
102
RTVSPost2010PropOp35
 70
     1
102
RTVSPost2010Prop36
280
     0
102
RTVSPost2010PropOp36
 70
     1
102
RTVSPost2010Prop37
 90
       50
102
RTVSPost2010PropOp37
 70
     1
102
RTVSPost2010Prop38
140
0.0
102
RTVSPost2010PropOp38
 70
     1
102
RTVSPost2010Prop39
140
1.0
102
RTVSPost2010PropOp39
 70
     1
102
RTVSPost2010Prop40
 90
        0
102
RTVSPost2010PropOp40
 70
     1
102
RTVSPost2010Prop41ColorIndex
 90
       18
102
RTVSPost2010Prop41ColorRGB
 90
        0
102
RTVSPost2010PropOp41
 70
     1
102
RTVSPost2010Prop42
 90
       50
102
RTVSPost2010PropOp42
 70
     1
102
RTVSPost2010Prop43
 90
        3
102
RTVSPost2010PropOp43
 70
     1
102
RTVSPost2010Prop44ColorIndex
 90
        5
102
RTVSPost2010Prop44ColorRGB
 90
      255
102
RTVSPost2010PropOp44
 70
     1
102
RTVSPost2010Prop45
280
     0
102
RTVSPost2010PropOp45
 70
     1
102
RTVSPost2010Prop46
 90
       50
102
RTVSPost2010PropOp46
 70
     1
102
RTVSPost2010Prop47
 90
       50
102
RTVSPost2010PropOp47
 70
     1
102
RTVSPost2010Prop48
 90
       50
102
RTVSPost2010PropOp48
 70
     1
102
RTVSPost2010Prop49
280
     0
102
RTVSPost2010PropOp49
 70
     1
102
RTVSPost2010Prop50
 90
       50
102
RTVSPost2010PropOp50
 70
     1
102
RTVSPost2010Prop51ColorIndex
 90
      256
102
RTVSPost2010Prop51ColorRGB
 90
-16777216
102
RTVSPost2010PropOp51
 70
     0
102
RTVSPost2010Prop52
140
1.0
102
RTVSPost2010PropOp52
 70
     0
102
RTVSPost2010Prop53
 90
        2
102
RTVSPost2010PropOp53
 70
     1
102
RTVSPost2010Prop54
  1
strokes_ogs.tif
102
RTVSPost2010PropOp54
 70
     1
102
RTVSPost2010Prop55
280
     0
102
RTVSPost2010PropOp55
 70
     1
102
RTVSPost2010Prop56
140
1.0
102
RTVSPost2010PropOp56
 70
     1
102
RTVSPost2010Prop57
140
1.0
102
RTVSPost2010PropOp57
 70
     1
  0
XRECORD
  5
15640
102
{ACAD_REACTORS
330
1563F
102
}
330
1563F
100
AcDbXrecord
280
     1
102
RTVSPost2010Prop28
280
     0
102
RTVSPost2010PropOp28
 70
     1
102
RTVSPost2010Prop29
280
     1
102
RTVSPost2010PropOp29
 70
     1
102
RTVSPost2010Prop30
280
     1
102
RTVSPost2010PropOp30
 70
     1
102
RTVSPost2010Prop31
280
     0
102
RTVSPost2010PropOp31
 70
     1
102
RTVSPost2010Prop32
280
     0
102
RTVSPost2010PropOp32
 70
     1
102
RTVSPost2010Prop33
280
     0
102
RTVSPost2010PropOp33
 70
     1
102
RTVSPost2010Prop34
280
     0
102
RTVSPost2010PropOp34
 70
     1
102
RTVSPost2010Prop35
280
     0
102
RTVSPost2010PropOp35
 70
     1
102
RTVSPost2010Prop36
280
     0
102
RTVSPost2010PropOp36
 70
     1
102
RTVSPost2010Prop37
 90
       50
102
RTVSPost2010PropOp37
 70
     1
102
RTVSPost2010Prop38
140
0.0
102
RTVSPost2010PropOp38
 70
     1
102
RTVSPost2010Prop39
140
1.0
102
RTVSPost2010PropOp39
 70
     1
102
RTVSPost2010Prop40
 90
        0
102
RTVSPost2010PropOp40
 70
     1
102
RTVSPost2010Prop41ColorIndex
 90
       18
102
RTVSPost2010Prop41ColorRGB
 90
        0
102
RTVSPost2010PropOp41
 70
     1
102
RTVSPost2010Prop42
 90
       50
102
RTVSPost2010PropOp42
 70
     1
102
RTVSPost2010Prop43
 90
        3
102
RTVSPost2010PropOp43
 70
     1
102
RTVSPost2010Prop44ColorIndex
 90
        5
102
RTVSPost2010Prop44ColorRGB
 90
      255
102
RTVSPost2010PropOp44
 70
     1
102
RTVSPost2010Prop45
280
     0
102
RTVSPost2010PropOp45
 70
     1
102
RTVSPost2010Prop46
 90
       50
102
RTVSPost2010PropOp46
 70
     1
102
RTVSPost2010Prop47
 90
       50
102
RTVSPost2010PropOp47
 70
     1
102
RTVSPost2010Prop48
 90
       50
102
RTVSPost2010PropOp48
 70
     1
102
RTVSPost2010Prop49
280
     0
102
RTVSPost2010PropOp49
 70
     1
102
RTVSPost2010Prop50
 90
       50
102
RTVSPost2010PropOp50
 70
     1
102
RTVSPost2010Prop51ColorIndex
 90
      256
102
RTVSPost2010Prop51ColorRGB
 90
-16777216
102
RTVSPost2010PropOp51
 70
     0
102
RTVSPost2010Prop52
140
1.0
102
RTVSPost2010PropOp52
 70
     0
102
RTVSPost2010Prop53
 90
        2
102
RTVSPost2010PropOp53
 70
     1
102
RTVSPost2010Prop54
  1
strokes_ogs.tif
102
RTVSPost2010PropOp54
 70
     1
102
RTVSPost2010Prop55
280
     0
102
RTVSPost2010PropOp55
 70
     1
102
RTVSPost2010Prop56
140
1.0
102
RTVSPost2010PropOp56
 70
     1
102
RTVSPost2010Prop57
140
1.0
102
RTVSPost2010PropOp57
 70
     1
  0
ENDSEC
  0
EOF
