  0
SECTION
  2
HEADER
  9
$ACADVER
  1
AC1015
  9
$ACADMAINTVER
 70
    20
  9
$DWGCODEPAGE
  3
ANSI_932
  9
$INSBASE
 10
-150.2268989384199
 20
163.3791618657737
 30
0.0
  9
$EXTMIN
 10
0.0
 20
0.0
 30
0.0
  9
$EXTMAX
 10
759.1493103537332
 20
879.4543721657859
 30
0.0
  9
$LIMMIN
 10
0.0
 20
0.0
  9
$LIMMAX
 10
420.0
 20
297.0
  9
$ORTHOMODE
 70
     1
  9
$REGENMODE
 70
     1
  9
$FILLMODE
 70
     1
  9
$QTEXTMODE
 70
     0
  9
$MIRRTEXT
 70
     1
  9
$LTSCALE
 40
1.0
  9
$ATTMODE
 70
     1
  9
$TEXTSIZE
 40
0.0
  9
$TRACEWID
 40
1.0
  9
$TEXTSTYLE
  7
STANDARD
  9
$CLAYER
  8
buhin-1
  9
$CELTYPE
  6
BYLAYER
  9
$CECOLOR
 62
   256
  9
$CELTSCALE
 40
1.0
  9
$DISPSILH
 70
     0
  9
$DIMSCALE
 40
1.0
  9
$DIMASZ
 40
2.5
  9
$DIMEXO
 40
0.625
  9
$DIMDLI
 40
3.75
  9
$DIMRND
 40
0.0
  9
$DIMDLE
 40
0.0
  9
$DIMEXE
 40
1.25
  9
$DIMTP
 40
0.0
  9
$DIMTM
 40
0.0
  9
$DIMTXT
 40
2.5
  9
$DIMCEN
 40
2.5
  9
$DIMTSZ
 40
0.0
  9
$DIMTOL
 70
     0
  9
$DIMLIM
 70
     0
  9
$DIMTIH
 70
     0
  9
$DIMTOH
 70
     0
  9
$DIMSE1
 70
     0
  9
$DIMSE2
 70
     0
  9
$DIMTAD
 70
     1
  9
$DIMZIN
 70
     8
  9
$DIMBLK
  1
Open30
  9
$DIMASO
 70
     1
  9
$DIMSHO
 70
     1
  9
$DIMPOST
  1

  9
$DIMAPOST
  1

  9
$DIMALT
 70
     0
  9
$DIMALTD
 70
     3
  9
$DIMALTF
 40
0.039370079
  9
$DIMLFAC
 40
1.0
  9
$DIMTOFL
 70
     1
  9
$DIMTVP
 40
0.0
  9
$DIMTIX
 70
     0
  9
$DIMSOXD
 70
     0
  9
$DIMSAH
 70
     0
  9
$DIMBLK1
  1

  9
$DIMBLK2
  1

  9
$DIMSTYLE
  2
STANDARD
  9
$DIMCLRD
 70
     0
  9
$DIMCLRE
 70
     0
  9
$DIMCLRT
 70
     0
  9
$DIMTFAC
 40
1.0
  9
$DIMGAP
 40
0.625
  9
$DIMJUST
 70
     0
  9
$DIMSD1
 70
     0
  9
$DIMSD2
 70
     0
  9
$DIMTOLJ
 70
     0
  9
$DIMTZIN
 70
     8
  9
$DIMALTZ
 70
     0
  9
$DIMALTTZ
 70
     0
  9
$DIMUPT
 70
     0
  9
$DIMDEC
 70
     2
  9
$DIMTDEC
 70
     2
  9
$DIMALTU
 70
     2
  9
$DIMALTTD
 70
     3
  9
$DIMTXSTY
  7
STANDARD
  9
$DIMAUNIT
 70
     0
  9
$DIMADEC
 70
     0
  9
$DIMALTRND
 40
0.0
  9
$DIMAZIN
 70
     0
  9
$DIMDSEP
 70
    46
  9
$DIMATFIT
 70
     0
  9
$DIMFRAC
 70
     0
  9
$DIMLDRBLK
  1
Open30
  9
$DIMLUNIT
 70
     2
  9
$DIMLWD
 70
    -2
  9
$DIMLWE
 70
    -2
  9
$DIMTMOVE
 70
     0
  9
$LUNITS
 70
     2
  9
$LUPREC
 70
     4
  9
$SKETCHINC
 40
1.0
  9
$FILLETRAD
 40
0.0
  9
$AUNITS
 70
     0
  9
$AUPREC
 70
     0
  9
$MENU
  1
.
  9
$ELEVATION
 40
0.0
  9
$PELEVATION
 40
0.0
  9
$THICKNESS
 40
0.0
  9
$LIMCHECK
 70
     0
  9
$CHAMFERA
 40
2.5
  9
$CHAMFERB
 40
2.5
  9
$CHAMFERC
 40
0.0
  9
$CHAMFERD
 40
0.0
  9
$SKPOLY
 70
     0
  9
$TDCREATE
 40
2444972.375000000
  9
$TDUCREATE
 40
2444972.000000000
  9
$TDUPDATE
 40
2453790.574892304
  9
$TDUUPDATE
 40
2453790.199892304
  9
$TDINDWG
 40
0.6455026968
  9
$TDUSRTIMER
 40
0.6455026968
  9
$USRTIMER
 70
     1
  9
$ANGBASE
 50
180.0
  9
$ANGDIR
 70
     0
  9
$PDMODE
 70
     0
  9
$PDSIZE
 40
0.0
  9
$PLINEWID
 40
0.0
  9
$SPLFRAME
 70
     0
  9
$SPLINETYPE
 70
     6
  9
$SPLINESEGS
 70
     8
  9
$HANDSEED
  5
29916
  9
$SURFTAB1
 70
     6
  9
$SURFTAB2
 70
     6
  9
$SURFTYPE
 70
     6
  9
$SURFU
 70
     6
  9
$SURFV
 70
     6
  9
$UCSBASE
  2

  9
$UCSNAME
  2

  9
$UCSORG
 10
0.0
 20
0.0
 30
0.0
  9
$UCSXDIR
 10
1.0
 20
0.0
 30
0.0
  9
$UCSYDIR
 10
0.0
 20
1.0
 30
0.0
  9
$UCSORTHOREF
  2

  9
$UCSORTHOVIEW
 70
     0
  9
$UCSORGTOP
 10
0.0
 20
0.0
 30
0.0
  9
$UCSORGBOTTOM
 10
0.0
 20
0.0
 30
0.0
  9
$UCSORGLEFT
 10
0.0
 20
0.0
 30
0.0
  9
$UCSORGRIGHT
 10
0.0
 20
0.0
 30
0.0
  9
$UCSORGFRONT
 10
0.0
 20
0.0
 30
0.0
  9
$UCSORGBACK
 10
0.0
 20
0.0
 30
0.0
  9
$PUCSBASE
  2

  9
$PUCSNAME
  2

  9
$PUCSORG
 10
0.0
 20
0.0
 30
0.0
  9
$PUCSXDIR
 10
1.0
 20
0.0
 30
0.0
  9
$PUCSYDIR
 10
0.0
 20
1.0
 30
0.0
  9
$PUCSORTHOREF
  2

  9
$PUCSORTHOVIEW
 70
     0
  9
$PUCSORGTOP
 10
0.0
 20
0.0
 30
0.0
  9
$PUCSORGBOTTOM
 10
0.0
 20
0.0
 30
0.0
  9
$PUCSORGLEFT
 10
0.0
 20
0.0
 30
0.0
  9
$PUCSORGRIGHT
 10
0.0
 20
0.0
 30
0.0
  9
$PUCSORGFRONT
 10
0.0
 20
0.0
 30
0.0
  9
$PUCSORGBACK
 10
0.0
 20
0.0
 30
0.0
  9
$USERI1
 70
     0
  9
$USERI2
 70
     0
  9
$USERI3
 70
     0
  9
$USERI4
 70
     0
  9
$USERI5
 70
     0
  9
$USERR1
 40
0.0
  9
$USERR2
 40
0.0
  9
$USERR3
 40
0.0
  9
$USERR4
 40
0.0
  9
$USERR5
 40
0.0
  9
$WORLDVIEW
 70
     1
  9
$SHADEDGE
 70
     3
  9
$SHADEDIF
 70
    70
  9
$TILEMODE
 70
     1
  9
$MAXACTVP
 70
    48
  9
$PINSBASE
 10
0.0
 20
0.0
 30
0.0
  9
$PLIMCHECK
 70
     0
  9
$PEXTMIN
 10
28.36545224189757
 20
19.50931735038756
 30
0.0
  9
$PEXTMAX
 10
255.2890701770782
 20
175.5838561534881
 30
0.0
  9
$PLIMMIN
 10
-7.14373779296875
 20
-7.143749713897705
  9
$PLIMMAX
 10
289.8245849609375
 20
202.829577922821
  9
$UNITMODE
 70
     0
  9
$VISRETAIN
 70
     0
  9
$PLINEGEN
 70
     0
  9
$PSLTSCALE
 70
     1
  9
$TREEDEPTH
 70
  3020
  9
$CMLSTYLE
  2
STANDARD
  9
$CMLJUST
 70
     0
  9
$CMLSCALE
 40
20.0
  9
$PROXYGRAPHICS
 70
     1
  9
$MEASUREMENT
 70
     1
  9
$CELWEIGHT
370
    -1
  9
$ENDCAPS
280
     0
  9
$JOINSTYLE
280
     0
  9
$LWDISPLAY
290
     0
  9
$INSUNITS
 70
     0
  9
$HYPERLINKBASE
  1

  9
$STYLESHEET
  1

  9
$XEDIT
290
     1
  9
$CEPSNTYPE
380
     0
  9
$PSTYLEMODE
290
     1
  9
$FINGERPRINTGUID
  2
{41ACEC81-9508-475E-BA74-0EEB4862B396}
  9
$VERSIONGUID
  2
{00B994D4-0411-47BE-8809-8A58E49E4438}
  9
$EXTNAMES
290
     1
  9
$PSVPSCALE
 40
0.0
  9
$OLESTARTUP
290
     0
  0
ENDSEC
  0
SECTION
  2
CLASSES
  0
CLASS
  1
IMAGE
  2
AcDbRasterImage
  3
ISM
 90
    32895
280
     0
281
     1
  0
CLASS
  1
DICTIONARYVAR
  2
AcDbDictionaryVar
  3
ObjectDBX Classes
 90
        0
280
     0
281
     0
  0
CLASS
  1
RASTERVARIABLES
  2
AcDbRasterVariables
  3
ISM
 90
    32768
280
     0
281
     0
  0
CLASS
  1
IMAGEDEF
  2
AcDbRasterImageDef
  3
ISM
 90
    32768
280
     0
281
     0
  0
CLASS
  1
IMAGEDEF_REACTOR
  2
AcDbRasterImageDefReactor
  3
ISM
 90
    32769
280
     0
281
     0
  0
CLASS
  1
IDBUFFER
  2
AcDbIdBuffer
  3
ObjectDBX Classes
 90
    32768
280
     0
281
     0
  0
CLASS
  1
SPATIAL_FILTER
  2
AcDbSpatialFilter
  3
ObjectDBX Classes
 90
    32768
280
     0
281
     0
  0
CLASS
  1
SORTENTSTABLE
  2
AcDbSortentsTable
  3
ObjectDBX Classes
 90
    32768
280
     0
281
     0
  0
CLASS
  1
LAYER_INDEX
  2
AcDbLayerIndex
  3
ObjectDBX Classes
 90
    32768
280
     0
281
     0
  0
CLASS
  1
SPATIAL_INDEX
  2
AcDbSpatialIndex
  3
ObjectDBX Classes
 90
    32768
280
     0
281
     0
  0
CLASS
  1
OBJECT_PTR
  2
CAseDLPNTableRecord
  3
"ASE-LPNTableRecord"
 90
    32769
280
     0
281
     0
  0
CLASS
  1
LAYOUT
  2
AcDbLayout
  3
ObjectDBX Classes
 90
        0
280
     0
281
     0
  0
CLASS
  1
PLOTSETTINGS
  2
AcDbPlotSettings
  3
ObjectDBX Classes
 90
    32768
280
     0
281
     0
  0
CLASS
  1
ACDBDICTIONARYWDFLT
  2
AcDbDictionaryWithDefault
  3
ObjectDBX Classes
 90
        0
280
     0
281
     0
  0
CLASS
  1
ACDBPLACEHOLDER
  2
AcDbPlaceHolder
  3
ObjectDBX Classes
 90
        0
280
     0
281
     0
  0
CLASS
  1
VBA_PROJECT
  2
AcDbVbaProject
  3
acad
 90
    32768
280
     0
281
     0
  0
CLASS
  1
WIPEOUT
  2
AcDbWipeout
  3
"WipeOut|Product Desc: Object Enabler for WipeOut entity^I^I^I^I^I^I|Company: Autodesk, Inc.^I^I^I^I^I^I|WEB Address: www.autodesk.com"
 90
    32895
280
     0
281
     1
  0
CLASS
  1
WIPEOUTVARIABLES
  2
AcDbWipeoutVariables
  3
"WipeOut|Product Desc:     WipeOut Dbx Application|Company:          Autodesk, Inc.|WEB Address:      www.autodesk.com"
 90
    32768
280
     0
281
     0
  0
CLASS
  1
RTEXT
  2
RText
  3
RText|AutoCAD Express Tool|expresstools@autodesk.com
 90
    32768
280
     0
281
     1
  0
CLASS
  1
ARCALIGNEDTEXT
  2
AcDbArcAlignedText
  3
ATEXT|AutoCAD Express Tool|expresstools@autodesk.com
 90
    32768
280
     0
281
     1
  0
ENDSEC
  0
SECTION
  2
TABLES
  0
TABLE
  2
VPORT
  5
7
330
0
100
AcDbSymbolTable
 70
     2
  0
VPORT
  5
2990A
330
7
100
AcDbSymbolTableRecord
100
AcDbViewportTableRecord
  2
*Active
 70
     0
 10
0.0
 20
0.0
 11
1.0
 21
1.0
 12
683.348051234774
 22
439.709717517459
 13
0.0
 23
0.0
 14
1.0
 24
1.0
 15
0.0
 25
0.0
 16
0.0
 26
0.0
 36
1.0
 17
0.0
 27
0.0
 37
0.0
 40
889.6643325124086
 41
1.661469933184855
 42
50.0
 43
0.0
 44
0.0
 50
0.0
 51
0.0
 71
     0
 72
   100
 73
     1
 74
     1
 75
     0
 76
     0
 77
     0
 78
     0
281
     0
 65
     1
110
0.0
120
0.0
130
0.0
111
1.0
121
0.0
131
0.0
112
0.0
122
1.0
132
0.0
 79
     0
146
0.0
  0
ENDTAB
  0
TABLE
  2
LTYPE
  5
4
330
0
100
AcDbSymbolTable
 70
     3
  0
LTYPE
  5
11
330
4
100
AcDbSymbolTableRecord
100
AcDbLinetypeTableRecord
  2
BYBLOCK
 70
     0
  3

 72
    65
 73
     0
 40
0.0
  0
LTYPE
  5
12
330
4
100
AcDbSymbolTableRecord
100
AcDbLinetypeTableRecord
  2
BYLAYER
 70
     0
  3

 72
    65
 73
     0
 40
0.0
  0
LTYPE
  5
13
330
4
100
AcDbSymbolTableRecord
100
AcDbLinetypeTableRecord
  2
CONTINUOUS
 70
     0
  3
Solid line
 72
    65
 73
     0
 40
0.0
  0
LTYPE
  5
15850
330
4
100
AcDbSymbolTableRecord
100
AcDbLinetypeTableRecord
  2
DASHDOT
 70
     0
  3
Dash dot __ . __ . __ . __ . __ . __ . __ . __
 72
    65
 73
     4
 40
25.4
 49
12.7
 74
     0
 49
-6.349999999999999
 74
     0
 49
0.0
 74
     0
 49
-6.349999999999999
 74
     0
  0
LTYPE
  5
15855
330
4
100
AcDbSymbolTableRecord
100
AcDbLinetypeTableRecord
  2
HIDDEN
 70
     0
  3
Hidden __ __ __ __ __ __ __ __ __ __ __ __ __ _
 72
    65
 73
     2
 40
9.524999999999998
 49
6.349999999999999
 74
     0
 49
-3.174999999999999
 74
     0
  0
ENDTAB
  0
TABLE
  2
LAYER
  5
2
330
0
100
AcDbSymbolTable
 70
     6
  0
LAYER
  5
14
330
2
100
AcDbSymbolTableRecord
100
AcDbLayerTableRecord
  2
0
 70
     0
 62
     7
  6
CONTINUOUS
370
    -3
390
1328
  0
LAYER
  5
2F7F
330
2
100
AcDbSymbolTableRecord
100
AcDbLayerTableRecord
  2
Defpoints
 70
     0
 62
     4
  6
CONTINUOUS
290
     0
370
    -3
390
1328
  0
LAYER
  5
531C
330
2
100
AcDbSymbolTableRecord
100
AcDbLayerTableRecord
  2
buhin-1
 70
     0
 62
     7
  6
CONTINUOUS
370
    -3
390
1328
  0
LAYER
  5
15851
330
2
100
AcDbSymbolTableRecord
100
AcDbLayerTableRecord
  2
BUHIN-2
 70
     0
 62
     3
  6
CONTINUOUS
370
    -3
390
1328
  0
LAYER
  5
15852
330
2
100
AcDbSymbolTableRecord
100
AcDbLayerTableRecord
  2
BUHIN-3
 70
     0
 62
     5
  6
CONTINUOUS
370
    -3
390
1328
  0
LAYER
  5
15853
330
2
100
AcDbSymbolTableRecord
100
AcDbLayerTableRecord
  2
BUHIN
 70
     0
 62
     6
  6
CONTINUOUS
370
    -3
390
1328
  0
ENDTAB
  0
TABLE
  2
STYLE
  5
3
330
0
100
AcDbSymbolTable
 70
     1
  0
STYLE
  5
17
330
3
100
AcDbSymbolTableRecord
100
AcDbTextStyleTableRecord
  2
STANDARD
 70
     0
 40
0.0
 41
1.0
 50
0.0
 71
     0
 42
0.0
  3
MS Gothic.ttf
  4

1001
ACAD
1000
MS Gothic
1071
    32817
  0
ENDTAB
  0
TABLE
  2
VIEW
  5
5
330
0
100
AcDbSymbolTable
 70
     0
  0
ENDTAB
  0
TABLE
  2
UCS
  5
6
330
0
100
AcDbSymbolTable
 70
     0
  0
ENDTAB
  0
TABLE
  2
APPID
  5
8
330
0
100
AcDbSymbolTable
 70
     1
  0
APPID
  5
16
330
8
100
AcDbSymbolTableRecord
100
AcDbRegAppTableRecord
  2
ACAD
 70
     0
  0
ENDTAB
  0
TABLE
  2
DIMSTYLE
  5
9
330
0
100
AcDbSymbolTable
 70
     1
100
AcDbDimStyleTable
 71
     1
340
18
  0
DIMSTYLE
105
18
330
9
100
AcDbSymbolTableRecord
100
AcDbDimStyleTableRecord
  2
STANDARD
 70
     0
 41
2.5
 42
0.625
 43
3.75
 44
1.25
 73
     0
 74
     0
 77
     1
 78
     8
140
2.5
141
2.5
143
0.039370079
147
0.625
171
     3
172
     1
271
     2
272
     2
274
     3
283
     0
284
     8
289
     0
340
17
341
531E
342
531E
  0
ENDTAB
  0
TABLE
  2
BLOCK_RECORD
  5
1
330
0
100
AcDbSymbolTable
 70
    40
  0
BLOCK_RECORD
  5
A
330
1
100
AcDbSymbolTableRecord
100
AcDbBlockTableRecord
  2
*MODEL_SPACE
340
132D
  0
BLOCK_RECORD
  5
B
330
1
100
AcDbSymbolTableRecord
100
AcDbBlockTableRecord
  2
*PAPER_SPACE
340
132E
  0
BLOCK_RECORD
  5
1488
330
1
100
AcDbSymbolTableRecord
100
AcDbBlockTableRecord
  2
XH19
340
0
102
{BLKREFS
331
1905
331
1B79
331
4E13
102
}
  0
BLOCK_RECORD
  5
148B
330
1
100
AcDbSymbolTableRecord
100
AcDbBlockTableRecord
  2
XH21
340
0
102
{BLKREFS
331
1906
331
1B7A
331
4E14
102
}
  0
BLOCK_RECORD
  5
148E
330
1
100
AcDbSymbolTableRecord
100
AcDbBlockTableRecord
  2
XH30
340
0
102
{BLKREFS
331
1907
331
1B7B
331
4E15
102
}
  0
BLOCK_RECORD
  5
1491
330
1
100
AcDbSymbolTableRecord
100
AcDbBlockTableRecord
  2
XH32
340
0
102
{BLKREFS
331
1908
331
1B7C
331
4E16
102
}
  0
BLOCK_RECORD
  5
1494
330
1
100
AcDbSymbolTableRecord
100
AcDbBlockTableRecord
  2
XH33
340
0
102
{BLKREFS
331
1909
331
1B7D
331
4E17
102
}
  0
BLOCK_RECORD
  5
1497
330
1
100
AcDbSymbolTableRecord
100
AcDbBlockTableRecord
  2
XH39
340
0
102
{BLKREFS
331
190A
331
1B7E
331
27AB
331
4E18
102
}
  0
BLOCK_RECORD
  5
149A
330
1
100
AcDbSymbolTableRecord
100
AcDbBlockTableRecord
  2
XH40
340
0
102
{BLKREFS
331
190B
331
1B7F
331
27AA
331
4E19
102
}
  0
BLOCK_RECORD
  5
149D
330
1
100
AcDbSymbolTableRecord
100
AcDbBlockTableRecord
  2
XH42
340
0
102
{BLKREFS
331
190C
331
1B80
331
27A8
331
4E1A
102
}
  0
BLOCK_RECORD
  5
14A0
330
1
100
AcDbSymbolTableRecord
100
AcDbBlockTableRecord
  2
XH43
340
0
102
{BLKREFS
331
190D
331
1B81
331
27A7
331
4E1B
102
}
  0
BLOCK_RECORD
  5
14A3
330
1
100
AcDbSymbolTableRecord
100
AcDbBlockTableRecord
  2
XH44
340
0
102
{BLKREFS
331
190E
331
1B82
331
27A6
331
4E1C
102
}
  0
BLOCK_RECORD
  5
14A6
330
1
100
AcDbSymbolTableRecord
100
AcDbBlockTableRecord
  2
XH45
340
0
102
{BLKREFS
331
190F
331
1B83
331
27A5
331
4E1D
102
}
  0
BLOCK_RECORD
  5
14A9
330
1
100
AcDbSymbolTableRecord
100
AcDbBlockTableRecord
  2
XH46
340
0
102
{BLKREFS
331
1910
331
1B84
331
27A4
331
4E1E
102
}
  0
BLOCK_RECORD
  5
14AC
330
1
100
AcDbSymbolTableRecord
100
AcDbBlockTableRecord
  2
XH47
340
0
102
{BLKREFS
331
1911
331
1B85
331
27A3
331
4E1F
102
}
  0
BLOCK_RECORD
  5
14AF
330
1
100
AcDbSymbolTableRecord
100
AcDbBlockTableRecord
  2
XH48
340
0
102
{BLKREFS
331
1912
331
1B86
331
27A2
331
4E20
102
}
  0
BLOCK_RECORD
  5
14B2
330
1
100
AcDbSymbolTableRecord
100
AcDbBlockTableRecord
  2
XH49
340
0
102
{BLKREFS
331
1913
331
1B87
331
27A1
331
4E21
102
}
  0
BLOCK_RECORD
  5
14B5
330
1
100
AcDbSymbolTableRecord
100
AcDbBlockTableRecord
  2
XH50
340
0
102
{BLKREFS
331
1914
331
1B88
331
27A0
331
4E22
102
}
  0
BLOCK_RECORD
  5
14B8
330
1
100
AcDbSymbolTableRecord
100
AcDbBlockTableRecord
  2
XH51
340
0
102
{BLKREFS
331
1915
331
1B89
331
279F
331
4E23
102
}
  0
BLOCK_RECORD
  5
14BB
330
1
100
AcDbSymbolTableRecord
100
AcDbBlockTableRecord
  2
XH52
340
0
102
{BLKREFS
331
1916
331
1B8A
331
279E
331
4E24
102
}
  0
BLOCK_RECORD
  5
14BE
330
1
100
AcDbSymbolTableRecord
100
AcDbBlockTableRecord
  2
XH53
340
0
102
{BLKREFS
331
1917
331
1B8B
331
279D
331
4E25
102
}
  0
BLOCK_RECORD
  5
14C1
330
1
100
AcDbSymbolTableRecord
100
AcDbBlockTableRecord
  2
XH54
340
0
102
{BLKREFS
331
1918
331
1B8C
331
279C
331
4E26
102
}
  0
BLOCK_RECORD
  5
14C4
330
1
100
AcDbSymbolTableRecord
100
AcDbBlockTableRecord
  2
XH55
340
0
102
{BLKREFS
331
1919
331
1B8D
331
279B
331
4E27
102
}
  0
BLOCK_RECORD
  5
14C7
330
1
100
AcDbSymbolTableRecord
100
AcDbBlockTableRecord
  2
XH56
340
0
102
{BLKREFS
331
191A
331
1B8E
331
279A
331
4E28
102
}
  0
BLOCK_RECORD
  5
14CA
330
1
100
AcDbSymbolTableRecord
100
AcDbBlockTableRecord
  2
XH57
340
0
102
{BLKREFS
331
191B
331
1B8F
331
2799
331
4E29
102
}
  0
BLOCK_RECORD
  5
14CD
330
1
100
AcDbSymbolTableRecord
100
AcDbBlockTableRecord
  2
XH58
340
0
102
{BLKREFS
331
191C
331
1B90
331
2798
331
4E2A
102
}
  0
BLOCK_RECORD
  5
14D0
330
1
100
AcDbSymbolTableRecord
100
AcDbBlockTableRecord
  2
XH76
340
0
102
{BLKREFS
331
191D
331
1B91
331
2786
331
4E2B
102
}
  0
BLOCK_RECORD
  5
14D3
330
1
100
AcDbSymbolTableRecord
100
AcDbBlockTableRecord
  2
XH102
340
0
102
{BLKREFS
331
191E
331
1B92
331
276C
331
4E2C
102
}
  0
BLOCK_RECORD
  5
14D6
330
1
100
AcDbSymbolTableRecord
100
AcDbBlockTableRecord
  2
XH103
340
0
102
{BLKREFS
331
191F
331
1B93
331
276B
331
4E2D
102
}
  0
BLOCK_RECORD
  5
14D9
330
1
100
AcDbSymbolTableRecord
100
AcDbBlockTableRecord
  2
XH104
340
0
102
{BLKREFS
331
1920
331
1B94
331
276A
331
4E2E
102
}
  0
BLOCK_RECORD
  5
14DC
330
1
100
AcDbSymbolTableRecord
100
AcDbBlockTableRecord
  2
XH105
340
0
102
{BLKREFS
331
1921
331
1B95
331
2769
331
4E2F
102
}
  0
BLOCK_RECORD
  5
14DF
330
1
100
AcDbSymbolTableRecord
100
AcDbBlockTableRecord
  2
XH106
340
0
102
{BLKREFS
331
1922
331
1B96
331
2768
331
4E30
102
}
  0
BLOCK_RECORD
  5
14E2
330
1
100
AcDbSymbolTableRecord
100
AcDbBlockTableRecord
  2
XH107
340
0
102
{BLKREFS
331
1923
331
1B97
331
2767
331
4E31
102
}
  0
BLOCK_RECORD
  5
14E5
330
1
100
AcDbSymbolTableRecord
100
AcDbBlockTableRecord
  2
XH108
340
0
102
{BLKREFS
331
1924
331
1B98
331
2766
331
4E32
102
}
  0
BLOCK_RECORD
  5
14E8
330
1
100
AcDbSymbolTableRecord
100
AcDbBlockTableRecord
  2
XH109
340
0
102
{BLKREFS
331
1925
331
1B99
331
2765
331
4E33
102
}
  0
BLOCK_RECORD
  5
14EB
330
1
100
AcDbSymbolTableRecord
100
AcDbBlockTableRecord
  2
XH127
340
0
102
{BLKREFS
331
1926
331
1B9A
331
4E34
102
}
  0
BLOCK_RECORD
  5
14EE
330
1
100
AcDbSymbolTableRecord
100
AcDbBlockTableRecord
  2
XH211
340
0
102
{BLKREFS
331
1927
331
1B9B
331
4E35
102
}
  0
BLOCK_RECORD
  5
14F1
330
1
100
AcDbSymbolTableRecord
100
AcDbBlockTableRecord
  2
XH218
340
0
102
{BLKREFS
331
1928
331
1B9C
331
4E36
102
}
  0
BLOCK_RECORD
  5
14F4
330
1
100
AcDbSymbolTableRecord
100
AcDbBlockTableRecord
  2
XH221
340
0
102
{BLKREFS
331
1929
331
1B9D
331
4E37
102
}
  0
BLOCK_RECORD
  5
14F7
330
1
100
AcDbSymbolTableRecord
100
AcDbBlockTableRecord
  2
XH225
340
0
102
{BLKREFS
331
192A
331
1B9E
331
4E38
102
}
  0
BLOCK_RECORD
  5
531E
330
1
100
AcDbSymbolTableRecord
100
AcDbBlockTableRecord
  2
_Open30
340
0
102
{BLKREFS
331
158A8
331
158A9
102
}
  0
BLOCK_RECORD
  5
28A77
330
1
100
AcDbSymbolTableRecord
100
AcDbBlockTableRecord
  2
box
340
0
102
{BLKREFS
331
28AB4
331
298EA
102
}
  0
ENDTAB
  0
ENDSEC
  0
SECTION
  2
BLOCKS
  0
BLOCK
  5
D
330
A
100
AcDbEntity
  8
0
100
AcDbBlockBegin
  2
*MODEL_SPACE
 70
     0
 10
0.0
 20
0.0
 30
0.0
  3
*MODEL_SPACE
  1

  0
ENDBLK
  5
E
330
A
100
AcDbEntity
  8
0
100
AcDbBlockEnd
  0
BLOCK
  5
F
330
B
100
AcDbEntity
 67
     1
  8
0
100
AcDbBlockBegin
  2
*PAPER_SPACE
 70
     0
 10
0.0
 20
0.0
 30
0.0
  3
*PAPER_SPACE
  1

  0
ENDBLK
  5
10
330
B
100
AcDbEntity
 67
     1
  8
0
100
AcDbBlockEnd
  0
BLOCK
  5
1489
330
1488
100
AcDbEntity
  8
0
  6
Continuous
 62
     7
100
AcDbBlockBegin
  2
XH19
 70
     0
 10
0.0
 20
0.0
 30
0.0
  3
XH19
  1

  0
ENDBLK
  5
148A
330
1488
100
AcDbEntity
  8
0
100
AcDbBlockEnd
  0
BLOCK
  5
148C
330
148B
100
AcDbEntity
  8
0
  6
Continuous
 62
     7
100
AcDbBlockBegin
  2
XH21
 70
     0
 10
0.0
 20
0.0
 30
0.0
  3
XH21
  1

  0
ENDBLK
  5
148D
330
148B
100
AcDbEntity
  8
0
100
AcDbBlockEnd
  0
BLOCK
  5
148F
330
148E
100
AcDbEntity
  8
0
  6
Continuous
 62
     7
100
AcDbBlockBegin
  2
XH30
 70
     0
 10
0.0
 20
0.0
 30
0.0
  3
XH30
  1

  0
ENDBLK
  5
1490
330
148E
100
AcDbEntity
  8
0
100
AcDbBlockEnd
  0
BLOCK
  5
1492
330
1491
100
AcDbEntity
  8
0
  6
Continuous
 62
     7
100
AcDbBlockBegin
  2
XH32
 70
     0
 10
0.0
 20
0.0
 30
0.0
  3
XH32
  1

  0
ENDBLK
  5
1493
330
1491
100
AcDbEntity
  8
0
100
AcDbBlockEnd
  0
BLOCK
  5
1495
330
1494
100
AcDbEntity
  8
0
  6
Continuous
 62
     7
100
AcDbBlockBegin
  2
XH33
 70
     0
 10
0.0
 20
0.0
 30
0.0
  3
XH33
  1

  0
ENDBLK
  5
1496
330
1494
100
AcDbEntity
  8
0
100
AcDbBlockEnd
  0
BLOCK
  5
1498
330
1497
100
AcDbEntity
  8
0
  6
Continuous
 62
     7
100
AcDbBlockBegin
  2
XH39
 70
     0
 10
0.0
 20
0.0
 30
0.0
  3
XH39
  1

  0
ENDBLK
  5
1499
330
1497
100
AcDbEntity
  8
0
100
AcDbBlockEnd
  0
BLOCK
  5
149B
330
149A
100
AcDbEntity
  8
0
  6
Continuous
 62
     7
100
AcDbBlockBegin
  2
XH40
 70
     0
 10
0.0
 20
0.0
 30
0.0
  3
XH40
  1

  0
ENDBLK
  5
149C
330
149A
100
AcDbEntity
  8
0
100
AcDbBlockEnd
  0
BLOCK
  5
149E
330
149D
100
AcDbEntity
  8
0
  6
Continuous
 62
     7
100
AcDbBlockBegin
  2
XH42
 70
     0
 10
0.0
 20
0.0
 30
0.0
  3
XH42
  1

  0
ENDBLK
  5
149F
330
149D
100
AcDbEntity
  8
0
100
AcDbBlockEnd
  0
BLOCK
  5
14A1
330
14A0
100
AcDbEntity
  8
0
  6
Continuous
 62
     7
100
AcDbBlockBegin
  2
XH43
 70
     0
 10
0.0
 20
0.0
 30
0.0
  3
XH43
  1

  0
ENDBLK
  5
14A2
330
14A0
100
AcDbEntity
  8
0
100
AcDbBlockEnd
  0
BLOCK
  5
14A4
330
14A3
100
AcDbEntity
  8
0
  6
Continuous
 62
     7
100
AcDbBlockBegin
  2
XH44
 70
     0
 10
0.0
 20
0.0
 30
0.0
  3
XH44
  1

  0
ENDBLK
  5
14A5
330
14A3
100
AcDbEntity
  8
0
100
AcDbBlockEnd
  0
BLOCK
  5
14A7
330
14A6
100
AcDbEntity
  8
0
  6
Continuous
 62
     7
100
AcDbBlockBegin
  2
XH45
 70
     0
 10
0.0
 20
0.0
 30
0.0
  3
XH45
  1

  0
ENDBLK
  5
14A8
330
14A6
100
AcDbEntity
  8
0
100
AcDbBlockEnd
  0
BLOCK
  5
14AA
330
14A9
100
AcDbEntity
  8
0
  6
Continuous
 62
     7
100
AcDbBlockBegin
  2
XH46
 70
     0
 10
0.0
 20
0.0
 30
0.0
  3
XH46
  1

  0
ENDBLK
  5
14AB
330
14A9
100
AcDbEntity
  8
0
100
AcDbBlockEnd
  0
BLOCK
  5
14AD
330
14AC
100
AcDbEntity
  8
0
  6
Continuous
 62
     7
100
AcDbBlockBegin
  2
XH47
 70
     0
 10
0.0
 20
0.0
 30
0.0
  3
XH47
  1

  0
ENDBLK
  5
14AE
330
14AC
100
AcDbEntity
  8
0
100
AcDbBlockEnd
  0
BLOCK
  5
14B0
330
14AF
100
AcDbEntity
  8
0
  6
Continuous
 62
     7
100
AcDbBlockBegin
  2
XH48
 70
     0
 10
0.0
 20
0.0
 30
0.0
  3
XH48
  1

  0
ENDBLK
  5
14B1
330
14AF
100
AcDbEntity
  8
0
100
AcDbBlockEnd
  0
BLOCK
  5
14B3
330
14B2
100
AcDbEntity
  8
0
  6
Continuous
 62
     7
100
AcDbBlockBegin
  2
XH49
 70
     0
 10
0.0
 20
0.0
 30
0.0
  3
XH49
  1

  0
ENDBLK
  5
14B4
330
14B2
100
AcDbEntity
  8
0
100
AcDbBlockEnd
  0
BLOCK
  5
14B6
330
14B5
100
AcDbEntity
  8
0
  6
Continuous
 62
     7
100
AcDbBlockBegin
  2
XH50
 70
     0
 10
0.0
 20
0.0
 30
0.0
  3
XH50
  1

  0
ENDBLK
  5
14B7
330
14B5
100
AcDbEntity
  8
0
100
AcDbBlockEnd
  0
BLOCK
  5
14B9
330
14B8
100
AcDbEntity
  8
0
  6
Continuous
 62
     7
100
AcDbBlockBegin
  2
XH51
 70
     0
 10
0.0
 20
0.0
 30
0.0
  3
XH51
  1

  0
ENDBLK
  5
14BA
330
14B8
100
AcDbEntity
  8
0
100
AcDbBlockEnd
  0
BLOCK
  5
14BC
330
14BB
100
AcDbEntity
  8
0
  6
Continuous
 62
     7
100
AcDbBlockBegin
  2
XH52
 70
     0
 10
0.0
 20
0.0
 30
0.0
  3
XH52
  1

  0
ENDBLK
  5
14BD
330
14BB
100
AcDbEntity
  8
0
100
AcDbBlockEnd
  0
BLOCK
  5
14BF
330
14BE
100
AcDbEntity
  8
0
  6
Continuous
 62
     7
100
AcDbBlockBegin
  2
XH53
 70
     0
 10
0.0
 20
0.0
 30
0.0
  3
XH53
  1

  0
ENDBLK
  5
14C0
330
14BE
100
AcDbEntity
  8
0
100
AcDbBlockEnd
  0
BLOCK
  5
14C2
330
14C1
100
AcDbEntity
  8
0
  6
Continuous
 62
     7
100
AcDbBlockBegin
  2
XH54
 70
     0
 10
0.0
 20
0.0
 30
0.0
  3
XH54
  1

  0
ENDBLK
  5
14C3
330
14C1
100
AcDbEntity
  8
0
100
AcDbBlockEnd
  0
BLOCK
  5
14C5
330
14C4
100
AcDbEntity
  8
0
  6
Continuous
 62
     7
100
AcDbBlockBegin
  2
XH55
 70
     0
 10
0.0
 20
0.0
 30
0.0
  3
XH55
  1

  0
ENDBLK
  5
14C6
330
14C4
100
AcDbEntity
  8
0
100
AcDbBlockEnd
  0
BLOCK
  5
14C8
330
14C7
100
AcDbEntity
  8
0
  6
Continuous
 62
     7
100
AcDbBlockBegin
  2
XH56
 70
     0
 10
0.0
 20
0.0
 30
0.0
  3
XH56
  1

  0
ENDBLK
  5
14C9
330
14C7
100
AcDbEntity
  8
0
100
AcDbBlockEnd
  0
BLOCK
  5
14CB
330
14CA
100
AcDbEntity
  8
0
  6
Continuous
 62
     7
100
AcDbBlockBegin
  2
XH57
 70
     0
 10
0.0
 20
0.0
 30
0.0
  3
XH57
  1

  0
ENDBLK
  5
14CC
330
14CA
100
AcDbEntity
  8
0
100
AcDbBlockEnd
  0
BLOCK
  5
14CE
330
14CD
100
AcDbEntity
  8
0
  6
Continuous
 62
     7
100
AcDbBlockBegin
  2
XH58
 70
     0
 10
0.0
 20
0.0
 30
0.0
  3
XH58
  1

  0
ENDBLK
  5
14CF
330
14CD
100
AcDbEntity
  8
0
100
AcDbBlockEnd
  0
BLOCK
  5
14D1
330
14D0
100
AcDbEntity
  8
0
  6
Continuous
 62
     7
100
AcDbBlockBegin
  2
XH76
 70
     0
 10
0.0
 20
0.0
 30
0.0
  3
XH76
  1

  0
ENDBLK
  5
14D2
330
14D0
100
AcDbEntity
  8
0
100
AcDbBlockEnd
  0
BLOCK
  5
14D4
330
14D3
100
AcDbEntity
  8
0
  6
Continuous
 62
     7
100
AcDbBlockBegin
  2
XH102
 70
     0
 10
0.0
 20
0.0
 30
0.0
  3
XH102
  1

  0
ENDBLK
  5
14D5
330
14D3
100
AcDbEntity
  8
0
100
AcDbBlockEnd
  0
BLOCK
  5
14D7
330
14D6
100
AcDbEntity
  8
0
  6
Continuous
 62
     7
100
AcDbBlockBegin
  2
XH103
 70
     0
 10
0.0
 20
0.0
 30
0.0
  3
XH103
  1

  0
ENDBLK
  5
14D8
330
14D6
100
AcDbEntity
  8
0
100
AcDbBlockEnd
  0
BLOCK
  5
14DA
330
14D9
100
AcDbEntity
  8
0
  6
Continuous
 62
     7
100
AcDbBlockBegin
  2
XH104
 70
     0
 10
0.0
 20
0.0
 30
0.0
  3
XH104
  1

  0
ENDBLK
  5
14DB
330
14D9
100
AcDbEntity
  8
0
100
AcDbBlockEnd
  0
BLOCK
  5
14DD
330
14DC
100
AcDbEntity
  8
0
  6
Continuous
 62
     7
100
AcDbBlockBegin
  2
XH105
 70
     0
 10
0.0
 20
0.0
 30
0.0
  3
XH105
  1

  0
ENDBLK
  5
14DE
330
14DC
100
AcDbEntity
  8
0
100
AcDbBlockEnd
  0
BLOCK
  5
14E0
330
14DF
100
AcDbEntity
  8
0
  6
Continuous
 62
     7
100
AcDbBlockBegin
  2
XH106
 70
     0
 10
0.0
 20
0.0
 30
0.0
  3
XH106
  1

  0
ENDBLK
  5
14E1
330
14DF
100
AcDbEntity
  8
0
100
AcDbBlockEnd
  0
BLOCK
  5
14E3
330
14E2
100
AcDbEntity
  8
0
  6
Continuous
 62
     7
100
AcDbBlockBegin
  2
XH107
 70
     0
 10
0.0
 20
0.0
 30
0.0
  3
XH107
  1

  0
ENDBLK
  5
14E4
330
14E2
100
AcDbEntity
  8
0
100
AcDbBlockEnd
  0
BLOCK
  5
14E6
330
14E5
100
AcDbEntity
  8
0
  6
Continuous
 62
     7
100
AcDbBlockBegin
  2
XH108
 70
     0
 10
0.0
 20
0.0
 30
0.0
  3
XH108
  1

  0
ENDBLK
  5
14E7
330
14E5
100
AcDbEntity
  8
0
100
AcDbBlockEnd
  0
BLOCK
  5
14E9
330
14E8
100
AcDbEntity
  8
0
  6
Continuous
 62
     7
100
AcDbBlockBegin
  2
XH109
 70
     0
 10
0.0
 20
0.0
 30
0.0
  3
XH109
  1

  0
ENDBLK
  5
14EA
330
14E8
100
AcDbEntity
  8
0
100
AcDbBlockEnd
  0
BLOCK
  5
14EC
330
14EB
100
AcDbEntity
  8
0
  6
Continuous
 62
     7
100
AcDbBlockBegin
  2
XH127
 70
     0
 10
0.0
 20
0.0
 30
0.0
  3
XH127
  1

  0
ENDBLK
  5
14ED
330
14EB
100
AcDbEntity
  8
0
100
AcDbBlockEnd
  0
BLOCK
  5
14EF
330
14EE
100
AcDbEntity
  8
0
  6
Continuous
 62
     7
100
AcDbBlockBegin
  2
XH211
 70
     0
 10
0.0
 20
0.0
 30
0.0
  3
XH211
  1

  0
ENDBLK
  5
14F0
330
14EE
100
AcDbEntity
  8
0
100
AcDbBlockEnd
  0
BLOCK
  5
14F2
330
14F1
100
AcDbEntity
  8
0
  6
Continuous
 62
     7
100
AcDbBlockBegin
  2
XH218
 70
     0
 10
0.0
 20
0.0
 30
0.0
  3
XH218
  1

  0
ENDBLK
  5
14F3
330
14F1
100
AcDbEntity
  8
0
100
AcDbBlockEnd
  0
BLOCK
  5
14F5
330
14F4
100
AcDbEntity
  8
0
  6
Continuous
 62
     7
100
AcDbBlockBegin
  2
XH221
 70
     0
 10
0.0
 20
0.0
 30
0.0
  3
XH221
  1

  0
ENDBLK
  5
14F6
330
14F4
100
AcDbEntity
  8
0
100
AcDbBlockEnd
  0
BLOCK
  5
14F8
330
14F7
100
AcDbEntity
  8
0
  6
Continuous
 62
     7
100
AcDbBlockBegin
  2
XH225
 70
     0
 10
0.0
 20
0.0
 30
0.0
  3
XH225
  1

  0
ENDBLK
  5
14F9
330
14F7
100
AcDbEntity
  8
0
100
AcDbBlockEnd
  0
BLOCK
  5
531F
330
531E
100
AcDbEntity
  8
0
100
AcDbBlockBegin
  2
_Open30
 70
     0
 10
0.0
 20
0.0
 30
0.0
  3
_Open30
  1

  0
LINE
  5
5320
330
531E
100
AcDbEntity
  8
0
  6
ByBlock
 62
     0
370
    -2
100
AcDbLine
 10
-1.0
 20
0.26794919
 30
0.0
 11
0.0
 21
0.0
 31
0.0
  0
LINE
  5
5321
330
531E
100
AcDbEntity
  8
0
  6
ByBlock
 62
     0
370
    -2
100
AcDbLine
 10
0.0
 20
0.0
 30
0.0
 11
-1.0
 21
-0.26794919
 31
0.0
  0
LINE
  5
5322
330
531E
100
AcDbEntity
  8
0
  6
ByBlock
 62
     0
370
    -2
100
AcDbLine
 10
0.0
 20
0.0
 30
0.0
 11
-1.0
 21
0.0
 31
0.0
  0
ENDBLK
  5
5323
330
531E
100
AcDbEntity
  8
0
100
AcDbBlockEnd
  0
BLOCK
  5
28A78
330
28A77
100
AcDbEntity
  8
0
100
AcDbBlockBegin
  2
box
 70
     0
 10
0.0
 20
0.0
 30
0.0
  3
box
  1

  0
LINE
  5
298BB
330
28A77
100
AcDbEntity
  8
buhin-1
 48
0.0350000381469727
100
AcDbLine
 10
34.0
 20
-61.59999847412115
 30
0.0
 11
34.0
 21
-63.00000000000006
 31
0.0
  0
ARC
  5
298BC
330
28A77
100
AcDbEntity
  8
buhin-1
100
AcDbCircle
 10
33.39999997615815
 20
-61.59999847412115
 30
0.0
 40
0.6000000238418579
100
AcDbArc
 50
359.999999316757
 51
89.99999499104957
  0
ARC
  5
298BD
330
28A77
100
AcDbEntity
  8
buhin-1
100
AcDbCircle
 10
32.60000002384186
 20
-60.40000152587897
 30
0.0
 40
0.6000000238418579
100
AcDbArc
 50
234.0311509986955
 51
270.0
  0
LINE
  5
298BE
330
28A77
100
AcDbEntity
  8
buhin-1
100
AcDbLine
 10
34.0
 20
-63.00000000000006
 30
0.0
 11
-10.0
 21
-63.0
 31
0.0
  0
LINE
  5
298BF
330
28A77
100
AcDbEntity
  8
buhin-1
 48
0.0350000381469727
100
AcDbLine
 10
-10.0
 20
-61.59999847412109
 30
0.0
 11
-10.0
 21
-63.0
 31
0.0
  0
ARC
  5
298C0
330
28A77
100
AcDbEntity
  8
buhin-1
100
AcDbCircle
 10
-9.400001525878906
 20
-61.59999847412109
 30
0.0
 40
0.6000000238418579
100
AcDbArc
 50
89.99999499104957
 51
179.9999974955247
  0
ARC
  5
298C1
330
28A77
100
AcDbEntity
  8
buhin-1
100
AcDbCircle
 10
32.59999620914459
 20
60.40000152587885
 30
0.0
 40
0.6000000238418579
100
AcDbArc
 50
89.99999499104957
 51
126.1583943027559
  0
ARC
  5
298C2
330
28A77
100
AcDbEntity
  8
buhin-1
100
AcDbCircle
 10
33.39999616146088
 20
61.59999847412104
 30
0.0
 40
0.6000000238418579
100
AcDbArc
 50
269.9999899820861
 51
359.999999316757
  0
ARC
  5
298C3
330
28A77
100
AcDbEntity
  8
buhin-1
100
AcDbCircle
 10
-9.400005340576171
 20
61.59999847412109
 30
0.0
 40
0.6000000238418579
100
AcDbArc
 50
179.9999974955247
 51
270.0
  0
LINE
  5
298C4
330
28A77
100
AcDbEntity
  8
buhin-1
 48
0.0199999988079071
100
AcDbLine
 10
33.39999616146088
 20
60.99999999999994
 30
0.0
 11
32.59999620914459
 21
60.99999999999994
 31
0.0
  0
LINE
  5
298C5
330
28A77
100
AcDbEntity
  8
buhin-1
 48
0.0350000381469727
100
AcDbLine
 10
33.99999618530273
 20
62.99999999999994
 30
0.0
 11
33.99999618530273
 21
61.59999847412104
 31
0.0
  0
LINE
  5
298C6
330
28A77
100
AcDbEntity
  8
buhin-1
100
AcDbLine
 10
33.99999618530273
 20
62.99999999999994
 30
0.0
 11
-10.00000381469726
 21
63.0
 31
0.0
  0
LINE
  5
298C7
330
28A77
100
AcDbEntity
  8
buhin-1
 48
0.0350000381469727
100
AcDbLine
 10
-10.00000381469726
 20
63.0
 30
0.0
 11
-10.00000381469726
 21
61.59999847412109
 31
0.0
  0
LINE
  5
298C8
330
28A77
100
AcDbEntity
  8
buhin-1
  6
DASHDOT
100
AcDbLine
 10
11.99999618530273
 20
67.55589294433594
 30
0.0
 11
11.99999618530273
 21
-67.63455963134766
 31
0.0
  0
CIRCLE
  5
298C9
330
28A77
100
AcDbEntity
  8
buhin-1
100
AcDbCircle
 10
12.0
 20
-0.0000000000000568
 30
0.0
 40
12.0600004196167
  0
CIRCLE
  5
298CA
330
28A77
100
AcDbEntity
  8
buhin-1
100
AcDbCircle
 10
12.0
 20
-0.0000000000000568
 30
0.0
 40
15.75
  0
CIRCLE
  5
298CB
330
28A77
100
AcDbEntity
  8
buhin-1
100
AcDbCircle
 10
12.0
 20
-0.0000000000000568
 30
0.0
 40
16.75
  0
ARC
  5
298CC
330
28A77
100
AcDbEntity
  8
buhin-1
100
AcDbCircle
 10
32.99999618530274
 20
-59.78131866455083
 30
0.0
 40
1.0
100
AcDbArc
 50
269.7228093923827
 51
359.999999316757
  0
LINE
  5
298CD
330
28A77
100
AcDbEntity
  8
buhin-1
100
AcDbLine
 10
32.59863251470643
 20
60.99999999999994
 30
0.0
 11
-36.00000381469727
 21
61.0
 31
0.0
  0
LINE
  5
298CE
330
28A77
100
AcDbEntity
  8
buhin-1
 48
0.0116892662745372
100
AcDbLine
 10
32.52759213293052
 20
-60.77904510012842
 30
0.0
 11
32.9951583147049
 21
-60.78130722045904
 31
0.0
  0
ARC
  5
298CF
330
28A77
100
AcDbEntity
  8
buhin-1
100
AcDbCircle
 10
31.49999618530273
 20
-58.50000000000005
 30
0.0
 40
2.5
100
AcDbArc
 50
292.6000204361478
 51
294.2700808556541
  0
ARC
  5
298D0
330
28A77
100
AcDbEntity
  8
buhin-1
100
AcDbCircle
 10
31.50000977516175
 20
-58.50008010864264
 30
0.0
 40
2.49992036819458
100
AcDbArc
 50
287.4001171935585
 51
292.6004575682587
  0
LINE
  5
298D1
330
28A77
100
AcDbEntity
  8
buhin-1
100
AcDbLine
 10
33.99999618530273
 20
59.78131866455072
 30
0.0
 11
33.99999618530273
 21
-59.78131866455083
 31
0.0
  0
LINE
  5
298D2
330
28A77
100
AcDbEntity
  8
buhin-1
 48
0.0125433778956052
100
AcDbLine
 10
32.9951583147049
 20
60.78130722045893
 30
0.0
 11
32.49311333341143
 21
60.77887954625674
 31
0.0
  0
LINE
  5
298D3
330
28A77
100
AcDbEntity
  8
buhin-1
 48
0.3074192047119141
100
AcDbLine
 10
-36.00000381469727
 20
73.29676818847656
 30
0.0
 11
-36.00000381469727
 21
61.0
 31
0.0
  0
LINE
  5
298D4
330
28A77
100
AcDbEntity
  8
buhin-1
100
AcDbLine
 10
33.40136367061905
 20
-61.00000000000005
 30
0.0
 11
-36.00000381469727
 21
-61.0
 31
0.0
  0
LINE
  5
298D5
330
28A77
100
AcDbEntity
  8
buhin-1
 48
0.125
100
AcDbLine
 10
-36.00000381469727
 20
67.815673828125
 30
0.0
 11
-41.00000381469726
 21
67.815673828125
 31
0.0
  0
LINE
  5
298D6
330
28A77
100
AcDbEntity
  8
buhin-1
 48
0.3074192047119141
100
AcDbLine
 10
-41.00000381469726
 20
73.29676818847656
 30
0.0
 11
-41.00000381469726
 21
61.0
 31
0.0
  0
LINE
  5
298D7
330
28A77
100
AcDbEntity
  8
buhin-1
  6
DASHDOT
 48
0.175
100
AcDbLine
 10
-35.00000381469727
 20
68.59756469726562
 30
0.0
 11
-42.00000381469727
 21
68.59756469726562
 31
0.0
  0
LINE
  5
298D8
330
28A77
100
AcDbEntity
  8
buhin-1
 48
0.125
100
AcDbLine
 10
-36.00000381469727
 20
73.29676818847656
 30
0.0
 11
-41.00000381469726
 21
73.29676818847656
 31
0.0
  0
LINE
  5
298D9
330
28A77
100
AcDbEntity
  8
buhin-1
 48
0.3074192047119141
100
AcDbLine
 10
-36.00000381469727
 20
61.0
 30
0.0
 11
-36.00000381469727
 21
-73.29676818847659
 31
0.0
  0
LINE
  5
298DA
330
28A77
100
AcDbEntity
  8
buhin-1
 48
0.125
100
AcDbLine
 10
-36.00000381469727
 20
-73.29676818847659
 30
0.0
 11
-41.00000381469726
 21
-73.29676818847656
 31
0.0
  0
LINE
  5
298DB
330
28A77
100
AcDbEntity
  8
buhin-1
 48
0.3074192047119141
100
AcDbLine
 10
-41.00000381469726
 20
61.0
 30
0.0
 11
-41.00000381469726
 21
-73.29676818847656
 31
0.0
  0
LINE
  5
298DC
330
28A77
100
AcDbEntity
  8
buhin-1
 48
0.125
100
AcDbLine
 10
-36.00000381469727
 20
-67.815673828125
 30
0.0
 11
-41.00000381469726
 21
-67.815673828125
 31
0.0
  0
LINE
  5
298DD
330
28A77
100
AcDbEntity
  8
buhin-1
  6
DASHDOT
 48
0.175
100
AcDbLine
 10
-35.00000381469727
 20
-68.59756469726562
 30
0.0
 11
-42.00000381469727
 21
-68.59756469726562
 31
0.0
  0
LINE
  5
298DE
330
28A77
100
AcDbEntity
  8
buhin-1
  6
DASHDOT
100
AcDbLine
 10
35.87911713123322
 20
-0.0000000000000568
 30
0.0
 11
-73.60002200000008
 21
-0.0000000000000568
 31
0.0
  0
LINE
  5
298DF
330
28A77
100
AcDbEntity
  8
buhin-1
100
AcDbLine
 10
-48.00000381469726
 20
61.5
 30
0.0
 11
-73.60002200000019
 21
61.5
 31
0.0
  0
LINE
  5
298E0
330
28A77
100
AcDbEntity
  8
buhin-1
100
AcDbLine
 10
-48.00000381469726
 20
61.5
 30
0.0
 11
-48.00000381469726
 21
-61.0
 31
0.0
  0
ARC
  5
298E1
330
28A77
100
AcDbEntity
  8
buhin-1
100
AcDbCircle
 10
32.99999618530274
 20
59.78131866455072
 30
0.0
 40
1.0
100
AcDbArc
 50
359.999999316757
 51
90.27719138832855
  0
POINT
  5
298E2
330
28A77
100
AcDbEntity
  8
buhin-1
100
AcDbPoint
 10
-61.28498458862305
 20
-61.0
 30
0.0
  0
POINT
  5
298E3
330
28A77
100
AcDbEntity
  8
buhin-1
100
AcDbPoint
 10
-64.28498458862304
 20
-61.0
 30
0.0
  0
LINE
  5
298E4
330
28A77
100
AcDbEntity
  8
buhin-1
100
AcDbLine
 10
32.49311333341143
 20
60.77887954625674
 30
0.0
 11
32.36930227279663
 21
60.83328628540034
 31
0.0
  0
LINE
  5
298E5
330
28A77
100
AcDbEntity
  8
buhin-1
100
AcDbLine
 10
32.36930227279663
 20
60.83328628540034
 30
0.0
 11
32.24598447559265
 21
60.88443492792243
 31
0.0
  0
LINE
  5
298E6
330
28A77
100
AcDbEntity
  8
buhin-1
100
AcDbLine
 10
32.26747179031372
 20
60.87552261352533
 30
0.0
 11
32.2454001903534
 21
60.88399887084955
 31
0.0
  0
LINE
  5
298E7
330
28A77
100
AcDbEntity
  8
buhin-1
100
AcDbLine
 10
-41.00000381469726
 20
-61.0
 30
0.0
 11
-73.60002200000008
 21
-60.99999999999994
 31
0.0
  0
LINE
  5
298E8
330
28A77
100
AcDbEntity
  8
buhin-1
100
AcDbLine
 10
-41.00000381469726
 20
61.0
 30
0.0
 11
-48.00000381469726
 21
61.0
 31
0.0
  0
LINE
  5
298E9
330
28A77
100
AcDbEntity
  8
Defpoints
100
AcDbLine
 10
0.0
 20
79.69037296433817
 30
0.0
 11
0.0
 21
-82.87164584644328
 31
0.0
  0
ENDBLK
  5
28AA8
330
28A77
100
AcDbEntity
  8
0
100
AcDbBlockEnd
  0
ENDSEC
  0
SECTION
  2
ENTITIES
  0
TEXT
  5
18E9
330
A
100
AcDbEntity
  8
0
 62
     7
100
AcDbText
 10
-77.67806799999998
 20
49.18654599999999
 30
0.0
 40
2.5
  1

 41
0.75
 11
-77.67806799999998
 21
50.43654599999999
 31
0.0
100
AcDbText
 73
     2
  0
TEXT
  5
18EE
330
A
100
AcDbEntity
  8
0
 62
     7
100
AcDbText
 10
-77.67806799999998
 20
54.18654599999999
 30
0.0
 40
2.5
  1

 41
0.75
 11
-77.67806799999998
 21
55.43654599999999
 31
0.0
100
AcDbText
 73
     2
  0
TEXT
  5
18F3
330
A
100
AcDbEntity
  8
0
 62
     7
100
AcDbText
 10
-77.67806799999998
 20
59.18654599999999
 30
0.0
 40
2.5
  1

 41
0.75
 11
-77.67806799999998
 21
60.43654599999999
 31
0.0
100
AcDbText
 73
     2
  0
TEXT
  5
18F8
330
A
100
AcDbEntity
  8
0
 62
     7
100
AcDbText
 10
-77.67806799999998
 20
64.18654599999999
 30
0.0
 40
2.5
  1

 41
0.75
 11
-77.67806799999998
 21
65.43654599999999
 31
0.0
100
AcDbText
 73
     2
  0
TEXT
  5
18FD
330
A
100
AcDbEntity
  8
0
 62
     7
100
AcDbText
 10
-77.67806799999998
 20
69.18654599999999
 30
0.0
 40
2.5
  1

 41
0.75
 11
-77.67806799999998
 21
70.43654599999999
 31
0.0
100
AcDbText
 73
     2
  0
TEXT
  5
1902
330
A
100
AcDbEntity
  8
0
 62
     7
100
AcDbText
 10
-77.67806799999998
 20
74.18654599999999
 30
0.0
 40
2.5
  1

 41
0.75
 11
-77.67806799999998
 21
75.43654599999999
 31
0.0
100
AcDbText
 73
     2
  0
INSERT
  5
1905
330
A
100
AcDbEntity
  8
0
 62
     7
100
AcDbBlockReference
  2
XH19
 10
0.0
 20
0.0
 30
0.0
  0
INSERT
  5
1906
330
A
100
AcDbEntity
  8
0
 62
     7
100
AcDbBlockReference
  2
XH21
 10
0.0
 20
0.0
 30
0.0
  0
INSERT
  5
1907
330
A
100
AcDbEntity
  8
0
 62
     7
100
AcDbBlockReference
  2
XH30
 10
0.0
 20
0.0
 30
0.0
  0
INSERT
  5
1908
330
A
100
AcDbEntity
  8
0
 62
     7
100
AcDbBlockReference
  2
XH32
 10
0.0
 20
0.0
 30
0.0
  0
INSERT
  5
1909
330
A
100
AcDbEntity
  8
0
 62
     7
100
AcDbBlockReference
  2
XH33
 10
0.0
 20
0.0
 30
0.0
  0
INSERT
  5
190A
330
A
100
AcDbEntity
  8
0
 62
     7
100
AcDbBlockReference
  2
XH39
 10
0.0
 20
0.0
 30
0.0
  0
INSERT
  5
190B
330
A
100
AcDbEntity
  8
0
 62
     7
100
AcDbBlockReference
  2
XH40
 10
0.0
 20
0.0
 30
0.0
  0
INSERT
  5
190C
330
A
100
AcDbEntity
  8
0
 62
     7
100
AcDbBlockReference
  2
XH42
 10
0.0
 20
0.0
 30
0.0
  0
INSERT
  5
190D
330
A
100
AcDbEntity
  8
0
 62
     7
100
AcDbBlockReference
  2
XH43
 10
0.0
 20
0.0
 30
0.0
  0
INSERT
  5
190E
330
A
100
AcDbEntity
  8
0
 62
     7
100
AcDbBlockReference
  2
XH44
 10
0.0
 20
0.0
 30
0.0
  0
INSERT
  5
190F
330
A
100
AcDbEntity
  8
0
 62
     7
100
AcDbBlockReference
  2
XH45
 10
0.0
 20
0.0
 30
0.0
  0
INSERT
  5
1910
330
A
100
AcDbEntity
  8
0
 62
     7
100
AcDbBlockReference
  2
XH46
 10
0.0
 20
0.0
 30
0.0
  0
INSERT
  5
1911
330
A
100
AcDbEntity
  8
0
 62
     7
100
AcDbBlockReference
  2
XH47
 10
0.0
 20
0.0
 30
0.0
  0
INSERT
  5
1912
330
A
100
AcDbEntity
  8
0
 62
     7
100
AcDbBlockReference
  2
XH48
 10
0.0
 20
0.0
 30
0.0
  0
INSERT
  5
1913
330
A
100
AcDbEntity
  8
0
 62
     7
100
AcDbBlockReference
  2
XH49
 10
0.0
 20
0.0
 30
0.0
  0
INSERT
  5
1914
330
A
100
AcDbEntity
  8
0
 62
     7
100
AcDbBlockReference
  2
XH50
 10
0.0
 20
0.0
 30
0.0
  0
INSERT
  5
1915
330
A
100
AcDbEntity
  8
0
 62
     7
100
AcDbBlockReference
  2
XH51
 10
0.0
 20
0.0
 30
0.0
  0
INSERT
  5
1916
330
A
100
AcDbEntity
  8
0
 62
     7
100
AcDbBlockReference
  2
XH52
 10
0.0
 20
0.0
 30
0.0
  0
INSERT
  5
1917
330
A
100
AcDbEntity
  8
0
 62
     7
100
AcDbBlockReference
  2
XH53
 10
0.0
 20
0.0
 30
0.0
  0
INSERT
  5
1918
330
A
100
AcDbEntity
  8
0
 62
     7
100
AcDbBlockReference
  2
XH54
 10
0.0
 20
0.0
 30
0.0
  0
INSERT
  5
1919
330
A
100
AcDbEntity
  8
0
 62
     7
100
AcDbBlockReference
  2
XH55
 10
0.0
 20
0.0
 30
0.0
  0
INSERT
  5
191A
330
A
100
AcDbEntity
  8
0
 62
     7
100
AcDbBlockReference
  2
XH56
 10
0.0
 20
0.0
 30
0.0
  0
INSERT
  5
191B
330
A
100
AcDbEntity
  8
0
 62
     7
100
AcDbBlockReference
  2
XH57
 10
0.0
 20
0.0
 30
0.0
  0
INSERT
  5
191C
330
A
100
AcDbEntity
  8
0
 62
     7
100
AcDbBlockReference
  2
XH58
 10
0.0
 20
0.0
 30
0.0
  0
INSERT
  5
191D
330
A
100
AcDbEntity
  8
0
 62
     7
100
AcDbBlockReference
  2
XH76
 10
0.0
 20
0.0
 30
0.0
  0
INSERT
  5
191E
330
A
100
AcDbEntity
  8
0
 62
     7
100
AcDbBlockReference
  2
XH102
 10
0.0
 20
0.0
 30
0.0
  0
INSERT
  5
191F
330
A
100
AcDbEntity
  8
0
 62
     7
100
AcDbBlockReference
  2
XH103
 10
0.0
 20
0.0
 30
0.0
  0
INSERT
  5
1920
330
A
100
AcDbEntity
  8
0
 62
     7
100
AcDbBlockReference
  2
XH104
 10
0.0
 20
0.0
 30
0.0
  0
INSERT
  5
1921
330
A
100
AcDbEntity
  8
0
 62
     7
100
AcDbBlockReference
  2
XH105
 10
0.0
 20
0.0
 30
0.0
  0
INSERT
  5
1922
330
A
100
AcDbEntity
  8
0
 62
     7
100
AcDbBlockReference
  2
XH106
 10
0.0
 20
0.0
 30
0.0
  0
INSERT
  5
1923
330
A
100
AcDbEntity
  8
0
 62
     7
100
AcDbBlockReference
  2
XH107
 10
0.0
 20
0.0
 30
0.0
  0
INSERT
  5
1924
330
A
100
AcDbEntity
  8
0
 62
     7
100
AcDbBlockReference
  2
XH108
 10
0.0
 20
0.0
 30
0.0
  0
INSERT
  5
1925
330
A
100
AcDbEntity
  8
0
 62
     7
100
AcDbBlockReference
  2
XH109
 10
0.0
 20
0.0
 30
0.0
  0
INSERT
  5
1926
330
A
100
AcDbEntity
  8
0
 62
     7
100
AcDbBlockReference
  2
XH127
 10
0.0
 20
0.0
 30
0.0
  0
INSERT
  5
1927
330
A
100
AcDbEntity
  8
0
 62
     7
100
AcDbBlockReference
  2
XH211
 10
0.0
 20
0.0
 30
0.0
  0
INSERT
  5
1928
330
A
100
AcDbEntity
  8
0
 62
     7
100
AcDbBlockReference
  2
XH218
 10
0.0
 20
0.0
 30
0.0
  0
INSERT
  5
1929
330
A
100
AcDbEntity
  8
0
 62
     7
100
AcDbBlockReference
  2
XH221
 10
0.0
 20
0.0
 30
0.0
  0
INSERT
  5
192A
330
A
100
AcDbEntity
  8
0
 62
     7
100
AcDbBlockReference
  2
XH225
 10
0.0
 20
0.0
 30
0.0
  0
TEXT
  5
1B73
330
A
100
AcDbEntity
  8
0
 62
     7
100
AcDbText
 10
-77.67806799999998
 20
49.18654599999999
 30
0.0
 40
2.5
  1

 41
0.75
 11
-77.67806799999998
 21
50.43654599999999
 31
0.0
100
AcDbText
 73
     2
  0
TEXT
  5
1B74
330
A
100
AcDbEntity
  8
0
 62
     7
100
AcDbText
 10
-77.67806799999998
 20
54.18654599999999
 30
0.0
 40
2.5
  1

 41
0.75
 11
-77.67806799999998
 21
55.43654599999999
 31
0.0
100
AcDbText
 73
     2
  0
TEXT
  5
1B75
330
A
100
AcDbEntity
  8
0
 62
     7
100
AcDbText
 10
-77.67806799999998
 20
59.18654599999999
 30
0.0
 40
2.5
  1

 41
0.75
 11
-77.67806799999998
 21
60.43654599999999
 31
0.0
100
AcDbText
 73
     2
  0
TEXT
  5
1B76
330
A
100
AcDbEntity
  8
0
 62
     7
100
AcDbText
 10
-77.67806799999998
 20
64.18654599999999
 30
0.0
 40
2.5
  1

 41
0.75
 11
-77.67806799999998
 21
65.43654599999999
 31
0.0
100
AcDbText
 73
     2
  0
TEXT
  5
1B77
330
A
100
AcDbEntity
  8
0
 62
     7
100
AcDbText
 10
-77.67806799999998
 20
69.18654599999999
 30
0.0
 40
2.5
  1

 41
0.75
 11
-77.67806799999998
 21
70.43654599999999
 31
0.0
100
AcDbText
 73
     2
  0
TEXT
  5
1B78
330
A
100
AcDbEntity
  8
0
 62
     7
100
AcDbText
 10
-77.67806799999998
 20
74.18654599999999
 30
0.0
 40
2.5
  1

 41
0.75
 11
-77.67806799999998
 21
75.43654599999999
 31
0.0
100
AcDbText
 73
     2
  0
INSERT
  5
1B79
330
A
100
AcDbEntity
  8
0
 62
     7
100
AcDbBlockReference
  2
XH19
 10
0.0
 20
0.0
 30
0.0
  0
INSERT
  5
1B7A
330
A
100
AcDbEntity
  8
0
 62
     7
100
AcDbBlockReference
  2
XH21
 10
0.0
 20
0.0
 30
0.0
  0
INSERT
  5
1B7B
330
A
100
AcDbEntity
  8
0
 62
     7
100
AcDbBlockReference
  2
XH30
 10
0.0
 20
0.0
 30
0.0
  0
INSERT
  5
1B7C
330
A
100
AcDbEntity
  8
0
 62
     7
100
AcDbBlockReference
  2
XH32
 10
0.0
 20
0.0
 30
0.0
  0
INSERT
  5
1B7D
330
A
100
AcDbEntity
  8
0
 62
     7
100
AcDbBlockReference
  2
XH33
 10
0.0
 20
0.0
 30
0.0
  0
INSERT
  5
1B7E
330
A
100
AcDbEntity
  8
0
 62
     7
100
AcDbBlockReference
  2
XH39
 10
0.0
 20
0.0
 30
0.0
  0
INSERT
  5
1B7F
330
A
100
AcDbEntity
  8
0
 62
     7
100
AcDbBlockReference
  2
XH40
 10
0.0
 20
0.0
 30
0.0
  0
INSERT
  5
1B80
330
A
100
AcDbEntity
  8
0
 62
     7
100
AcDbBlockReference
  2
XH42
 10
0.0
 20
0.0
 30
0.0
  0
INSERT
  5
1B81
330
A
100
AcDbEntity
  8
0
 62
     7
100
AcDbBlockReference
  2
XH43
 10
0.0
 20
0.0
 30
0.0
  0
INSERT
  5
1B82
330
A
100
AcDbEntity
  8
0
 62
     7
100
AcDbBlockReference
  2
XH44
 10
0.0
 20
0.0
 30
0.0
  0
INSERT
  5
1B83
330
A
100
AcDbEntity
  8
0
 62
     7
100
AcDbBlockReference
  2
XH45
 10
0.0
 20
0.0
 30
0.0
  0
INSERT
  5
1B84
330
A
100
AcDbEntity
  8
0
 62
     7
100
AcDbBlockReference
  2
XH46
 10
0.0
 20
0.0
 30
0.0
  0
INSERT
  5
1B85
330
A
100
AcDbEntity
  8
0
 62
     7
100
AcDbBlockReference
  2
XH47
 10
0.0
 20
0.0
 30
0.0
  0
INSERT
  5
1B86
330
A
100
AcDbEntity
  8
0
 62
     7
100
AcDbBlockReference
  2
XH48
 10
0.0
 20
0.0
 30
0.0
  0
INSERT
  5
1B87
330
A
100
AcDbEntity
  8
0
 62
     7
100
AcDbBlockReference
  2
XH49
 10
0.0
 20
0.0
 30
0.0
  0
INSERT
  5
1B88
330
A
100
AcDbEntity
  8
0
 62
     7
100
AcDbBlockReference
  2
XH50
 10
0.0
 20
0.0
 30
0.0
  0
INSERT
  5
1B89
330
A
100
AcDbEntity
  8
0
 62
     7
100
AcDbBlockReference
  2
XH51
 10
0.0
 20
0.0
 30
0.0
  0
INSERT
  5
1B8A
330
A
100
AcDbEntity
  8
0
 62
     7
100
AcDbBlockReference
  2
XH52
 10
0.0
 20
0.0
 30
0.0
  0
INSERT
  5
1B8B
330
A
100
AcDbEntity
  8
0
 62
     7
100
AcDbBlockReference
  2
XH53
 10
0.0
 20
0.0
 30
0.0
  0
INSERT
  5
1B8C
330
A
100
AcDbEntity
  8
0
 62
     7
100
AcDbBlockReference
  2
XH54
 10
0.0
 20
0.0
 30
0.0
  0
INSERT
  5
1B8D
330
A
100
AcDbEntity
  8
0
 62
     7
100
AcDbBlockReference
  2
XH55
 10
0.0
 20
0.0
 30
0.0
  0
INSERT
  5
1B8E
330
A
100
AcDbEntity
  8
0
 62
     7
100
AcDbBlockReference
  2
XH56
 10
0.0
 20
0.0
 30
0.0
  0
INSERT
  5
1B8F
330
A
100
AcDbEntity
  8
0
 62
     7
100
AcDbBlockReference
  2
XH57
 10
0.0
 20
0.0
 30
0.0
  0
INSERT
  5
1B90
330
A
100
AcDbEntity
  8
0
 62
     7
100
AcDbBlockReference
  2
XH58
 10
0.0
 20
0.0
 30
0.0
  0
INSERT
  5
1B91
330
A
100
AcDbEntity
  8
0
 62
     7
100
AcDbBlockReference
  2
XH76
 10
0.0
 20
0.0
 30
0.0
  0
INSERT
  5
1B92
330
A
100
AcDbEntity
  8
0
 62
     7
100
AcDbBlockReference
  2
XH102
 10
0.0
 20
0.0
 30
0.0
  0
INSERT
  5
1B93
330
A
100
AcDbEntity
  8
0
 62
     7
100
AcDbBlockReference
  2
XH103
 10
0.0
 20
0.0
 30
0.0
  0
INSERT
  5
1B94
330
A
100
AcDbEntity
  8
0
 62
     7
100
AcDbBlockReference
  2
XH104
 10
0.0
 20
0.0
 30
0.0
  0
INSERT
  5
1B95
330
A
100
AcDbEntity
  8
0
 62
     7
100
AcDbBlockReference
  2
XH105
 10
0.0
 20
0.0
 30
0.0
  0
INSERT
  5
1B96
330
A
100
AcDbEntity
  8
0
 62
     7
100
AcDbBlockReference
  2
XH106
 10
0.0
 20
0.0
 30
0.0
  0
INSERT
  5
1B97
330
A
100
AcDbEntity
  8
0
 62
     7
100
AcDbBlockReference
  2
XH107
 10
0.0
 20
0.0
 30
0.0
  0
INSERT
  5
1B98
330
A
100
AcDbEntity
  8
0
 62
     7
100
AcDbBlockReference
  2
XH108
 10
0.0
 20
0.0
 30
0.0
  0
INSERT
  5
1B99
330
A
100
AcDbEntity
  8
0
 62
     7
100
AcDbBlockReference
  2
XH109
 10
0.0
 20
0.0
 30
0.0
  0
INSERT
  5
1B9A
330
A
100
AcDbEntity
  8
0
 62
     7
100
AcDbBlockReference
  2
XH127
 10
0.0
 20
0.0
 30
0.0
  0
INSERT
  5
1B9B
330
A
100
AcDbEntity
  8
0
 62
     7
100
AcDbBlockReference
  2
XH211
 10
0.0
 20
0.0
 30
0.0
  0
INSERT
  5
1B9C
330
A
100
AcDbEntity
  8
0
 62
     7
100
AcDbBlockReference
  2
XH218
 10
0.0
 20
0.0
 30
0.0
  0
INSERT
  5
1B9D
330
A
100
AcDbEntity
  8
0
 62
     7
100
AcDbBlockReference
  2
XH221
 10
0.0
 20
0.0
 30
0.0
  0
INSERT
  5
1B9E
330
A
100
AcDbEntity
  8
0
 62
     7
100
AcDbBlockReference
  2
XH225
 10
0.0
 20
0.0
 30
0.0
  0
INSERT
  5
2765
330
A
100
AcDbEntity
  8
0
 62
     7
100
AcDbBlockReference
  2
XH109
 10
656.5306660752958
 20
16.02572037078084
 30
0.0
  0
INSERT
  5
2766
330
A
100
AcDbEntity
  8
0
 62
     7
100
AcDbBlockReference
  2
XH108
 10
656.5306660752958
 20
16.02572037078084
 30
0.0
  0
INSERT
  5
2767
330
A
100
AcDbEntity
  8
0
 62
     7
100
AcDbBlockReference
  2
XH107
 10
839.6087300752958
 20
116.3391743707808
 30
0.0
  0
INSERT
  5
2768
330
A
100
AcDbEntity
  8
0
 62
     7
100
AcDbBlockReference
  2
XH106
 10
839.6087300752958
 20
116.3391743707808
 30
0.0
  0
INSERT
  5
2769
330
A
100
AcDbEntity
  8
0
 62
     7
100
AcDbBlockReference
  2
XH105
 10
839.6087300752958
 20
116.3391743707808
 30
0.0
  0
INSERT
  5
276A
330
A
100
AcDbEntity
  8
0
 62
     7
100
AcDbBlockReference
  2
XH104
 10
839.6087300752958
 20
116.3391743707808
 30
0.0
  0
INSERT
  5
276B
330
A
100
AcDbEntity
  8
0
 62
     7
100
AcDbBlockReference
  2
XH103
 10
839.6087300752958
 20
116.3391743707808
 30
0.0
  0
INSERT
  5
276C
330
A
100
AcDbEntity
  8
0
 62
     7
100
AcDbBlockReference
  2
XH102
 10
839.6087300752958
 20
116.3391743707808
 30
0.0
  0
INSERT
  5
2786
330
A
100
AcDbEntity
  8
0
 62
     7
100
AcDbBlockReference
  2
XH76
 10
839.6087300752958
 20
116.3391743707808
 30
0.0
  0
INSERT
  5
2798
330
A
100
AcDbEntity
  8
0
 62
     7
100
AcDbBlockReference
  2
XH58
 10
839.6087300752958
 20
116.3391743707808
 30
0.0
  0
INSERT
  5
2799
330
A
100
AcDbEntity
  8
0
 62
     7
100
AcDbBlockReference
  2
XH57
 10
839.6087300752958
 20
116.3391743707808
 30
0.0
  0
INSERT
  5
279A
330
A
100
AcDbEntity
  8
0
 62
     7
100
AcDbBlockReference
  2
XH56
 10
839.6087300752958
 20
116.3391743707808
 30
0.0
  0
INSERT
  5
279B
330
A
100
AcDbEntity
  8
0
 62
     7
100
AcDbBlockReference
  2
XH55
 10
839.6087300752958
 20
116.3391743707808
 30
0.0
  0
INSERT
  5
279C
330
A
100
AcDbEntity
  8
0
 62
     7
100
AcDbBlockReference
  2
XH54
 10
839.6087300752958
 20
116.3391743707808
 30
0.0
  0
INSERT
  5
279D
330
A
100
AcDbEntity
  8
0
 62
     7
100
AcDbBlockReference
  2
XH53
 10
839.6087300752958
 20
116.3391743707808
 30
0.0
  0
INSERT
  5
279E
330
A
100
AcDbEntity
  8
0
 62
     7
100
AcDbBlockReference
  2
XH52
 10
839.6087300752958
 20
116.3391743707808
 30
0.0
  0
INSERT
  5
279F
330
A
100
AcDbEntity
  8
0
 62
     7
100
AcDbBlockReference
  2
XH51
 10
839.6087300752958
 20
116.3391743707808
 30
0.0
  0
INSERT
  5
27A0
330
A
100
AcDbEntity
  8
0
 62
     7
100
AcDbBlockReference
  2
XH50
 10
576.5306660752957
 20
206.0257203707808
 30
0.0
  0
INSERT
  5
27A1
330
A
100
AcDbEntity
  8
0
 62
     7
100
AcDbBlockReference
  2
XH49
 10
576.5306660752957
 20
206.0257203707808
 30
0.0
  0
INSERT
  5
27A2
330
A
100
AcDbEntity
  8
0
 62
     7
100
AcDbBlockReference
  2
XH48
 10
839.6087300752958
 20
116.3391743707808
 30
0.0
  0
INSERT
  5
27A3
330
A
100
AcDbEntity
  8
0
 62
     7
100
AcDbBlockReference
  2
XH47
 10
839.6087300752958
 20
116.3391743707808
 30
0.0
  0
INSERT
  5
27A4
330
A
100
AcDbEntity
  8
0
 62
     7
100
AcDbBlockReference
  2
XH46
 10
839.6087300752958
 20
116.3391743707808
 30
0.0
  0
INSERT
  5
27A5
330
A
100
AcDbEntity
  8
0
 62
     7
100
AcDbBlockReference
  2
XH45
 10
839.6087300752958
 20
116.3391743707808
 30
0.0
  0
INSERT
  5
27A6
330
A
100
AcDbEntity
  8
0
 62
     7
100
AcDbBlockReference
  2
XH44
 10
839.6087300752958
 20
116.3391743707808
 30
0.0
  0
INSERT
  5
27A7
330
A
100
AcDbEntity
  8
0
 62
     7
100
AcDbBlockReference
  2
XH43
 10
839.6087300752958
 20
116.3391743707808
 30
0.0
  0
INSERT
  5
27A8
330
A
100
AcDbEntity
  8
0
 62
     7
100
AcDbBlockReference
  2
XH42
 10
839.6087300752958
 20
116.3391743707808
 30
0.0
  0
INSERT
  5
27AA
330
A
100
AcDbEntity
  8
0
 62
     7
100
AcDbBlockReference
  2
XH40
 10
839.6087300752958
 20
116.3391743707808
 30
0.0
  0
INSERT
  5
27AB
330
A
100
AcDbEntity
  8
0
 62
     7
100
AcDbBlockReference
  2
XH39
 10
839.6087300752958
 20
116.3391743707808
 30
0.0
  0
TEXT
  5
4E0D
330
A
100
AcDbEntity
  8
0
 62
     7
100
AcDbText
 10
-77.67806799999998
 20
49.18654599999999
 30
0.0
 40
2.5
  1

 11
-77.67806799999998
 21
50.43654599999999
 31
0.0
100
AcDbText
 73
     2
  0
TEXT
  5
4E0E
330
A
100
AcDbEntity
  8
0
 62
     7
100
AcDbText
 10
-77.67806799999998
 20
54.18654599999999
 30
0.0
 40
2.5
  1

 11
-77.67806799999998
 21
55.43654599999999
 31
0.0
100
AcDbText
 73
     2
  0
TEXT
  5
4E0F
330
A
100
AcDbEntity
  8
0
 62
     7
100
AcDbText
 10
-77.67806799999998
 20
59.18654599999999
 30
0.0
 40
2.5
  1

 11
-77.67806799999998
 21
60.43654599999999
 31
0.0
100
AcDbText
 73
     2
  0
TEXT
  5
4E10
330
A
100
AcDbEntity
  8
0
 62
     7
100
AcDbText
 10
-77.67806799999998
 20
64.18654599999999
 30
0.0
 40
2.5
  1

 11
-77.67806799999998
 21
65.43654599999999
 31
0.0
100
AcDbText
 73
     2
  0
TEXT
  5
4E11
330
A
100
AcDbEntity
  8
0
 62
     7
100
AcDbText
 10
-77.67806799999998
 20
69.18654599999999
 30
0.0
 40
2.5
  1

 11
-77.67806799999998
 21
70.43654599999999
 31
0.0
100
AcDbText
 73
     2
  0
TEXT
  5
4E12
330
A
100
AcDbEntity
  8
0
 62
     7
100
AcDbText
 10
-77.67806799999998
 20
74.18654599999999
 30
0.0
 40
2.5
  1

 11
-77.67806799999998
 21
75.43654599999999
 31
0.0
100
AcDbText
 73
     2
  0
INSERT
  5
4E13
330
A
100
AcDbEntity
  8
0
 62
     7
100
AcDbBlockReference
  2
XH19
 10
0.0
 20
0.0
 30
0.0
  0
INSERT
  5
4E14
330
A
100
AcDbEntity
  8
0
 62
     7
100
AcDbBlockReference
  2
XH21
 10
0.0
 20
0.0
 30
0.0
  0
INSERT
  5
4E15
330
A
100
AcDbEntity
  8
0
 62
     7
100
AcDbBlockReference
  2
XH30
 10
0.0
 20
0.0
 30
0.0
  0
INSERT
  5
4E16
330
A
100
AcDbEntity
  8
0
 62
     7
100
AcDbBlockReference
  2
XH32
 10
0.0
 20
0.0
 30
0.0
  0
INSERT
  5
4E17
330
A
100
AcDbEntity
  8
0
 62
     7
100
AcDbBlockReference
  2
XH33
 10
0.0
 20
0.0
 30
0.0
  0
INSERT
  5
4E18
330
A
100
AcDbEntity
  8
0
 62
     7
100
AcDbBlockReference
  2
XH39
 10
0.0
 20
0.0
 30
0.0
  0
INSERT
  5
4E19
330
A
100
AcDbEntity
  8
0
 62
     7
100
AcDbBlockReference
  2
XH40
 10
0.0
 20
0.0
 30
0.0
  0
INSERT
  5
4E1A
330
A
100
AcDbEntity
  8
0
 62
     7
100
AcDbBlockReference
  2
XH42
 10
0.0
 20
0.0
 30
0.0
  0
INSERT
  5
4E1B
330
A
100
AcDbEntity
  8
0
 62
     7
100
AcDbBlockReference
  2
XH43
 10
0.0
 20
0.0
 30
0.0
  0
INSERT
  5
4E1C
330
A
100
AcDbEntity
  8
0
 62
     7
100
AcDbBlockReference
  2
XH44
 10
0.0
 20
0.0
 30
0.0
  0
INSERT
  5
4E1D
330
A
100
AcDbEntity
  8
0
 62
     7
100
AcDbBlockReference
  2
XH45
 10
0.0
 20
0.0
 30
0.0
  0
INSERT
  5
4E1E
330
A
100
AcDbEntity
  8
0
 62
     7
100
AcDbBlockReference
  2
XH46
 10
0.0
 20
0.0
 30
0.0
  0
INSERT
  5
4E1F
330
A
100
AcDbEntity
  8
0
 62
     7
100
AcDbBlockReference
  2
XH47
 10
0.0
 20
0.0
 30
0.0
  0
INSERT
  5
4E20
330
A
100
AcDbEntity
  8
0
 62
     7
100
AcDbBlockReference
  2
XH48
 10
0.0
 20
0.0
 30
0.0
  0
INSERT
  5
4E21
330
A
100
AcDbEntity
  8
0
 62
     7
100
AcDbBlockReference
  2
XH49
 10
0.0
 20
0.0
 30
0.0
  0
INSERT
  5
4E22
330
A
100
AcDbEntity
  8
0
 62
     7
100
AcDbBlockReference
  2
XH50
 10
0.0
 20
0.0
 30
0.0
  0
INSERT
  5
4E23
330
A
100
AcDbEntity
  8
0
 62
     7
100
AcDbBlockReference
  2
XH51
 10
0.0
 20
0.0
 30
0.0
  0
INSERT
  5
4E24
330
A
100
AcDbEntity
  8
0
 62
     7
100
AcDbBlockReference
  2
XH52
 10
0.0
 20
0.0
 30
0.0
  0
INSERT
  5
4E25
330
A
100
AcDbEntity
  8
0
 62
     7
100
AcDbBlockReference
  2
XH53
 10
0.0
 20
0.0
 30
0.0
  0
INSERT
  5
4E26
330
A
100
AcDbEntity
  8
0
 62
     7
100
AcDbBlockReference
  2
XH54
 10
0.0
 20
0.0
 30
0.0
  0
INSERT
  5
4E27
330
A
100
AcDbEntity
  8
0
 62
     7
100
AcDbBlockReference
  2
XH55
 10
0.0
 20
0.0
 30
0.0
  0
INSERT
  5
4E28
330
A
100
AcDbEntity
  8
0
 62
     7
100
AcDbBlockReference
  2
XH56
 10
0.0
 20
0.0
 30
0.0
  0
INSERT
  5
4E29
330
A
100
AcDbEntity
  8
0
 62
     7
100
AcDbBlockReference
  2
XH57
 10
0.0
 20
0.0
 30
0.0
  0
INSERT
  5
4E2A
330
A
100
AcDbEntity
  8
0
 62
     7
100
AcDbBlockReference
  2
XH58
 10
0.0
 20
0.0
 30
0.0
  0
INSERT
  5
4E2B
330
A
100
AcDbEntity
  8
0
 62
     7
100
AcDbBlockReference
  2
XH76
 10
0.0
 20
0.0
 30
0.0
  0
INSERT
  5
4E2C
330
A
100
AcDbEntity
  8
0
 62
     7
100
AcDbBlockReference
  2
XH102
 10
0.0
 20
0.0
 30
0.0
  0
INSERT
  5
4E2D
330
A
100
AcDbEntity
  8
0
 62
     7
100
AcDbBlockReference
  2
XH103
 10
0.0
 20
0.0
 30
0.0
  0
INSERT
  5
4E2E
330
A
100
AcDbEntity
  8
0
 62
     7
100
AcDbBlockReference
  2
XH104
 10
0.0
 20
0.0
 30
0.0
  0
INSERT
  5
4E2F
330
A
100
AcDbEntity
  8
0
 62
     7
100
AcDbBlockReference
  2
XH105
 10
0.0
 20
0.0
 30
0.0
  0
INSERT
  5
4E30
330
A
100
AcDbEntity
  8
0
 62
     7
100
AcDbBlockReference
  2
XH106
 10
0.0
 20
0.0
 30
0.0
  0
INSERT
  5
4E31
330
A
100
AcDbEntity
  8
0
 62
     7
100
AcDbBlockReference
  2
XH107
 10
0.0
 20
0.0
 30
0.0
  0
INSERT
  5
4E32
330
A
100
AcDbEntity
  8
0
 62
     7
100
AcDbBlockReference
  2
XH108
 10
0.0
 20
0.0
 30
0.0
  0
INSERT
  5
4E33
330
A
100
AcDbEntity
  8
0
 62
     7
100
AcDbBlockReference
  2
XH109
 10
0.0
 20
0.0
 30
0.0
  0
INSERT
  5
4E34
330
A
100
AcDbEntity
  8
0
 62
     7
100
AcDbBlockReference
  2
XH127
 10
0.0
 20
0.0
 30
0.0
  0
INSERT
  5
4E35
330
A
100
AcDbEntity
  8
0
 62
     7
100
AcDbBlockReference
  2
XH211
 10
0.0
 20
0.0
 30
0.0
  0
INSERT
  5
4E36
330
A
100
AcDbEntity
  8
0
 62
     7
100
AcDbBlockReference
  2
XH218
 10
0.0
 20
0.0
 30
0.0
  0
INSERT
  5
4E37
330
A
100
AcDbEntity
  8
0
 62
     7
100
AcDbBlockReference
  2
XH221
 10
0.0
 20
0.0
 30
0.0
  0
INSERT
  5
4E38
330
A
100
AcDbEntity
  8
0
 62
     7
100
AcDbBlockReference
  2
XH225
 10
0.0
 20
0.0
 30
0.0
  0
TEXT
  5
4F6F
330
A
100
AcDbEntity
  8
0
100
AcDbText
 10
302.0699257168474
 20
59.0
 30
0.0
 40
2.5
  1

100
AcDbText
  0
TEXT
  5
4F8B
330
A
100
AcDbEntity
  8
0
100
AcDbText
 10
302.0699257168474
 20
77.99999237060546
 30
0.0
 40
2.5
  1

100
AcDbText
  0
TEXT
  5
4F90
330
A
100
AcDbEntity
  8
0
100
AcDbText
 10
302.0699257168474
 20
82.99999237060546
 30
0.0
 40
2.5
  1

100
AcDbText
  0
TEXT
  5
4FB3
330
A
100
AcDbEntity
  8
0
100
AcDbText
 10
302.0699257168474
 20
114.9999847412109
 30
0.0
 40
2.5
  1

100
AcDbText
  0
TEXT
  5
4FBD
330
A
100
AcDbEntity
  8
0
100
AcDbText
 10
302.0699257168474
 20
124.9999847412109
 30
0.0
 40
2.5
  1

100
AcDbText
  0
TEXT
  5
4FC7
330
A
100
AcDbEntity
  8
0
100
AcDbText
 10
302.0699257168474
 20
133.9999847412109
 30
0.0
 40
2.5
  1

100
AcDbText
  0
TEXT
  5
4FF3
330
A
100
AcDbEntity
  8
0
100
AcDbText
 10
401.9800109863281
 20
76.33533156345357
 30
0.0
 40
2.5
  1

100
AcDbText
  0
TEXT
  5
4FF9
330
A
100
AcDbEntity
  8
0
100
AcDbText
 10
401.9800109863281
 20
105.0376027258421
 30
0.0
 40
2.5
  1

100
AcDbText
  0
TEXT
  5
4FFC
330
A
100
AcDbEntity
  8
0
100
AcDbText
 10
401.9800109863281
 20
118.6013791923517
 30
0.0
 40
2.5
  1

100
AcDbText
  0
TEXT
  5
4FFD
330
A
100
AcDbEntity
  8
0
100
AcDbText
 10
401.9800109863281
 20
123.6013791923517
 30
0.0
 40
2.5
  1

100
AcDbText
  0
TEXT
  5
4FFE
330
A
100
AcDbEntity
  8
0
100
AcDbText
 10
401.9800109863281
 20
128.6013791923517
 30
0.0
 40
2.5
  1

100
AcDbText
  0
TEXT
  5
4FFF
330
A
100
AcDbEntity
  8
0
100
AcDbText
 10
416.9800109863281
 20
133.6666564941406
 30
0.0
 40
2.5
  1

100
AcDbText
  0
LWPOLYLINE
  5
14FF1
330
A
100
AcDbEntity
  8
Defpoints
100
AcDbPolyline
 90
        4
 70
     1
 43
0.0
 10
0.0
 20
0.0
 10
759.1493103537332
 20
0.0
 10
759.1493103537332
 20
879.4543721657859
 10
0.0
 20
879.4543721657859
  0
TEXT
  5
15030
330
A
100
AcDbEntity
  8
buhin-1
100
AcDbText
 10
617.2556090569132
 20
53.61152238569776
 30
0.0
 40
10.0
  1
32675XX4+01800184
100
AcDbText
  0
LINE
  5
158A5
330
A
100
AcDbEntity
  8
buhin-1
100
AcDbLine
 10
544.4412054777376
 20
235.2349785771885
 30
0.0
 11
544.4412054777376
 21
193.0677586259931
 31
0.0
  0
LINE
  5
158A6
330
A
100
AcDbEntity
  8
buhin-1
100
AcDbLine
 10
652.0412236630403
 20
247.6276308099269
 30
0.0
 11
652.0412236630403
 21
193.0677586259931
 31
0.0
  0
LINE
  5
158A7
330
A
100
AcDbEntity
  8
buhin-1
100
AcDbLine
 10
546.9412054777376
 20
194.3177586259931
 30
0.0
 11
649.5412236630403
 21
194.3177586259931
 31
0.0
  0
INSERT
  5
158A8
330
A
100
AcDbEntity
  8
buhin-1
100
AcDbBlockReference
  2
_Open30
 10
544.4412054777376
 20
194.3177586259931
 30
0.0
 41
2.5
 42
2.5
 43
2.5
 50
180.0
  0
INSERT
  5
158A9
330
A
100
AcDbEntity
  8
buhin-1
100
AcDbBlockReference
  2
_Open30
 10
652.0412236630403
 20
194.3177586259931
 30
0.0
 41
2.5
 42
2.5
 43
2.5
  0
MTEXT
  5
158AA
330
A
100
AcDbEntity
  8
buhin-1
100
AcDbMText
 10
598.3300868451083
 20
197.8177586259931
 30
0.0
 40
5.0
 41
0.0
 71
     5
 72
     1
  1
82-110
 73
     1
 44
1.0
1001
ACAD
1000
MTEXTBEGIN
1070
    73
1070
     1
1070
    44
1040
1.0
1070
    74
1070
     0
1000
MTEXTEND
  0
MTEXT
  5
158AB
330
A
100
AcDbEntity
  8
buhin-1
100
AcDbMText
 10
598.3300868451083
 20
189.8177586259931
 30
0.0
 40
5.0
 41
0.0
 71
     5
 72
     1
  1
調整しろ:28{\fArial|b0|i0|c0|p32;mm}
 73
     1
 44
1.0
1001
ACAD
1000
MTEXTBEGIN
1070
    73
1070
     1
1070
    44
1040
1.0
1070
    74
1070
     0
1000
MTEXTEND
  0
INSERT
  5
28AB4
330
A
100
AcDbEntity
  8
buhin-1
100
AcDbBlockReference
  2
box
 10
247.6770150523253
 20
712.9666436181232
 30
0.0
 50
90.0
  0
LINE
  5
294CC
330
A
100
AcDbEntity
  8
BUHIN-3
  6
HIDDEN
100
AcDbLine
 10
265.3670650523251
 20
712.9666436181231
 30
0.0
 11
275.3670650523251
 21
712.9666436181231
 31
0.0
  0
LINE
  5
294CD
330
A
100
AcDbEntity
  8
BUHIN-3
  6
HIDDEN
100
AcDbLine
 10
290.6406830523253
 20
712.9666436181231
 30
0.0
 11
290.6418510523251
 21
703.4666436181232
 31
0.0
  0
LINE
  5
294CE
330
A
100
AcDbEntity
  8
BUHIN-3
  6
HIDDEN
100
AcDbLine
 10
204.704277052325
 20
712.9666436181231
 30
0.0
 11
204.7054450523253
 21
703.4666436181232
 31
0.0
  0
LINE
  5
294CF
330
A
100
AcDbEntity
  8
BUHIN-3
  6
DASHDOT
100
AcDbLine
 10
247.6770150523252
 20
560.8939816181231
 30
0.0
 11
247.6951101105896
 21
639.3637608537927
 31
0.0
  0
LINE
  5
294D5
330
A
100
AcDbEntity
  8
BUHIN-3
  6
Continuous
100
AcDbLine
 10
247.6770150523252
 20
639.236869618123
 30
0.0
 11
247.6770150523252
 21
639.363751618123
 31
0.0
  0
LINE
  5
294D6
330
A
100
AcDbEntity
  8
BUHIN-3
  6
Continuous
100
AcDbLine
 10
314.3737770523252
 20
639.366621618123
 30
0.0
 11
317.3272610523251
 21
639.366621618123
 31
0.0
  0
LINE
  5
294D7
330
A
100
AcDbEntity
  8
BUHIN-3
  6
Continuous
100
AcDbLine
 10
311.0915670523251
 20
639.366621618123
 30
0.0
 11
314.3737770523252
 21
639.366621618123
 31
0.0
  0
LINE
  5
294D8
330
A
100
AcDbEntity
  8
BUHIN-3
  6
Continuous
100
AcDbLine
 10
295.0215650523252
 20
639.366621618123
 30
0.0
 11
299.4419530523252
 21
639.366621618123
 31
0.0
  0
LINE
  5
294D9
330
A
100
AcDbEntity
  8
BUHIN-3
  6
Continuous
100
AcDbLine
 10
290.3678310523253
 20
639.366621618123
 30
0.0
 11
295.0215650523252
 21
639.366621618123
 31
0.0
  0
LINE
  5
294DA
330
A
100
AcDbEntity
  8
BUHIN-3
  6
Continuous
100
AcDbLine
 10
303.6072110523252
 20
639.366621618123
 30
0.0
 11
307.4968050523252
 21
639.366621618123
 31
0.0
  0
LINE
  5
294DB
330
A
100
AcDbEntity
  8
BUHIN-3
  6
Continuous
100
AcDbLine
 10
299.4419530523252
 20
639.366621618123
 30
0.0
 11
303.6072110523252
 21
639.366621618123
 31
0.0
  0
LINE
  5
294DC
330
A
100
AcDbEntity
  8
BUHIN-3
  6
Continuous
100
AcDbLine
 10
324.078291052325
 20
639.366621618123
 30
0.0
 11
325.5885210523251
 21
639.366621618123
 31
0.0
  0
LINE
  5
294DD
330
A
100
AcDbEntity
  8
BUHIN-3
  6
Continuous
100
AcDbLine
 10
322.1915050523252
 20
639.366621618123
 30
0.0
 11
324.078291052325
 21
639.366621618123
 31
0.0
  0
LINE
  5
294DE
330
A
100
AcDbEntity
  8
BUHIN-3
  6
Continuous
100
AcDbLine
 10
264.4355270523253
 20
639.366621618123
 30
0.0
 11
269.8930050523251
 21
639.366621618123
 31
0.0
  0
LINE
  5
294DF
330
A
100
AcDbEntity
  8
BUHIN-3
  6
Continuous
100
AcDbLine
 10
258.8954510523251
 20
639.366621618123
 30
0.0
 11
264.4355270523253
 21
639.366621618123
 31
0.0
  0
LINE
  5
294E0
330
A
100
AcDbEntity
  8
BUHIN-3
  6
Continuous
100
AcDbLine
 10
285.5036870523251
 20
639.366621618123
 30
0.0
 11
290.3678310523253
 21
639.366621618123
 31
0.0
  0
LINE
  5
294E1
330
A
100
AcDbEntity
  8
BUHIN-3
  6
Continuous
100
AcDbLine
 10
280.453107052325
 20
639.366621618123
 30
0.0
 11
285.5036870523251
 21
639.366621618123
 31
0.0
  0
LINE
  5
294E2
330
A
100
AcDbEntity
  8
BUHIN-3
  6
Continuous
100
AcDbLine
 10
275.2409850523251
 20
639.366621618123
 30
0.0
 11
280.453107052325
 21
639.366621618123
 31
0.0
  0
LINE
  5
294E3
330
A
100
AcDbEntity
  8
BUHIN-3
  6
Continuous
100
AcDbLine
 10
269.8930050523251
 20
639.366621618123
 30
0.0
 11
275.2409850523251
 21
639.366621618123
 31
0.0
  0
LINE
  5
294E4
330
A
100
AcDbEntity
  8
BUHIN-3
  6
Continuous
100
AcDbLine
 10
307.4968050523252
 20
639.366621618123
 30
0.0
 11
311.0915670523251
 21
639.366621618123
 31
0.0
  0
LINE
  5
294E5
330
A
100
AcDbEntity
  8
BUHIN-3
  6
Continuous
100
AcDbLine
 10
317.3272610523251
 20
639.366621618123
 30
0.0
 11
319.9374570523252
 21
639.366621618123
 31
0.0
  0
LINE
  5
294E6
330
A
100
AcDbEntity
  8
BUHIN-3
  6
Continuous
100
AcDbLine
 10
319.9374570523252
 20
639.366621618123
 30
0.0
 11
322.1915050523252
 21
639.366621618123
 31
0.0
  0
LINE
  5
294E7
330
A
100
AcDbEntity
  8
BUHIN-3
  6
Continuous
100
AcDbLine
 10
253.3000850523251
 20
639.366621618123
 30
0.0
 11
258.8954510523251
 21
639.366621618123
 31
0.0
  0
LINE
  5
294E8
330
A
100
AcDbEntity
  8
BUHIN-3
  6
Continuous
100
AcDbLine
 10
247.6770150523252
 20
639.363751618123
 30
0.0
 11
253.3000850523251
 21
639.366621618123
 31
0.0
  0
LINE
  5
294E9
330
A
100
AcDbEntity
  8
BUHIN-3
  6
Continuous
100
AcDbLine
 10
326.7147470523252
 20
639.366621618123
 30
0.0
 11
327.4514230523252
 21
639.366621618123
 31
0.0
  0
LINE
  5
294EA
330
A
100
AcDbEntity
  8
BUHIN-3
  6
Continuous
100
AcDbLine
 10
325.5885210523251
 20
639.366621618123
 30
0.0
 11
326.7147470523252
 21
639.366621618123
 31
0.0
  0
LINE
  5
294EB
330
A
100
AcDbEntity
  8
BUHIN-3
  6
Continuous
100
AcDbLine
 10
327.4514230523252
 20
639.366621618123
 30
0.0
 11
327.7949150523252
 21
639.366621618123
 31
0.0
  0
LINE
  5
294EC
330
A
100
AcDbEntity
  8
BUHIN-3
  6
Continuous
100
AcDbLine
 10
327.7949150523252
 20
639.366621618123
 30
0.0
 11
328.1604590523252
 21
639.236869618123
 31
0.0
  0
LINE
  5
294ED
330
A
100
AcDbEntity
  8
BUHIN-3
  6
Continuous
100
AcDbLine
 10
247.6770150523252
 20
636.9666436181232
 30
0.0
 11
247.6770150523252
 21
639.236869618123
 31
0.0
  0
LINE
  5
294EE
330
A
100
AcDbEntity
  8
BUHIN-3
  6
Continuous
100
AcDbLine
 10
247.6770150523252
 20
622.368963618123
 30
0.0
 11
272.9951990523252
 21
622.368963618123
 31
0.0
  0
ARC
  5
294EF
330
A
100
AcDbEntity
  8
BUHIN-3
  6
Continuous
100
AcDbCircle
 10
165.6136850523252
 20
628.7000696181231
 30
0.0
 40
2.5
100
AcDbArc
 50
182.9999970000003
 51
264.0937709999994
  0
ARC
  5
294F0
330
A
100
AcDbEntity
  8
BUHIN-3
  6
Continuous
100
AcDbCircle
 10
247.6770150523252
 20
1421.966475618123
 30
0.0
 40
799.9998320000001
100
AcDbArc
 50
264.0937670000021
 51
268.0611060000002
  0
LINE
  5
294F1
330
A
100
AcDbEntity
  8
BUHIN-3
  6
Continuous
100
AcDbLine
 10
222.3588290523252
 20
622.368963618123
 30
0.0
 11
247.6770130523252
 21
622.368963618123
 31
0.0
  0
ARC
  5
294F2
330
A
100
AcDbEntity
  8
BUHIN-3
  6
Continuous
100
AcDbCircle
 10
329.7403430523252
 20
628.7000696181231
 30
0.0
 40
2.5
100
AcDbArc
 50
275.9062290000006
 51
357.0000029999996
  0
ARC
  5
294F3
330
A
100
AcDbEntity
  8
BUHIN-3
  6
Continuous
100
AcDbCircle
 10
247.6770130523252
 20
1421.966475618123
 30
0.0
 40
799.9998320000001
100
AcDbArc
 50
271.9388939999998
 51
275.9062329999979
  0
LINE
  5
294F4
330
A
100
AcDbEntity
  8
BUHIN-3
  6
Continuous
100
AcDbLine
 10
162.6780370523251
 20
636.9666436181232
 30
0.0
 11
247.6770150523252
 21
636.9666436181232
 31
0.0
  0
LINE
  5
294F5
330
A
100
AcDbEntity
  8
BUHIN-3
  6
Continuous
100
AcDbLine
 10
247.6770150523252
 20
636.9666436181232
 30
0.0
 11
332.6745330523251
 21
636.9666436181232
 31
0.0
  0
LINE
  5
294F7
330
A
100
AcDbEntity
  8
BUHIN-3
  6
Continuous
100
AcDbLine
 10
247.6770150523252
 20
639.236869618123
 30
0.0
 11
247.6770150523252
 21
639.363751618123
 31
0.0
  0
LINE
  5
294F8
330
A
100
AcDbEntity
  8
BUHIN-3
  6
Continuous
100
AcDbLine
 10
209.850341052325
 20
639.366621618123
 30
0.0
 11
214.9009210523252
 21
639.366621618123
 31
0.0
  0
LINE
  5
294F9
330
A
100
AcDbEntity
  8
BUHIN-3
  6
Continuous
100
AcDbLine
 10
204.9861990523252
 20
639.366621618123
 30
0.0
 11
209.850341052325
 21
639.366621618123
 31
0.0
  0
LINE
  5
294FA
330
A
100
AcDbEntity
  8
BUHIN-3
  6
Continuous
100
AcDbLine
 10
220.113043052325
 20
639.366621618123
 30
0.0
 11
225.4610230523251
 21
639.366621618123
 31
0.0
  0
LINE
  5
294FB
330
A
100
AcDbEntity
  8
BUHIN-3
  6
Continuous
100
AcDbLine
 10
214.9009210523252
 20
639.366621618123
 30
0.0
 11
220.113043052325
 21
639.366621618123
 31
0.0
  0
LINE
  5
294FC
330
A
100
AcDbEntity
  8
BUHIN-3
  6
Continuous
100
AcDbLine
 10
230.9185010523251
 20
639.366621618123
 30
0.0
 11
236.4585770523251
 21
639.366621618123
 31
0.0
  0
LINE
  5
294FD
330
A
100
AcDbEntity
  8
BUHIN-3
  6
Continuous
100
AcDbLine
 10
225.4610230523251
 20
639.366621618123
 30
0.0
 11
230.9185010523251
 21
639.366621618123
 31
0.0
  0
LINE
  5
294FE
330
A
100
AcDbEntity
  8
BUHIN-3
  6
Continuous
100
AcDbLine
 10
171.2757370523251
 20
639.366621618123
 30
0.0
 11
173.1625230523252
 21
639.366621618123
 31
0.0
  0
LINE
  5
294FF
330
A
100
AcDbEntity
  8
BUHIN-3
  6
Continuous
100
AcDbLine
 10
169.7655070523253
 20
639.366621618123
 30
0.0
 11
171.2757370523251
 21
639.366621618123
 31
0.0
  0
LINE
  5
29500
330
A
100
AcDbEntity
  8
BUHIN-3
  6
Continuous
100
AcDbLine
 10
191.7468170523252
 20
639.366621618123
 30
0.0
 11
195.9120750523251
 21
639.366621618123
 31
0.0
  0
LINE
  5
29501
330
A
100
AcDbEntity
  8
BUHIN-3
  6
Continuous
100
AcDbLine
 10
187.8572230523252
 20
639.366621618123
 30
0.0
 11
191.7468170523252
 21
639.366621618123
 31
0.0
  0
LINE
  5
29502
330
A
100
AcDbEntity
  8
BUHIN-3
  6
Continuous
100
AcDbLine
 10
200.3324630523252
 20
639.366621618123
 30
0.0
 11
204.9861990523252
 21
639.366621618123
 31
0.0
  0
LINE
  5
29503
330
A
100
AcDbEntity
  8
BUHIN-3
  6
Continuous
100
AcDbLine
 10
195.9120750523251
 20
639.366621618123
 30
0.0
 11
200.3324630523252
 21
639.366621618123
 31
0.0
  0
LINE
  5
29504
330
A
100
AcDbEntity
  8
BUHIN-3
  6
Continuous
100
AcDbLine
 10
180.9802510523251
 20
639.366621618123
 30
0.0
 11
184.262461052325
 21
639.366621618123
 31
0.0
  0
LINE
  5
29505
330
A
100
AcDbEntity
  8
BUHIN-3
  6
Continuous
100
AcDbLine
 10
178.0267690523253
 20
639.366621618123
 30
0.0
 11
180.9802510523251
 21
639.366621618123
 31
0.0
  0
LINE
  5
29506
330
A
100
AcDbEntity
  8
BUHIN-3
  6
Continuous
100
AcDbLine
 10
167.9026050523252
 20
639.366621618123
 30
0.0
 11
168.6392810523252
 21
639.366621618123
 31
0.0
  0
LINE
  5
29507
330
A
100
AcDbEntity
  8
BUHIN-3
  6
Continuous
100
AcDbLine
 10
173.1625230523252
 20
639.366621618123
 30
0.0
 11
175.4165710523252
 21
639.366621618123
 31
0.0
  0
LINE
  5
29508
330
A
100
AcDbEntity
  8
BUHIN-3
  6
Continuous
100
AcDbLine
 10
167.5591150523252
 20
639.366621618123
 30
0.0
 11
167.9026050523252
 21
639.366621618123
 31
0.0
  0
LINE
  5
29509
330
A
100
AcDbEntity
  8
BUHIN-3
  6
Continuous
100
AcDbLine
 10
175.4165710523252
 20
639.366621618123
 30
0.0
 11
178.0267690523253
 21
639.366621618123
 31
0.0
  0
LINE
  5
2950A
330
A
100
AcDbEntity
  8
BUHIN-3
  6
Continuous
100
AcDbLine
 10
236.4585770523251
 20
639.366621618123
 30
0.0
 11
242.0539430523251
 21
639.366621618123
 31
0.0
  0
LINE
  5
2950B
330
A
100
AcDbEntity
  8
BUHIN-3
  6
Continuous
100
AcDbLine
 10
168.6392810523252
 20
639.366621618123
 30
0.0
 11
169.7655070523253
 21
639.366621618123
 31
0.0
  0
LINE
  5
2950C
330
A
100
AcDbEntity
  8
BUHIN-3
  6
Continuous
100
AcDbLine
 10
242.0539430523251
 20
639.366621618123
 30
0.0
 11
247.6770150523252
 21
639.363751618123
 31
0.0
  0
LINE
  5
2950D
330
A
100
AcDbEntity
  8
BUHIN-3
  6
Continuous
100
AcDbLine
 10
167.1935690523252
 20
639.236869618123
 30
0.0
 11
167.5591150523252
 21
639.366621618123
 31
0.0
  0
LINE
  5
2950E
330
A
100
AcDbEntity
  8
BUHIN-3
  6
Continuous
100
AcDbLine
 10
184.262461052325
 20
639.366621618123
 30
0.0
 11
187.8572230523252
 21
639.366621618123
 31
0.0
  0
LINE
  5
2950F
330
A
100
AcDbEntity
  8
BUHIN-3
  6
Continuous
100
AcDbLine
 10
247.6770150523252
 20
636.9666436181232
 30
0.0
 11
247.6770150523252
 21
639.236869618123
 31
0.0
  0
LWPOLYLINE
  5
29510
330
A
100
AcDbEntity
  8
BUHIN-3
  6
Continuous
100
AcDbPolyline
 90
        5
 70
     0
 43
0.0
 10
251.8573710523253
 20
568.7206156181231
 10
251.9830330523252
 20
569.016387618123
 10
252.0867330523253
 20
569.320145618123
 10
252.1679410523252
 20
569.630341618123
 10
252.2262430523251
 20
569.9453956181231
  0
LWPOLYLINE
  5
29511
330
A
100
AcDbEntity
  8
BUHIN-3
  6
Continuous
100
AcDbPolyline
 90
        5
 70
     0
 43
0.0
 10
243.1198850523253
 20
569.9453956181231
 10
243.1781890523252
 20
569.630341618123
 10
243.259397052325
 20
569.320145618123
 10
243.3630950523252
 20
569.016387618123
 10
243.4887570523251
 20
568.7206156181231
  0
LINE
  5
29512
330
A
100
AcDbEntity
  8
BUHIN-3
  6
Continuous
100
AcDbLine
 10
243.0658830523252
 20
574.7051996181231
 30
0.0
 11
243.1198850523253
 21
569.9453956181231
 31
0.0
  0
LINE
  5
29513
330
A
100
AcDbEntity
  8
BUHIN-3
  6
Continuous
100
AcDbLine
 10
243.0414990523252
 20
576.8544236181232
 30
0.0
 11
243.0658830523252
 21
574.7051996181231
 31
0.0
  0
LINE
  5
29514
330
A
100
AcDbEntity
  8
BUHIN-3
  6
Continuous
100
AcDbLine
 10
243.0325630523252
 20
576.8545156181231
 30
0.0
 11
243.0658830523252
 21
574.7051996181231
 31
0.0
  0
LINE
  5
29515
330
A
100
AcDbEntity
  8
BUHIN-3
  6
Continuous
100
AcDbLine
 10
252.2802450523252
 20
574.7051996181231
 30
0.0
 11
252.3135670523251
 21
576.8545156181231
 31
0.0
  0
LINE
  5
29516
330
A
100
AcDbEntity
  8
BUHIN-3
  6
Continuous
100
AcDbLine
 10
252.2262430523251
 20
569.9453956181231
 30
0.0
 11
252.3046290523252
 21
576.8544236181232
 31
0.0
  0
ARC
  5
29517
330
A
100
AcDbEntity
  8
BUHIN-3
  6
Continuous
100
AcDbCircle
 10
247.6730650523252
 20
857.806659618123
 30
0.0
 40
280.999934
100
AcDbArc
 50
265.2798030000023
 51
270.0
  0
ARC
  5
29518
330
A
100
AcDbEntity
  8
BUHIN-3
  6
Continuous
100
AcDbCircle
 10
247.6730590523252
 20
857.8067636181232
 30
0.0
 40
281.000036
100
AcDbArc
 50
270.0000010000014
 51
274.720195999998
  0
ARC
  5
29519
330
A
100
AcDbEntity
  8
BUHIN-3
  6
Continuous
100
AcDbCircle
 10
224.6730670523252
 20
579.254667618123
 30
0.0
 40
1.5
100
AcDbArc
 50
179.9999920000018
 51
265.2798030000023
  0
ARC
  5
2951A
330
A
100
AcDbEntity
  8
BUHIN-3
  6
Continuous
100
AcDbCircle
 10
270.6730610523252
 20
579.254667618123
 30
0.0
 40
1.5
100
AcDbArc
 50
274.7201969999977
 51
0.0000079999981996
  0
LWPOLYLINE
  5
2951B
330
A
100
AcDbEntity
  8
BUHIN-3
  6
Continuous
100
AcDbPolyline
 90
        2
 70
     0
 43
0.0
 10
223.1732050523253
 20
613.469293618123
 10
223.1730410523252
 20
613.437157618123
  0
LWPOLYLINE
  5
2951C
330
A
100
AcDbEntity
  8
BUHIN-3
  6
Continuous
100
AcDbPolyline
 90
        2
 70
     0
 43
0.0
 10
272.1730890523251
 20
613.437153618123
 10
272.1729230523253
 20
613.469293618123
  0
LINE
  5
2951D
330
A
100
AcDbEntity
  8
BUHIN-3
  6
Continuous
100
AcDbLine
 10
271.5776430523251
 20
613.969291618123
 30
0.0
 11
271.6728030523252
 21
613.969291618123
 31
0.0
  0
LINE
  5
2951E
330
A
100
AcDbEntity
  8
BUHIN-3
  6
Continuous
100
AcDbLine
 10
223.6733110523252
 20
613.969291618123
 30
0.0
 11
223.7685110523252
 21
613.969291618123
 31
0.0
  0
LINE
  5
2951F
330
A
100
AcDbEntity
  8
BUHIN-3
  6
Continuous
100
AcDbLine
 10
270.6454030523252
 20
613.969291618123
 30
0.0
 11
271.5776430523251
 21
613.969291618123
 31
0.0
  0
LINE
  5
29520
330
A
100
AcDbEntity
  8
BUHIN-3
  6
Continuous
100
AcDbLine
 10
223.7685110523252
 20
613.969291618123
 30
0.0
 11
224.7086250523252
 21
613.969291618123
 31
0.0
  0
LWPOLYLINE
  5
29521
330
A
100
AcDbEntity
  8
BUHIN-3
  6
Continuous
100
AcDbPolyline
 90
        3
 70
     0
 43
0.0
 10
271.077391052325
 20
613.4416076181231
 10
271.0531450523251
 20
613.087347618123
 10
271.0356670523251
 20
612.9693736181231
  0
LWPOLYLINE
  5
29522
330
A
100
AcDbEntity
  8
BUHIN-3
  6
Continuous
100
AcDbPolyline
 90
        3
 70
     0
 43
0.0
 10
224.348107052325
 20
612.7807896181231
 10
224.2899290523252
 20
613.110959618123
 10
224.2685730523251
 20
613.441659618123
  0
LWPOLYLINE
  5
29523
330
A
100
AcDbEntity
  8
BUHIN-3
  6
Continuous
100
AcDbPolyline
 90
       11
 70
     0
 43
0.0
 10
247.6730650523252
 20
566.0834496181231
 10
248.647095052325
 20
566.2072916181231
 10
248.8638530523251
 20
566.2462696181231
 10
249.564607052325
 20
566.5098996181231
 10
249.8623530523252
 20
566.6424676181231
 10
250.177805052325
 20
566.8313496181229
 10
250.6745810523252
 20
567.203967618123
 10
250.9153490523251
 20
567.4212256181232
 10
251.1230790523252
 20
567.633751618123
 10
251.3150870523252
 20
567.8722676181231
 10
251.8573710523253
 20
568.7206156181231
  0
LWPOLYLINE
  5
29524
330
A
100
AcDbEntity
  8
BUHIN-3
  6
Continuous
100
AcDbPolyline
 90
       11
 70
     0
 43
0.0
 10
247.6730650523252
 20
566.0834496181231
 10
246.6990330523251
 20
566.2072916181231
 10
246.482275052325
 20
566.2462696181231
 10
245.7815210523251
 20
566.5098996181231
 10
245.4837770523251
 20
566.6424676181231
 10
245.1683230523251
 20
566.8313496181229
 10
244.6715470523251
 20
567.203967618123
 10
244.4307790523252
 20
567.4212256181232
 10
244.2230510523252
 20
567.633751618123
 10
244.0310430523252
 20
567.8722676181231
 10
243.4887570523251
 20
568.7206156181231
  0
LWPOLYLINE
  5
29525
330
A
100
AcDbEntity
  8
BUHIN-3
  6
Continuous
100
AcDbPolyline
 90
        5
 70
     0
 43
0.0
 10
223.6733110523252
 20
613.969297618123
 10
223.5439210523252
 20
613.952287618123
 10
223.4233410523251
 20
613.9023756181231
 10
223.3197830523252
 20
613.822959618123
 10
223.2403030523252
 20
613.7194516181231
  0
LWPOLYLINE
  5
29526
330
A
100
AcDbEntity
  8
BUHIN-3
  6
Continuous
100
AcDbPolyline
 90
        5
 70
     0
 43
0.0
 10
272.1729010523251
 20
613.469289618123
 10
272.1348330523253
 20
613.6606576181231
 10
272.0264210523252
 20
613.8228836181229
 10
271.8641750523251
 20
613.9312656181231
 10
271.6728030523252
 20
613.969297618123
  0
LWPOLYLINE
  5
29527
330
A
100
AcDbEntity
  8
BUHIN-3
  6
Continuous
100
AcDbPolyline
 90
        9
 70
     0
 43
0.0
 10
247.6770150523252
 20
606.955533618123
 10
247.347191052325
 20
606.9321676181231
 10
247.0226970523251
 20
606.8624476181232
 10
246.708777052325
 20
606.747497618123
 10
246.4104990523251
 20
606.5891756181232
 10
246.1326850523253
 20
606.3900416181231
 10
245.8798230523252
 20
606.1533116181229
 10
245.6560010523251
 20
605.8828116181231
 10
245.4648310523252
 20
605.5829116181231
  0
LWPOLYLINE
  5
29528
330
A
100
AcDbEntity
  8
BUHIN-3
  6
Continuous
100
AcDbPolyline
 90
        9
 70
     0
 43
0.0
 10
249.8962210523252
 20
605.5701856181232
 10
249.7053970523252
 20
605.8726376181231
 10
249.4814670523253
 20
606.1455556181232
 10
249.2280850523252
 20
606.384485618123
 10
248.9493870523251
 20
606.5855296181231
 10
248.6499230523252
 20
606.745405618123
 10
248.3345770523253
 20
606.861505618123
 10
248.008501052325
 20
606.931929618123
 10
247.6770150523252
 20
606.955533618123
  0
LINE
  5
29529
330
A
100
AcDbEntity
  8
BUHIN-3
  6
Continuous
100
AcDbLine
 10
247.6730550523252
 20
605.0504696181231
 30
0.0
 11
247.6730570523252
 21
605.0520216181231
 31
0.0
  0
LINE
  5
2952A
330
A
100
AcDbEntity
  8
BUHIN-3
  6
Continuous
100
AcDbLine
 10
224.4306870523252
 20
611.142673618123
 30
0.0
 11
224.430959052325
 21
611.1429256181231
 31
0.0
  0
LWPOLYLINE
  5
2952B
330
A
100
AcDbEntity
  8
BUHIN-3
  6
Continuous
100
AcDbPolyline
 90
       22
 70
     0
 43
0.0
 10
224.4306870523252
 20
611.142673618123
 10
224.7523990523252
 20
610.8147296181231
 10
225.1088010523251
 20
610.491653618123
 10
225.4993590523251
 20
610.173927618123
 10
225.9234850523252
 20
609.8620296181231
 10
226.3805430523252
 20
609.5564296181231
 10
226.8698450523252
 20
609.2575856181229
 10
227.3906590523251
 20
608.965945618123
 10
227.9422030523253
 20
608.6819496181229
 10
228.5236450523252
 20
608.4060216181232
 10
229.7726950523251
 20
607.8800176181231
 10
231.1303130523251
 20
607.3910936181231
 10
232.5883450523251
 20
606.9421836181231
 10
234.1380370523252
 20
606.5359836181231
 10
235.7700850523251
 20
606.1749336181229
 10
236.6139470523251
 20
606.0120276181232
 10
238.3510170523252
 20
605.7226756181231
 10
240.1451470523252
 20
605.483357618123
 10
241.9855650523252
 20
605.295507618123
 10
243.8612210523251
 20
605.1602556181231
 10
245.7608530523252
 20
605.0784136181231
 10
247.6730550523252
 20
605.0504696181231
  0
LINE
  5
2952C
330
A
100
AcDbEntity
  8
BUHIN-3
  6
Continuous
100
AcDbLine
 10
223.1734370523251
 20
613.469293618123
 30
0.0
 11
223.2400970523251
 21
613.715585618123
 31
0.0
  0
LINE
  5
2952D
330
A
100
AcDbEntity
  8
BUHIN-3
  6
Continuous
100
AcDbLine
 10
223.2400970523251
 20
613.715585618123
 30
0.0
 11
223.2405750523252
 21
613.719293618123
 31
0.0
  0
LINE
  5
2952E
330
A
100
AcDbEntity
  8
BUHIN-3
  6
Continuous
100
AcDbLine
 10
271.8014830523252
 20
612.4030856181231
 30
0.0
 11
271.8017370523252
 21
612.4029616181232
 31
0.0
  0
LINE
  5
2952F
330
A
100
AcDbEntity
  8
BUHIN-3
  6
Continuous
100
AcDbLine
 10
247.6730730523251
 20
605.0520216181231
 30
0.0
 11
247.6730730523251
 21
605.0505896181231
 31
0.0
  0
LWPOLYLINE
  5
29530
330
A
100
AcDbEntity
  8
BUHIN-3
  6
Continuous
100
AcDbPolyline
 90
       26
 70
     0
 43
0.0
 10
247.6730730523251
 20
605.0505896181231
 10
249.8077110523251
 20
605.0852276181232
 10
251.9251730523253
 20
605.187065618123
 10
254.0095710523253
 20
605.3553396181231
 10
256.0452650523252
 20
605.5887856181231
 10
258.0169810523252
 20
605.885653618123
 10
259.9099230523251
 20
606.243715618123
 10
261.7098910523252
 20
606.6602856181231
 10
262.5707610523252
 20
606.8895516181231
 10
263.4033790523251
 20
607.1322376181229
 10
264.2061890523252
 20
607.387891618123
 10
264.9776810523251
 20
607.6560316181232
 10
265.7164090523251
 20
607.936153618123
 10
266.4209830523252
 20
608.2277356181231
 10
267.0900850523253
 20
608.5302256181231
 10
267.7224590523253
 20
608.8430596181232
 10
268.3169150523251
 20
609.1656496181229
 10
268.8723390523252
 20
609.497389618123
 10
269.3876910523251
 20
609.8376576181229
 10
269.8619990523252
 20
610.1858156181229
 10
270.2943790523252
 20
610.5412076181231
 10
270.6840130523253
 20
610.9031696181231
 10
271.0301750523251
 20
611.2710216181231
 10
271.3322130523251
 20
611.6440716181231
 10
271.5895610523252
 20
612.021621618123
 10
271.8017370523252
 20
612.4029616181232
  0
LWPOLYLINE
  5
29531
330
A
100
AcDbEntity
  8
BUHIN-3
  6
Continuous
100
AcDbPolyline
 90
       49
 70
     0
 43
0.0
 10
271.0892330523251
 20
613.1319056181231
 10
270.8979930523252
 20
612.6509036181231
 10
270.7093030523251
 20
612.2369676181232
 10
270.5231650523253
 20
611.8900976181231
 10
270.3395750523252
 20
611.6102916181231
 10
269.9483110523251
 20
611.1372056181231
 10
269.5037710523251
 20
610.7030276181232
 10
268.9702610523251
 20
610.2774176181232
 10
268.3120850523252
 20
609.8300296181231
 10
267.551627052325
 20
609.3802856181231
 10
266.7112670523251
 20
608.9476096181232
 10
265.7940270523251
 20
608.5337376181231
 10
264.8029230523252
 20
608.140413618123
 10
263.7416290523251
 20
607.7692656181231
 10
262.6138110523251
 20
607.421929618123
 10
261.4238130523251
 20
607.099897618123
 10
260.1759710523251
 20
606.804665618123
 10
258.8753110523252
 20
606.537563618123
 10
257.526861052325
 20
606.2999236181229
 10
256.1363490523251
 20
606.0928816181232
 10
254.709501052325
 20
605.9175756181231
 10
253.238763052325
 20
605.7741996181231
 10
251.7165730523251
 20
605.6629556181231
 10
250.1622610523252
 20
605.5861376181229
 10
248.5951550523252
 20
605.546037618123
 10
247.0232050523252
 20
605.5428056181232
 10
245.454359052325
 20
605.5765876181229
 10
243.8961190523252
 20
605.647089618123
 10
242.3559870523251
 20
605.7540156181231
 10
240.8409670523251
 20
605.8966736181231
 10
239.3580570523251
 20
606.074375618123
 10
237.9137150523251
 20
606.2860836181231
 10
236.5143950523251
 20
606.5307676181231
 10
235.1659490523252
 20
606.807095618123
 10
233.8742330523252
 20
607.1137356181231
 10
232.6444550523251
 20
607.449115618123
 10
231.4818170523251
 20
607.8116616181231
 10
230.3908250523252
 20
608.1995996181229
 10
229.3759830523251
 20
608.611161618123
 10
228.4410490523252
 20
609.0444296181232
 10
227.5897770523251
 20
609.497487618123
 10
226.8388570523252
 20
609.9575476181231
 10
226.2049810523251
 20
610.411819618123
 10
225.6714310523252
 20
610.8700996181231
 10
225.2214930523252
 20
611.3421816181231
 10
225.0118410523252
 20
611.6181116181231
 10
224.7910190523252
 20
611.9669156181231
 10
224.5590270523252
 20
612.388595618123
 10
224.315863052325
 20
612.8831516181231
  0
LINE
  5
29532
330
A
100
AcDbEntity
  8
BUHIN-3
  6
Continuous
100
AcDbLine
 10
269.9749490523251
 20
611.1177496181231
 30
0.0
 11
270.1349390523252
 21
611.258571618123
 31
0.0
  0
LWPOLYLINE
  5
29533
330
A
100
AcDbEntity
  8
BUHIN-3
  6
Continuous
100
AcDbPolyline
 90
        9
 70
     0
 43
0.0
 10
246.4354970523252
 20
607.816669618123
 10
246.1028110523252
 20
607.666169618123
 10
245.7807710523252
 20
607.471895618123
 10
245.4747890523251
 20
607.2371096181231
 10
245.1900030523252
 20
606.9657576181231
 10
244.9311950523251
 20
606.6623976181229
 10
244.7027130523251
 20
606.3321216181231
 10
244.5083950523251
 20
605.9804796181232
 10
244.3515050523251
 20
605.6133756181231
  0
LINE
  5
29534
330
A
100
AcDbEntity
  8
BUHIN-3
  6
Continuous
100
AcDbLine
 10
250.9882770523252
 20
605.6181756181232
 30
0.0
 11
250.994347052325
 21
605.620485618123
 31
0.0
  0
LINE
  5
29535
330
A
100
AcDbEntity
  8
BUHIN-3
  6
Continuous
100
AcDbLine
 10
248.9215670523251
 20
607.816645618123
 30
0.0
 11
248.9227350523251
 21
607.8194816181231
 31
0.0
  0
LWPOLYLINE
  5
29536
330
A
100
AcDbEntity
  8
BUHIN-3
  6
Continuous
100
AcDbPolyline
 90
        9
 70
     0
 43
0.0
 10
250.994347052325
 20
605.620485618123
 10
250.8337710523253
 20
605.9887296181231
 10
250.6404130523253
 20
606.3367116181231
 10
250.4162450523251
 20
606.6608936181231
 10
250.1635490523251
 20
606.9579676181232
 10
249.8848970523251
 20
607.2249136181231
 10
249.5831270523251
 20
607.4590116181231
 10
249.2613150523252
 20
607.6578756181231
 10
248.9227350523251
 20
607.8194816181231
  0
LINE
  5
29537
330
A
100
AcDbEntity
  8
BUHIN-3
  6
Continuous
100
AcDbLine
 10
251.1806330523252
 20
605.6300016181231
 30
0.0
 11
251.1810950523251
 21
605.6300956181232
 31
0.0
  0
LINE
  5
29538
330
A
100
AcDbEntity
  8
BUHIN-3
  6
Continuous
100
AcDbLine
 10
250.1308070523252
 20
607.816645618123
 30
0.0
 11
250.1349030523251
 21
607.8202176181231
 31
0.0
  0
LWPOLYLINE
  5
29539
330
A
100
AcDbEntity
  8
BUHIN-3
  6
Continuous
100
AcDbPolyline
 90
        7
 70
     0
 43
0.0
 10
251.1810950523251
 20
605.6300956181232
 10
251.0197650523252
 20
606.2417656181231
 10
250.7881510523252
 20
606.8185856181231
 10
250.6474530523253
 20
607.0901076181232
 10
250.4911190523253
 20
607.348445618123
 10
250.3199690523251
 20
607.592243618123
 10
250.1349030523251
 20
607.8202176181231
  0
LWPOLYLINE
  5
2953A
330
A
100
AcDbEntity
  8
BUHIN-3
  6
Continuous
100
AcDbPolyline
 90
        7
 70
     0
 43
0.0
 10
244.1636070523252
 20
605.6196516181231
 10
244.2777550523253
 20
606.0822936181231
 10
244.4331950523251
 20
606.526215618123
 10
244.5995910523251
 20
606.892751618123
 10
244.8094590523253
 20
607.267285618123
 10
245.061269052325
 20
607.628333618123
 10
245.2153210523251
 20
607.816645618123
  0
LINE
  5
2953B
330
A
100
AcDbEntity
  8
BUHIN-3
  6
Continuous
100
AcDbLine
 10
231.4668570523251
 20
607.816645618123
 30
0.0
 11
247.6770150523252
 21
607.816645618123
 31
0.0
  0
LINE
  5
2953C
330
A
100
AcDbEntity
  8
BUHIN-3
  6
Continuous
100
AcDbLine
 10
247.6770150523252
 20
607.816645618123
 30
0.0
 11
263.9339930523251
 21
607.816645618123
 31
0.0
  0
LINE
  5
2953D
330
A
100
AcDbEntity
  8
BUHIN-3
  6
Continuous
100
AcDbLine
 10
225.8511890523252
 20
610.667073618123
 30
0.0
 11
225.8698630523251
 21
610.674727618123
 31
0.0
  0
ARC
  5
2953E
330
A
100
AcDbEntity
  8
BUHIN-3
  6
Continuous
100
AcDbCircle
 10
255.4935570523252
 20
622.8159756181232
 30
0.0
 40
32.035382
100
AcDbArc
 50
184.0681830000004
 51
202.286234000001
  0
LINE
  5
2953F
330
A
100
AcDbEntity
  8
BUHIN-3
  6
Continuous
100
AcDbLine
 10
223.4490470523253
 20
622.368963618123
 30
0.0
 11
223.5388930523251
 21
620.5432716181231
 31
0.0
  0
LINE
  5
29540
330
A
100
AcDbEntity
  8
BUHIN-3
  6
Continuous
100
AcDbLine
 10
271.8151350523251
 20
620.5432716181231
 30
0.0
 11
271.9049810523251
 21
622.368963618123
 31
0.0
  0
ARC
  5
29541
330
A
100
AcDbEntity
  8
BUHIN-3
  6
Continuous
100
AcDbCircle
 10
239.8604710523252
 20
622.8159756181232
 30
0.0
 40
32.035382
100
AcDbArc
 50
337.7472930000035
 51
355.9318169999996
  0
LINE
  5
29542
330
A
100
AcDbEntity
  8
BUHIN-3
  6
Continuous
100
AcDbLine
 10
269.491299052325
 20
610.6920496181231
 30
0.0
 11
269.5099430523252
 21
610.684421618123
 31
0.0
  0
LINE
  5
29543
330
A
100
AcDbEntity
  8
BUHIN-3
  6
HIDDEN
100
AcDbLine
 10
223.4287310523252
 20
659.816645618123
 30
0.0
 11
247.6770150523252
 21
659.816645618123
 31
0.0
  0
LINE
  5
29544
330
A
100
AcDbEntity
  8
BUHIN-3
  6
HIDDEN
100
AcDbLine
 10
247.6770150523252
 20
659.816645618123
 30
0.0
 11
271.9252970523252
 21
659.816645618123
 31
0.0
  0
LINE
  5
29545
330
A
100
AcDbEntity
  8
BUHIN-3
  6
HIDDEN
100
AcDbLine
 10
247.6770150523252
 20
662.816645618123
 30
0.0
 11
271.9252970523252
 21
662.816645618123
 31
0.0
  0
LINE
  5
29546
330
A
100
AcDbEntity
  8
BUHIN-3
  6
HIDDEN
100
AcDbLine
 10
223.4287310523252
 20
662.816645618123
 30
0.0
 11
247.6770150523252
 21
662.816645618123
 31
0.0
  0
LINE
  5
29547
330
A
100
AcDbEntity
  8
BUHIN-3
  6
HIDDEN
100
AcDbLine
 10
223.4287310523252
 20
659.816645618123
 30
0.0
 11
247.6770150523252
 21
659.816645618123
 31
0.0
  0
LINE
  5
29548
330
A
100
AcDbEntity
  8
BUHIN-3
  6
HIDDEN
100
AcDbLine
 10
247.6770150523252
 20
659.816645618123
 30
0.0
 11
271.9252970523252
 21
659.816645618123
 31
0.0
  0
LWPOLYLINE
  5
29549
330
A
100
AcDbEntity
  8
BUHIN-3
  6
HIDDEN
100
AcDbPolyline
 90
        3
 70
     0
 43
0.0
 10
257.6521510523252
 20
662.8168736181232
 10
257.8980630523251
 20
663.079861618123
 10
257.9889690523252
 20
663.163377618123
  0
ARC
  5
2954A
330
A
100
AcDbEntity
  8
BUHIN-3
  6
HIDDEN
100
AcDbCircle
 10
257.4554930523252
 20
663.757921618123
 30
0.0
 40
0.7987600000000001
100
AcDbArc
 50
311.9011310000021
 51
320.6629170000002
  0
LINE
  5
2954B
330
A
100
AcDbEntity
  8
BUHIN-3
  6
HIDDEN
100
AcDbLine
 10
229.3270050523251
 20
681.916159618123
 30
0.0
 11
229.3270170523253
 21
663.0667736181232
 31
0.0
  0
LINE
  5
2954C
330
A
100
AcDbEntity
  8
BUHIN-3
  6
HIDDEN
100
AcDbLine
 10
266.0270030523252
 20
682.7166436181231
 30
0.0
 11
266.0270150523251
 21
663.066643618123
 31
0.0
  0
LINE
  5
2954D
330
A
100
AcDbEntity
  8
BUHIN-3
  6
HIDDEN
100
AcDbLine
 10
238.1770150523252
 20
663.9666436181231
 30
0.0
 11
238.1770150523252
 21
680.9666456181231
 31
0.0
  0
LINE
  5
2954E
330
A
100
AcDbEntity
  8
BUHIN-3
  6
HIDDEN
100
AcDbLine
 10
257.1770150523252
 20
663.9666436181231
 30
0.0
 11
257.1770150523252
 21
699.9666436181231
 31
0.0
  0
ARC
  5
2954F
330
A
100
AcDbEntity
  8
BUHIN-3
  6
HIDDEN
100
AcDbCircle
 10
259.1770150523252
 20
663.9666436181231
 30
0.0
 40
2.0
100
AcDbArc
 50
179.9999939999981
 51
215.8641670000015
  0
ARC
  5
29550
330
A
100
AcDbEntity
  8
BUHIN-3
  6
HIDDEN
100
AcDbCircle
 10
267.127013052325
 20
663.0666236181231
 30
0.0
 40
1.100011999999999
100
AcDbArc
 50
179.9989840000006
 51
193.3877750000009
  0
ARC
  5
29551
330
A
100
AcDbEntity
  8
BUHIN-3
  6
HIDDEN
100
AcDbCircle
 10
278.5954990523253
 20
646.4344856181232
 30
0.0
 40
26.53249000000001
100
AcDbArc
 50
138.6325310000024
 51
140.6667890000016
  0
ARC
  5
29552
330
A
100
AcDbEntity
  8
BUHIN-3
  6
HIDDEN
100
AcDbCircle
 10
228.2268890523253
 20
663.066751618123
 30
0.0
 40
1.100139999999999
100
AcDbArc
 50
346.6068800000018
 51
0.0010669999993189
  0
ARC
  5
29553
330
A
100
AcDbEntity
  8
BUHIN-3
  6
HIDDEN
100
AcDbCircle
 10
236.1770330523252
 20
663.9666256181231
 30
0.0
 40
2.0
100
AcDbArc
 50
324.1359620000019
 51
0.0005559999986449
  0
LWPOLYLINE
  5
29554
330
A
100
AcDbEntity
  8
BUHIN-3
  6
HIDDEN
100
AcDbPolyline
 90
       19
 70
     0
 43
0.0
 10
268.1696630523251
 20
686.9934656181231
 10
268.8975570523252
 20
687.4621716181231
 10
270.2875770523253
 20
688.4810596181231
 10
270.8054450523252
 20
688.8934616181231
 10
271.527143052325
 20
689.5144556181231
 10
272.2746230523252
 20
690.190033618123
 10
272.9950490523251
 20
690.898887618123
 10
273.6871670523253
 20
691.6397356181231
 10
274.3497290523253
 20
692.4112956181231
 10
274.9815870523252
 20
693.2121716181231
 10
275.5815990523251
 20
694.040973618123
 10
276.1487270523252
 20
694.8962116181231
 10
276.681941052325
 20
695.776393618123
 10
277.1803270523252
 20
696.679941618123
 10
277.6429730523252
 20
697.605275618123
 10
278.0690890523253
 20
698.550737618123
 10
278.4578910523253
 20
699.514675618123
 10
278.8786210523251
 20
700.6527636181232
 10
278.9590930523252
 20
700.889161618123
  0
LINE
  5
29555
330
A
100
AcDbEntity
  8
BUHIN-3
  6
HIDDEN
100
AcDbLine
 10
212.9503550523252
 20
703.4666436181232
 30
0.0
 11
214.848909052325
 21
703.4666436181232
 31
0.0
  0
LINE
  5
29556
330
A
100
AcDbEntity
  8
BUHIN-3
  6
HIDDEN
100
AcDbLine
 10
204.7093950523251
 20
703.4666436181232
 30
0.0
 11
212.9503550523252
 21
703.4666436181232
 31
0.0
  0
LINE
  5
29557
330
A
100
AcDbEntity
  8
BUHIN-3
  6
HIDDEN
100
AcDbLine
 10
215.2155590523252
 20
702.9666436181231
 30
0.0
 11
215.3165750523251
 21
702.9666436181231
 31
0.0
  0
LINE
  5
29558
330
A
100
AcDbEntity
  8
BUHIN-3
  6
HIDDEN
100
AcDbLine
 10
207.3806950523251
 20
702.9666436181231
 30
0.0
 11
212.5256510523251
 21
702.9666436181231
 31
0.0
  0
LWPOLYLINE
  5
29559
330
A
100
AcDbEntity
  8
BUHIN-3
  6
HIDDEN
100
AcDbPolyline
 90
        7
 70
     0
 43
0.0
 10
206.5333310523253
 20
703.4666436181232
 10
206.5587910523251
 20
703.3505796181231
 10
206.6210210523252
 20
703.254061618123
 10
206.7243610523253
 20
703.1604456181232
 10
206.9693490523252
 20
703.0358816181232
 10
207.2401810523251
 20
702.974607618123
 10
207.3806950523251
 20
702.9666436181231
  0
LWPOLYLINE
  5
2955A
330
A
100
AcDbEntity
  8
BUHIN-3
  6
HIDDEN
100
AcDbPolyline
 90
        6
 70
     0
 43
0.0
 10
215.3165750523251
 20
702.9666436181231
 10
215.1747250523251
 20
703.0013076181232
 10
215.0166310523252
 20
703.1110636181232
 10
214.9073830523252
 20
703.251391618123
 10
214.8663550523251
 20
703.348623618123
 10
214.8489110523253
 20
703.4666436181232
  0
LWPOLYLINE
  5
2955B
330
A
100
AcDbEntity
  8
BUHIN-3
  6
HIDDEN
100
AcDbPolyline
 90
        3
 70
     0
 43
0.0
 10
215.2156370523252
 20
702.9666436181231
 10
214.0957750523252
 20
702.9371136181231
 10
212.5256350523252
 20
702.9666436181231
  0
LINE
  5
2955C
330
A
100
AcDbEntity
  8
BUHIN-3
  6
HIDDEN
100
AcDbLine
 10
236.5338870523252
 20
682.9666436181232
 30
0.0
 11
237.7583110523253
 21
682.9666436181232
 31
0.0
  0
LINE
  5
2955D
330
A
100
AcDbEntity
  8
BUHIN-3
  6
HIDDEN
100
AcDbLine
 10
214.0044930523251
 20
682.9666436181232
 30
0.0
 11
236.5338870523252
 21
682.9666436181232
 31
0.0
  0
LINE
  5
2955E
330
A
100
AcDbEntity
  8
BUHIN-3
  6
HIDDEN
100
AcDbLine
 10
266.1423410523252
 20
682.9666436181232
 30
0.0
 11
276.693293052325
 21
682.9666436181232
 31
0.0
  0
LINE
  5
2955F
330
A
100
AcDbEntity
  8
BUHIN-3
  6
HIDDEN
100
AcDbLine
 10
276.693293052325
 20
682.9666436181232
 30
0.0
 11
281.3536270523252
 21
682.9666436181232
 31
0.0
  0
LWPOLYLINE
  5
29560
330
A
100
AcDbEntity
  8
BUHIN-3
  6
HIDDEN
100
AcDbPolyline
 90
        5
 70
     0
 43
0.0
 10
274.9459350523252
 20
689.624463618123
 10
274.8233070523251
 20
689.7399456181229
 10
274.6900310523253
 20
689.8356136181231
 10
274.5481790523251
 20
689.9099816181232
 10
274.3999590523251
 20
689.9618916181231
  0
LWPOLYLINE
  5
29561
330
A
100
AcDbEntity
  8
BUHIN-3
  6
HIDDEN
100
AcDbPolyline
 90
        5
 70
     0
 43
0.0
 10
274.3190930523251
 20
686.952881618123
 10
274.4895250523252
 20
686.9994876181229
 10
274.6529510523252
 20
687.075399618123
 10
274.8061090523251
 20
687.1791016181231
 10
274.9459350523252
 20
687.308519618123
  0
LWPOLYLINE
  5
29562
330
A
100
AcDbEntity
  8
BUHIN-3
  6
HIDDEN
100
AcDbPolyline
 90
        5
 70
     0
 43
0.0
 10
274.1757750523252
 20
690.9660716181232
 10
273.8742430523252
 20
690.944905618123
 10
273.578641052325
 20
690.8682136181231
 10
273.2955890523251
 20
690.7377176181231
 10
273.0314270523251
 20
690.5563376181231
  0
LWPOLYLINE
  5
29563
330
A
100
AcDbEntity
  8
BUHIN-3
  6
HIDDEN
100
AcDbPolyline
 90
       17
 70
     0
 43
0.0
 10
272.2368010523252
 20
689.3010376181231
 10
272.1739830523251
 20
689.035323618123
 10
272.1352630523251
 20
688.762631618123
 10
272.1211210523251
 20
688.4863076181231
 10
272.1317250523252
 20
688.209741618123
 10
272.1669510523252
 20
687.936323618123
 10
272.2263630523252
 20
687.669409618123
 10
272.3092310523252
 20
687.4122716181231
 10
272.4145430523251
 20
687.168063618123
 10
272.5410050523253
 20
686.939783618123
 10
272.6870650523253
 20
686.7302296181232
 10
272.8509310523252
 20
686.541973618123
 10
273.0305970523251
 20
686.3773216181231
 10
273.2238550523252
 20
686.238295618123
 10
273.4283350523253
 20
686.1266016181231
 10
273.6415310523252
 20
686.043607618123
 10
273.8608270523252
 20
685.9903336181231
  0
LWPOLYLINE
  5
29564
330
A
100
AcDbEntity
  8
BUHIN-3
  6
HIDDEN
100
AcDbPolyline
 90
       17
 70
     0
 43
0.0
 10
275.7530430523252
 20
688.4664916181231
 10
275.7634030523251
 20
688.2134856181231
 10
275.7943750523252
 20
687.963079618123
 10
275.8456410523251
 20
687.717841618123
 10
275.9166750523251
 20
687.480291618123
 10
276.0067470523251
 20
687.252867618123
 10
276.1149350523253
 20
687.0379056181231
 10
276.2401250523252
 20
686.8376116181231
 10
276.3810310523251
 20
686.6540436181232
 10
276.5362090523251
 20
686.4890876181231
 10
276.7040630523251
 20
686.3444336181231
 10
276.8828710523252
 20
686.2215716181232
 10
277.0707970523251
 20
686.121759618123
 10
277.2659110523252
 20
686.046023618123
 10
277.4662090523252
 20
685.995141618123
 10
277.6696350523252
 20
685.9696356181231
 10
277.8741010523251
 20
685.9697696181229
  0
LWPOLYLINE
  5
29565
330
A
100
AcDbEntity
  8
BUHIN-3
  6
HIDDEN
100
AcDbPolyline
 90
       17
 70
     0
 43
0.0
 10
277.8741010523251
 20
690.9632136181231
 10
277.6696350523252
 20
690.963345618123
 10
277.4662090523252
 20
690.9378416181231
 10
277.2659110523252
 20
690.8869596181231
 10
277.0707970523251
 20
690.8112236181231
 10
276.8828710523252
 20
690.7114116181231
 10
276.7040630523251
 20
690.588547618123
 10
276.5362090523251
 20
690.443895618123
 10
276.3810310523251
 20
690.278937618123
 10
276.2401250523252
 20
690.0953716181231
 10
276.1149350523253
 20
689.895077618123
 10
276.0067470523251
 20
689.680115618123
 10
275.9166750523251
 20
689.4526916181231
 10
275.8456410523251
 20
689.215141618123
 10
275.7943750523252
 20
688.9699036181231
 10
275.7634030523251
 20
688.719495618123
 10
275.7530430523252
 20
688.4664916181231
  0
LINE
  5
29566
330
A
100
AcDbEntity
  8
BUHIN-3
  6
HIDDEN
100
AcDbLine
 10
280.3414930523251
 20
685.966337618123
 30
0.0
 11
280.3414930523251
 21
690.9666436181232
 31
0.0
  0
LINE
  5
29567
330
A
100
AcDbEntity
  8
BUHIN-3
  6
HIDDEN
100
AcDbLine
 10
282.5215830523252
 20
685.966337618123
 30
0.0
 11
282.5215830523252
 21
690.9666436181232
 31
0.0
  0
LWPOLYLINE
  5
29568
330
A
100
AcDbEntity
  8
BUHIN-3
  6
HIDDEN
100
AcDbPolyline
 90
       10
 70
     0
 43
0.0
 10
277.9909170523253
 20
686.9610756181231
 10
278.2117950523252
 20
687.0392476181231
 10
278.4139370523253
 20
687.168161618123
 10
278.5914750523251
 20
687.3436896181232
 10
278.7278970523252
 20
687.541449618123
 10
278.8002350523251
 20
687.6828696181231
 10
278.8705810523251
 20
687.8660536181231
 10
278.921321052325
 20
688.060163618123
 10
278.9520530523252
 20
688.2614156181231
 10
278.9623310523252
 20
688.4664916181231
  0
LWPOLYLINE
  5
29569
330
A
100
AcDbEntity
  8
BUHIN-3
  6
HIDDEN
100
AcDbPolyline
 90
       10
 70
     0
 43
0.0
 10
277.9920650523251
 20
689.971645618123
 10
278.2123330523252
 20
689.893471618123
 10
278.4139370523253
 20
689.7648216181231
 10
278.5914750523251
 20
689.5892936181232
 10
278.7278970523252
 20
689.3915336181231
 10
278.8002350523251
 20
689.2501136181232
 10
278.8705810523251
 20
689.0669296181232
 10
278.921321052325
 20
688.8728196181231
 10
278.9520530523252
 20
688.671565618123
 10
278.9623310523252
 20
688.4664916181231
  0
LINE
  5
2956A
330
A
100
AcDbEntity
  8
BUHIN-3
  6
HIDDEN
100
AcDbLine
 10
283.3467670523252
 20
702.2527256181232
 30
0.0
 11
283.3669750523251
 21
690.962965618123
 31
0.0
  0
LINE
  5
2956B
330
A
100
AcDbEntity
  8
BUHIN-3
  6
HIDDEN
100
AcDbLine
 10
283.3506970523251
 20
684.9666436181231
 30
0.0
 11
283.3577970523251
 21
685.9684716181231
 31
0.0
  0
LINE
  5
2956C
330
A
100
AcDbEntity
  8
BUHIN-3
  6
HIDDEN
100
AcDbLine
 10
283.3651830523251
 20
701.991789618123
 30
0.0
 11
283.3698050523251
 21
690.9624516181231
 31
0.0
  0
ARC
  5
2956D
330
A
100
AcDbEntity
  8
BUHIN-3
  6
HIDDEN
100
AcDbCircle
 10
265.1117750523251
 20
684.4420376181229
 30
0.0
 40
0.5266340000000001
100
AcDbArc
 50
172.7669439999968
 51
182.7432600000005
  0
LWPOLYLINE
  5
2956E
330
A
100
AcDbEntity
  8
BUHIN-3
  6
HIDDEN
100
AcDbPolyline
 90
        3
 70
     0
 43
0.0
 10
228.7136510523252
 20
682.8145336181231
 10
228.3598030523251
 20
682.9282636181232
 10
227.991827052325
 20
682.966661618123
  0
ARC
  5
2956F
330
A
100
AcDbEntity
  8
BUHIN-3
  6
HIDDEN
100
AcDbCircle
 10
236.1770330523252
 20
680.9666636181231
 30
0.0
 40
2.0
100
AcDbArc
 50
359.999477999997
 51
90.00056099999914
  0
LWPOLYLINE
  5
29570
330
A
100
AcDbEntity
  8
BUHIN-3
  6
HIDDEN
100
AcDbPolyline
 90
        7
 70
     0
 43
0.0
 10
263.8640890523252
 20
685.3966556181232
 10
263.1916650523251
 20
685.511735618123
 10
262.5762430523252
 20
685.656003618123
 10
261.5937030523252
 20
685.9427596181232
 10
260.5552390523253
 20
686.302261618123
 10
259.4086750523251
 20
686.748479618123
 10
258.8376910523252
 20
686.9828656181231
  0
LWPOLYLINE
  5
29571
330
A
100
AcDbEntity
  8
BUHIN-3
  6
HIDDEN
100
AcDbPolyline
 90
        8
 70
     0
 43
0.0
 10
265.3476390523253
 20
685.9025096181231
 10
265.3508610523251
 20
685.887973618123
 10
265.1932730523251
 20
685.776919618123
 10
265.0421550523251
 20
685.618461618123
 10
264.9082350523251
 20
685.4325196181231
 10
264.7629770523251
 20
685.1544956181231
 10
264.6553450523251
 20
684.843475618123
 10
264.5893530523251
 20
684.5083436181231
  0
LWPOLYLINE
  5
29572
330
A
100
AcDbEntity
  8
BUHIN-3
  6
HIDDEN
100
AcDbPolyline
 90
        3
 70
     0
 43
0.0
 10
264.6417690523251
 20
684.096103618123
 10
264.5929470523251
 20
684.3244416181232
 10
264.5856010523252
 20
684.4167616181231
  0
LINE
  5
29573
330
A
100
AcDbEntity
  8
BUHIN-3
  6
HIDDEN
100
AcDbLine
 10
239.3253350523252
 20
685.4950756181231
 30
0.0
 11
239.3321110523252
 21
685.4970676181231
 31
0.0
  0
LINE
  5
29574
330
A
100
AcDbEntity
  8
BUHIN-3
  6
HIDDEN
100
AcDbLine
 10
238.3429430523251
 20
682.9672796181231
 30
0.0
 11
238.343951052325
 21
682.9616896181232
 31
0.0
  0
LWPOLYLINE
  5
29575
330
A
100
AcDbEntity
  8
BUHIN-3
  6
HIDDEN
100
AcDbPolyline
 90
       12
 70
     0
 43
0.0
 10
238.343951052325
 20
682.9616896181232
 10
238.4956390523252
 20
683.000749618123
 10
238.6410410523251
 20
683.062035618123
 10
238.7785370523251
 20
683.1448696181231
 10
238.9065870523252
 20
683.2483216181231
 10
239.0237670523251
 20
683.371239618123
 10
239.1287650523251
 20
683.5122536181231
 10
239.2976850523252
 20
683.8420796181232
 10
239.405825052325
 20
684.2231176181232
 10
239.4483710523252
 20
684.638405618123
 10
239.4234290523252
 20
685.069451618123
 10
239.3321110523252
 20
685.4970676181231
  0
LWPOLYLINE
  5
29576
330
A
100
AcDbEntity
  8
BUHIN-3
  6
HIDDEN
100
AcDbPolyline
 90
        5
 70
     0
 43
0.0
 10
238.6177170523253
 20
700.2076456181231
 10
238.8183710523251
 20
696.111473618123
 10
239.078299052325
 20
691.2305976181231
 10
239.1882090523251
 20
688.526577618123
 10
239.2329370523252
 20
686.515231618123
  0
LINE
  5
29577
330
A
100
AcDbEntity
  8
BUHIN-3
  6
HIDDEN
100
AcDbLine
 10
214.0044930523251
 20
682.9666436181232
 30
0.0
 11
214.0044930523251
 21
682.9660216181231
 31
0.0
  0
ARC
  5
29578
330
A
100
AcDbEntity
  8
BUHIN-3
  6
HIDDEN
100
AcDbCircle
 10
214.0041330523251
 20
684.9652996181231
 30
0.0
 40
1.999277999999999
100
AcDbArc
 50
197.9661459999985
 51
270.0103149999995
  0
LINE
  5
29579
330
A
100
AcDbEntity
  8
BUHIN-3
  6
HIDDEN
100
AcDbLine
 10
212.0006090523252
 20
684.9666436181231
 30
0.0
 11
212.1023430523252
 21
684.3486116181231
 31
0.0
  0
LINE
  5
2957A
330
A
100
AcDbEntity
  8
BUHIN-3
  6
HIDDEN
100
AcDbLine
 10
283.3506970523251
 20
684.9666436181231
 30
0.0
 11
283.3526590523251
 21
684.9666456181231
 31
0.0
  0
ARC
  5
2957B
330
A
100
AcDbEntity
  8
BUHIN-3
  6
HIDDEN
100
AcDbCircle
 10
281.3535310523252
 20
684.965223618123
 30
0.0
 40
1.999129999999999
100
AcDbArc
 50
270.0027559999996
 51
0.0407630000022211
  0
LINE
  5
2957C
330
A
100
AcDbEntity
  8
BUHIN-3
  6
HIDDEN
100
AcDbLine
 10
281.3536270523252
 20
682.9666436181232
 30
0.0
 11
281.3536270523252
 21
682.9660936181231
 31
0.0
  0
LWPOLYLINE
  5
2957D
330
A
100
AcDbEntity
  8
BUHIN-3
  6
HIDDEN
100
AcDbPolyline
 90
        3
 70
     0
 43
0.0
 10
268.3468950523251
 20
687.0824216181232
 10
267.8439710523252
 20
686.7269396181231
 10
267.4373930523251
 20
686.4667256181231
  0
LWPOLYLINE
  5
2957E
330
A
100
AcDbEntity
  8
BUHIN-3
  6
HIDDEN
100
AcDbPolyline
 90
        5
 70
     0
 43
0.0
 10
273.0314290523251
 20
690.5563376181231
 10
272.7751770523252
 20
690.307091618123
 10
272.5544330523252
 20
690.0094356181231
 10
272.3726170523252
 20
689.671223618123
 10
272.2368850523253
 20
689.3013336181231
  0
LWPOLYLINE
  5
2957F
330
A
100
AcDbEntity
  8
BUHIN-3
  6
HIDDEN
100
AcDbPolyline
 90
        5
 70
     0
 43
0.0
 10
265.9211030523251
 20
685.771269618123
 10
266.3162130523253
 20
685.917159618123
 10
266.7022930523251
 20
686.0824096181231
 10
267.0768290523253
 20
686.265943618123
 10
267.4373830523252
 20
686.4665656181231
  0
ARC
  5
29580
330
A
100
AcDbEntity
  8
BUHIN-3
  6
HIDDEN
100
AcDbCircle
 10
266.2770010523252
 20
682.7166476181231
 30
0.0
 40
0.25
100
AcDbArc
 50
89.99944100000368
 51
180.0005869999965
  0
LWPOLYLINE
  5
29581
330
A
100
AcDbEntity
  8
BUHIN-3
  6
HIDDEN
100
AcDbPolyline
 90
        5
 70
     0
 43
0.0
 10
265.1900290523251
 20
683.4517856181231
 10
265.4545570523252
 20
683.190741618123
 10
265.6458290523253
 20
683.037665618123
 10
265.7860970523251
 20
682.9585096181232
 10
265.858371052325
 20
682.9315116181231
  0
LWPOLYLINE
  5
29582
330
A
100
AcDbEntity
  8
BUHIN-3
  6
HIDDEN
100
AcDbPolyline
 90
        4
 70
     0
 43
0.0
 10
288.5568030523252
 20
703.1135656181231
 10
288.3086230523251
 20
703.0122016181231
 10
288.0870150523253
 20
702.9719216181232
 10
287.9733250523251
 20
702.9666436181231
  0
LWPOLYLINE
  5
29583
330
A
100
AcDbEntity
  8
BUHIN-3
  6
HIDDEN
100
AcDbPolyline
 90
        3
 70
     0
 43
0.0
 10
288.8206830523251
 20
703.4666436181232
 10
288.7959330523251
 20
703.352209618123
 10
288.7351210523251
 20
703.2565256181231
  0
LINE
  5
29584
330
A
100
AcDbEntity
  8
BUHIN-3
  6
HIDDEN
100
AcDbLine
 10
229.1506030523253
 20
682.3699296181231
 30
0.0
 11
229.1610910523252
 21
682.360599618123
 31
0.0
  0
LINE
  5
29585
330
A
100
AcDbEntity
  8
BUHIN-3
  6
HIDDEN
100
AcDbLine
 10
228.6682230523251
 20
682.7990276181232
 30
0.0
 11
229.1506030523253
 21
682.3699296181231
 31
0.0
  0
LINE
  5
29586
330
A
100
AcDbEntity
  8
BUHIN-3
  6
HIDDEN
100
AcDbLine
 10
229.3146550523251
 20
682.0160996181231
 30
0.0
 11
229.382593052325
 21
681.466341618123
 31
0.0
  0
LINE
  5
29587
330
A
100
AcDbEntity
  8
BUHIN-3
  6
HIDDEN
100
AcDbLine
 10
229.1506030523253
 20
682.3699296181231
 30
0.0
 11
229.3146550523251
 21
682.0160996181231
 31
0.0
  0
LINE
  5
29588
330
A
100
AcDbEntity
  8
BUHIN-3
  6
HIDDEN
100
AcDbLine
 10
229.1610910523252
 20
682.360599618123
 30
0.0
 11
229.4698410523251
 21
681.7739156181231
 31
0.0
  0
LINE
  5
29589
330
A
100
AcDbEntity
  8
BUHIN-3
  6
HIDDEN
100
AcDbLine
 10
237.6136310523252
 20
680.9700836181231
 30
0.0
 11
237.9055830523252
 21
680.9700836181231
 31
0.0
  0
LINE
  5
2958A
330
A
100
AcDbEntity
  8
BUHIN-3
  6
HIDDEN
100
AcDbLine
 10
237.9055830523252
 20
680.9700836181231
 30
0.0
 11
238.0777310523251
 21
680.9699776181231
 31
0.0
  0
LINE
  5
2958B
330
A
100
AcDbEntity
  8
BUHIN-3
  6
HIDDEN
100
AcDbLine
 10
238.0777310523251
 20
680.9699776181231
 30
0.0
 11
238.0976010523252
 21
680.9694216181232
 31
0.0
  0
LINE
  5
2958C
330
A
100
AcDbEntity
  8
BUHIN-3
  6
HIDDEN
100
AcDbLine
 10
239.2329450523252
 20
686.5152476181232
 30
0.0
 11
239.3253510523252
 21
685.4950936181231
 31
0.0
  0
LINE
  5
2958D
330
A
100
AcDbEntity
  8
BUHIN-3
  6
HIDDEN
100
AcDbLine
 10
235.7791490523252
 20
702.9666436181231
 30
0.0
 11
265.3710150523252
 21
702.9666436181231
 31
0.0
  0
LINE
  5
2958E
330
A
100
AcDbEntity
  8
BUHIN-3
  6
HIDDEN
100
AcDbLine
 10
219.7330130523253
 20
702.9666436181231
 30
0.0
 11
219.7997090523251
 21
702.9666436181231
 31
0.0
  0
LINE
  5
2958F
330
A
100
AcDbEntity
  8
BUHIN-3
  6
HIDDEN
100
AcDbLine
 10
265.3710150523252
 20
702.9666436181231
 30
0.0
 11
275.6210150523251
 21
702.9666436181231
 31
0.0
  0
LINE
  5
29590
330
A
100
AcDbEntity
  8
BUHIN-3
  6
HIDDEN
100
AcDbLine
 10
275.6210150523251
 20
702.9666436181231
 30
0.0
 11
280.0374530523251
 21
702.9666436181231
 31
0.0
  0
LINE
  5
29591
330
A
100
AcDbEntity
  8
BUHIN-3
  6
HIDDEN
100
AcDbLine
 10
280.0374530523251
 20
702.9666436181231
 30
0.0
 11
287.9733330523251
 21
702.9666436181231
 31
0.0
  0
LINE
  5
29592
330
A
100
AcDbEntity
  8
BUHIN-3
  6
HIDDEN
100
AcDbLine
 10
215.3165750523251
 20
702.9666436181231
 30
0.0
 11
219.7330130523253
 21
702.9666436181231
 31
0.0
  0
LINE
  5
29593
330
A
100
AcDbEntity
  8
BUHIN-3
  6
HIDDEN
100
AcDbLine
 10
229.9830130523253
 20
712.9666436181231
 30
0.0
 11
265.3710150523252
 21
712.9666436181231
 31
0.0
  0
LINE
  5
29594
330
A
100
AcDbEntity
  8
BUHIN-3
  6
HIDDEN
100
AcDbLine
 10
219.9830130523253
 20
712.9666436181231
 30
0.0
 11
229.9830130523253
 21
712.9666436181231
 31
0.0
  0
LINE
  5
29595
330
A
100
AcDbEntity
  8
BUHIN-3
  6
HIDDEN
100
AcDbLine
 10
212.9503550523252
 20
712.9666436181231
 30
0.0
 11
219.9830130523253
 21
712.9666436181231
 31
0.0
  0
LINE
  5
29596
330
A
100
AcDbEntity
  8
BUHIN-3
  6
HIDDEN
100
AcDbLine
 10
204.7082270523253
 20
712.9666436181231
 30
0.0
 11
212.9503550523252
 21
712.9666436181231
 31
0.0
  0
LINE
  5
29597
330
A
100
AcDbEntity
  8
BUHIN-3
  6
HIDDEN
100
AcDbLine
 10
204.7082270523253
 20
703.4666436181232
 30
0.0
 11
204.7093950523251
 21
703.4666436181232
 31
0.0
  0
LINE
  5
29598
330
A
100
AcDbEntity
  8
BUHIN-3
  6
HIDDEN
100
AcDbLine
 10
290.6446330523251
 20
712.9666436181231
 30
0.0
 11
290.6458010523251
 21
712.9666436181231
 31
0.0
  0
LINE
  5
29599
330
A
100
AcDbEntity
  8
BUHIN-3
  6
HIDDEN
100
AcDbLine
 10
282.4036730523252
 20
712.9666436181231
 30
0.0
 11
290.6446330523251
 21
712.9666436181231
 31
0.0
  0
LINE
  5
2959A
330
A
100
AcDbEntity
  8
BUHIN-3
  6
HIDDEN
100
AcDbLine
 10
282.4036730523252
 20
703.4666436181232
 30
0.0
 11
290.6458010523251
 21
703.4666436181232
 31
0.0
  0
LINE
  5
2959B
330
A
100
AcDbEntity
  8
BUHIN-3
  6
HIDDEN
100
AcDbLine
 10
275.3710150523251
 20
712.9666436181231
 30
0.0
 11
282.4036730523252
 21
712.9666436181231
 31
0.0
  0
LINE
  5
2959C
330
A
100
AcDbEntity
  8
BUHIN-3
  6
HIDDEN
100
AcDbLine
 10
280.5051190523252
 20
703.4666436181232
 30
0.0
 11
282.4036730523252
 21
703.4666436181232
 31
0.0
  0
LINE
  5
2959D
330
A
100
AcDbEntity
  8
BUHIN-3
  6
HIDDEN
100
AcDbLine
 10
265.3710150523252
 20
712.9666436181231
 30
0.0
 11
275.3710150523251
 21
712.9666436181231
 31
0.0
  0
LWPOLYLINE
  5
2959E
330
A
100
AcDbEntity
  8
BUHIN-3
  6
HIDDEN
100
AcDbPolyline
 90
        7
 70
     0
 43
0.0
 10
280.5051170523252
 20
703.4666436181232
 10
280.4806310523251
 20
703.3265716181232
 10
280.4253950523252
 20
703.2162976181231
 10
280.3395590523252
 20
703.1131296181232
 10
280.1946810523252
 20
703.0087676181231
 10
280.0880350523252
 20
702.9715136181231
 10
280.0374530523251
 20
702.9666436181231
  0
ARC
  5
2959F
330
A
100
AcDbEntity
  8
BUHIN-3
  6
HIDDEN
100
AcDbCircle
 10
260.1770150523252
 20
699.9666436181231
 30
0.0
 40
3.0
100
AcDbArc
 50
90.0
 51
179.9999949999995
  0
LWPOLYLINE
  5
295A0
330
A
100
AcDbEntity
  8
BUHIN-3
  6
HIDDEN
100
AcDbPolyline
 90
        3
 70
     0
 43
0.0
 10
284.7556790523251
 20
702.891039618123
 10
285.131607052325
 20
702.9545176181231
 10
285.3851710523251
 20
702.9666436181231
  0
LWPOLYLINE
  5
295A1
330
A
100
AcDbEntity
  8
BUHIN-3
  6
HIDDEN
100
AcDbPolyline
 90
        7
 70
     0
 43
0.0
 10
287.9733330523251
 20
702.9666436181231
 10
288.1755310523251
 20
702.9831076181229
 10
288.3704270523251
 20
703.0310156181229
 10
288.5616730523251
 20
703.1163356181231
 10
288.7343370523251
 20
703.255687618123
 10
288.7954450523252
 20
703.3512216181231
 10
288.8206970523251
 20
703.4666436181232
  0
LWPOLYLINE
  5
295A2
330
A
100
AcDbEntity
  8
BUHIN-3
  6
HIDDEN
100
AcDbPolyline
 90
        4
 70
     0
 43
0.0
 10
207.380703052325
 20
702.9666436181231
 10
207.1054130523252
 20
702.9971916181231
 10
206.8473610523251
 20
703.0868796181231
 10
206.8010430523251
 20
703.111493618123
  0
LWPOLYLINE
  5
295A3
330
A
100
AcDbEntity
  8
BUHIN-3
  6
HIDDEN
100
AcDbPolyline
 90
        3
 70
     0
 43
0.0
 10
206.7960770523252
 20
703.1143196181232
 10
206.6643510523251
 20
703.2094556181231
 10
206.620251052325
 20
703.2549796181232
  0
LINE
  5
295A4
330
A
100
AcDbEntity
  8
BUHIN-3
  6
HIDDEN
100
AcDbLine
 10
281.7957370523251
 20
702.967157618123
 30
0.0
 11
281.7957390523251
 21
702.9666436181231
 31
0.0
  0
ARC
  5
295A5
330
A
100
AcDbEntity
  8
BUHIN-3
  6
HIDDEN
100
AcDbCircle
 10
281.8011370523251
 20
699.9729316181231
 30
0.0
 40
2.994229999999999
100
AcDbArc
 50
90.10330300000006
 51
162.1315169999969
  0
LINE
  5
295A6
330
A
100
AcDbEntity
  8
BUHIN-3
  6
HIDDEN
100
AcDbLine
 10
278.9513370523252
 20
700.891661618123
 30
0.0
 11
278.9590930523252
 21
700.889161618123
 31
0.0
  0
LWPOLYLINE
  5
295A7
330
A
100
AcDbEntity
  8
BUHIN-3
  6
HIDDEN
100
AcDbPolyline
 90
       15
 70
     0
 43
0.0
 10
220.711481052325
 20
702.596133618123
 10
221.2438110523251
 20
702.418785618123
 10
221.6198530523251
 20
702.3211276181231
 10
222.2138530523252
 20
702.244053618123
 10
222.8040590523253
 20
702.2353736181231
 10
223.3898810523253
 20
702.2792216181231
 10
223.9711370523252
 20
702.3621636181232
 10
224.9086990523251
 20
702.5504756181232
 10
226.0630490523251
 20
702.8115396181232
 10
226.5923770523252
 20
702.905283618123
 10
227.0526810523251
 20
702.948859618123
 10
227.4380110523252
 20
702.9476256181232
 10
227.9350650523251
 20
702.8947076181231
 10
228.5519110523253
 20
702.7738176181231
 10
229.5568570523252
 20
702.5293096181232
  0
LWPOLYLINE
  5
295A8
330
A
100
AcDbEntity
  8
BUHIN-3
  6
HIDDEN
100
AcDbPolyline
 90
        3
 70
     0
 43
0.0
 10
210.5984150523251
 20
702.8910836181231
 10
210.285685052325
 20
702.9477616181231
 10
209.9689490523253
 20
702.9667116181229
  0
LWPOLYLINE
  5
295A9
330
A
100
AcDbEntity
  8
BUHIN-3
  6
HIDDEN
100
AcDbPolyline
 90
        2
 70
     0
 43
0.0
 10
211.193555052325
 20
702.6692016181231
 10
210.8405970523251
 20
702.819893618123
  0
LWPOLYLINE
  5
295AA
330
A
100
AcDbEntity
  8
BUHIN-3
  6
HIDDEN
100
AcDbPolyline
 90
        3
 70
     0
 43
0.0
 10
283.0328750523251
 20
702.9666436181231
 10
283.0702130523252
 20
702.944509618123
 10
283.1865730523252
 20
702.9666436181231
  0
LWPOLYLINE
  5
295AB
330
A
100
AcDbEntity
  8
BUHIN-3
  6
HIDDEN
100
AcDbPolyline
 90
        8
 70
     0
 43
0.0
 10
283.3653150523252
 20
701.6728896181231
 10
283.4258050523251
 20
701.8184916181231
 10
283.6308490523251
 20
702.1675796181231
 10
283.8473270523252
 20
702.3677656181231
 10
284.0540710523253
 20
702.5317396181232
 10
284.2831990523252
 20
702.677771618123
 10
284.5232550523253
 20
702.7923256181231
 10
284.7627830523251
 20
702.861861618123
  0
LINE
  5
295AC
330
A
100
AcDbEntity
  8
BUHIN-3
  6
HIDDEN
100
AcDbLine
 10
283.651775052325
 20
702.194819618123
 30
0.0
 11
283.9379610523251
 21
702.5186756181232
 31
0.0
  0
LINE
  5
295AD
330
A
100
AcDbEntity
  8
BUHIN-3
  6
HIDDEN
100
AcDbLine
 10
283.365305052325
 20
701.6989136181231
 30
0.0
 11
283.4037770523252
 21
701.961923618123
 31
0.0
  0
LWPOLYLINE
  5
295AE
330
A
100
AcDbEntity
  8
BUHIN-3
  6
HIDDEN
100
AcDbPolyline
 90
        6
 70
     0
 43
0.0
 10
211.0030870523253
 20
702.7318536181232
 10
211.3003130523252
 20
702.533069618123
 10
211.5291910523251
 20
702.345455618123
 10
211.7435710523252
 20
702.1301976181231
 10
211.8839350523251
 20
701.9212716181231
 10
212.0737490523251
 20
701.4413316181231
  0
LINE
  5
295AF
330
A
100
AcDbEntity
  8
BUHIN-3
  6
HIDDEN
100
AcDbLine
 10
211.8371250523253
 20
702.0048216181232
 30
0.0
 11
212.0343270523251
 21
701.7286016181231
 31
0.0
  0
LINE
  5
295B0
330
A
100
AcDbEntity
  8
BUHIN-3
  6
HIDDEN
100
AcDbLine
 10
210.5913090523251
 20
702.8618996181231
 30
0.0
 11
210.8539750523252
 21
702.812697618123
 31
0.0
  0
LWPOLYLINE
  5
295B1
330
A
100
AcDbEntity
  8
BUHIN-3
  6
HIDDEN
100
AcDbPolyline
 90
        8
 70
     0
 43
0.0
 10
233.8476250523251
 20
702.3876516181232
 10
233.1534790523253
 20
702.2388676181232
 10
232.7244310523253
 20
702.1834936181232
 10
232.1864390523253
 20
702.158221618123
 10
231.6543470523251
 20
702.1737716181231
 10
231.1251450523252
 20
702.2233276181231
 10
230.3344290523252
 20
702.3510296181231
 10
229.5569010523252
 20
702.5294876181229
  0
LWPOLYLINE
  5
295B2
330
A
100
AcDbEntity
  8
BUHIN-3
  6
HIDDEN
100
AcDbPolyline
 90
       33
 70
     0
 43
0.0
 10
275.3001770523253
 20
689.624463618123
 10
275.1590610523251
 20
689.7549056181231
 10
275.0044090523251
 20
689.859157618123
 10
274.8393610523251
 20
689.935099618123
 10
274.6672750523252
 20
689.981189618123
 10
274.491647052325
 20
689.9964896181231
 10
274.3160490523252
 20
689.9806896181232
 10
274.1440490523252
 20
689.9341096181232
 10
273.9791430523252
 20
689.8576956181231
 10
273.8246850523253
 20
689.753003618123
 10
273.6838130523251
 20
689.6221596181232
 10
273.5593890523252
 20
689.4678236181231
 10
273.4539470523252
 20
689.2931336181231
 10
273.3696270523253
 20
689.1016396181231
 10
273.3081430523252
 20
688.8972356181231
 10
273.270745052325
 20
688.684073618123
 10
273.2581930523251
 20
688.4664916181231
 10
273.270745052325
 20
688.248907618123
 10
273.3081430523252
 20
688.0357476181231
 10
273.3696270523253
 20
687.831343618123
 10
273.4539470523252
 20
687.6398496181231
 10
273.5593890523252
 20
687.465159618123
 10
273.6838130523251
 20
687.3108236181232
 10
273.8246850523253
 20
687.1799796181232
 10
273.9791430523252
 20
687.0752876181231
 10
274.1440490523252
 20
686.9988736181231
 10
274.3160490523252
 20
686.952293618123
 10
274.491647052325
 20
686.9364916181231
 10
274.6672750523252
 20
686.9517916181231
 10
274.8393610523251
 20
686.9978816181231
 10
275.0044090523251
 20
687.0738256181231
 10
275.1590610523251
 20
687.1780776181232
 10
275.3001770523253
 20
687.308519618123
  0
LINE
  5
295B3
330
A
100
AcDbEntity
  8
BUHIN-3
  6
HIDDEN
100
AcDbLine
 10
275.3001770523253
 20
689.624463618123
 30
0.0
 11
275.3001770523253
 21
690.7577796181231
 31
0.0
  0
LWPOLYLINE
  5
295B4
330
A
100
AcDbEntity
  8
BUHIN-3
  6
HIDDEN
100
AcDbPolyline
 90
       33
 70
     0
 43
0.0
 10
275.3001770523253
 20
690.7577796181231
 10
275.0654550523251
 20
690.8637936181231
 10
274.8219590523251
 20
690.9330576181231
 10
274.5734210523253
 20
690.9645076181231
 10
274.3236530523252
 20
690.957663618123
 10
274.076479052325
 20
690.9126296181231
 10
273.8356930523252
 20
690.8300936181232
 10
273.6049850523252
 20
690.7113236181231
 10
273.3878910523251
 20
690.5581416181231
 10
273.1877390523252
 20
690.3728936181231
 10
273.0075990523253
 20
690.1584176181231
 10
272.8502310523251
 20
689.9180056181231
 10
272.7180490523253
 20
689.655341618123
 10
272.6130790523252
 20
689.374453618123
 10
272.5369270523251
 20
689.0796436181232
 10
272.4907650523253
 20
688.7754356181232
 10
272.4752990523252
 20
688.4664916181231
 10
272.4907650523253
 20
688.1575476181231
 10
272.5369270523251
 20
687.853337618123
 10
272.6130790523252
 20
687.558529618123
 10
272.7180490523253
 20
687.277639618123
 10
272.8502310523251
 20
687.0149756181232
 10
273.0075990523253
 20
686.7745636181231
 10
273.1877390523252
 20
686.560089618123
 10
273.3878910523251
 20
686.374841618123
 10
273.6049850523252
 20
686.2216576181229
 10
273.8356930523252
 20
686.1028896181231
 10
274.076479052325
 20
686.0203536181231
 10
274.3236530523252
 20
685.975319618123
 10
274.5734210523253
 20
685.9684736181231
 10
274.8219590523251
 20
685.9999256181232
 10
275.0654550523251
 20
686.0691876181229
 10
275.3001770523253
 20
686.1752036181232
  0
LWPOLYLINE
  5
295B5
330
A
100
AcDbEntity
  8
BUHIN-3
  6
HIDDEN
100
AcDbPolyline
 90
       17
 70
     0
 43
0.0
 10
276.1072850523253
 20
688.4664916181231
 10
276.1176450523251
 20
688.2134856181231
 10
276.1486170523251
 20
687.963079618123
 10
276.1998830523252
 20
687.717841618123
 10
276.2709170523251
 20
687.480291618123
 10
276.3609910523252
 20
687.252867618123
 10
276.4691770523252
 20
687.0379056181231
 10
276.5943670523252
 20
686.8376116181231
 10
276.7352730523252
 20
686.6540436181232
 10
276.8904510523252
 20
686.4890876181231
 10
277.0583050523252
 20
686.3444336181231
 10
277.2371150523251
 20
686.2215716181232
 10
277.4250390523252
 20
686.121759618123
 10
277.6201530523251
 20
686.046023618123
 10
277.8204510523253
 20
685.995141618123
 10
278.0238770523253
 20
685.9696356181231
 10
278.2283430523252
 20
685.9697696181229
  0
LWPOLYLINE
  5
295B6
330
A
100
AcDbEntity
  8
BUHIN-3
  6
HIDDEN
100
AcDbPolyline
 90
       17
 70
     0
 43
0.0
 10
278.2283430523252
 20
690.9632136181231
 10
278.0238770523253
 20
690.963345618123
 10
277.8204510523253
 20
690.9378416181231
 10
277.6201530523251
 20
690.8869596181231
 10
277.4250390523252
 20
690.8112236181231
 10
277.2371150523251
 20
690.7114116181231
 10
277.0583050523252
 20
690.588547618123
 10
276.8904510523252
 20
690.443895618123
 10
276.7352730523252
 20
690.278937618123
 10
276.5943670523252
 20
690.0953716181231
 10
276.4691770523252
 20
689.895077618123
 10
276.3609910523252
 20
689.680115618123
 10
276.2709170523251
 20
689.4526916181231
 10
276.1998830523252
 20
689.215141618123
 10
276.1486170523251
 20
688.9699036181231
 10
276.1176450523251
 20
688.719495618123
 10
276.1072850523253
 20
688.4664916181231
  0
LINE
  5
295B7
330
A
100
AcDbEntity
  8
BUHIN-3
  6
HIDDEN
100
AcDbLine
 10
275.3001770523253
 20
686.1752036181232
 30
0.0
 11
275.3001770523253
 21
687.308519618123
 31
0.0
  0
LWPOLYLINE
  5
295B8
330
A
100
AcDbEntity
  8
BUHIN-3
  6
HIDDEN
100
AcDbPolyline
 90
        9
 70
     0
 43
0.0
 10
276.8901790523252
 20
688.4664916181231
 10
276.9164950523252
 20
688.152311618123
 10
276.9943210523251
 20
687.851523618123
 10
277.120341052325
 20
687.5769456181229
 10
277.2891810523251
 20
687.3402816181232
 10
277.4936490523252
 20
687.1516176181232
 10
277.7250250523252
 20
687.0189936181231
 10
277.9734530523253
 20
686.948065618123
 10
278.2283430523252
 20
686.9418516181232
  0
LWPOLYLINE
  5
295B9
330
A
100
AcDbEntity
  8
BUHIN-3
  6
HIDDEN
100
AcDbPolyline
 90
        9
 70
     0
 43
0.0
 10
278.2283430523252
 20
689.9911296181231
 10
277.9734530523253
 20
689.9849176181231
 10
277.7250250523252
 20
689.913987618123
 10
277.4936490523252
 20
689.781365618123
 10
277.2891810523251
 20
689.5927016181232
 10
277.120341052325
 20
689.3560356181231
 10
276.9943210523251
 20
689.0814596181232
 10
276.9164950523252
 20
688.7806696181232
 10
276.8901790523252
 20
688.4664916181231
  0
LINE
  5
295BA
330
A
100
AcDbEntity
  8
BUHIN-3
  6
HIDDEN
100
AcDbLine
 10
282.4669370523251
 20
685.966337618123
 30
0.0
 11
282.4669370523251
 21
686.966337618123
 31
0.0
  0
LINE
  5
295BB
330
A
100
AcDbEntity
  8
BUHIN-3
  6
HIDDEN
100
AcDbLine
 10
281.3442770523252
 20
686.966337618123
 30
0.0
 11
282.4669370523251
 21
686.966337618123
 31
0.0
  0
LINE
  5
295BC
330
A
100
AcDbEntity
  8
BUHIN-3
  6
HIDDEN
100
AcDbLine
 10
281.3442770523252
 20
686.966337618123
 30
0.0
 11
281.3442770523252
 21
690.9666436181232
 31
0.0
  0
LINE
  5
295BD
330
A
100
AcDbEntity
  8
BUHIN-3
  6
HIDDEN
100
AcDbLine
 10
280.7069510523251
 20
690.9666436181232
 30
0.0
 11
281.3442770523252
 21
690.9666436181232
 31
0.0
  0
LINE
  5
295BE
330
A
100
AcDbEntity
  8
BUHIN-3
  6
HIDDEN
100
AcDbLine
 10
280.7069510523251
 20
685.966337618123
 30
0.0
 11
280.7069510523251
 21
690.9666436181232
 31
0.0
  0
LINE
  5
295BF
330
A
100
AcDbEntity
  8
BUHIN-3
  6
HIDDEN
100
AcDbLine
 10
282.9416670523253
 20
685.966337618123
 30
0.0
 11
282.9416670523253
 21
690.9666436181232
 31
0.0
  0
LWPOLYLINE
  5
295C0
330
A
100
AcDbEntity
  8
BUHIN-3
  6
HIDDEN
100
AcDbPolyline
 90
       18
 70
     0
 43
0.0
 10
283.3476170523251
 20
685.966491618123
 10
283.4350470523252
 20
685.9784316181231
 10
283.5155950523251
 20
686.0137176181232
 10
283.5889490523252
 20
686.0712916181231
 10
283.7134970523252
 20
686.2502416181231
 10
283.808843052325
 20
686.511553618123
 10
283.8767410523253
 20
686.8531576181232
 10
283.9341530523252
 20
687.524059618123
 10
283.9520870523251
 20
688.4767676181231
 10
283.9335650523251
 20
689.4220836181231
 10
283.900155052325
 20
689.8886736181231
 10
283.8446030523252
 20
690.2679796181232
 10
283.7630530523251
 20
690.566845618123
 10
283.6534750523253
 20
690.784745618123
 10
283.5877330523251
 20
690.8628936181231
 10
283.5147050523253
 20
690.9198116181231
 10
283.4345670523252
 20
690.9546916181231
 10
283.3476170523251
 20
690.966491618123
  0
LINE
  5
295C1
330
A
100
AcDbEntity
  8
BUHIN-3
  6
HIDDEN
100
AcDbLine
 10
282.9416670523253
 20
690.9666436181232
 30
0.0
 11
283.3476170523251
 21
690.966491618123
 31
0.0
  0
LWPOLYLINE
  5
295C2
330
A
100
AcDbEntity
  8
BUHIN-3
  6
HIDDEN
100
AcDbPolyline
 90
       11
 70
     0
 43
0.0
 10
278.2283430523252
 20
685.9697696181229
 10
278.5296830523252
 20
686.018015618123
 10
278.8157690523251
 20
686.1228296181231
 10
279.0806770523251
 20
686.281543618123
 10
279.3194330523251
 20
686.490375618123
 10
279.5279290523251
 20
686.744531618123
 10
279.702845052325
 20
687.038275618123
 10
279.8415710523252
 20
687.365023618123
 10
279.9421310523253
 20
687.717427618123
 10
280.0030910523253
 20
688.087457618123
 10
280.0234950523251
 20
688.4664916181231
  0
LWPOLYLINE
  5
295C3
330
A
100
AcDbEntity
  8
BUHIN-3
  6
HIDDEN
100
AcDbPolyline
 90
       11
 70
     0
 43
0.0
 10
278.2283430523252
 20
690.9632136181231
 10
278.5296830523252
 20
690.9149676181231
 10
278.8157690523251
 20
690.8101536181231
 10
279.0806770523251
 20
690.6514396181231
 10
279.3194330523251
 20
690.4426076181231
 10
279.5279290523251
 20
690.1884516181231
 10
279.702845052325
 20
689.894707618123
 10
279.8415710523252
 20
689.5679596181231
 10
279.9421310523253
 20
689.2155556181231
 10
280.0030910523253
 20
688.8455256181231
 10
280.0234950523251
 20
688.4664916181231
  0
LINE
  5
295C4
330
A
100
AcDbEntity
  8
BUHIN-3
  6
HIDDEN
100
AcDbLine
 10
280.7069510523251
 20
685.966337618123
 30
0.0
 11
282.4669370523251
 21
685.966337618123
 31
0.0
  0
LINE
  5
295C5
330
A
100
AcDbEntity
  8
BUHIN-3
  6
HIDDEN
100
AcDbLine
 10
282.9416670523253
 20
685.966337618123
 30
0.0
 11
283.3476170523251
 21
685.966491618123
 31
0.0
  0
LINE
  5
295C6
330
A
100
AcDbEntity
  8
BUHIN-3
  6
HIDDEN
100
AcDbLine
 10
283.3476170523251
 20
686.9364916181231
 30
0.0
 11
283.3476170523251
 21
689.9964916181231
 31
0.0
  0
LWPOLYLINE
  5
295C7
330
A
100
AcDbEntity
  8
BUHIN-3
  6
HIDDEN
100
AcDbPolyline
 90
       15
 70
     0
 43
0.0
 10
283.3476170523251
 20
686.9364916181231
 10
283.4135230523251
 20
686.9475396181232
 10
283.4752750523252
 20
686.980023618123
 10
283.5849030523251
 20
687.1076136181231
 10
283.6742390523252
 20
687.3176956181231
 10
283.7419030523251
 20
687.6115596181231
 10
283.7868330523251
 20
688.003505618123
 10
283.8027810523251
 20
688.4619436181232
 10
283.7875530523251
 20
688.9193616181231
 10
283.7434810523252
 20
689.311885618123
 10
283.6758930523251
 20
689.609967618123
 10
283.5863010523251
 20
689.8229916181229
 10
283.4761130523252
 20
689.952345618123
 10
283.4139770523251
 20
689.9852816181232
 10
283.3476170523251
 20
689.9964916181231
  0
LWPOLYLINE
  5
295C8
330
A
100
AcDbEntity
  8
BUHIN-3
  6
HIDDEN
100
AcDbPolyline
 90
       11
 70
     0
 43
0.0
 10
278.2283430523252
 20
686.9418516181232
 10
278.4085470523252
 20
686.977669618123
 10
278.5804530523253
 20
687.0463556181231
 10
278.7405170523252
 20
687.1463716181231
 10
278.8856110523251
 20
687.2754856181231
 10
279.0130130523252
 20
687.430843618123
 10
279.1204150523251
 20
687.6090376181231
 10
279.2059250523252
 20
687.8061736181231
 10
279.2680690523252
 20
688.0179436181229
 10
279.3057850523252
 20
688.2396956181231
 10
279.3184370523251
 20
688.4664916181231
  0
LWPOLYLINE
  5
295C9
330
A
100
AcDbEntity
  8
BUHIN-3
  6
HIDDEN
100
AcDbPolyline
 90
       11
 70
     0
 43
0.0
 10
278.2283430523252
 20
689.9911296181231
 10
278.4085470523252
 20
689.9553136181231
 10
278.5804530523253
 20
689.886627618123
 10
278.7405170523252
 20
689.7866116181232
 10
278.8856110523251
 20
689.6574976181231
 10
279.0130130523252
 20
689.5021396181231
 10
279.1204150523251
 20
689.323945618123
 10
279.2059250523252
 20
689.126809618123
 10
279.2680690523252
 20
688.9150376181231
 10
279.3057850523252
 20
688.693287618123
 10
279.3184370523251
 20
688.4664916181231
  0
LINE
  5
295CA
330
A
100
AcDbEntity
  8
BUHIN-3
  6
HIDDEN
100
AcDbLine
 10
280.3414970523251
 20
690.9666436181232
 30
0.0
 11
280.7069510523251
 21
690.9666436181232
 31
0.0
  0
LINE
  5
295CB
330
A
100
AcDbEntity
  8
BUHIN-3
  6
HIDDEN
100
AcDbLine
 10
280.3414970523251
 20
685.966337618123
 30
0.0
 11
280.7069510523251
 21
685.966337618123
 31
0.0
  0
LINE
  5
295CC
330
A
100
AcDbEntity
  8
BUHIN-3
  6
HIDDEN
100
AcDbLine
 10
282.5215850523252
 20
690.9666436181232
 30
0.0
 11
282.9416670523253
 21
690.9666436181232
 31
0.0
  0
LINE
  5
295CD
330
A
100
AcDbEntity
  8
BUHIN-3
  6
HIDDEN
100
AcDbLine
 10
282.5215850523252
 20
685.966337618123
 30
0.0
 11
282.9416670523253
 21
685.966337618123
 31
0.0
  0
LINE
  5
295CE
330
A
100
AcDbEntity
  8
BUHIN-3
  6
HIDDEN
100
AcDbLine
 10
274.9459350523252
 20
689.624463618123
 30
0.0
 11
275.3001770523253
 21
689.624463618123
 31
0.0
  0
LINE
  5
295CF
330
A
100
AcDbEntity
  8
BUHIN-3
  6
HIDDEN
100
AcDbLine
 10
274.9459350523252
 20
687.308519618123
 30
0.0
 11
275.3001770523253
 21
687.308519618123
 31
0.0
  0
LINE
  5
295D0
330
A
100
AcDbEntity
  8
BUHIN-3
  6
HIDDEN
100
AcDbLine
 10
273.8611750523252
 20
685.992357618123
 30
0.0
 11
274.2145750523252
 21
685.992533618123
 31
0.0
  0
LINE
  5
295D1
330
A
100
AcDbEntity
  8
BUHIN-3
  6
Continuous
100
AcDbLine
 10
328.1604590523252
 20
639.236869618123
 30
0.0
 11
329.0156470523251
 21
636.9666436181232
 31
0.0
  0
LINE
  5
295D2
330
A
100
AcDbEntity
  8
BUHIN-3
  6
Continuous
100
AcDbLine
 10
332.2369170523252
 20
628.5692296181231
 30
0.0
 11
332.6745330523251
 21
636.9666436181232
 31
0.0
  0
LINE
  5
295D3
330
A
100
AcDbEntity
  8
BUHIN-3
  6
Continuous
100
AcDbLine
 10
272.9951990523252
 20
622.368963618123
 30
0.0
 11
274.7439130523253
 21
622.4246616181232
 31
0.0
  0
LINE
  5
295D4
330
A
100
AcDbEntity
  8
BUHIN-3
  6
Continuous
100
AcDbLine
 10
220.6101150523252
 20
622.4246616181232
 30
0.0
 11
222.3588290523252
 21
622.368963618123
 31
0.0
  0
LINE
  5
295D5
330
A
100
AcDbEntity
  8
BUHIN-3
  6
Continuous
100
AcDbLine
 10
162.6780370523251
 20
636.9666436181232
 30
0.0
 11
163.1171130523252
 21
628.5692296181231
 31
0.0
  0
LINE
  5
295D6
330
A
100
AcDbEntity
  8
BUHIN-3
  6
Continuous
100
AcDbLine
 10
166.3383810523252
 20
636.9666436181232
 30
0.0
 11
167.1935690523252
 21
639.236869618123
 31
0.0
  0
LINE
  5
295D7
330
A
100
AcDbEntity
  8
BUHIN-3
  6
Continuous
100
AcDbLine
 10
272.1730610523252
 20
579.254667618123
 30
0.0
 11
272.1730610523252
 21
613.437153618123
 31
0.0
  0
LINE
  5
295D8
330
A
100
AcDbEntity
  8
BUHIN-3
  6
Continuous
100
AcDbLine
 10
223.1730670523252
 20
579.254667618123
 30
0.0
 11
223.1730670523252
 21
613.437157618123
 31
0.0
  0
LINE
  5
295D9
330
A
100
AcDbEntity
  8
BUHIN-3
  6
HIDDEN
100
AcDbLine
 10
271.9252970523252
 20
659.816645618123
 30
0.0
 11
271.9262450523251
 21
639.366621618123
 31
0.0
  0
LINE
  5
295DA
330
A
100
AcDbEntity
  8
BUHIN-3
  6
HIDDEN
100
AcDbLine
 10
223.4277830523253
 20
639.366621618123
 30
0.0
 11
223.4287310523252
 21
659.816645618123
 31
0.0
  0
LINE
  5
295DB
330
A
100
AcDbEntity
  8
BUHIN-3
  6
HIDDEN
100
AcDbLine
 10
223.4287310523252
 20
659.816645618123
 30
0.0
 11
223.4287310523252
 21
662.816645618123
 31
0.0
  0
LINE
  5
295DC
330
A
100
AcDbEntity
  8
BUHIN-3
  6
HIDDEN
100
AcDbLine
 10
271.9252970523252
 20
659.816645618123
 30
0.0
 11
271.9252970523252
 21
662.816645618123
 31
0.0
  0
LINE
  5
295DD
330
A
100
AcDbEntity
  8
BUHIN-3
  6
HIDDEN
100
AcDbLine
 10
238.3701270523251
 20
702.8199476181231
 30
0.0
 11
239.1844590523253
 21
702.9666436181231
 31
0.0
  0
LINE
  5
295DE
330
A
100
AcDbEntity
  8
BUHIN-3
  6
HIDDEN
100
AcDbLine
 10
211.9839050523253
 20
701.6903676181231
 30
0.0
 11
212.0006090523252
 21
684.9666436181231
 31
0.0
  0
LINE
  5
295DF
330
A
100
AcDbEntity
  8
BUHIN-3
  6
HIDDEN
100
AcDbLine
 10
204.7082270523253
 20
712.9666436181231
 30
0.0
 11
204.7093950523251
 21
703.4666436181232
 31
0.0
  0
LINE
  5
295E0
330
A
100
AcDbEntity
  8
BUHIN-3
  6
HIDDEN
100
AcDbLine
 10
290.6446330523251
 20
712.9666436181231
 30
0.0
 11
290.6458010523251
 21
703.4666436181232
 31
0.0
  0
LINE
  5
295E1
330
A
100
AcDbEntity
  8
BUHIN-3
  6
HIDDEN
100
AcDbLine
 10
269.3775670523252
 20
687.789537618123
 30
0.0
 11
269.4889350523251
 21
687.888605618123
 31
0.0
  0
LINE
  5
295E2
330
A
100
AcDbEntity
  8
BUHIN-3
  6
HIDDEN
100
AcDbLine
 10
277.8741010523251
 20
685.9697696181229
 30
0.0
 11
278.2283430523252
 21
685.9697696181229
 31
0.0
  0
LINE
  5
295E3
330
A
100
AcDbEntity
  8
BUHIN-3
  6
HIDDEN
100
AcDbLine
 10
277.8741010523251
 20
690.9632136181231
 30
0.0
 11
278.2283430523252
 21
690.9632136181231
 31
0.0
  0
LINE
  5
295E4
330
A
100
AcDbEntity
  8
BUHIN-3
  6
HIDDEN
100
AcDbLine
 10
282.6951790523251
 20
702.744061618123
 30
0.0
 11
282.8974710523252
 21
702.9666436181231
 31
0.0
  0
LINE
  5
295E5
330
A
100
AcDbEntity
  8
BUHIN-3
  6
HIDDEN
100
AcDbLine
 10
204.7082270523253
 20
703.4666436181232
 30
0.0
 11
204.7088110523252
 21
708.217053618123
 31
0.0
  0
LINE
  5
295E6
330
A
100
AcDbEntity
  8
BUHIN-3
  6
HIDDEN
100
AcDbLine
 10
290.6452170523252
 20
708.217053618123
 30
0.0
 11
290.6458010523251
 21
712.9666436181231
 31
0.0
  0
LINE
  5
295E9
330
A
100
AcDbEntity
  8
BUHIN-2
  6
DASHDOT
100
AcDbLine
 10
474.4927034777373
 20
256.7111270924733
 30
0.0
 11
489.5441934777376
 21
322.6720090924732
 31
0.0
  0
LINE
  5
295EA
330
A
100
AcDbEntity
  8
BUHIN-2
  6
DASHDOT
100
AcDbLine
 10
476.2692754777375
 20
327.4063250924732
 30
0.0
 11
544.4412054777376
 21
327.4063250924732
 31
0.0
  0
LWPOLYLINE
  5
295EC
330
A
100
AcDbEntity
  8
BUHIN-2
  6
Continuous
100
AcDbPolyline
 90
        3
 70
     0
 43
0.0
 10
544.3114534777377
 20
247.5205150924733
 10
544.4085034777375
 20
247.6774770924733
 10
544.4412054777375
 20
247.8587570924733
  0
LINE
  5
295ED
330
A
100
AcDbEntity
  8
BUHIN-2
  6
Continuous
100
AcDbLine
 10
542.0412274777375
 20
246.6723050924733
 30
0.0
 11
544.3114534777377
 21
247.5205150924733
 31
0.0
  0
ARC
  5
295EF
330
A
100
AcDbEntity
  8
BUHIN-2
  6
Continuous
100
AcDbCircle
 10
543.9412274777376
 20
407.5560070924732
 30
0.0
 40
0.5
100
AcDbArc
 50
359.4585570000039
 51
42.23014000000062
  0
LINE
  5
295F0
330
A
100
AcDbEntity
  8
BUHIN-2
  6
Continuous
100
AcDbLine
 10
544.4412054777375
 20
329.4880210924732
 30
0.0
 11
544.4412054777375
 21
335.1040610924733
 31
0.0
  0
LINE
  5
295F1
330
A
100
AcDbEntity
  8
BUHIN-2
  6
Continuous
100
AcDbLine
 10
544.4412054777375
 20
323.8617210924733
 30
0.0
 11
544.4412054777375
 21
329.4880210924732
 31
0.0
  0
LINE
  5
295F2
330
A
100
AcDbEntity
  8
BUHIN-2
  6
Continuous
100
AcDbLine
 10
544.4412054777375
 20
251.6595930924733
 30
0.0
 11
544.4412054777375
 21
253.6834510924732
 31
0.0
  0
LINE
  5
295F3
330
A
100
AcDbEntity
  8
BUHIN-2
  6
Continuous
100
AcDbLine
 10
544.4412054777375
 20
250.0090630924733
 30
0.0
 11
544.4412054777375
 21
251.6595930924733
 31
0.0
  0
LINE
  5
295F4
330
A
100
AcDbEntity
  8
BUHIN-2
  6
Continuous
100
AcDbLine
 10
544.4412054777375
 20
268.9920410924733
 30
0.0
 11
544.4412054777375
 21
272.9859150924733
 31
0.0
  0
LINE
  5
295F5
330
A
100
AcDbEntity
  8
BUHIN-2
  6
Continuous
100
AcDbLine
 10
544.4412054777375
 20
265.2860810924733
 30
0.0
 11
544.4412054777375
 21
268.9920410924733
 31
0.0
  0
LINE
  5
295F6
330
A
100
AcDbEntity
  8
BUHIN-2
  6
Continuous
100
AcDbLine
 10
544.4412054777375
 20
261.8862930924734
 30
0.0
 11
544.4412054777375
 21
265.2860810924733
 31
0.0
  0
LINE
  5
295F7
330
A
100
AcDbEntity
  8
BUHIN-2
  6
Continuous
100
AcDbLine
 10
544.4412054777375
 20
258.8094310924732
 30
0.0
 11
544.4412054777375
 21
261.8862930924734
 31
0.0
  0
LINE
  5
295F8
330
A
100
AcDbEntity
  8
BUHIN-2
  6
Continuous
100
AcDbLine
 10
544.4412054777375
 20
256.0706530924733
 30
0.0
 11
544.4412054777375
 21
258.8094310924732
 31
0.0
  0
LINE
  5
295F9
330
A
100
AcDbEntity
  8
BUHIN-2
  6
Continuous
100
AcDbLine
 10
544.4412054777375
 20
253.6834510924732
 30
0.0
 11
544.4412054777375
 21
256.0706530924733
 31
0.0
  0
LINE
  5
295FA
330
A
100
AcDbEntity
  8
BUHIN-2
  6
Continuous
100
AcDbLine
 10
544.4412054777375
 20
301.8063690924732
 30
0.0
 11
544.4412054777375
 21
307.1979690924734
 31
0.0
  0
LINE
  5
295FB
330
A
100
AcDbEntity
  8
BUHIN-2
  6
Continuous
100
AcDbLine
 10
544.4412054777375
 20
296.5409410924733
 30
0.0
 11
544.4412054777375
 21
301.8063690924732
 31
0.0
  0
LINE
  5
295FC
330
A
100
AcDbEntity
  8
BUHIN-2
  6
Continuous
100
AcDbLine
 10
544.4412054777375
 20
281.7573390924733
 30
0.0
 11
544.4412054777375
 21
286.4916590924732
 31
0.0
  0
LINE
  5
295FD
330
A
100
AcDbEntity
  8
BUHIN-2
  6
Continuous
100
AcDbLine
 10
544.4412054777375
 20
277.2480150924732
 30
0.0
 11
544.4412054777375
 21
281.7573390924733
 31
0.0
  0
LINE
  5
295FE
330
A
100
AcDbEntity
  8
BUHIN-2
  6
Continuous
100
AcDbLine
 10
544.4412054777375
 20
371.8445410924733
 30
0.0
 11
544.4412054777375
 21
376.4145810924731
 31
0.0
  0
LINE
  5
295FF
330
A
100
AcDbEntity
  8
BUHIN-2
  6
Continuous
100
AcDbLine
 10
544.4412054777375
 20
367.0554770924732
 30
0.0
 11
544.4412054777375
 21
371.8445410924733
 31
0.0
  0
LINE
  5
29600
330
A
100
AcDbEntity
  8
BUHIN-2
  6
Continuous
100
AcDbLine
 10
544.4412054777375
 20
405.7795870924733
 30
0.0
 11
544.4412054777375
 21
406.7622770924731
 31
0.0
  0
LINE
  5
29601
330
A
100
AcDbEntity
  8
BUHIN-2
  6
Continuous
100
AcDbLine
 10
544.4412054777375
 20
404.4106250924732
 30
0.0
 11
544.4412054777375
 21
405.7795870924733
 31
0.0
  0
LINE
  5
29602
330
A
100
AcDbEntity
  8
BUHIN-2
  6
Continuous
100
AcDbLine
 10
544.4412054777375
 20
402.6621450924733
 30
0.0
 11
544.4412054777375
 21
404.4106250924732
 31
0.0
  0
LINE
  5
29603
330
A
100
AcDbEntity
  8
BUHIN-2
  6
Continuous
100
AcDbLine
 10
544.4412054777375
 20
400.5427670924732
 30
0.0
 11
544.4412054777375
 21
402.6621450924733
 31
0.0
  0
LINE
  5
29604
330
A
100
AcDbEntity
  8
BUHIN-2
  6
Continuous
100
AcDbLine
 10
544.4412054777375
 20
398.0629310924733
 30
0.0
 11
544.4412054777375
 21
400.5427670924732
 31
0.0
  0
LINE
  5
29605
330
A
100
AcDbEntity
  8
BUHIN-2
  6
Continuous
100
AcDbLine
 10
544.4412054777375
 20
395.2348550924733
 30
0.0
 11
544.4412054777375
 21
398.0629310924733
 31
0.0
  0
LINE
  5
29606
330
A
100
AcDbEntity
  8
BUHIN-2
  6
Continuous
100
AcDbLine
 10
544.4412054777375
 20
392.0724690924733
 30
0.0
 11
544.4412054777375
 21
395.2348550924733
 31
0.0
  0
LINE
  5
29607
330
A
100
AcDbEntity
  8
BUHIN-2
  6
Continuous
100
AcDbLine
 10
544.4412054777375
 20
388.5913590924731
 30
0.0
 11
544.4412054777375
 21
392.0724690924733
 31
0.0
  0
LINE
  5
29608
330
A
100
AcDbEntity
  8
BUHIN-2
  6
Continuous
100
AcDbLine
 10
544.4412054777375
 20
384.8086790924733
 30
0.0
 11
544.4412054777375
 21
388.5913590924731
 31
0.0
  0
LINE
  5
29609
330
A
100
AcDbEntity
  8
BUHIN-2
  6
Continuous
100
AcDbLine
 10
544.4412054777375
 20
380.7430730924732
 30
0.0
 11
544.4412054777375
 21
384.8086790924733
 31
0.0
  0
LINE
  5
2960A
330
A
100
AcDbEntity
  8
BUHIN-2
  6
Continuous
100
AcDbLine
 10
544.4412054777375
 20
351.6149070924732
 30
0.0
 11
544.4412054777375
 21
356.9156710924733
 31
0.0
  0
LINE
  5
2960B
330
A
100
AcDbEntity
  8
BUHIN-2
  6
Continuous
100
AcDbLine
 10
544.4412054777375
 20
346.1948330924733
 30
0.0
 11
544.4412054777375
 21
351.6149070924732
 31
0.0
  0
LINE
  5
2960C
330
A
100
AcDbEntity
  8
BUHIN-2
  6
Continuous
100
AcDbLine
 10
544.4412054777375
 20
335.1040610924733
 30
0.0
 11
544.4412054777375
 21
340.6821610924733
 31
0.0
  0
LINE
  5
2960D
330
A
100
AcDbEntity
  8
BUHIN-2
  6
Continuous
100
AcDbLine
 10
544.4383354777377
 20
247.8587290924732
 30
0.0
 11
544.4412054777375
 21
248.7400190924732
 31
0.0
  0
LINE
  5
2960E
330
A
100
AcDbEntity
  8
BUHIN-2
  6
Continuous
100
AcDbLine
 10
544.4412054777375
 20
318.2528870924732
 30
0.0
 11
544.4412054777375
 21
323.8617210924733
 31
0.0
  0
LINE
  5
2960F
330
A
100
AcDbEntity
  8
BUHIN-2
  6
Continuous
100
AcDbLine
 10
544.4412054777375
 20
248.7400190924732
 30
0.0
 11
544.4412054777375
 21
250.0090630924733
 31
0.0
  0
LINE
  5
29610
330
A
100
AcDbEntity
  8
BUHIN-2
  6
Continuous
100
AcDbLine
 10
544.4412054777375
 20
272.9859150924733
 30
0.0
 11
544.4412054777375
 21
277.2480150924732
 31
0.0
  0
LINE
  5
29611
330
A
100
AcDbEntity
  8
BUHIN-2
  6
Continuous
100
AcDbLine
 10
544.4412054777375
 20
312.6891630924731
 30
0.0
 11
544.4412054777375
 21
318.2528870924732
 31
0.0
  0
LINE
  5
29612
330
A
100
AcDbEntity
  8
BUHIN-2
  6
Continuous
100
AcDbLine
 10
544.4412054777375
 20
307.1979690924734
 30
0.0
 11
544.4412054777375
 21
312.6891630924731
 31
0.0
  0
LINE
  5
29613
330
A
100
AcDbEntity
  8
BUHIN-2
  6
Continuous
100
AcDbLine
 10
544.4412054777375
 20
286.4916590924732
 30
0.0
 11
544.4412054777375
 21
291.4276350924733
 31
0.0
  0
LINE
  5
29614
330
A
100
AcDbEntity
  8
BUHIN-2
  6
Continuous
100
AcDbLine
 10
544.4412054777375
 20
291.4276350924733
 30
0.0
 11
544.4412054777375
 21
296.5409410924733
 31
0.0
  0
LINE
  5
29615
330
A
100
AcDbEntity
  8
BUHIN-2
  6
Continuous
100
AcDbLine
 10
544.4412054777375
 20
362.0709970924734
 30
0.0
 11
544.4412054777375
 21
367.0554770924732
 31
0.0
  0
LINE
  5
29616
330
A
100
AcDbEntity
  8
BUHIN-2
  6
Continuous
100
AcDbLine
 10
544.4412054777375
 20
406.7622770924731
 30
0.0
 11
544.4412054777375
 21
407.3538270924732
 31
0.0
  0
LINE
  5
29617
330
A
100
AcDbEntity
  8
BUHIN-2
  6
Continuous
100
AcDbLine
 10
544.4383354777377
 20
407.5513090924732
 30
0.0
 11
544.4412054777375
 21
407.3538270924732
 31
0.0
  0
LINE
  5
29618
330
A
100
AcDbEntity
  8
BUHIN-2
  6
Continuous
100
AcDbLine
 10
544.4412054777375
 20
356.9156710924733
 30
0.0
 11
544.4412054777375
 21
362.0709970924734
 31
0.0
  0
LINE
  5
29619
330
A
100
AcDbEntity
  8
BUHIN-2
  6
Continuous
100
AcDbLine
 10
544.4412054777375
 20
340.6821610924733
 30
0.0
 11
544.4412054777375
 21
346.1948330924733
 31
0.0
  0
LINE
  5
2961A
330
A
100
AcDbEntity
  8
BUHIN-2
  6
Continuous
100
AcDbLine
 10
544.4412054777375
 20
376.4145810924731
 30
0.0
 11
544.4412054777375
 21
380.7430730924732
 31
0.0
  0
LINE
  5
2961B
330
A
100
AcDbEntity
  8
BUHIN-2
  6
Continuous
100
AcDbLine
 10
542.0412274777375
 20
408.7466430924733
 30
0.0
 11
544.3114534777377
 21
407.8920610924733
 31
0.0
  0
LINE
  5
2961C
330
A
100
AcDbEntity
  8
BUHIN-2
  6
Continuous
100
AcDbLine
 10
527.4435474777373
 20
302.0380790924733
 30
0.0
 11
527.4435474777373
 21
352.7745710924733
 31
0.0
  0
ARC
  5
2961D
330
A
100
AcDbEntity
  8
BUHIN-2
  6
Continuous
100
AcDbCircle
 10
533.7746534777373
 20
245.3429890924733
 30
0.0
 40
2.5
100
AcDbArc
 50
185.9062290000006
 51
267.0000000000011
  0
ARC
  5
2961E
330
A
100
AcDbEntity
  8
BUHIN-2
  6
Continuous
100
AcDbCircle
 10
533.7746534777373
 20
409.4696610924732
 30
0.0
 40
2.5
100
AcDbArc
 50
92.9999999999989
 51
174.0937709999994
  0
ARC
  5
2961F
330
A
100
AcDbEntity
  8
BUHIN-2
  6
Continuous
100
AcDbCircle
 10
1327.041227477738
 20
327.4063250924732
 30
0.0
 40
800.0
100
AcDbArc
 50
181.9388939999998
 51
185.9062320000036
  0
ARC
  5
29620
330
A
100
AcDbEntity
  8
BUHIN-2
  6
Continuous
100
AcDbCircle
 10
1327.041227477738
 20
327.4063250924732
 30
0.0
 40
800.0
100
AcDbArc
 50
174.0937679999964
 51
178.0611060000001
  0
ARC
  5
29621
330
A
100
AcDbEntity
  8
BUHIN-2
  6
Continuous
100
AcDbCircle
 10
1327.041229477737
 20
327.4063250924732
 30
0.0
 40
800.0
100
AcDbArc
 50
178.0611060000001
 51
178.1828290000003
  0
ARC
  5
29622
330
A
100
AcDbEntity
  8
BUHIN-2
  6
Continuous
100
AcDbCircle
 10
1327.041229477737
 20
327.4063250924732
 30
0.0
 40
800.0
100
AcDbArc
 50
181.8171709999996
 51
181.9388939999998
  0
LINE
  5
29623
330
A
100
AcDbEntity
  8
BUHIN-2
  6
Continuous
100
AcDbLine
 10
533.6438134777376
 20
242.8464150924733
 30
0.0
 11
542.0412274777375
 21
242.4063250924732
 31
0.0
  0
LINE
  5
29624
330
A
100
AcDbEntity
  8
BUHIN-2
  6
Continuous
100
AcDbLine
 10
533.6438134777376
 20
411.9662350924731
 30
0.0
 11
542.0412274777375
 21
412.4063250924733
 31
0.0
  0
LINE
  5
29625
330
A
100
AcDbEntity
  8
BUHIN-2
  6
Continuous
100
AcDbLine
 10
542.0412274777375
 20
242.4063250924732
 30
0.0
 11
542.0412274777375
 21
412.4063250924733
 31
0.0
  0
ARC
  5
29626
330
A
100
AcDbEntity
  8
BUHIN-2
  6
Continuous
100
AcDbCircle
 10
543.9412274777376
 20
407.5560070924732
 30
0.0
 40
0.5
100
AcDbArc
 50
359.4585570000039
 51
42.23014000000062
  0
LINE
  5
29627
330
A
100
AcDbEntity
  8
BUHIN-2
  6
Continuous
100
AcDbLine
 10
542.0412274777375
 20
408.7466430924733
 30
0.0
 11
544.3114534777377
 21
407.8920610924733
 31
0.0
  0
LINE
  5
29628
330
A
100
AcDbEntity
  8
BUHIN-2
  6
Continuous
100
AcDbLine
 10
471.1734974777376
 20
262.8421910924733
 30
0.0
 11
482.2646914777372
 21
312.0246490924733
 31
0.0
  0
LINE
  5
29629
330
A
100
AcDbEntity
  8
BUHIN-2
  6
Continuous
100
AcDbLine
 10
480.1429434777377
 20
260.7954690924732
 30
0.0
 11
489.6860654777372
 21
302.1312750924733
 31
0.0
  0
ARC
  5
2962A
330
A
100
AcDbEntity
  8
BUHIN-2
  6
Continuous
100
AcDbCircle
 10
762.8813114777375
 20
327.4063250924732
 30
0.0
 40
281.0
100
AcDbArc
 50
175.279804000002
 51
180.0
  0
ARC
  5
2962B
330
A
100
AcDbEntity
  8
BUHIN-2
  6
Continuous
100
AcDbCircle
 10
762.8813114777375
 20
327.4063250924732
 30
0.0
 40
281.0
100
AcDbArc
 50
180.0
 51
183.0819850000031
  0
ARC
  5
2962C
330
A
100
AcDbEntity
  8
BUHIN-2
  6
Continuous
100
AcDbCircle
 10
484.3292514777375
 20
350.4063250924732
 30
0.0
 40
1.5
100
AcDbArc
 50
89.9999939999981
 51
175.2798100000041
  0
LWPOLYLINE
  5
2962D
330
A
100
AcDbEntity
  8
BUHIN-2
  6
Continuous
100
AcDbPolyline
 90
        6
 70
     0
 43
0.0
 10
513.6119494777375
 20
302.9063250924732
 10
512.4602894777375
 20
302.9929750924732
 10
511.1763654777377
 20
303.0409370924733
 10
510.0162314777374
 20
303.0375990924733
 10
508.8430834777376
 20
302.9865770924732
 10
507.8743834777372
 20
302.9063250924732
  0
LWPOLYLINE
  5
2962E
330
A
100
AcDbEntity
  8
BUHIN-2
  6
Continuous
100
AcDbPolyline
 90
        6
 70
     0
 43
0.0
 10
507.8743874777372
 20
302.9063250924732
 10
508.8463154777376
 20
302.9861250924732
 10
510.0183094777374
 20
303.0368170924733
 10
511.1785094777377
 20
303.0400770924732
 10
512.4611714777373
 20
302.9922770924734
 10
513.6119454777375
 20
302.9063250924732
  0
LINE
  5
2962F
330
A
100
AcDbEntity
  8
BUHIN-2
  6
Continuous
100
AcDbLine
 10
490.6604354777376
 20
302.9063250924732
 30
0.0
 11
507.8743854777375
 21
302.9063250924732
 31
0.0
  0
LINE
  5
29630
330
A
100
AcDbEntity
  8
BUHIN-2
  6
Continuous
100
AcDbLine
 10
513.6119454777375
 20
302.9063250924732
 30
0.0
 11
518.5438754777372
 21
302.9063250924732
 31
0.0
  0
LINE
  5
29631
330
A
100
AcDbEntity
  8
BUHIN-2
  6
Continuous
100
AcDbLine
 10
484.3292514777375
 20
351.9063250924733
 30
0.0
 11
509.7765014777377
 21
351.9063250924733
 31
0.0
  0
LINE
  5
29632
330
A
100
AcDbEntity
  8
BUHIN-2
  6
Continuous
100
AcDbLine
 10
519.0438754777373
 20
303.4063250924733
 30
0.0
 11
519.0438754777373
 21
327.3181610924733
 31
0.0
  0
ARC
  5
29633
330
A
100
AcDbEntity
  8
BUHIN-2
  6
Continuous
100
AcDbCircle
 10
518.5439834777374
 20
327.3181790924732
 30
0.0
 40
0.499894
100
AcDbArc
 50
359.9978319999989
 51
20.00229200000078
  0
LINE
  5
29634
330
A
100
AcDbEntity
  8
BUHIN-2
  6
Continuous
100
AcDbLine
 10
510.2463474777376
 20
351.5773350924733
 30
0.0
 11
519.0137214777372
 21
327.4891730924732
 31
0.0
  0
ARC
  5
29635
330
A
100
AcDbEntity
  8
BUHIN-2
  6
Continuous
100
AcDbCircle
 10
472.1490014777376
 20
262.6222030924732
 30
0.0
 40
1.0
100
AcDbArc
 50
167.2917430000019
 51
248.9514950000013
  0
ARC
  5
29636
330
A
100
AcDbEntity
  8
BUHIN-2
  6
Continuous
100
AcDbCircle
 10
479.1685734777373
 20
261.0204210924733
 30
0.0
 40
1.0
100
AcDbArc
 50
265.3402480000014
 51
347.0000000000029
  0
ARC
  5
29637
330
A
100
AcDbEntity
  8
BUHIN-2
  6
Continuous
100
AcDbCircle
 10
481.1534514777376
 20
285.3634510924733
 30
0.0
 40
25.42382
100
AcDbArc
 50
256.8764389999981
 51
265.3386040000007
  0
ARC
  5
29638
330
A
100
AcDbEntity
  8
BUHIN-2
  6
Continuous
100
AcDbCircle
 10
480.9203334777374
 20
285.4166470924734
 30
0.0
 40
25.42382
100
AcDbArc
 50
248.9531389999966
 51
257.4153040000009
  0
ARC
  5
29639
330
A
100
AcDbEntity
  8
BUHIN-2
  6
Continuous
100
AcDbCircle
 10
481.2891894777375
 20
312.2446370924734
 30
0.0
 40
1.0
100
AcDbArc
 50
347.291742000001
 51
3.081985999998314
  0
ARC
  5
2963A
330
A
100
AcDbEntity
  8
BUHIN-2
  6
Continuous
100
AcDbCircle
 10
490.6604254777374
 20
301.9063370924732
 30
0.0
 40
1.0
100
AcDbArc
 50
89.99942799999844
 51
167.0005720000027
  0
ARC
  5
2963B
330
A
100
AcDbEntity
  8
BUHIN-2
  6
Continuous
100
AcDbCircle
 10
485.1646094777374
 20
278.8117570924733
 30
0.0
 40
24.538738
100
AcDbArc
 50
80.36984799999897
 51
89.79031499999768
  0
LINE
  5
2963C
330
A
100
AcDbEntity
  8
BUHIN-2
  6
Continuous
100
AcDbLine
 10
484.3736934777374
 20
303.3389030924732
 30
0.0
 11
485.2544134777375
 21
303.3503310924732
 31
0.0
  0
LINE
  5
2963D
330
A
100
AcDbEntity
  8
BUHIN-2
  6
Continuous
100
AcDbLine
 10
484.3736934777374
 20
303.3389030924732
 30
0.0
 11
484.3737194777376
 21
303.3384810924733
 31
0.0
  0
LINE
  5
2963E
330
A
100
AcDbEntity
  8
BUHIN-2
  6
Continuous
100
AcDbLine
 10
482.8282974777375
 20
304.6974950924732
 30
0.0
 11
482.8559634777374
 21
304.4645250924732
 31
0.0
  0
LWPOLYLINE
  5
2963F
330
A
100
AcDbEntity
  8
BUHIN-2
  6
Continuous
100
AcDbPolyline
 90
        9
 70
     0
 43
0.0
 10
482.8559634777374
 20
304.4645250924732
 10
482.9290594777375
 20
304.2200030924732
 10
483.0449814777374
 20
303.9938890924734
 10
483.2002894777373
 20
303.7928990924734
 10
483.3903674777373
 20
303.6230030924733
 10
483.6095754777374
 20
303.4892430924733
 10
483.8513994777375
 20
303.3955950924733
 10
484.1086614777376
 20
303.3448390924732
 10
484.3737194777376
 20
303.3384810924733
  0
ARC
  5
29640
330
A
100
AcDbEntity
  8
BUHIN-2
  6
Continuous
100
AcDbCircle
 10
784.7152094777379
 20
330.0196110924733
 30
0.0
 40
302.947004
100
AcDbArc
 50
183.5492559999993
 51
184.7947159999981
  0
ARC
  5
29641
330
A
100
AcDbEntity
  8
BUHIN-2
  6
Continuous
100
AcDbCircle
 10
518.5438814777374
 20
303.4063190924733
 30
0.0
 40
0.5
100
AcDbArc
 50
269.9994390000008
 51
0.0005609999991484
  0
ARC
  5
29642
330
A
100
AcDbEntity
  8
BUHIN-2
  6
Continuous
100
AcDbCircle
 10
509.7765054777377
 20
351.4063310924732
 30
0.0
 40
0.5
100
AcDbArc
 50
19.99954200000139
 51
90.00045799999789
  0
LINE
  5
29643
330
A
100
AcDbEntity
  8
BUHIN-2
  6
Continuous
100
AcDbLine
 10
512.8912294777372
 20
344.3105830924733
 30
0.0
 11
512.8912294777372
 21
346.0570830924733
 31
0.0
  0
ARC
  5
29644
330
A
100
AcDbEntity
  8
BUHIN-2
  6
Continuous
100
AcDbCircle
 10
515.8912294777373
 20
346.0570830924733
 30
0.0
 40
3.0
100
AcDbArc
 50
114.4433349999997
 51
180.0
  0
ARC
  5
29645
330
A
100
AcDbEntity
  8
BUHIN-2
  6
Continuous
100
AcDbCircle
 10
527.8912314777374
 20
335.1563330924733
 30
0.0
 40
32.00001
100
AcDbArc
 50
253.9474439999976
 51
269.1980790000002
  0
ARC
  5
29646
330
A
100
AcDbEntity
  8
BUHIN-2
  6
Continuous
100
AcDbCircle
 10
527.8912314777374
 20
319.6563150924733
 30
0.0
 40
32.00001
100
AcDbArc
 50
90.8019209999998
 51
114.4433319999986
  0
LINE
  5
29647
330
A
100
AcDbEntity
  8
BUHIN-2
  6
HIDDEN
100
AcDbLine
 10
564.8912294777373
 20
303.1563250924733
 30
0.0
 11
564.8912294777373
 21
351.6563250924733
 31
0.0
  0
LINE
  5
29648
330
A
100
AcDbEntity
  8
BUHIN-2
  6
HIDDEN
100
AcDbLine
 10
544.4412054777375
 20
351.6563250924733
 30
0.0
 11
564.8912294777373
 21
351.6563250924733
 31
0.0
  0
LINE
  5
29649
330
A
100
AcDbEntity
  8
BUHIN-2
  6
HIDDEN
100
AcDbLine
 10
544.4412054777375
 20
303.1563250924733
 30
0.0
 11
564.8912294777373
 21
303.1563250924733
 31
0.0
  0
LINE
  5
2964A
330
A
100
AcDbEntity
  8
BUHIN-2
  6
HIDDEN
100
AcDbLine
 10
564.8912294777373
 20
303.1563250924733
 30
0.0
 11
564.8912294777373
 21
351.6563250924733
 31
0.0
  0
LINE
  5
2964B
330
A
100
AcDbEntity
  8
BUHIN-2
  6
HIDDEN
100
AcDbLine
 10
564.8912294777373
 20
351.6563250924733
 30
0.0
 11
567.8912294777372
 21
351.6563250924733
 31
0.0
  0
LINE
  5
2964C
330
A
100
AcDbEntity
  8
BUHIN-2
  6
HIDDEN
100
AcDbLine
 10
564.8912294777373
 20
303.1563250924733
 30
0.0
 11
567.8912294777372
 21
303.1563250924733
 31
0.0
  0
LINE
  5
2964F
330
A
100
AcDbEntity
  8
BUHIN
  6
Continuous
100
AcDbLine
 10
243.1238170523251
 20
258.5656670924733
 30
0.0
 11
243.1238170523251
 21
261.6732150924733
 31
0.0
  0
LINE
  5
29650
330
A
100
AcDbEntity
  8
BUHIN
  6
Continuous
100
AcDbLine
 10
252.2301730523251
 20
258.1671770924734
 30
0.0
 11
252.2301730523251
 21
261.6732150924733
 31
0.0
  0
LINE
  5
29652
330
A
100
AcDbEntity
  8
BUHIN
  6
DASHDOT
100
AcDbLine
 10
247.6769950523252
 20
236.7106510924732
 30
0.0
 11
247.6769950523252
 21
415.2516850924732
 31
0.0
  0
LINE
  5
29653
330
A
100
AcDbEntity
  8
BUHIN
  6
DASHDOT
100
AcDbLine
 10
247.6770150523251
 20
290.9063250924733
 30
0.0
 11
247.6770150523251
 21
363.9063250924733
 31
0.0
  0
LINE
  5
29654
330
A
100
AcDbEntity
  8
BUHIN
  6
DASHDOT
100
AcDbLine
 10
157.3956750523251
 20
327.4063250924732
 30
0.0
 11
341.1879170523251
 21
327.4063250924732
 31
0.0
  0
ARC
  5
29655
330
A
100
AcDbEntity
  8
BUHIN
  6
Continuous
100
AcDbCircle
 10
247.680945052325
 20
327.4063490924732
 30
0.0
 40
85.0
100
AcDbArc
 50
90.0
 51
270.0
  0
ARC
  5
29656
330
A
100
AcDbEntity
  8
BUHIN
  6
Continuous
100
AcDbCircle
 10
247.680945052325
 20
327.4063490924732
 30
0.0
 40
24.799986
100
AcDbArc
 50
90.0
 51
258.5490449999997
  0
ARC
  5
29657
330
A
100
AcDbEntity
  8
BUHIN
  6
Continuous
100
AcDbCircle
 10
247.680945052325
 20
327.4063490924732
 30
0.0
 40
85.0
100
AcDbArc
 50
270.0
 51
90.0
  0
ARC
  5
29658
330
A
100
AcDbEntity
  8
BUHIN
  6
Continuous
100
AcDbCircle
 10
247.680945052325
 20
327.4063490924732
 30
0.0
 40
24.799986
100
AcDbArc
 50
281.4291149999987
 51
90.0
  0
ARC
  5
29659
330
A
100
AcDbEntity
  8
BUHIN
  6
Continuous
100
AcDbCircle
 10
247.6769950523252
 20
327.4063490924732
 30
0.0
 40
24.5
100
AcDbArc
 50
282.8556749999987
 51
285.8810409999994
  0
ARC
  5
2965A
330
A
100
AcDbEntity
  8
BUHIN
  6
Continuous
100
AcDbCircle
 10
247.6769950523252
 20
327.4063490924732
 30
0.0
 40
24.5
100
AcDbArc
 50
301.7655320000042
 51
312.3516770000025
  0
ARC
  5
2965B
330
A
100
AcDbEntity
  8
BUHIN
  6
Continuous
100
AcDbCircle
 10
247.6769950523252
 20
327.4063490924732
 30
0.0
 40
24.5
100
AcDbArc
 50
317.6484649999994
 51
322.9423819999993
  0
ARC
  5
2965C
330
A
100
AcDbEntity
  8
BUHIN
  6
Continuous
100
AcDbCircle
 10
247.6769950523252
 20
327.4063490924732
 30
0.0
 40
24.5
100
AcDbArc
 50
338.8244600000001
 51
339.2307889999969
  0
ARC
  5
2965D
330
A
100
AcDbEntity
  8
BUHIN
  6
Continuous
100
AcDbCircle
 10
247.6769950523252
 20
327.4063490924732
 30
0.0
 40
24.5
100
AcDbArc
 50
349.411623
 51
90.0
  0
ARC
  5
2965E
330
A
100
AcDbEntity
  8
BUHIN
  6
Continuous
100
AcDbCircle
 10
247.6769950523252
 20
327.4063490924732
 30
0.0
 40
24.5
100
AcDbArc
 50
248.8242229999999
 51
249.2307670000013
  0
ARC
  5
2965F
330
A
100
AcDbEntity
  8
BUHIN
  6
Continuous
100
AcDbCircle
 10
247.6769950523252
 20
327.4063490924732
 30
0.0
 40
24.5
100
AcDbArc
 50
217.0576180000008
 51
222.3515350000006
  0
ARC
  5
29660
330
A
100
AcDbEntity
  8
BUHIN
  6
Continuous
100
AcDbCircle
 10
247.6769950523252
 20
327.4063490924732
 30
0.0
 40
24.5
100
AcDbArc
 50
90.0
 51
190.588377
  0
ARC
  5
29661
330
A
100
AcDbEntity
  8
BUHIN
  6
Continuous
100
AcDbCircle
 10
247.6769750523252
 20
327.4063250924732
 30
0.0
 40
24.499974
100
AcDbArc
 50
251.8114629999955
 51
256.1538840000006
  0
ARC
  5
29662
330
A
100
AcDbEntity
  8
BUHIN
  6
Continuous
100
AcDbCircle
 10
247.6769750523252
 20
327.4063250924732
 30
0.0
 40
24.499974
100
AcDbArc
 50
242.3077139999986
 51
245.7475780000029
  0
ARC
  5
29663
330
A
100
AcDbEntity
  8
BUHIN
  6
Continuous
100
AcDbCircle
 10
247.6769750523252
 20
327.4063250924732
 30
0.0
 40
24.499974
100
AcDbArc
 50
193.8460839999987
 51
197.2430329999957
  0
ARC
  5
29664
330
A
100
AcDbEntity
  8
BUHIN
  6
Continuous
100
AcDbCircle
 10
247.6769750523252
 20
327.4063250924732
 30
0.0
 40
24.499974
100
AcDbArc
 50
180.2104219999968
 51
191.1795970000004
  0
ARC
  5
29665
330
A
100
AcDbEntity
  8
BUHIN
  6
Continuous
100
AcDbCircle
 10
247.6769750523252
 20
327.4063250924732
 30
0.0
 40
24.499974
100
AcDbArc
 50
227.5580109999983
 51
233.6210450000019
  0
ARC
  5
29666
330
A
100
AcDbEntity
  8
BUHIN
  6
Continuous
100
AcDbCircle
 10
247.6769750523252
 20
327.4063250924732
 30
0.0
 40
24.499974
100
AcDbArc
 50
215.4320829999983
 51
221.4893659999983
  0
ARC
  5
29667
330
A
100
AcDbEntity
  8
BUHIN
  6
Continuous
100
AcDbCircle
 10
247.6769750523252
 20
327.4063250924732
 30
0.0
 40
24.499974
100
AcDbArc
 50
209.3690900000007
 51
214.6153880000022
  0
ARC
  5
29668
330
A
100
AcDbEntity
  8
BUHIN
  6
Continuous
100
AcDbCircle
 10
247.6769750523252
 20
327.4063250924732
 30
0.0
 40
24.499974
100
AcDbArc
 50
235.3846449999996
 51
239.6841139999996
  0
ARC
  5
29669
330
A
100
AcDbEntity
  8
BUHIN
  6
Continuous
100
AcDbCircle
 10
247.6769750523252
 20
327.4063250924732
 30
0.0
 40
24.499974
100
AcDbArc
 50
200.7691750000001
 51
207.6922799999981
  0
ARC
  5
2966A
330
A
100
AcDbEntity
  8
BUHIN
  6
Continuous
100
AcDbCircle
 10
247.6770150523251
 20
327.4063250924732
 30
0.0
 40
24.499974
100
AcDbArc
 50
318.4870689999996
 51
323.2565270000009
  0
ARC
  5
2966B
330
A
100
AcDbEntity
  8
BUHIN
  6
Continuous
100
AcDbCircle
 10
247.6770150523251
 20
327.4063250924732
 30
0.0
 40
24.499974
100
AcDbArc
 50
346.9267169999993
 51
352.9873110000026
  0
ARC
  5
2966C
330
A
100
AcDbEntity
  8
BUHIN
  6
Continuous
100
AcDbCircle
 10
247.6770150523251
 20
327.4063250924732
 30
0.0
 40
24.499974
100
AcDbArc
 50
341.0093619999998
 51
346.1539160000012
  0
ARC
  5
2966D
330
A
100
AcDbEntity
  8
BUHIN
  6
Continuous
100
AcDbCircle
 10
247.6770150523251
 20
327.4063250924732
 30
0.0
 40
24.499974
100
AcDbArc
 50
317.3390230000015
 51
318.4572079999987
  0
ARC
  5
2966E
330
A
100
AcDbEntity
  8
BUHIN
  6
Continuous
100
AcDbCircle
 10
247.6770150523251
 20
327.4063250924732
 30
0.0
 40
24.499974
100
AcDbArc
 50
332.3077200000019
 51
335.0916280000016
  0
ARC
  5
2966F
330
A
100
AcDbEntity
  8
BUHIN
  6
Continuous
100
AcDbCircle
 10
247.6770150523251
 20
327.4063250924732
 30
0.0
 40
24.499974
100
AcDbArc
 50
299.5868230000025
 51
304.6153550000004
  0
ARC
  5
29670
330
A
100
AcDbEntity
  8
BUHIN
  6
Continuous
100
AcDbCircle
 10
247.6770150523251
 20
327.4063250924732
 30
0.0
 40
24.499974
100
AcDbArc
 50
325.3846119999978
 51
329.1740259999983
  0
ARC
  5
29671
330
A
100
AcDbEntity
  8
BUHIN
  6
Continuous
100
AcDbCircle
 10
247.6770150523251
 20
327.4063250924732
 30
0.0
 40
24.499974
100
AcDbArc
 50
290.7692079999979
 51
297.6922860000014
  0
ARC
  5
29672
330
A
100
AcDbEntity
  8
BUHIN
  6
Continuous
100
AcDbCircle
 10
247.6770150523251
 20
327.4063250924732
 30
0.0
 40
24.499974
100
AcDbArc
 50
283.8461159999994
 51
287.7521190000006
  0
LINE
  5
29673
330
A
100
AcDbEntity
  8
BUHIN
  6
Continuous
100
AcDbLine
 10
235.3109490523251
 20
306.2578730924733
 30
0.0
 11
236.2912790523252
 21
305.7126750924733
 31
0.0
  0
LINE
  5
29674
330
A
100
AcDbEntity
  8
BUHIN
  6
Continuous
100
AcDbLine
 10
237.614661052325
 20
305.0713390924734
 30
0.0
 11
238.830425052325
 21
304.5699010924732
 31
0.0
  0
LINE
  5
29675
330
A
100
AcDbEntity
  8
BUHIN
  6
Continuous
100
AcDbLine
 10
224.2809930523252
 20
320.1447990924732
 30
0.0
 11
224.7690970523251
 21
318.7185390924733
 31
0.0
  0
LINE
  5
29676
330
A
100
AcDbEntity
  8
BUHIN
  6
Continuous
100
AcDbLine
 10
241.813761052325
 20
303.6182670924731
 30
0.0
 11
242.199031052325
 21
303.5266010924734
 31
0.0
  0
LINE
  5
29677
330
A
100
AcDbEntity
  8
BUHIN
  6
Continuous
100
AcDbLine
 10
238.9891750523251
 20
304.4984550924732
 30
0.0
 11
240.0297490523252
 21
304.1314670924732
 31
0.0
  0
LINE
  5
29678
330
A
100
AcDbEntity
  8
BUHIN
  6
Continuous
100
AcDbLine
 10
227.513891052325
 20
313.4887510924732
 30
0.0
 11
227.7159950523252
 21
313.2039650924733
 31
0.0
  0
LINE
  5
29679
330
A
100
AcDbEntity
  8
BUHIN
  6
Continuous
100
AcDbLine
 10
223.6429630523252
 20
322.6563570924732
 30
0.0
 11
223.8889210523252
 21
321.5431270924733
 31
0.0
  0
LINE
  5
2967A
330
A
100
AcDbEntity
  8
BUHIN
  6
Continuous
100
AcDbLine
 10
233.1467490523252
 20
307.6828430924734
 30
0.0
 11
233.7594110523252
 21
307.2432310924733
 31
0.0
  0
LINE
  5
2967B
330
A
100
AcDbEntity
  8
BUHIN
  6
Continuous
100
AcDbLine
 10
225.9833230523251
 20
316.0206310924732
 30
0.0
 11
226.3276930523251
 21
315.3917930924734
 31
0.0
  0
LINE
  5
2967C
330
A
100
AcDbEntity
  8
BUHIN
  6
Continuous
100
AcDbLine
 10
229.584569052325
 20
310.9137370924732
 30
0.0
 11
231.1448890523251
 21
309.3280070924734
 31
0.0
  0
LINE
  5
2967D
330
A
100
AcDbEntity
  8
BUHIN
  6
Continuous
100
AcDbLine
 10
268.7156090523252
 20
314.8518770924734
 30
0.0
 11
269.3706670523251
 21
316.0206310924732
 31
0.0
  0
LINE
  5
2967E
330
A
100
AcDbEntity
  8
BUHIN
  6
Continuous
100
AcDbLine
 10
242.199031052325
 20
303.5266010924734
 30
0.0
 11
242.6302090523251
 21
303.3232650924733
 31
0.0
  0
LINE
  5
2967F
330
A
100
AcDbEntity
  8
BUHIN
  6
Continuous
100
AcDbLine
 10
242.997667052325
 20
302.5243610924733
 30
0.0
 11
243.1238170523251
 21
261.6732150924733
 31
0.0
  0
LINE
  5
29680
330
A
100
AcDbEntity
  8
BUHIN
  6
Continuous
100
AcDbLine
 10
252.2301730523251
 20
261.6732150924733
 30
0.0
 11
252.3563230523251
 21
302.5243610924733
 31
0.0
  0
LINE
  5
29681
330
A
100
AcDbEntity
  8
BUHIN
  6
Continuous
100
AcDbLine
 10
270.3529810523252
 20
336.6423570924733
 30
0.0
 11
270.6408650523252
 21
336.6436150924733
 31
0.0
  0
LINE
  5
29682
330
A
100
AcDbEntity
  8
BUHIN
  6
Continuous
100
AcDbLine
 10
238.7478770523252
 20
304.6039490924731
 30
0.0
 11
238.8356890523251
 21
304.2557670924732
 31
0.0
  0
LINE
  5
29683
330
A
100
AcDbEntity
  8
BUHIN
  6
Continuous
100
AcDbLine
 10
255.7030050523252
 20
304.2679170924732
 30
0.0
 11
255.8092430523251
 21
304.0228310924733
 31
0.0
  0
LINE
  5
29684
330
A
100
AcDbEntity
  8
BUHIN
  6
Continuous
100
AcDbLine
 10
271.2489050523251
 20
320.8131210924733
 30
0.0
 11
271.4982610523251
 21
320.6307170924733
 31
0.0
  0
LINE
  5
29685
330
A
100
AcDbEntity
  8
BUHIN
  6
Continuous
100
AcDbLine
 10
222.9327770523251
 20
328.5582450924733
 30
0.0
 11
223.1955810523251
 21
328.1448630924733
 31
0.0
  0
LINE
  5
29686
330
A
100
AcDbEntity
  8
BUHIN
  6
Continuous
100
AcDbLine
 10
225.1858370523251
 20
316.9725790924733
 30
0.0
 11
225.6111630523252
 21
316.8024490924731
 31
0.0
  0
LWPOLYLINE
  5
29687
330
A
100
AcDbEntity
  8
BUHIN
  6
Continuous
100
AcDbPolyline
 90
       16
 70
     0
 43
0.0
 10
247.6770070523252
 20
312.1599530924732
 10
248.0393190523251
 20
312.1052090924731
 10
248.2691950523252
 20
312.0221690924732
 10
248.4854590523251
 20
311.9074390924734
 10
248.7821010523252
 20
311.6903070924732
 10
249.047395052325
 20
311.4351710924734
 10
249.361155052325
 20
311.0576490924732
 10
249.5967090523251
 20
310.7105970924733
 10
249.8993650523252
 20
310.1888350924733
 10
250.1912590523251
 20
309.6035130924733
 10
250.4499030523251
 20
309.0024510924731
 10
250.788649052325
 20
308.0811330924732
 10
251.0802890523252
 20
307.1440730924733
 10
251.333215052325
 20
306.1959050924734
 10
251.6233290523252
 20
304.8991730924734
 10
251.6848270523252
 20
304.5988790924732
  0
LWPOLYLINE
  5
29688
330
A
100
AcDbEntity
  8
BUHIN
  6
Continuous
100
AcDbPolyline
 90
        2
 70
     0
 43
0.0
 10
251.7501230523252
 20
304.3309150924733
 10
251.9226670523252
 20
303.8761170924733
  0
LINE
  5
29689
330
A
100
AcDbEntity
  8
BUHIN
  6
Continuous
100
AcDbLine
 10
251.6848270523252
 20
304.5988790924732
 30
0.0
 11
251.7501230523252
 21
304.3309150924733
 31
0.0
  0
LINE
  5
2968A
330
A
100
AcDbEntity
  8
BUHIN
  6
Continuous
100
AcDbLine
 10
252.4315430523251
 20
303.1578470924733
 30
0.0
 11
252.4336050523251
 21
303.1624190924733
 31
0.0
  0
LWPOLYLINE
  5
2968B
330
A
100
AcDbEntity
  8
BUHIN
  6
Continuous
100
AcDbPolyline
 90
        9
 70
     0
 43
0.0
 10
253.1281450523251
 20
303.5204790924733
 10
252.9663330523252
 20
303.4685730924732
 10
252.8157430523251
 20
303.3897070924731
 10
252.6807750523252
 20
303.2861890924733
 10
252.5653730523251
 20
303.1610390924734
 10
252.472905052325
 20
303.0179130924732
 10
252.406071052325
 20
302.8609910924733
 10
252.3668230523252
 20
302.6948570924733
 10
252.3563110523252
 20
302.5243610924733
  0
LWPOLYLINE
  5
2968C
330
A
100
AcDbEntity
  8
BUHIN
  6
Continuous
100
AcDbPolyline
 90
        5
 70
     0
 43
0.0
 10
242.997679052325
 20
302.5243610924733
 10
242.977237052325
 20
302.7509650924733
 10
242.9063230523251
 20
302.9669230924733
 10
242.7886150523251
 20
303.1610430924734
 10
242.6302090523251
 20
303.3232670924733
  0
LWPOLYLINE
  5
2968D
330
A
100
AcDbEntity
  8
BUHIN
  6
Continuous
100
AcDbPolyline
 90
        3
 70
     0
 43
0.0
 10
243.417069052325
 20
303.8500890924733
 10
243.5608770523251
 20
304.2051890924733
 10
243.6691630523252
 20
304.5988790924732
  0
LWPOLYLINE
  5
2968E
330
A
100
AcDbEntity
  8
BUHIN
  6
Continuous
100
AcDbPolyline
 90
       16
 70
     0
 43
0.0
 10
243.6691630523252
 20
304.5988790924732
 10
243.944097052325
 20
305.8778510924733
 10
244.1853890523252
 20
306.8291090924733
 10
244.4634050523252
 20
307.7702230924733
 10
244.785207052325
 20
308.6975550924733
 10
245.0296710523252
 20
309.3046290924733
 10
245.304039052325
 20
309.8985230924732
 10
245.6155230523251
 20
310.4736250924734
 10
245.8504490523252
 20
310.8574590924732
 10
246.1446330523253
 20
311.2506510924732
 10
246.3918370523251
 20
311.5235130924732
 10
246.6670970523252
 20
311.7677190924733
 10
246.8685290523252
 20
311.9074390924734
 10
247.0847950523252
 20
312.0221690924732
 10
247.314671052325
 20
312.1052090924731
 10
247.6769830523252
 20
312.1599530924732
  0
LWPOLYLINE
  5
2968F
330
A
100
AcDbEntity
  8
BUHIN
  6
Continuous
100
AcDbPolyline
 90
        9
 70
     0
 43
0.0
 10
243.1238170523251
 20
261.6732150924733
 10
243.1837810523251
 20
261.3997630924732
 10
243.2637690523251
 20
261.2112610924732
 10
243.3626750523252
 20
261.0733970924732
 10
243.6058890523251
 20
260.8424550924733
 10
243.888077052325
 20
260.6437890924733
 10
244.0917130523252
 20
260.5468010924733
 10
244.344579052325
 20
260.4536970924733
 10
245.195255052325
 20
260.2331410924733
  0
LWPOLYLINE
  5
29690
330
A
100
AcDbEntity
  8
BUHIN
  6
Continuous
100
AcDbPolyline
 90
       10
 70
     0
 43
0.0
 10
250.1587350523251
 20
260.2331410924733
 10
250.707773052325
 20
260.3680830924733
 10
251.0094110523251
 20
260.4536970924733
 10
251.2622750523252
 20
260.5468010924733
 10
251.4659130523252
 20
260.6437890924733
 10
251.7481010523251
 20
260.8424550924733
 10
251.9913150523251
 20
261.0733970924732
 10
252.0902210523251
 20
261.2112610924732
 10
252.1702090523251
 20
261.3997630924732
 10
252.2301730523251
 20
261.6732150924733
  0
LWPOLYLINE
  5
29691
330
A
100
AcDbEntity
  8
BUHIN
  6
Continuous
100
AcDbPolyline
 90
        5
 70
     0
 43
0.0
 10
247.6769950523252
 20
260.0237530924733
 10
248.3516010523252
 20
260.0373910924733
 10
249.0041050523251
 20
260.0778590924733
 10
249.6131330523252
 20
260.1438290924733
 10
250.1587350523251
 20
260.2331410924733
  0
LWPOLYLINE
  5
29692
330
A
100
AcDbEntity
  8
BUHIN
  6
Continuous
100
AcDbPolyline
 90
        5
 70
     0
 43
0.0
 10
245.195255052325
 20
260.2331410924733
 10
245.7408570523252
 20
260.1438290924733
 10
246.349885052325
 20
260.0778590924733
 10
247.0023890523251
 20
260.0373910924733
 10
247.6769950523252
 20
260.0237530924733
  0
LINE
  5
29693
330
A
100
AcDbEntity
  8
BUHIN
  6
Continuous
100
AcDbLine
 10
264.1696490523251
 20
309.3139670924734
 30
0.0
 11
265.6916430523251
 21
310.8056090924733
 31
0.0
  0
LINE
  5
29694
330
A
100
AcDbEntity
  8
BUHIN
  6
Continuous
100
AcDbLine
 10
259.0627110523252
 20
305.7126750924733
 30
0.0
 11
259.7721990523252
 21
306.1035470924732
 31
0.0
  0
LINE
  5
29695
330
A
100
AcDbEntity
  8
BUHIN
  6
Continuous
100
AcDbLine
 10
271.4650690523253
 20
321.5431270924733
 30
0.0
 11
271.5413690523252
 21
321.8646450924732
 31
0.0
  0
LINE
  5
29696
330
A
100
AcDbEntity
  8
BUHIN
  6
Continuous
100
AcDbLine
 10
267.307291052325
 20
312.7511850924734
 30
0.0
 11
267.8400990523252
 21
313.4887510924732
 31
0.0
  0
LINE
  5
29697
330
A
100
AcDbEntity
  8
BUHIN
  6
Continuous
100
AcDbLine
 10
255.1466650523252
 20
304.0741190924732
 30
0.0
 11
256.3648150523251
 21
304.4984550924732
 31
0.0
  0
LINE
  5
29698
330
A
100
AcDbEntity
  8
BUHIN
  6
Continuous
100
AcDbLine
 10
270.5848930523251
 20
318.7185390924733
 30
0.0
 11
270.8407270523252
 21
319.4346530924731
 31
0.0
  0
LINE
  5
29699
330
A
100
AcDbEntity
  8
BUHIN
  6
Continuous
100
AcDbLine
 10
269.8958710523251
 20
317.0887290924734
 30
0.0
 11
270.5134830523251
 21
318.5598730924732
 31
0.0
  0
LINE
  5
2969F
330
A
100
AcDbEntity
  8
BUHIN-2
  6
HIDDEN
100
AcDbLine
 10
567.8912294777372
 20
303.1563250924733
 30
0.0
 11
567.8912294777372
 21
351.6563250924733
 31
0.0
  0
LWPOLYLINE
  5
296A0
330
A
100
AcDbEntity
  8
BUHIN-2
  6
HIDDEN
100
AcDbPolyline
 90
        4
 70
     0
 43
0.0
 10
567.8909354777373
 20
330.7207110924732
 10
568.0060614777374
 20
330.4688210924733
 10
568.1542694777375
 20
330.2643910924733
 10
568.2379614777377
 20
330.1850650924732
  0
ARC
  5
296A1
330
A
100
AcDbEntity
  8
BUHIN-2
  6
HIDDEN
100
AcDbCircle
 10
568.5881674777373
 20
330.6145970924733
 30
0.0
 40
0.5542120000000001
100
AcDbArc
 50
230.8100269999991
 51
241.7881420000002
  0
LINE
  5
296A2
330
A
100
AcDbEntity
  8
BUHIN-2
  6
HIDDEN
100
AcDbLine
 10
568.5098674777377
 20
310.6541550924733
 30
0.0
 11
587.8077234777373
 21
310.6821130924732
 31
0.0
  0
LWPOLYLINE
  5
296A3
330
A
100
AcDbEntity
  8
BUHIN-2
  6
HIDDEN
100
AcDbPolyline
 90
       23
 70
     0
 43
0.0
 10
569.4967774777373
 20
343.5458310924732
 10
570.4779454777375
 20
343.8106710924733
 10
571.5361934777373
 20
344.1280730924732
 10
572.6408554777375
 20
344.4955650924733
 10
573.7612714777372
 20
344.9106730924732
 10
574.9816054777373
 20
345.4119370924734
 10
576.3860234777374
 20
346.0378990924732
 10
577.8984374777373
 20
346.7556770924732
 10
579.4427634777374
 20
347.5323950924733
 10
581.0215694777374
 20
348.3603210924732
 10
587.7504274777374
 20
352.0183070924734
 10
590.4324914777374
 20
353.4242270924731
 10
592.1992614777376
 20
354.3146690924734
 10
593.5761994777375
 20
354.9683930924732
 10
594.6937014777375
 20
355.4744850924733
 10
595.8352834777373
 20
355.9675710924732
 10
597.0019394777376
 20
356.4450490924733
 10
598.1938414777377
 20
356.9038290924732
 10
599.4111594777376
 20
357.3408270924731
 10
600.6532334777374
 20
357.7527870924732
 10
601.9194014777375
 20
358.1364590924734
 10
603.4865434777374
 20
358.5536190924734
 10
605.6315474777374
 20
359.0660450924734
  0
LWPOLYLINE
  5
296A4
330
A
100
AcDbEntity
  8
BUHIN-2
  6
HIDDEN
100
AcDbPolyline
 90
        2
 70
     0
 43
0.0
 10
590.0408654777374
 20
310.6910230924732
 10
587.7908654777374
 20
310.6887810924734
  0
LINE
  5
296A5
330
A
100
AcDbEntity
  8
BUHIN-2
  6
HIDDEN
100
AcDbLine
 10
587.7908654777374
 20
310.6887810924734
 30
0.0
 11
587.7908654777374
 21
310.6890730924734
 31
0.0
  0
ARC
  5
296A6
330
A
100
AcDbEntity
  8
BUHIN-2
  6
HIDDEN
100
AcDbCircle
 10
569.6577434777376
 20
332.5851050924732
 30
0.0
 40
2.796317999999999
100
AcDbArc
 50
241.5629199999962
 51
257.321847
  0
LINE
  5
296A7
330
A
100
AcDbEntity
  8
BUHIN-2
  6
HIDDEN
100
AcDbLine
 10
568.0991274777373
 20
343.7288330924732
 30
0.0
 11
568.7812354777373
 21
343.5098290924732
 31
0.0
  0
LINE
  5
296A8
330
A
100
AcDbEntity
  8
BUHIN-2
  6
HIDDEN
100
AcDbLine
 10
568.7812354777373
 20
343.5098290924732
 30
0.0
 11
569.4968134777376
 21
343.5458310924732
 31
0.0
  0
LINE
  5
296A9
330
A
100
AcDbEntity
  8
BUHIN-2
  6
HIDDEN
100
AcDbLine
 10
567.8912294777372
 20
343.8937150924733
 30
0.0
 11
568.0991274777373
 21
343.7288330924732
 31
0.0
  0
LINE
  5
296AA
330
A
100
AcDbEntity
  8
BUHIN-2
  6
HIDDEN
100
AcDbLine
 10
567.9609254777373
 20
310.5437650924732
 30
0.0
 11
568.5285234777373
 21
310.6579070924734
 31
0.0
  0
LINE
  5
296AB
330
A
100
AcDbEntity
  8
BUHIN-2
  6
HIDDEN
100
AcDbLine
 10
567.8912294777372
 20
310.4970950924733
 30
0.0
 11
567.9609254777373
 21
310.5437650924732
 31
0.0
  0
LWPOLYLINE
  5
296AC
330
A
100
AcDbEntity
  8
BUHIN-2
  6
HIDDEN
100
AcDbPolyline
 90
       16
 70
     0
 43
0.0
 10
591.9171894777377
 20
329.7927690924733
 10
592.8374794777372
 20
330.6887850924734
 10
593.2970894777375
 20
331.1100550924732
 10
593.4063654777372
 20
331.2027190924732
 10
593.8277894777374
 20
331.5335690924733
 10
594.7957094777374
 20
332.2198830924733
 10
595.7113474777373
 20
332.8193850924733
 10
596.2017114777376
 20
333.1022810924733
 10
596.7236654777374
 20
333.3772710924734
 10
597.8218374777374
 20
333.8921790924733
 10
598.8281354777376
 20
334.3242690924733
 10
599.9899654777376
 20
334.7723770924734
 10
601.2654434777377
 20
335.1923650924732
 10
602.6314494777373
 20
335.5710530924732
 10
603.7580934777373
 20
335.8356930924733
 10
605.6039274777376
 20
336.2051590924732
  0
LINE
  5
296AD
330
A
100
AcDbEntity
  8
BUHIN-2
  6
HIDDEN
100
AcDbLine
 10
608.5412274777375
 20
370.3739430924732
 30
0.0
 11
608.5412274777375
 21
370.3751110924734
 31
0.0
  0
LWPOLYLINE
  5
296AE
330
A
100
AcDbEntity
  8
BUHIN-2
  6
HIDDEN
100
AcDbPolyline
 90
        4
 70
     0
 43
0.0
 10
608.0412274777375
 20
367.7026350924732
 10
608.0568474777377
 20
367.8995770924732
 10
608.1022814777374
 20
368.0896750924733
 10
608.1482434777375
 20
368.2081030924733
  0
LWPOLYLINE
  5
296AF
330
A
100
AcDbEntity
  8
BUHIN-2
  6
HIDDEN
100
AcDbPolyline
 90
        3
 70
     0
 43
0.0
 10
608.1885694777374
 20
368.2868510924732
 10
608.2966374777373
 20
368.4323530924733
 10
608.3303654777377
 20
368.4637310924732
  0
LINE
  5
296B0
330
A
100
AcDbEntity
  8
BUHIN-2
  6
HIDDEN
100
AcDbLine
 10
588.0412274777376
 20
352.1814310924733
 30
0.0
 11
588.0412274777376
 21
352.2342550924732
 31
0.0
  0
LINE
  5
296B1
330
A
100
AcDbEntity
  8
BUHIN-2
  6
HIDDEN
100
AcDbLine
 10
588.0412274777376
 20
352.2342550924732
 30
0.0
 11
588.0412274777376
 21
361.0971490924733
 31
0.0
  0
LINE
  5
296B2
330
A
100
AcDbEntity
  8
BUHIN-2
  6
HIDDEN
100
AcDbLine
 10
590.0412274777376
 20
363.0951350924731
 30
0.0
 11
607.3298214777373
 21
363.0761330924731
 31
0.0
  0
LINE
  5
296B3
330
A
100
AcDbEntity
  8
BUHIN-2
  6
HIDDEN
100
AcDbLine
 10
597.2895314777373
 20
363.0871690924732
 30
0.0
 11
606.6369314777374
 21
363.0928930924731
 31
0.0
  0
LINE
  5
296B4
330
A
100
AcDbEntity
  8
BUHIN-2
  6
HIDDEN
100
AcDbLine
 10
588.0412274777376
 20
314.3496390924734
 30
0.0
 11
588.0412274777376
 21
322.0676770924733
 31
0.0
  0
LINE
  5
296B5
330
A
100
AcDbEntity
  8
BUHIN-2
  6
HIDDEN
100
AcDbLine
 10
588.0412274777376
 20
293.7267490924733
 30
0.0
 11
588.0412274777376
 21
314.3496390924734
 31
0.0
  0
LWPOLYLINE
  5
296B6
330
A
100
AcDbEntity
  8
BUHIN-2
  6
HIDDEN
100
AcDbPolyline
 90
       17
 70
     0
 43
0.0
 10
595.0059414777373
 20
318.9569890924734
 10
594.9165254777375
 20
319.0918590924732
 10
594.7917514777376
 20
319.2165570924733
 10
594.6348254777375
 20
319.3278810924732
 10
594.4497834777374
 20
319.4229650924733
 10
594.2413794777374
 20
319.4993670924732
 10
594.0149734777377
 20
319.5551230924732
 10
593.7763834777373
 20
319.5887990924732
 10
593.5317454777377
 20
319.5995290924732
 10
593.2873474777373
 20
319.5870390924733
 10
593.0494714777372
 20
319.5516470924733
 10
592.8242354777374
 20
319.4942650924734
 10
592.6174254777373
 20
319.4163690924731
 10
592.4343594777377
 20
319.3199590924733
 10
592.2797454777373
 20
319.2075130924734
 10
592.1575554777376
 20
319.0819250924733
 10
592.0709334777374
 20
318.9464230924732
  0
LINE
  5
296B7
330
A
100
AcDbEntity
  8
BUHIN-2
  6
HIDDEN
100
AcDbLine
 10
594.6990474777375
 20
318.1058250924732
 30
0.0
 11
595.8323634777374
 21
318.1058250924732
 31
0.0
  0
LWPOLYLINE
  5
296B8
330
A
100
AcDbEntity
  8
BUHIN-2
  6
HIDDEN
100
AcDbPolyline
 90
        5
 70
     0
 43
0.0
 10
595.8323634777374
 20
318.1058250924732
 10
595.9194454777374
 20
318.2414410924732
 10
595.9835614777374
 20
318.3814490924733
 10
596.0240974777374
 20
318.5244950924732
 10
596.0406554777376
 20
318.6692010924732
  0
LWPOLYLINE
  5
296B9
330
A
100
AcDbEntity
  8
BUHIN-2
  6
HIDDEN
100
AcDbPolyline
 90
        5
 70
     0
 43
0.0
 10
591.0651194777373
 20
318.9004430924733
 10
591.0410774777373
 20
318.6980330924732
 10
591.0642814777373
 20
318.4955870924732
 10
591.1342914777373
 20
318.2969330924732
 10
591.2497874777376
 20
318.1058250924732
  0
LINE
  5
296BA
330
A
100
AcDbEntity
  8
BUHIN-2
  6
HIDDEN
100
AcDbLine
 10
591.2497874777376
 20
318.1058250924732
 30
0.0
 11
592.3831034777375
 21
318.1058250924732
 31
0.0
  0
LWPOLYLINE
  5
296BB
330
A
100
AcDbEntity
  8
BUHIN-2
  6
HIDDEN
100
AcDbPolyline
 90
        9
 70
     0
 43
0.0
 10
593.5410754777375
 20
316.9427290924732
 10
593.2947514777374
 20
316.9309450924732
 10
593.0548534777375
 20
316.8959010924732
 10
592.8276394777375
 20
316.8385110924733
 10
592.6190414777373
 20
316.7602730924732
 10
592.4344974777376
 20
316.6632270924733
 10
592.2788254777373
 20
316.5499050924732
 10
592.1560854777375
 20
316.4232650924732
 10
592.0694794777376
 20
316.2866110924733
  0
LWPOLYLINE
  5
296BC
330
A
100
AcDbEntity
  8
BUHIN-2
  6
HIDDEN
100
AcDbPolyline
 90
        9
 70
     0
 43
0.0
 10
595.0127294777375
 20
316.2864890924732
 10
594.9261454777373
 20
316.4231670924733
 10
594.8034154777372
 20
316.5498270924734
 10
594.6477454777376
 20
316.6631710924733
 10
594.4631954777372
 20
316.7602350924733
 10
594.2545814777376
 20
316.8384890924733
 10
594.0273494777374
 20
316.8958910924732
 10
593.7874274777376
 20
316.9309430924734
 10
593.5410754777375
 20
316.9427290924732
  0
LINE
  5
296BD
330
A
100
AcDbEntity
  8
BUHIN-2
  6
HIDDEN
100
AcDbLine
 10
591.0409234777374
 20
310.9029430924731
 30
0.0
 11
592.0409234777374
 21
310.9029430924731
 31
0.0
  0
LINE
  5
296BE
330
A
100
AcDbEntity
  8
BUHIN-2
  6
HIDDEN
100
AcDbLine
 10
592.0409234777374
 20
312.7916770924733
 30
0.0
 11
596.0412274777375
 21
312.7916770924733
 31
0.0
  0
LWPOLYLINE
  5
296BF
330
A
100
AcDbEntity
  8
BUHIN-2
  6
HIDDEN
100
AcDbPolyline
 90
       28
 70
     0
 43
0.0
 10
591.0410754777375
 20
308.6548250924732
 10
591.0516374777374
 20
308.3671350924733
 10
591.0827994777377
 20
308.0793250924732
 10
591.2030454777376
 20
307.5084890924734
 10
591.3962254777374
 20
306.9528930924732
 10
591.6602214777375
 20
306.4235350924732
 10
591.8381354777373
 20
306.1457190924732
 10
592.0393994777376
 20
305.8839510924733
 10
592.2654214777375
 20
305.6431470924733
 10
592.5176834777374
 20
305.4301530924734
 10
592.7522534777375
 20
305.2788010924733
 10
593.0055434777377
 20
305.1618590924734
 10
593.2738454777376
 20
305.0877830924733
 10
593.5513514777375
 20
305.0634570924733
 10
593.8213914777374
 20
305.0902130924733
 10
594.0823194777375
 20
305.1639570924733
 10
594.3288794777376
 20
305.2782110924734
 10
594.5576394777375
 20
305.4251110924731
 10
594.8034634777376
 20
305.6305450924733
 10
595.0245334777372
 20
305.8626150924733
 10
595.2221914777372
 20
306.1148990924733
 10
595.3977194777374
 20
306.3827370924733
 10
595.5441154777376
 20
306.6472310924733
 10
595.6720694777376
 20
306.9202650924733
 10
595.8727594777378
 20
307.4858950924733
 10
595.9976994777374
 20
308.0678290924732
 10
596.0300914777375
 20
308.3613770924733
 10
596.0410754777375
 20
308.6548250924732
  0
LWPOLYLINE
  5
296C0
330
A
100
AcDbEntity
  8
BUHIN-2
  6
HIDDEN
100
AcDbPolyline
 90
       11
 70
     0
 43
0.0
 10
591.0443534777376
 20
315.9638570924733
 10
591.0926074777375
 20
315.7369450924732
 10
591.1974474777374
 20
315.5090530924733
 10
591.3561714777373
 20
315.2865110924734
 10
591.5649914777376
 20
315.0758770924733
 10
591.8191134777374
 20
314.8836670924731
 10
592.1128154777374
 20
314.7161110924733
 10
592.4395314777374
 20
314.5789030924732
 10
592.7919274777377
 20
314.4769410924732
 10
593.1619854777376
 20
314.4140770924732
 10
593.5410754777375
 20
314.3928630924731
  0
LWPOLYLINE
  5
296C1
330
A
100
AcDbEntity
  8
BUHIN-2
  6
HIDDEN
100
AcDbPolyline
 90
       11
 70
     0
 43
0.0
 10
596.0377974777373
 20
315.9638570924733
 10
595.9895434777376
 20
315.7369450924732
 10
595.8847034777376
 20
315.5090530924733
 10
595.7259794777372
 20
315.2865110924734
 10
595.5171594777374
 20
315.0758770924733
 10
595.2630374777376
 20
314.8836670924731
 10
594.9693354777377
 20
314.7161110924733
 10
594.6426194777376
 20
314.5789030924732
 10
594.2902234777374
 20
314.4769410924732
 10
593.9201654777374
 20
314.4140770924732
 10
593.5410754777375
 20
314.3928630924731
  0
LINE
  5
296C2
330
A
100
AcDbEntity
  8
BUHIN-2
  6
HIDDEN
100
AcDbLine
 10
591.0409954777373
 20
309.2662210924732
 30
0.0
 11
591.0410754777375
 21
308.6548410924731
 31
0.0
  0
LINE
  5
296C3
330
A
100
AcDbEntity
  8
BUHIN-2
  6
HIDDEN
100
AcDbLine
 10
592.1080074777372
 20
308.6548250924732
 30
0.0
 11
594.9727374777374
 21
308.6548250924732
 31
0.0
  0
ARC
  5
296C4
330
A
100
AcDbEntity
  8
BUHIN-2
  6
HIDDEN
100
AcDbCircle
 10
589.6909374777372
 20
325.0807250924733
 30
0.0
 40
0.5458920000000001
100
AcDbArc
 50
101.4127470000039
 51
111.4350569999993
  0
LINE
  5
296C5
330
A
100
AcDbEntity
  8
BUHIN-2
  6
HIDDEN
100
AcDbLine
 10
591.2647754777375
 20
329.0600350924733
 30
0.0
 11
591.3544394777376
 21
329.1769090924733
 31
0.0
  0
LWPOLYLINE
  5
296C6
330
A
100
AcDbEntity
  8
BUHIN-2
  6
HIDDEN
100
AcDbPolyline
 90
        5
 70
     0
 43
0.0
 10
591.2647754777375
 20
329.0600350924733
 10
591.0119134777373
 20
328.6125590924732
 10
590.8029154777376
 20
328.1064550924732
 10
590.6394474777374
 20
327.5457690924734
 10
590.5228194777377
 20
326.9349810924732
  0
LWPOLYLINE
  5
296C7
330
A
100
AcDbEntity
  8
BUHIN-2
  6
HIDDEN
100
AcDbPolyline
 90
        7
 70
     0
 43
0.0
 10
590.9772114777373
 20
326.4623270924733
 10
590.9625574777372
 20
326.4094810924732
 10
590.6930454777373
 20
326.1365770924733
 10
590.5071034777373
 20
325.9927490924733
 10
590.2290794777376
 20
325.8312170924733
 10
589.9180614777373
 20
325.7041910924734
 10
589.5829274777374
 20
325.6157810924733
  0
LWPOLYLINE
  5
296C8
330
A
100
AcDbEntity
  8
BUHIN-2
  6
HIDDEN
100
AcDbPolyline
 90
        2
 70
     0
 43
0.0
 10
589.1706874777372
 20
325.4453250924732
 10
589.4913454777373
 20
325.5890170924733
  0
LWPOLYLINE
  5
296C9
330
A
100
AcDbEntity
  8
BUHIN-2
  6
HIDDEN
100
AcDbPolyline
 90
        2
 70
     0
 43
0.0
 10
592.1810974777375
 20
330.0770210924732
 10
592.2230914777372
 20
330.0975950924733
  0
LINE
  5
296CA
330
A
100
AcDbEntity
  8
BUHIN-2
  6
HIDDEN
100
AcDbLine
 10
592.2212514777373
 20
330.1005550924733
 30
0.0
 11
592.2539174777374
 21
330.1267530924731
 31
0.0
  0
LINE
  5
296CB
330
A
100
AcDbEntity
  8
BUHIN-2
  6
HIDDEN
100
AcDbLine
 10
592.1763134777373
 20
330.0645150924731
 30
0.0
 11
592.2212514777373
 21
330.1005550924733
 31
0.0
  0
LINE
  5
296CC
330
A
100
AcDbEntity
  8
BUHIN-2
  6
HIDDEN
100
AcDbLine
 10
591.8511214777375
 20
329.9137530924734
 30
0.0
 11
592.2212514777373
 21
330.1005550924733
 31
0.0
  0
LINE
  5
296CD
330
A
100
AcDbEntity
  8
BUHIN-2
  6
HIDDEN
100
AcDbLine
 10
591.8511214777375
 20
329.9137530924734
 30
0.0
 11
592.1798234777374
 21
330.0797510924733
 31
0.0
  0
LINE
  5
296CE
330
A
100
AcDbEntity
  8
BUHIN-2
  6
HIDDEN
100
AcDbLine
 10
590.0412274777376
 20
363.0975030924733
 30
0.0
 11
590.0412274777376
 21
363.0951350924731
 31
0.0
  0
ARC
  5
296CF
330
A
100
AcDbEntity
  8
BUHIN-2
  6
HIDDEN
100
AcDbCircle
 10
590.0413314777373
 20
361.0971630924733
 30
0.0
 40
2.00034
100
AcDbArc
 50
90.00292999999652
 51
180.0004000000011
  0
LINE
  5
296D0
330
A
100
AcDbEntity
  8
BUHIN-2
  6
HIDDEN
100
AcDbLine
 10
588.0409914777373
 20
361.0971490924733
 30
0.0
 11
588.0412274777376
 21
361.0971490924733
 31
0.0
  0
LINE
  5
296D1
330
A
100
AcDbEntity
  8
BUHIN-2
  6
HIDDEN
100
AcDbLine
 10
590.0412274777376
 20
291.7285910924733
 30
0.0
 11
590.0412294777374
 21
291.7266470924733
 31
0.0
  0
ARC
  5
296D2
330
A
100
AcDbEntity
  8
BUHIN-2
  6
HIDDEN
100
AcDbCircle
 10
590.0402014777377
 20
293.7260910924733
 30
0.0
 40
1.999441999999999
100
AcDbArc
 50
179.9811090000024
 51
270.0294370000003
  0
LINE
  5
296D3
330
A
100
AcDbEntity
  8
BUHIN-2
  6
HIDDEN
100
AcDbLine
 10
588.0407594777373
 20
293.7267490924733
 30
0.0
 11
588.0412274777376
 21
293.7267490924733
 31
0.0
  0
LWPOLYLINE
  5
296D4
330
A
100
AcDbEntity
  8
BUHIN-2
  6
HIDDEN
100
AcDbPolyline
 90
       20
 70
     0
 43
0.0
 10
591.1496014777375
 20
324.1787190924733
 10
591.4765934777372
 20
323.7389770924733
 10
591.8566074777376
 20
323.3076130924733
 10
592.2837354777374
 20
322.8916590924732
 10
592.9368774777375
 20
322.3739910924733
 10
593.4567774777373
 20
322.0009870924732
 10
594.0138234777377
 20
321.6466810924733
 10
594.6047234777373
 20
321.3116990924734
 10
595.2261914777376
 20
320.9966650924732
 10
595.8753774777372
 20
320.7018250924732
 10
596.5494334777376
 20
320.4274250924732
 10
597.2458894777377
 20
320.1733810924732
 10
597.9622714777373
 20
319.9396110924733
 10
598.6964394777377
 20
319.7257470924733
 10
599.4462514777377
 20
319.5314230924732
 10
600.2098694777377
 20
319.3560230924734
 10
601.7714494777372
 20
319.0593330924733
 10
603.3687754777373
 20
318.8291290924733
 10
604.6124354777374
 20
318.6933950924733
 10
606.2638734777372
 20
318.5576330924732
  0
LWPOLYLINE
  5
296D5
330
A
100
AcDbEntity
  8
BUHIN-2
  6
HIDDEN
100
AcDbPolyline
 90
        6
 70
     0
 43
0.0
 10
606.5709394777376
 20
319.4452190924733
 10
606.1742074777375
 20
319.7997410924734
 10
605.8188674777373
 20
320.0767810924733
 10
605.6306634777373
 20
320.2031390924733
 10
605.5824594777377
 20
320.2211290924733
 10
605.5818334777376
 20
320.2459030924731
  0
ARC
  5
296D6
330
A
100
AcDbEntity
  8
BUHIN-2
  6
HIDDEN
100
AcDbCircle
 10
606.0440494777375
 20
318.8949910924732
 30
0.0
 40
0.7614580000000001
100
AcDbArc
 50
33.33475000000297
 51
46.24285599999901
  0
LINE
  5
296D7
330
A
100
AcDbEntity
  8
BUHIN-2
  6
HIDDEN
100
AcDbLine
 10
591.0549354777375
 20
324.3737250924732
 30
0.0
 11
591.1493254777373
 21
324.1787110924731
 31
0.0
  0
LWPOLYLINE
  5
296D8
330
A
100
AcDbEntity
  8
BUHIN-2
  6
HIDDEN
100
AcDbPolyline
 90
        2
 70
     0
 43
0.0
 10
591.0549354777375
 20
324.3737250924732
 10
590.7732554777375
 20
325.0255930924734
  0
ARC
  5
296D9
330
A
100
AcDbEntity
  8
BUHIN-2
  6
HIDDEN
100
AcDbCircle
 10
587.7912274777376
 20
310.4390730924734
 30
0.0
 40
0.25
100
AcDbArc
 50
45.04150000000357
 51
90.08298899999926
  0
LWPOLYLINE
  5
296DA
330
A
100
AcDbEntity
  8
BUHIN-2
  6
HIDDEN
100
AcDbPolyline
 90
        7
 70
     0
 43
0.0
 10
588.0489174777375
 20
322.6128690924732
 10
588.1011754777372
 20
323.0229990924734
 10
588.1851914777374
 20
323.4256810924733
 10
588.2999514777374
 20
323.8176530924732
 10
588.4435554777377
 20
324.1964870924733
 10
588.6697714777373
 20
324.6617670924731
 10
588.7296234777376
 20
324.7679210924732
  0
LINE
  5
296DB
330
A
100
AcDbEntity
  8
BUHIN-2
  6
HIDDEN
100
AcDbLine
 10
608.5412274777375
 20
284.4375370924733
 30
0.0
 11
608.5412274777375
 21
292.6796650924732
 31
0.0
  0
LINE
  5
296DC
330
A
100
AcDbEntity
  8
BUHIN-2
  6
HIDDEN
100
AcDbLine
 10
608.5412274777375
 20
292.6796650924732
 30
0.0
 11
608.5412274777375
 21
294.5782190924733
 31
0.0
  0
LINE
  5
296DD
330
A
100
AcDbEntity
  8
BUHIN-2
  6
HIDDEN
100
AcDbLine
 10
608.0412274777375
 20
294.9448350924734
 30
0.0
 11
608.0412274777375
 21
295.0458850924733
 31
0.0
  0
LINE
  5
296DE
330
A
100
AcDbEntity
  8
BUHIN-2
  6
HIDDEN
100
AcDbLine
 10
608.0412274777375
 20
287.1100050924732
 30
0.0
 11
608.0412274777375
 21
292.2549230924733
 31
0.0
  0
LWPOLYLINE
  5
296DF
330
A
100
AcDbEntity
  8
BUHIN-2
  6
HIDDEN
100
AcDbPolyline
 90
        7
 70
     0
 43
0.0
 10
608.0412274777375
 20
287.1100050924732
 10
608.0614714777374
 20
286.8857130924732
 10
608.1204834777375
 20
286.6712150924732
 10
608.1965254777372
 20
286.5121650924732
 10
608.3056494777373
 20
286.3713810924732
 10
608.4107874777372
 20
286.2948910924733
 10
608.5412274777375
 20
286.2626410924733
  0
LWPOLYLINE
  5
296E0
330
A
100
AcDbEntity
  8
BUHIN-2
  6
HIDDEN
100
AcDbPolyline
 90
        3
 70
     0
 43
0.0
 10
608.0412274777375
 20
294.9448230924734
 10
608.0117514777374
 20
293.8164050924731
 10
608.0412274777375
 20
292.2551070924733
  0
LWPOLYLINE
  5
296E1
330
A
100
AcDbEntity
  8
BUHIN-2
  6
HIDDEN
100
AcDbPolyline
 90
        7
 70
     0
 43
0.0
 10
608.5412274777375
 20
294.5782210924733
 10
608.4028834777376
 20
294.6021030924732
 10
608.2935734777374
 20
294.6561850924734
 10
608.1542094777376
 20
294.7813530924732
 10
608.0867854777373
 20
294.8819930924733
 10
608.0465054777377
 20
294.9932010924733
 10
608.0412274777375
 20
295.0458850924733
  0
LINE
  5
296E2
330
A
100
AcDbEntity
  8
BUHIN-2
  6
HIDDEN
100
AcDbLine
 10
608.0412274777375
 20
315.5084950924731
 30
0.0
 11
608.0412274777375
 21
345.1003250924732
 31
0.0
  0
LINE
  5
296E3
330
A
100
AcDbEntity
  8
BUHIN-2
  6
HIDDEN
100
AcDbLine
 10
608.0412274777375
 20
299.4623230924733
 30
0.0
 11
608.0412274777375
 21
299.5289450924733
 31
0.0
  0
LINE
  5
296E4
330
A
100
AcDbEntity
  8
BUHIN-2
  6
HIDDEN
100
AcDbLine
 10
608.0412274777375
 20
365.2365410924733
 30
0.0
 11
608.0412274777375
 21
367.7026350924732
 31
0.0
  0
LINE
  5
296E5
330
A
100
AcDbEntity
  8
BUHIN-2
  6
HIDDEN
100
AcDbLine
 10
608.0412274777375
 20
359.7667790924731
 30
0.0
 11
608.0412274777375
 21
365.2365410924733
 31
0.0
  0
LINE
  5
296E6
330
A
100
AcDbEntity
  8
BUHIN-2
  6
HIDDEN
100
AcDbLine
 10
608.0412274777375
 20
355.3503250924732
 30
0.0
 11
608.0412274777375
 21
359.7667790924731
 31
0.0
  0
LINE
  5
296E7
330
A
100
AcDbEntity
  8
BUHIN-2
  6
HIDDEN
100
AcDbLine
 10
608.0412274777375
 20
295.0458850924733
 30
0.0
 11
608.0412274777375
 21
299.4623230924733
 31
0.0
  0
LINE
  5
296E8
330
A
100
AcDbEntity
  8
BUHIN-2
  6
HIDDEN
100
AcDbLine
 10
608.0412274777375
 20
345.1003250924732
 30
0.0
 11
608.0412274777375
 21
355.3503250924732
 31
0.0
  0
LINE
  5
296E9
330
A
100
AcDbEntity
  8
BUHIN-2
  6
HIDDEN
100
AcDbLine
 10
618.0412274777376
 20
284.4375370924733
 30
0.0
 11
618.0412274777376
 21
284.4387050924733
 31
0.0
  0
LINE
  5
296EA
330
A
100
AcDbEntity
  8
BUHIN-2
  6
HIDDEN
100
AcDbLine
 10
618.0412274777376
 20
284.4387050924733
 30
0.0
 11
618.0412274777376
 21
292.6796650924732
 31
0.0
  0
LINE
  5
296EB
330
A
100
AcDbEntity
  8
BUHIN-2
  6
HIDDEN
100
AcDbLine
 10
618.0412274777376
 20
292.6796650924732
 30
0.0
 11
618.0412274777376
 21
299.7123230924733
 31
0.0
  0
LINE
  5
296EC
330
A
100
AcDbEntity
  8
BUHIN-2
  6
HIDDEN
100
AcDbLine
 10
618.0412274777376
 20
299.7123230924733
 30
0.0
 11
618.0412274777376
 21
309.7123230924733
 31
0.0
  0
LINE
  5
296ED
330
A
100
AcDbEntity
  8
BUHIN-2
  6
HIDDEN
100
AcDbLine
 10
618.0412274777376
 20
309.7123230924733
 30
0.0
 11
618.0412274777376
 21
345.1003250924732
 31
0.0
  0
LINE
  5
296EE
330
A
100
AcDbEntity
  8
BUHIN-2
  6
HIDDEN
100
AcDbLine
 10
618.0412274777376
 20
345.1003250924732
 30
0.0
 11
618.0412274777376
 21
355.1003250924732
 31
0.0
  0
LINE
  5
296EF
330
A
100
AcDbEntity
  8
BUHIN-2
  6
HIDDEN
100
AcDbLine
 10
618.0412274777376
 20
355.1003250924732
 30
0.0
 11
618.0412274777376
 21
362.1329830924733
 31
0.0
  0
LINE
  5
296F0
330
A
100
AcDbEntity
  8
BUHIN-2
  6
HIDDEN
100
AcDbLine
 10
608.5412274777375
 20
360.2344510924734
 30
0.0
 11
608.5412274777375
 21
362.1329830924733
 31
0.0
  0
LINE
  5
296F1
330
A
100
AcDbEntity
  8
BUHIN-2
  6
HIDDEN
100
AcDbLine
 10
618.0412274777376
 20
362.1329830924733
 30
0.0
 11
618.0412274777376
 21
370.3751130924731
 31
0.0
  0
LINE
  5
296F2
330
A
100
AcDbEntity
  8
BUHIN-2
  6
HIDDEN
100
AcDbLine
 10
608.5412274777375
 20
362.1329830924733
 30
0.0
 11
608.5412274777375
 21
370.3739430924732
 31
0.0
  0
LWPOLYLINE
  5
296F3
330
A
100
AcDbEntity
  8
BUHIN-2
  6
HIDDEN
100
AcDbPolyline
 90
        7
 70
     0
 43
0.0
 10
608.5412274777375
 20
368.5499930924732
 10
608.4011554777374
 20
368.5127250924732
 10
608.2908814777373
 20
368.4263750924734
 10
608.1877134777372
 20
368.2853550924733
 10
608.1153754777373
 20
368.1277730924733
 10
608.0601994777374
 20
367.9197190924733
 10
608.0412274777375
 20
367.7026350924732
  0
LINE
  5
296F4
330
A
100
AcDbEntity
  8
BUHIN-2
  6
HIDDEN
100
AcDbLine
 10
608.0412274777375
 20
362.0045310924731
 30
0.0
 11
608.0413554777377
 21
362.0045310924731
 31
0.0
  0
ARC
  5
296F5
330
A
100
AcDbEntity
  8
BUHIN-2
  6
HIDDEN
100
AcDbCircle
 10
605.0408634777376
 20
362.0076630924732
 30
0.0
 40
3.000491999999999
100
AcDbArc
 50
281.3541259999982
 51
359.9401989999998
  0
LINE
  5
296F6
330
A
100
AcDbEntity
  8
BUHIN-2
  6
HIDDEN
100
AcDbLine
 10
605.6315474777374
 20
359.0660450924734
 30
0.0
 11
605.6315794777373
 21
359.0658930924733
 31
0.0
  0
LWPOLYLINE
  5
296F7
330
A
100
AcDbEntity
  8
BUHIN-2
  6
HIDDEN
100
AcDbPolyline
 90
        6
 70
     0
 43
0.0
 10
607.4683334777372
 20
291.3556590924732
 10
607.6702494777377
 20
291.0566670924733
 10
607.8306874777375
 20
290.7362430924733
 10
607.9470914777374
 20
290.3994290924733
 10
608.0176234777376
 20
290.0515530924732
 10
608.0412274777375
 20
289.6981610924732
  0
LWPOLYLINE
  5
296F8
330
A
100
AcDbEntity
  8
BUHIN-2
  6
HIDDEN
100
AcDbPolyline
 90
        6
 70
     0
 43
0.0
 10
607.7514874777374
 20
290.8333890924732
 10
607.3926054777374
 20
291.2680450924733
 10
607.1838974777373
 20
291.4767090924732
 10
606.8566174777373
 20
291.6804450924733
 10
606.7436634777376
 20
291.7132350924733
 10
606.4009094777373
 20
291.7365710924732
  0
LINE
  5
296F9
330
A
100
AcDbEntity
  8
BUHIN-2
  6
HIDDEN
100
AcDbLine
 10
606.2634994777376
 20
291.8592370924732
 30
0.0
 11
606.8097894777373
 21
291.7014190924733
 31
0.0
  0
LINE
  5
296FA
330
A
100
AcDbEntity
  8
BUHIN-2
  6
HIDDEN
100
AcDbLine
 10
606.7086754777372
 20
291.8169530924732
 30
0.0
 11
607.0502774777377
 21
291.5723770924733
 31
0.0
  0
LWPOLYLINE
  5
296FB
330
A
100
AcDbEntity
  8
BUHIN-2
  6
HIDDEN
100
AcDbPolyline
 90
        6
 70
     0
 43
0.0
 10
608.0412274777375
 20
359.7667790924731
 10
608.0576914777374
 20
359.8625170924731
 10
608.1415134777374
 20
360.0155290924734
 10
608.2528714777375
 20
360.1275250924732
 10
608.4258074777375
 20
360.2177950924734
 10
608.5412274777375
 20
360.2344510924734
  0
LWPOLYLINE
  5
296FC
330
A
100
AcDbEntity
  8
BUHIN-2
  6
HIDDEN
100
AcDbPolyline
 90
        3
 70
     0
 43
0.0
 10
608.5412274777375
 20
286.2626410924733
 10
608.4270754777374
 20
286.2872630924733
 10
608.3315474777377
 20
286.3478490924734
  0
LWPOLYLINE
  5
296FD
330
A
100
AcDbEntity
  8
BUHIN-2
  6
HIDDEN
100
AcDbPolyline
 90
        4
 70
     0
 43
0.0
 10
608.1886234777374
 20
286.5258330924732
 10
608.1077034777376
 20
286.7066650924733
 10
608.0488754777373
 20
286.9723690924732
 10
608.0412274777375
 20
287.1100050924732
  0
LWPOLYLINE
  5
296FE
330
A
100
AcDbEntity
  8
BUHIN-2
  6
HIDDEN
100
AcDbPolyline
 90
       10
 70
     0
 43
0.0
 10
605.6039274777376
 20
336.2051590924732
 10
606.2270054777376
 20
336.4201430924734
 10
606.4631274777374
 20
336.5257590924732
 10
606.9635334777375
 20
336.8338910924733
 10
607.2928734777373
 20
337.1889690924734
 10
607.5434794777374
 20
337.5242970924733
 10
607.7444534777376
 20
337.8933770924732
 10
607.8290614777373
 20
338.1161990924732
 10
607.9067274777375
 20
338.3987070924732
 10
608.0412274777375
 20
339.1427870924733
  0
LINE
  5
296FF
330
A
100
AcDbEntity
  8
BUHIN-2
  6
HIDDEN
100
AcDbLine
 10
608.0394054777374
 20
362.9042690924732
 30
0.0
 11
608.0412274777375
 21
362.9160030924734
 31
0.0
  0
LWPOLYLINE
  5
29700
330
A
100
AcDbEntity
  8
BUHIN-2
  6
HIDDEN
100
AcDbPolyline
 90
        3
 70
     0
 43
0.0
 10
608.0267974777374
 20
362.7680850924733
 10
608.0218554777374
 20
362.8350610924733
 10
608.0394054777374
 20
362.9042690924732
  0
LWPOLYLINE
  5
29701
330
A
100
AcDbEntity
  8
BUHIN-2
  6
HIDDEN
100
AcDbPolyline
 90
        5
 70
     0
 43
0.0
 10
607.7277154777374
 20
363.8593490924734
 10
607.8635054777377
 20
364.1582230924732
 10
607.9618114777376
 20
364.4697970924733
 10
608.0213254777376
 20
364.7899350924733
 10
608.0412574777373
 20
365.1143810924732
  0
LWPOLYLINE
  5
29702
330
A
100
AcDbEntity
  8
BUHIN-2
  6
HIDDEN
100
AcDbPolyline
 90
        6
 70
     0
 43
0.0
 10
606.6369314777374
 20
363.0928930924731
 10
606.8067974777376
 20
363.1186910924733
 10
606.9986974777374
 20
363.2186770924732
 10
607.2192734777376
 20
363.3798410924733
 10
607.5575374777375
 20
363.7218150924734
 10
607.7734394777374
 20
363.9669650924732
  0
LINE
  5
29703
330
A
100
AcDbEntity
  8
BUHIN-2
  6
HIDDEN
100
AcDbLine
 10
606.7302334777377
 20
363.0985590924731
 30
0.0
 11
606.9876774777375
 21
363.1141970924732
 31
0.0
  0
LINE
  5
29704
330
A
100
AcDbEntity
  8
BUHIN-2
  6
HIDDEN
100
AcDbLine
 10
606.9436734777376
 20
363.1546810924731
 30
0.0
 11
607.4097274777376
 21
363.3881150924733
 31
0.0
  0
LWPOLYLINE
  5
29705
330
A
100
AcDbEntity
  8
BUHIN-2
  6
HIDDEN
100
AcDbPolyline
 90
       16
 70
     0
 43
0.0
 10
607.6038934777374
 20
309.2861670924733
 10
607.8519694777372
 20
308.2633530924734
 10
607.9683814777375
 20
307.6651730924732
 10
608.0176734777372
 20
307.2069390924732
 10
608.0196654777377
 20
306.7433110924733
 10
607.9716034777374
 20
306.2767050924733
 10
607.8418294777374
 20
305.5905050924732
 10
607.5339794777372
 20
304.2252410924732
 10
607.4079434777376
 20
303.5392890924734
 10
607.3249734777377
 20
302.8540810924733
 10
607.3021874777376
 20
302.4038910924732
 10
607.3114594777374
 20
301.9580290924732
 10
607.3591354777375
 20
301.5102090924731
 10
607.4542034777376
 20
301.0594990924733
 10
607.6128054777377
 20
300.5898430924733
 10
607.6703374777374
 20
300.4437250924732
  0
LWPOLYLINE
  5
29706
330
A
100
AcDbEntity
  8
BUHIN-2
  6
HIDDEN
100
AcDbPolyline
 90
       10
 70
     0
 43
0.0
 10
607.7833334777372
 20
314.4908130924732
 10
607.5319434777374
 20
313.7918070924732
 10
607.4145714777372
 20
313.3899630924732
 10
607.2994794777372
 20
312.8269630924733
 10
607.2421694777375
 20
312.2851010924733
 10
607.2309514777374
 20
311.7525490924734
 10
607.2710754777375
 20
311.0704670924733
 10
607.3566794777374
 20
310.4265570924733
 10
607.4970114777373
 20
309.7179950924733
 10
607.6039474777375
 20
309.2861790924733
  0
LWPOLYLINE
  5
29707
330
A
100
AcDbEntity
  8
BUHIN-2
  6
HIDDEN
100
AcDbPolyline
 90
        2
 70
     0
 43
0.0
 10
607.9093354777377
 20
318.8789970924734
 10
607.9906154777376
 20
318.9209450924734
  0
LWPOLYLINE
  5
29708
330
A
100
AcDbEntity
  8
BUHIN-2
  6
HIDDEN
100
AcDbPolyline
 90
        7
 70
     0
 43
0.0
 10
606.6803214777372
 20
319.3134950924732
 10
606.8125414777377
 20
319.0764210924733
 10
606.9109714777372
 20
318.8166410924732
 10
606.9662374777375
 20
318.5519450924733
 10
606.9750554777373
 20
318.3615890924732
 10
606.9554594777376
 20
318.1974090924732
 10
606.9512394777374
 20
318.1875510924733
  0
LINE
  5
29709
330
A
100
AcDbEntity
  8
BUHIN-2
  6
HIDDEN
100
AcDbLine
 10
607.9053194777373
 20
362.4564010924733
 30
0.0
 11
608.0412274777375
 21
362.6024770924733
 31
0.0
  0
LINE
  5
2970A
330
A
100
AcDbEntity
  8
BUHIN-2
  6
HIDDEN
100
AcDbLine
 10
607.8680234777374
 20
362.2752290924732
 30
0.0
 11
608.0412274777375
 21
362.5459850924733
 31
0.0
  0
LINE
  5
2970B
330
A
100
AcDbEntity
  8
BUHIN-2
  6
HIDDEN
100
AcDbLine
 10
607.8680234777374
 20
362.2752290924732
 30
0.0
 11
608.0412274777375
 21
362.5450110924733
 31
0.0
  0
LINE
  5
2970C
330
A
100
AcDbEntity
  8
BUHIN-2
  6
HIDDEN
100
AcDbLine
 10
607.9864114777373
 20
362.6151070924732
 30
0.0
 11
608.0412274777375
 21
362.6559130924732
 31
0.0
  0
LWPOLYLINE
  5
2970D
330
A
100
AcDbEntity
  8
BUHIN-2
  6
HIDDEN
100
AcDbPolyline
 90
       29
 70
     0
 43
0.0
 10
594.6990474777375
 20
318.5900890924734
 10
594.8294894777376
 20
318.6933150924733
 10
594.9337414777373
 20
318.8064450924733
 10
595.0096854777374
 20
318.9271770924731
 10
595.0557754777372
 20
319.0530610924732
 10
595.0710754777372
 20
319.1815330924733
 10
595.0552734777374
 20
319.3099830924732
 10
595.0086934777377
 20
319.4358030924732
 10
594.9322794777375
 20
319.5564330924733
 10
594.8275874777376
 20
319.6694190924734
 10
594.6967434777373
 20
319.7724690924733
 10
594.5424074777373
 20
319.8634850924734
 10
594.3677174777375
 20
319.9406170924733
 10
593.9718194777372
 20
320.0472730924732
 10
593.5410754777375
 20
320.0838110924733
 10
593.1103314777373
 20
320.0472730924732
 10
592.7144334777375
 20
319.9406170924733
 10
592.5397434777377
 20
319.8634850924734
 10
592.3854074777376
 20
319.7724690924733
 10
592.2545634777374
 20
319.6694190924734
 10
592.1498714777375
 20
319.5564330924733
 10
592.0734574777374
 20
319.4358030924732
 10
592.0268774777376
 20
319.3099830924732
 10
592.0110774777375
 20
319.1815330924733
 10
592.0263774777375
 20
319.0530610924732
 10
592.0724654777376
 20
318.9271770924731
 10
592.1484094777373
 20
318.8064450924733
 10
592.2526614777374
 20
318.6933150924733
 10
592.3831034777375
 20
318.5900890924734
  0
LINE
  5
2970E
330
A
100
AcDbEntity
  8
BUHIN-2
  6
HIDDEN
100
AcDbLine
 10
594.6990474777375
 20
318.5900890924734
 30
0.0
 11
595.8323634777374
 21
318.5900890924734
 31
0.0
  0
LWPOLYLINE
  5
2970F
330
A
100
AcDbEntity
  8
BUHIN-2
  6
HIDDEN
100
AcDbPolyline
 90
       33
 70
     0
 43
0.0
 10
595.8323634777374
 20
318.5900890924734
 10
595.9383774777373
 20
318.7617890924733
 10
596.0076414777375
 20
318.9399070924733
 10
596.0390934777373
 20
319.1217150924733
 10
596.0322474777375
 20
319.3044230924731
 10
595.9872134777373
 20
319.4852310924732
 10
595.9046774777374
 20
319.6613670924733
 10
595.7859094777376
 20
319.8301310924733
 10
595.6327254777374
 20
319.9889370924732
 10
595.4474774777375
 20
320.1353490924732
 10
595.2330034777372
 20
320.2671210924732
 10
594.9925914777375
 20
320.3822370924734
 10
594.7299274777373
 20
320.4789290924732
 10
594.4490374777372
 20
320.5557170924733
 10
594.1542294777376
 20
320.6114210924732
 10
593.8500194777374
 20
320.6451890924734
 10
593.5410754777375
 20
320.6565030924732
 10
593.2321314777376
 20
320.6451890924734
 10
592.9279234777376
 20
320.6114210924732
 10
592.6331134777373
 20
320.5557170924733
 10
592.3522234777372
 20
320.4789290924732
 10
592.0895594777374
 20
320.3822370924734
 10
591.8491494777375
 20
320.2671210924732
 10
591.6346734777374
 20
320.1353490924732
 10
591.4494254777372
 20
319.9889370924732
 10
591.2962414777374
 20
319.8301310924733
 10
591.1774734777376
 20
319.6613670924733
 10
591.0949374777373
 20
319.4852310924732
 10
591.0499034777375
 20
319.3044230924731
 10
591.0430594777375
 20
319.1217150924733
 10
591.0745094777374
 20
318.9399070924733
 10
591.1437734777376
 20
318.7617890924733
 10
591.2497874777376
 20
318.5900890924734
  0
LWPOLYLINE
  5
29710
330
A
100
AcDbEntity
  8
BUHIN-2
  6
HIDDEN
100
AcDbPolyline
 90
       13
 70
     0
 43
0.0
 10
593.5410754777375
 20
317.9996850924733
 10
593.0376634777375
 20
317.9694510924733
 10
592.5548754777373
 20
317.8799870924734
 10
592.1124894777375
 20
317.7349590924732
 10
591.7286274777374
 20
317.5403090924733
 10
591.5636714777373
 20
317.4267950924734
 10
591.4190174777376
 20
317.3040090924733
 10
591.2961554777374
 20
317.1732090924731
 10
591.1963434777375
 20
317.0357410924732
 10
591.1206074777372
 20
316.8930150924732
 10
591.0697254777373
 20
316.7464950924732
 10
591.0442214777375
 20
316.5976870924733
 10
591.0443534777376
 20
316.4481210924732
  0
LWPOLYLINE
  5
29711
330
A
100
AcDbEntity
  8
BUHIN-2
  6
HIDDEN
100
AcDbPolyline
 90
       13
 70
     0
 43
0.0
 10
596.0377974777373
 20
316.4481210924732
 10
596.0379314777372
 20
316.5976870924733
 10
596.0124254777373
 20
316.7464950924732
 10
595.9615434777373
 20
316.8930150924732
 10
595.8858074777375
 20
317.0357410924732
 10
595.7859954777376
 20
317.1732090924731
 10
595.6631334777374
 20
317.3040090924733
 10
595.5184794777372
 20
317.4267950924734
 10
595.1699554777377
 20
317.6433830924732
 10
594.9696614777375
 20
317.7349590924732
 10
594.5272754777374
 20
317.8799870924734
 10
594.0444874777376
 20
317.9694510924733
 10
593.5410754777375
 20
317.9996850924733
  0
LINE
  5
29712
330
A
100
AcDbEntity
  8
BUHIN-2
  6
HIDDEN
100
AcDbLine
 10
591.2497874777376
 20
318.5900890924734
 30
0.0
 11
592.3831034777375
 21
318.5900890924734
 31
0.0
  0
LWPOLYLINE
  5
29713
330
A
100
AcDbEntity
  8
BUHIN-2
  6
HIDDEN
100
AcDbPolyline
 90
        9
 70
     0
 43
0.0
 10
593.5410754777375
 20
317.4269930924731
 10
593.2268974777374
 20
317.4077430924733
 10
592.9261074777376
 20
317.3508130924731
 10
592.6515294777376
 20
317.2586310924732
 10
592.4148654777376
 20
317.1351230924731
 10
592.2262014777373
 20
316.9855530924733
 10
592.0935774777375
 20
316.8162990924732
 10
592.0226494777374
 20
316.6345730924734
 10
592.0164374777376
 20
316.4481210924732
  0
LWPOLYLINE
  5
29714
330
A
100
AcDbEntity
  8
BUHIN-2
  6
HIDDEN
100
AcDbPolyline
 90
        9
 70
     0
 43
0.0
 10
595.0657134777373
 20
316.4481210924732
 10
595.0595014777376
 20
316.6345730924734
 10
594.9885734777375
 20
316.8162990924732
 10
594.8559494777376
 20
316.9855530924733
 10
594.6672854777374
 20
317.1351230924731
 10
594.4306214777374
 20
317.2586310924732
 10
594.1560434777374
 20
317.3508130924731
 10
593.8552554777373
 20
317.4077430924733
 10
593.5410754777375
 20
317.4269930924731
  0
LINE
  5
29715
330
A
100
AcDbEntity
  8
BUHIN-2
  6
HIDDEN
100
AcDbLine
 10
591.0409234777374
 20
311.4498050924733
 30
0.0
 11
592.0409234777374
 21
311.4498050924733
 31
0.0
  0
LINE
  5
29716
330
A
100
AcDbEntity
  8
BUHIN-2
  6
HIDDEN
100
AcDbLine
 10
592.0409234777374
 20
311.4498050924733
 30
0.0
 11
592.0409234777374
 21
313.3025910924732
 31
0.0
  0
LINE
  5
29717
330
A
100
AcDbEntity
  8
BUHIN-2
  6
HIDDEN
100
AcDbLine
 10
592.0409234777374
 20
313.3025910924732
 30
0.0
 11
596.0412274777375
 21
313.3025910924732
 31
0.0
  0
LINE
  5
29718
330
A
100
AcDbEntity
  8
BUHIN-2
  6
HIDDEN
100
AcDbLine
 10
596.0412274777375
 20
313.3025910924732
 30
0.0
 11
596.0412274777375
 21
314.1250950924732
 31
0.0
  0
LINE
  5
29719
330
A
100
AcDbEntity
  8
BUHIN-2
  6
HIDDEN
100
AcDbLine
 10
591.0409234777374
 20
314.1250950924732
 30
0.0
 11
596.0412274777375
 21
314.1250950924732
 31
0.0
  0
LINE
  5
2971A
330
A
100
AcDbEntity
  8
BUHIN-2
  6
HIDDEN
100
AcDbLine
 10
591.0409234777374
 20
310.4050270924734
 30
0.0
 11
596.0412274777375
 21
310.4050270924734
 31
0.0
  0
LWPOLYLINE
  5
2971B
330
A
100
AcDbEntity
  8
BUHIN-2
  6
HIDDEN
100
AcDbPolyline
 90
       29
 70
     0
 43
0.0
 10
591.0410754777375
 20
309.2662210924732
 10
591.0714754777376
 20
308.7941930924733
 10
591.1599714777374
 20
308.3241850924733
 10
591.3032094777376
 20
307.8633810924732
 10
591.4991474777374
 20
307.4186170924734
 10
591.7475574777376
 20
306.9979870924733
 10
592.0460994777376
 20
306.6168190924732
 10
592.2160634777372
 20
306.4435970924733
 10
592.4002174777373
 20
306.2855210924734
 10
592.5986454777374
 20
306.1460290924733
 10
592.7745274777374
 20
306.0469310924732
 10
592.9594674777376
 20
305.9661470924732
 10
593.1518014777374
 20
305.9063550924732
 10
593.3497374777374
 20
305.8697870924732
 10
593.5513514777375
 20
305.8582290924733
 10
593.7518174777372
 20
305.8722330924732
 10
593.9483434777375
 20
305.9108810924734
 10
594.1391094777376
 20
305.9723490924732
 10
594.3224094777373
 20
306.0543950924732
 10
594.4966674777373
 20
306.1543470924732
 10
594.6939834777375
 20
306.2949850924733
 10
594.8770454777376
 20
306.4539250924734
 10
595.2009894777374
 20
306.8138290924733
 10
595.3425634777375
 20
307.0098190924732
 10
595.5881554777374
 20
307.4287510924733
 10
595.7819074777375
 20
307.8713190924732
 10
595.9235394777373
 20
308.3296210924732
 10
596.0110294777376
 20
308.7969450924731
 10
596.0410754777375
 20
309.2662210924732
  0
LINE
  5
2971C
330
A
100
AcDbEntity
  8
BUHIN-2
  6
HIDDEN
100
AcDbLine
 10
596.0410754777375
 20
309.2662210924732
 30
0.0
 11
596.0412274777375
 21
310.4050270924734
 31
0.0
  0
LWPOLYLINE
  5
2971D
330
A
100
AcDbEntity
  8
BUHIN-2
  6
HIDDEN
100
AcDbPolyline
 90
       11
 70
     0
 43
0.0
 10
591.0443534777376
 20
316.4481210924732
 10
591.0925994777374
 20
316.2214250924733
 10
591.1974134777373
 20
315.9940770924734
 10
591.3561274777374
 20
315.7723510924732
 10
591.5649594777376
 20
315.5627270924733
 10
591.8191154777376
 20
315.3716290924733
 10
592.1128594777377
 20
315.2051930924733
 10
592.4396074777376
 20
315.0690070924732
 10
592.7920114777374
 20
314.9678750924734
 10
593.1620414777374
 20
314.9055590924734
 10
593.5410754777375
 20
314.8845370924732
  0
LWPOLYLINE
  5
2971E
330
A
100
AcDbEntity
  8
BUHIN-2
  6
HIDDEN
100
AcDbPolyline
 90
       11
 70
     0
 43
0.0
 10
596.0377974777373
 20
316.4481210924732
 10
595.9895514777375
 20
316.2214250924733
 10
595.8847374777373
 20
315.9940770924734
 10
595.7260234777375
 20
315.7723510924732
 10
595.5171914777373
 20
315.5627270924733
 10
595.2630354777373
 20
315.3716290924733
 10
594.9692914777373
 20
315.2051930924733
 10
594.6425434777373
 20
315.0690070924732
 10
594.2901394777376
 20
314.9678750924734
 10
593.9201094777375
 20
314.9055590924734
 10
593.5410754777375
 20
314.8845370924732
  0
LINE
  5
2971F
330
A
100
AcDbEntity
  8
BUHIN-2
  6
HIDDEN
100
AcDbLine
 10
591.0409234777374
 20
311.4498050924733
 30
0.0
 11
591.0409234777374
 21
314.1250950924732
 31
0.0
  0
LINE
  5
29720
330
A
100
AcDbEntity
  8
BUHIN-2
  6
HIDDEN
100
AcDbLine
 10
591.0409234777374
 20
310.4050270924734
 30
0.0
 11
591.0410754777375
 21
309.2662210924732
 31
0.0
  0
LINE
  5
29721
330
A
100
AcDbEntity
  8
BUHIN-2
  6
HIDDEN
100
AcDbLine
 10
592.0110754777373
 20
309.2662210924732
 30
0.0
 11
595.0710754777372
 21
309.2662210924732
 31
0.0
  0
LWPOLYLINE
  5
29722
330
A
100
AcDbEntity
  8
BUHIN-2
  6
HIDDEN
100
AcDbPolyline
 90
       21
 70
     0
 43
0.0
 10
592.0110754777373
 20
309.2662210924732
 10
592.0390614777374
 20
308.9146470924732
 10
592.1212534777376
 20
308.5681690924732
 10
592.2563094777372
 20
308.2356250924734
 10
592.4442734777374
 20
307.9269510924732
 10
592.6861434777373
 20
307.6560350924733
 10
592.8325674777373
 20
307.5373650924732
 10
592.9930394777374
 20
307.4378470924732
 10
593.1659514777374
 20
307.3620450924734
 10
593.3484634777372
 20
307.3139550924732
 10
593.5365274777376
 20
307.2970030924732
 10
593.7239814777375
 20
307.3122890924733
 10
593.9061534777373
 20
307.3585670924733
 10
594.0789934777375
 20
307.4325430924732
 10
594.2396514777373
 20
307.5303250924733
 10
594.3864694777374
 20
307.6474010924733
 10
594.6318194777376
 20
307.9187390924733
 10
594.8224334777372
 20
308.2288370924732
 10
594.9593634777373
 20
308.5633790924733
 10
595.0426934777373
 20
308.9121730924733
 10
595.0710754777372
 20
309.2662210924732
  0
LWPOLYLINE
  5
29723
330
A
100
AcDbEntity
  8
BUHIN-2
  6
HIDDEN
100
AcDbPolyline
 90
       11
 70
     0
 43
0.0
 10
592.0164374777376
 20
316.4481210924732
 10
592.0522534777372
 20
316.3140750924733
 10
592.1209394777373
 20
316.1819430924731
 10
592.2209554777376
 20
316.0550390924734
 10
592.3500694777374
 20
315.9366750924732
 10
592.5054274777375
 20
315.8300470924733
 10
592.6836214777376
 20
315.7381350924731
 10
592.8807574777373
 20
315.6635910924733
 10
593.0925294777374
 20
315.6086410924733
 10
593.3142794777376
 20
315.5749730924733
 10
593.5410754777375
 20
315.5636350924733
  0
LWPOLYLINE
  5
29724
330
A
100
AcDbEntity
  8
BUHIN-2
  6
HIDDEN
100
AcDbPolyline
 90
       11
 70
     0
 43
0.0
 10
595.0657134777373
 20
316.4481210924732
 10
595.0298974777373
 20
316.3140750924733
 10
594.9612114777372
 20
316.1819430924731
 10
594.8611954777374
 20
316.0550390924734
 10
594.7320814777375
 20
315.9366750924732
 10
594.5767234777376
 20
315.8300470924733
 10
594.3985294777375
 20
315.7381350924731
 10
594.2013934777377
 20
315.6635910924733
 10
593.9896214777376
 20
315.6086410924733
 10
593.7678714777375
 20
315.5749730924733
 10
593.5410754777375
 20
315.5636350924733
  0
LINE
  5
29725
330
A
100
AcDbEntity
  8
BUHIN-2
  6
HIDDEN
100
AcDbLine
 10
592.0409234777374
 20
310.9029410924734
 30
0.0
 11
592.0409234777374
 21
311.4498050924733
 31
0.0
  0
LINE
  5
29726
330
A
100
AcDbEntity
  8
BUHIN-2
  6
HIDDEN
100
AcDbLine
 10
591.0409234777374
 20
310.9029410924734
 30
0.0
 11
591.0409234777374
 21
311.4498050924733
 31
0.0
  0
LINE
  5
29727
330
A
100
AcDbEntity
  8
BUHIN-2
  6
HIDDEN
100
AcDbLine
 10
596.0412274777375
 20
312.7916790924733
 30
0.0
 11
596.0412274777375
 21
313.3025910924732
 31
0.0
  0
LINE
  5
29728
330
A
100
AcDbEntity
  8
BUHIN-2
  6
HIDDEN
100
AcDbLine
 10
596.0410754777375
 20
308.6548350924734
 30
0.0
 11
596.0410754777375
 21
309.2662210924732
 31
0.0
  0
LINE
  5
29729
330
A
100
AcDbEntity
  8
BUHIN-2
  6
HIDDEN
100
AcDbLine
 10
591.0410754777375
 20
308.6548410924731
 30
0.0
 11
591.0410754777375
 21
309.2662210924732
 31
0.0
  0
LINE
  5
2972A
330
A
100
AcDbEntity
  8
BUHIN-2
  6
HIDDEN
100
AcDbLine
 10
594.6990474777375
 20
318.1058250924732
 30
0.0
 11
594.6990474777375
 21
318.5900890924734
 31
0.0
  0
LINE
  5
2972B
330
A
100
AcDbEntity
  8
BUHIN-2
  6
HIDDEN
100
AcDbLine
 10
592.3831034777375
 20
318.1058250924732
 30
0.0
 11
592.3831034777375
 21
318.5900890924734
 31
0.0
  0
LINE
  5
2972C
330
A
100
AcDbEntity
  8
BUHIN-2
  6
HIDDEN
100
AcDbLine
 10
595.8323634777374
 20
318.1058250924732
 30
0.0
 11
595.8323634777374
 21
318.5900890924734
 31
0.0
  0
LINE
  5
2972D
330
A
100
AcDbEntity
  8
BUHIN-2
  6
HIDDEN
100
AcDbLine
 10
591.2497874777376
 20
318.1058250924732
 30
0.0
 11
591.2497874777376
 21
318.5900890924734
 31
0.0
  0
LINE
  5
2972E
330
A
100
AcDbEntity
  8
BUHIN-2
  6
HIDDEN
100
AcDbLine
 10
591.0672194777374
 20
318.9799170924732
 30
0.0
 11
591.0672874777373
 21
318.4953410924734
 31
0.0
  0
LINE
  5
2972F
330
A
100
AcDbEntity
  8
BUHIN-2
  6
HIDDEN
100
AcDbLine
 10
596.0402734777375
 20
319.1523370924733
 30
0.0
 11
596.0406554777376
 21
318.6692010924732
 31
0.0
  0
LINE
  5
29730
330
A
100
AcDbEntity
  8
BUHIN-2
  6
HIDDEN
100
AcDbLine
 10
590.0412274777376
 20
291.7285910924733
 30
0.0
 11
606.7579514777374
 21
291.7137110924732
 31
0.0
  0
LINE
  5
29731
330
A
100
AcDbEntity
  8
BUHIN-2
  6
HIDDEN
100
AcDbLine
 10
596.0377974777373
 20
315.9638570924733
 30
0.0
 11
596.0377974777373
 21
316.4481210924732
 31
0.0
  0
LINE
  5
29732
330
A
100
AcDbEntity
  8
BUHIN-2
  6
HIDDEN
100
AcDbLine
 10
591.0443534777376
 20
315.9638570924733
 30
0.0
 11
591.0443534777376
 21
316.4481210924732
 31
0.0
  0
LINE
  5
29733
330
A
100
AcDbEntity
  8
BUHIN-2
  6
HIDDEN
100
AcDbLine
 10
608.5412274777375
 20
284.4375370924733
 30
0.0
 11
618.0412274777376
 21
284.4387050924733
 31
0.0
  0
LINE
  5
29734
330
A
100
AcDbEntity
  8
BUHIN-2
  6
HIDDEN
100
AcDbLine
 10
608.5412274777375
 20
370.3739430924732
 30
0.0
 11
618.0412274777376
 21
370.3751130924731
 31
0.0
  0
LINE
  5
29735
330
A
100
AcDbEntity
  8
BUHIN-2
  6
HIDDEN
100
AcDbLine
 10
587.9678774777374
 20
310.6159790924733
 30
0.0
 11
588.0412274777376
 21
310.4328050924733
 31
0.0
  0
LINE
  5
29736
330
A
100
AcDbEntity
  8
BUHIN-2
  6
HIDDEN
100
AcDbLine
 10
608.5412274777375
 20
370.3751110924734
 30
0.0
 11
613.2916374777372
 21
370.3745270924733
 31
0.0
  0
LINE
  5
29737
330
A
100
AcDbEntity
  8
BUHIN-2
  6
HIDDEN
100
AcDbLine
 10
613.2916374777372
 20
284.4381210924733
 30
0.0
 11
618.0412274777376
 21
284.4375370924733
 31
0.0
  0
INSERT
  5
298EA
330
A
100
AcDbEntity
  8
buhin-1
100
AcDbBlockReference
  2
box
 10
618.0412274777376
 20
327.4063250924732
 30
0.0
  0
VIEWPORT
  5
524
102
{ACAD_XDICTIONARY
360
2990E
102
}
330
B
100
AcDbEntity
 67
     1
  8
0
 62
     0
 48
0.0
100
AcDbViewport
 10
141.3404235839843
 20
97.84291410446167
 30
0.0
 40
457.8553038891229
 41
222.1517806396485
 68
     1
 69
     1
 12
141.3404235839843
 22
97.84291410446167
 13
0.0
 23
0.0
 14
10.0
 24
10.0
 15
10.0
 25
10.0
 16
0.0
 26
0.0
 36
1.0
 17
0.0
 27
0.0
 37
0.0
 42
50.0
 43
0.0
 44
0.0
 45
222.1517806396485
 50
0.0
 51
0.0
 72
   100
 90
    32800
  1

281
     0
 71
     1
 74
     0
110
0.0
120
0.0
130
0.0
111
1.0
121
0.0
131
0.0
112
0.0
122
1.0
132
0.0
 79
     0
146
0.0
  0
VIEWPORT
  5
1B3E
102
{ACAD_XDICTIONARY
360
29914
102
}
330
B
100
AcDbEntity
 67
     1
  8
0
100
AcDbViewport
 10
141.8272612094879
 20
97.54658675193788
 30
0.0
 40
226.9236179351807
 41
156.0745388031006
 68
     2
 69
     2
 12
368.6858152382121
 22
148.4956205159299
 13
0.0
 23
0.0
 14
1.0
 24
1.0
 15
0.0
 25
0.0
 16
0.0
 26
0.0
 36
1.0
 17
0.0
 27
0.0
 37
0.0
 42
50.0
 43
0.0
 44
0.0
 45
503.4567151384995
 50
0.0
 51
0.0
 72
   100
 90
    32800
  1

281
     0
 71
     1
 74
     0
110
0.0
120
0.0
130
0.0
111
1.0
121
0.0
131
0.0
112
0.0
122
1.0
132
0.0
 79
     0
146
0.0
  0
ENDSEC
  0
SECTION
  2
OBJECTS
  0
DICTIONARY
  5
19
330
0
100
AcDbDictionary
281
     1
  3
ACAD_COLOR
350
132A
  3
ACAD_GROUP
350
1A
  3
ACAD_LAYOUT
350
132B
  3
ACAD_MATERIAL
350
1329
  3
ACAD_MLINESTYLE
350
1B
  3
ACAD_PLOTSETTINGS
350
132C
  3
ACAD_PLOTSTYLENAME
350
1327
  3
ACDBHEADERROUNDTRIPXREC
350
2990B
  3
AcDbVariableDictionary
350
29907
  0
DICTIONARY
  5
2990E
330
524
100
AcDbDictionary
280
     1
281
     1
  3
ACAD_XREC_ROUNDTRIP
360
2990F
  0
DICTIONARY
  5
29914
330
1B3E
100
AcDbDictionary
280
     1
281
     1
  3
ACAD_XREC_ROUNDTRIP
360
29915
  0
DICTIONARY
  5
132A
102
{ACAD_REACTORS
330
19
102
}
330
19
100
AcDbDictionary
281
     1
  0
DICTIONARY
  5
1A
102
{ACAD_REACTORS
330
19
102
}
330
19
100
AcDbDictionary
281
     1
  0
DICTIONARY
  5
132B
102
{ACAD_REACTORS
330
19
102
}
330
19
100
AcDbDictionary
281
     1
  3
Model
350
132D
  3
レイアウト1
350
132E
  0
DICTIONARY
  5
1329
102
{ACAD_REACTORS
330
19
102
}
330
19
100
AcDbDictionary
281
     1
  0
DICTIONARY
  5
1B
102
{ACAD_REACTORS
330
19
102
}
330
19
100
AcDbDictionary
281
     1
  3
STANDARD
350
1C
  0
DICTIONARY
  5
132C
102
{ACAD_REACTORS
330
19
102
}
330
19
100
AcDbDictionary
281
     1
  0
ACDBDICTIONARYWDFLT
  5
1327
102
{ACAD_REACTORS
330
19
102
}
330
19
100
AcDbDictionary
281
     1
  3
Normal
350
1328
100
AcDbDictionaryWithDefault
340
1328
  0
DICTIONARY
  5
2990B
102
{ACAD_REACTORS
330
19
102
}
330
19
100
AcDbDictionary
281
     1
  3
COLORDICT
350
2990D
  3
MATERIALDICT
350
2990C
  0
DICTIONARY
  5
29907
102
{ACAD_REACTORS
330
19
102
}
330
19
100
AcDbDictionary
281
     1
  3
DIMASSOC
350
29908
  3
PROJECTNAME
350
29909
  0
XRECORD
  5
2990F
102
{ACAD_REACTORS
330
2990E
102
}
330
2990E
100
AcDbXrecord
280
     1
102
SHADEPLOT
 70
     0
  0
XRECORD
  5
29915
102
{ACAD_REACTORS
330
29914
102
}
330
29914
100
AcDbXrecord
280
     1
102
SHADEPLOT
 70
     0
  0
LAYOUT
  5
132D
102
{ACAD_XDICTIONARY
360
29910
102
}
102
{ACAD_REACTORS
330
132B
102
}
330
132B
100
AcDbPlotSettings
  1

  2
Kyocera Mita KM-2531(J) KX
  4
A3
  6

 40
4.98475
 41
5.111747
 42
5.154082999999999
 43
4.984740999999999
 44
297.010651
 45
419.988983
 46
0.0
 47
59.52
 48
0.0
 49
0.0
140
1054.34491270428
141
1039.923833659722
142
1.0
143
3.62504703637261
 70
 11956
 72
     1
 73
     1
 74
     4
  7

 75
     0
147
0.2758584895495994
148
0.0
149
0.0
100
AcDbLayout
  1
Model
 70
     1
 71
     0
 10
0.0
 20
0.0
 11
12.0
 21
9.0
 12
0.0
 22
0.0
 32
0.0
 14
0.0
 24
0.0
 34
0.0
 15
0.0
 25
0.0
 35
0.0
146
0.0
 13
0.0
 23
0.0
 33
0.0
 16
1.0
 26
0.0
 36
0.0
 17
0.0
 27
1.0
 37
0.0
 76
     0
330
A
  0
LAYOUT
  5
132E
102
{ACAD_XDICTIONARY
360
29912
102
}
102
{ACAD_REACTORS
330
132B
102
}
330
132B
100
AcDbPlotSettings
  1

  2
\\jptkysdoco01\Kyocera Mita KM-2531 PCL5e
  4
A4
  6

 40
7.143749713897705
 41
6.170062541961669
 42
7.736404418945312
 43
7.14373779296875
 44
209.9733276367187
 45
296.9683227539062
 46
0.0
 47
0.0
 48
0.0
 49
0.0
140
0.0
141
0.0
142
1.0
143
1.0
 70
   688
 72
     1
 73
     1
 74
     5
  7

 75
    16
147
1.0
148
0.0
149
0.0
100
AcDbLayout
  1
レイアウト1
 70
     1
 71
     1
 10
-7.14373779296875
 20
-7.143749713897705
 11
289.8245849609375
 21
202.829577922821
 12
0.0
 22
0.0
 32
0.0
 14
28.36545224189757
 24
19.50931735038756
 34
0.0
 15
255.2890701770782
 25
175.5838561534881
 35
0.0
146
0.0
 13
0.0
 23
0.0
 33
0.0
 16
1.0
 26
0.0
 36
0.0
 17
0.0
 27
1.0
 37
0.0
 76
     0
330
B
331
524
  0
MLINESTYLE
  5
1C
102
{ACAD_REACTORS
330
1B
102
}
330
1B
100
AcDbMlineStyle
  2
STANDARD
 70
     0
  3

 62
     0
 51
90.0
 52
90.0
 71
     2
 49
0.5
 62
   256
  6
BYLAYER
 49
-0.5
 62
   256
  6
BYLAYER
  0
ACDBPLACEHOLDER
  5
1328
102
{ACAD_REACTORS
330
1327
102
}
330
1327
  0
XRECORD
  5
2990D
102
{ACAD_REACTORS
330
2990B
102
}
330
2990B
100
AcDbXrecord
280
     1
340
132A
  0
XRECORD
  5
2990C
102
{ACAD_REACTORS
330
2990B
102
}
330
2990B
100
AcDbXrecord
280
     1
340
1329
  0
DICTIONARYVAR
  5
29908
102
{ACAD_REACTORS
330
29907
102
}
330
29907
100
DictionaryVariables
280
     0
  1
1
  0
DICTIONARYVAR
  5
29909
102
{ACAD_REACTORS
330
29907
102
}
330
29907
100
DictionaryVariables
280
     0
  1

  0
DICTIONARY
  5
29910
330
132D
100
AcDbDictionary
280
     1
281
     1
  3
ACAD_XREC_ROUNDTRIP
360
29911
  0
DICTIONARY
  5
29912
330
132E
100
AcDbDictionary
280
     1
281
     1
  3
ACAD_XREC_ROUNDTRIP
360
29913
  0
XRECORD
  5
29911
102
{ACAD_REACTORS
330
29910
102
}
330
29910
100
AcDbXrecord
280
     1
102
SHADEPLOT
 70
     1
102
SHADEPLOTRESLEVEL
 70
     2
102
SHADEPLOTCUSTOMDPI
 70
   300
  0
XRECORD
  5
29913
102
{ACAD_REACTORS
330
29912
102
}
330
29912
100
AcDbXrecord
280
     1
102
SHADEPLOT
 70
     0
102
SHADEPLOTRESLEVEL
 70
     2
102
SHADEPLOTCUSTOMDPI
 70
   300
  0
ENDSEC
  0
EOF
