999
Erzeugt mit innoplus bad 
0
SECTION
2
HEADER
9
$ACADVER
1
AC1009
9
$DWGCODEPAGE
3
ISO8859-1
0
ENDSEC
0
SECTION
2
TABLES
0
TABLE
2
LAYER
70
1
0
LAYER
2
0
70
0
62
7
6
CONTINUOUS
0
ENDTAB
0
ENDSEC
0
SECTION
2
ENTITIES
0
LINE
8
0
6
CONTINUOUS
10
29.653035
20
53.533550
30
0.0
11
30.236545
21
48.941080
31
0.0
0
LINE
8
0
6
CONTINUOUS
10
0.007695
20
25.397230
30
0.0
11
-5.892325
21
25.848930
31
0.0
0
LINE
8
0
6
CONTINUOUS
10
16.806765
20
29.366360
30
0.0
11
11.579595
21
27.190420
31
0.0
0
LINE
8
0
6
CONTINUOUS
10
15.306840
20
28.619442
30
0.0
11
17.075125
21
29.355540
31
0.0
0
LINE
8
0
6
CONTINUOUS
10
-27.939295
20
39.926180
30
0.0
11
-29.662535
21
44.342040
31
0.0
0
LINE
8
0
6
CONTINUOUS
10
-5.916725
20
72.025360
30
0.0
11
-0.017185
21
72.478310
31
0.0
0
LINE
8
0
6
CONTINUOUS
10
16.786045
20
68.512860
30
0.0
11
21.370255
21
65.585780
31
0.0
0
LINE
8
0
6
CONTINUOUS
10
21.711415
20
66.152760
30
0.0
11
20.204062
21
67.115224
31
0.0
0
LINE
8
0
6
CONTINUOUS
10
21.387885
20
32.294440
30
0.0
11
16.806765
21
29.366360
31
0.0
0
LINE
8
0
6
CONTINUOUS
10
17.075125
20
29.355540
30
0.0
11
21.729325
21
32.330310
31
0.0
0
LINE
8
0
6
CONTINUOUS
10
-11.566095
20
27.187900
30
0.0
11
-16.795565
21
29.362730
31
0.0
0
LINE
8
0
6
CONTINUOUS
10
-17.063275
20
29.351830
30
0.0
11
-15.294390
21
28.616189
31
0.0
0
LINE
8
0
6
CONTINUOUS
10
-25.156375
20
62.013470
30
0.0
11
-21.397365
21
65.581130
31
0.0
0
LINE
8
0
6
CONTINUOUS
10
-21.738485
20
66.148030
30
0.0
11
-23.081314
21
64.873556
31
0.0
0
LINE
8
0
6
CONTINUOUS
10
29.657895
20
44.348490
30
0.0
11
27.939335
21
39.932250
31
0.0
0
LINE
8
0
6
CONTINUOUS
10
30.236545
20
48.941080
30
0.0
11
29.657895
21
44.348490
31
0.0
0
LINE
8
0
6
CONTINUOUS
10
-29.662535
20
44.342040
30
0.0
11
-30.246035
21
48.934500
31
0.0
0
LINE
8
0
6
CONTINUOUS
10
25.133045
20
62.018950
30
0.0
11
27.929785
21
57.949410
31
0.0
0
LINE
8
0
6
CONTINUOUS
10
11.579595
20
27.190420
30
0.0
11
5.907245
21
25.850210
31
0.0
0
LINE
8
0
6
CONTINUOUS
10
-16.816245
20
68.509200
30
0.0
11
-11.589075
21
70.685160
31
0.0
0
LINE
8
0
6
CONTINUOUS
10
21.370255
20
65.585780
30
0.0
11
25.133045
21
62.018950
31
0.0
0
LINE
8
0
6
CONTINUOUS
10
23.055749
20
64.878438
30
0.0
11
21.711415
21
66.152760
31
0.0
0
LINE
8
0
6
CONTINUOUS
10
5.882795
20
72.026630
30
0.0
11
11.556565
21
70.687660
31
0.0
0
LINE
8
0
6
CONTINUOUS
10
-16.795565
20
29.362730
30
0.0
11
-21.379775
21
32.289790
31
0.0
0
LINE
8
0
6
CONTINUOUS
10
-21.720615
20
32.325590
30
0.0
11
-17.063275
21
29.351830
31
0.0
0
LINE
8
0
6
CONTINUOUS
10
-21.397365
20
65.581130
30
0.0
11
-16.816245
21
68.509200
31
0.0
0
LINE
8
0
6
CONTINUOUS
10
-20.232503
20
67.110601
30
0.0
11
-21.738485
21
66.148030
31
0.0
0
LINE
8
0
6
CONTINUOUS
10
27.939335
20
39.932250
30
0.0
11
25.146885
21
35.862100
31
0.0
0
LINE
8
0
6
CONTINUOUS
10
-29.667385
20
53.527090
30
0.0
11
-27.948815
21
57.943330
31
0.0
0
LINE
8
0
6
CONTINUOUS
10
-0.017185
20
72.478310
30
0.0
11
5.882795
21
72.026630
31
0.0
0
LINE
8
0
6
CONTINUOUS
10
-30.246035
20
48.934500
30
0.0
11
-29.667385
21
53.527090
31
0.0
0
LINE
8
0
6
CONTINUOUS
10
27.929785
20
57.949410
30
0.0
11
29.653035
21
53.533550
31
0.0
0
LINE
8
0
6
CONTINUOUS
10
5.907245
20
25.850210
30
0.0
11
0.007695
21
25.397230
31
0.0
0
LINE
8
0
6
CONTINUOUS
10
-11.589075
20
70.685160
30
0.0
11
-5.916725
21
72.025360
31
0.0
0
LINE
8
0
6
CONTINUOUS
10
-25.142555
20
35.856630
30
0.0
11
-27.939295
21
39.926180
31
0.0
0
LINE
8
0
6
CONTINUOUS
10
11.556565
20
70.687660
30
0.0
11
16.786045
21
68.512860
31
0.0
0
LINE
8
0
6
CONTINUOUS
10
25.146885
20
35.862100
30
0.0
11
21.387885
21
32.294440
31
0.0
0
LINE
8
0
6
CONTINUOUS
10
21.729325
20
32.330310
30
0.0
11
22.615527
21
33.171403
31
0.0
0
LINE
8
0
6
CONTINUOUS
10
-21.379775
20
32.289790
30
0.0
11
-25.142555
21
35.856630
31
0.0
0
LINE
8
0
6
CONTINUOUS
10
-22.607395
20
33.166196
30
0.0
11
-21.720615
21
32.325590
31
0.0
0
LINE
8
0
6
CONTINUOUS
10
-5.892325
20
25.848930
30
0.0
11
-11.566095
21
27.187900
31
0.0
0
LINE
8
0
6
CONTINUOUS
10
-27.948815
20
57.943330
30
0.0
11
-25.156375
21
62.013470
31
0.0
0
LINE
8
0
6
CONTINUOUS
10
12.828515
20
50.149920
30
0.0
11
13.081015
21
48.162630
31
0.0
0
LINE
8
0
6
CONTINUOUS
10
13.289855
20
48.293080
30
0.0
11
13.033325
21
50.312060
31
0.0
0
LINE
8
0
6
CONTINUOUS
10
7.269605
20
39.692150
30
0.0
11
5.007675
21
38.750570
31
0.0
0
LINE
8
0
6
CONTINUOUS
10
-12.093165
20
44.261670
30
0.0
11
-12.838845
21
46.172500
31
0.0
0
LINE
8
0
6
CONTINUOUS
10
-13.043515
20
46.271210
30
0.0
11
-12.285935
21
44.329870
31
0.0
0
LINE
8
0
6
CONTINUOUS
10
7.260635
20
56.631850
30
0.0
11
9.244345
21
55.365240
31
0.0
0
LINE
8
0
6
CONTINUOUS
10
9.391975
20
55.610580
30
0.0
11
8.658943
21
56.078632
31
0.0
0
LINE
8
0
6
CONTINUOUS
10
9.251975
20
40.959210
30
0.0
11
7.269605
21
39.692150
31
0.0
0
LINE
8
0
6
CONTINUOUS
10
8.636707
20
40.487036
30
0.0
11
9.399725
21
40.974730
31
0.0
0
LINE
8
0
6
CONTINUOUS
10
-5.008055
20
38.749480
30
0.0
11
-7.270985
21
39.690580
31
0.0
0
LINE
8
0
6
CONTINUOUS
10
-10.888915
20
53.819390
30
0.0
11
-9.262295
21
55.363220
31
0.0
0
LINE
8
0
6
CONTINUOUS
10
-9.409905
20
55.608520
30
0.0
11
-11.062475
21
54.040090
31
0.0
0
LINE
8
0
6
CONTINUOUS
10
12.830615
20
46.175310
30
0.0
11
12.086955
21
44.264280
31
0.0
0
LINE
8
0
6
CONTINUOUS
10
12.279935
20
44.332540
30
0.0
11
13.035465
21
46.274030
31
0.0
0
LINE
8
0
6
CONTINUOUS
10
13.081015
20
48.162630
30
0.0
11
12.830615
21
46.175310
31
0.0
0
LINE
8
0
6
CONTINUOUS
10
13.035465
20
46.274030
30
0.0
11
13.289855
21
48.293080
31
0.0
0
LINE
8
0
6
CONTINUOUS
10
-12.838845
20
46.172500
30
0.0
11
-13.091345
21
48.159790
31
0.0
0
LINE
8
0
6
CONTINUOUS
10
-13.300045
20
48.290200
30
0.0
11
-13.043515
21
46.271210
31
0.0
0
LINE
8
0
6
CONTINUOUS
10
10.872595
20
53.821750
30
0.0
11
12.082825
21
52.060760
31
0.0
0
LINE
8
0
6
CONTINUOUS
10
12.275735
20
52.253400
30
0.0
11
11.046205
21
54.042490
31
0.0
0
LINE
8
0
6
CONTINUOUS
10
5.007675
20
38.750570
30
0.0
11
2.553105
21
38.170620
31
0.0
0
LINE
8
0
6
CONTINUOUS
10
-7.279935
20
56.630270
30
0.0
11
-5.018005
21
57.571850
31
0.0
0
LINE
8
0
6
CONTINUOUS
10
9.244345
20
55.365240
30
0.0
11
10.872595
21
53.821750
31
0.0
0
LINE
8
0
6
CONTINUOUS
10
11.046205
20
54.042490
30
0.0
11
9.391975
21
55.610580
31
0.0
0
LINE
8
0
6
CONTINUOUS
10
2.542525
20
58.152350
30
0.0
11
4.997705
21
57.572940
31
0.0
0
LINE
8
0
6
CONTINUOUS
10
-7.270985
20
39.690580
30
0.0
11
-9.254685
21
40.957190
31
0.0
0
LINE
8
0
6
CONTINUOUS
10
-9.402175
20
40.972690
30
0.0
11
-8.639034
21
40.485417
31
0.0
0
LINE
8
0
6
CONTINUOUS
10
-9.262295
20
55.363220
30
0.0
11
-7.279935
21
56.630270
31
0.0
0
LINE
8
0
6
CONTINUOUS
10
-8.677299
20
56.076775
30
0.0
11
-9.409905
21
55.608520
31
0.0
0
LINE
8
0
6
CONTINUOUS
10
12.086955
20
44.264280
30
0.0
11
10.878595
21
42.503020
31
0.0
0
LINE
8
0
6
CONTINUOUS
10
11.052295
20
42.543180
30
0.0
11
12.279935
21
44.332540
31
0.0
0
LINE
8
0
6
CONTINUOUS
10
-12.840945
20
50.147130
30
0.0
11
-12.097275
21
52.058140
31
0.0
0
LINE
8
0
6
CONTINUOUS
10
-12.290115
20
52.250730
30
0.0
11
-13.045645
21
50.309220
31
0.0
0
LINE
8
0
6
CONTINUOUS
10
-13.091345
20
48.159790
30
0.0
11
-12.840945
21
50.147130
31
0.0
0
LINE
8
0
6
CONTINUOUS
10
-13.045645
20
50.309220
30
0.0
11
-13.300045
21
48.290200
31
0.0
0
LINE
8
0
6
CONTINUOUS
10
12.082825
20
52.060760
30
0.0
11
12.828515
21
50.149920
31
0.0
0
LINE
8
0
6
CONTINUOUS
10
13.033325
20
50.312060
30
0.0
11
12.275735
21
52.253400
31
0.0
0
LINE
8
0
6
CONTINUOUS
10
-5.018005
20
57.571850
30
0.0
11
-2.563425
21
58.151800
31
0.0
0
LINE
8
0
6
CONTINUOUS
10
-10.882935
20
42.500670
30
0.0
11
-12.093165
21
44.261670
31
0.0
0
LINE
8
0
6
CONTINUOUS
10
-12.285935
20
44.329870
30
0.0
11
-11.056405
21
42.540780
31
0.0
0
LINE
8
0
6
CONTINUOUS
10
4.997705
20
57.572940
30
0.0
11
7.260635
21
56.631850
31
0.0
0
LINE
8
0
6
CONTINUOUS
10
10.878595
20
42.503020
30
0.0
11
9.251975
21
40.959210
31
0.0
0
LINE
8
0
6
CONTINUOUS
10
9.399725
20
40.974730
30
0.0
11
11.052295
21
42.543180
31
0.0
0
LINE
8
0
6
CONTINUOUS
10
-9.254685
20
40.957190
30
0.0
11
-10.882935
21
42.500670
31
0.0
0
LINE
8
0
6
CONTINUOUS
10
-11.056405
20
42.540780
30
0.0
11
-9.402175
21
40.972690
31
0.0
0
LINE
8
0
6
CONTINUOUS
10
-2.552875
20
38.170070
30
0.0
11
-5.008055
21
38.749480
31
0.0
0
LINE
8
0
6
CONTINUOUS
10
-12.097275
20
52.058140
30
0.0
11
-10.888915
21
53.819390
31
0.0
0
LINE
8
0
6
CONTINUOUS
10
-11.062475
20
54.040090
30
0.0
11
-12.290115
21
52.250730
31
0.0
0
LINE
8
0
6
CONTINUOUS
10
-17.299915
20
48.710920
30
0.0
11
-16.577225
21
47.733060
31
0.0
0
LINE
8
0
6
CONTINUOUS
10
-16.577225
20
47.733060
30
0.0
11
-16.576856
21
48.416755
31
0.0
0
LINE
8
0
6
CONTINUOUS
10
-18.746435
20
48.711740
30
0.0
11
-17.299915
21
48.710920
31
0.0
0
LINE
8
0
6
CONTINUOUS
10
-17.299915
20
48.710920
30
0.0
11
-17.299524
21
49.434523
31
0.0
0
LINE
8
0
6
CONTINUOUS
10
-19.470225
20
47.734720
30
0.0
11
-18.746435
21
48.711740
31
0.0
0
LINE
8
0
6
CONTINUOUS
10
-19.469585
20
48.919640
30
0.0
11
-19.470225
21
47.734720
31
0.0
0
LINE
8
0
6
CONTINUOUS
10
-18.746435
20
48.711740
30
0.0
11
-18.746013
21
49.492124
31
0.0
0
LINE
8
0
6
CONTINUOUS
10
-18.746435
20
48.711740
30
0.0
11
-19.470225
21
47.734720
31
0.0
0
LINE
8
0
6
CONTINUOUS
10
-17.299915
20
48.710920
30
0.0
11
-18.746435
21
48.711740
31
0.0
0
LINE
8
0
6
CONTINUOUS
10
-16.577225
20
47.733060
30
0.0
11
-17.299915
21
48.710920
31
0.0
0
LINE
8
0
6
CONTINUOUS
10
-19.470225
20
47.734720
30
0.0
11
-18.747525
21
46.756860
31
0.0
0
LINE
8
0
6
CONTINUOUS
10
-17.301015
20
46.756060
30
0.0
11
-16.577225
21
47.733060
31
0.0
0
LINE
8
0
6
CONTINUOUS
10
-18.747525
20
46.756860
30
0.0
11
-17.301015
21
46.756060
31
0.0
0
LINE
8
0
6
CONTINUOUS
10
-42.532445
20
50.589410
30
0.0
11
-41.809755
21
49.611550
31
0.0
0
LINE
8
0
6
CONTINUOUS
10
-41.809755
20
49.611550
30
0.0
11
-41.809514
21
50.057163
31
0.0
0
LINE
8
0
6
CONTINUOUS
10
-43.978955
20
50.590230
30
0.0
11
-42.532445
21
50.589410
31
0.0
0
LINE
8
0
6
CONTINUOUS
10
-42.532445
20
50.589410
30
0.0
11
-42.532168
21
51.101875
31
0.0
0
LINE
8
0
6
CONTINUOUS
10
-44.702745
20
49.613210
30
0.0
11
-43.978955
21
50.590230
31
0.0
0
LINE
8
0
6
CONTINUOUS
10
-44.702115
20
50.798130
30
0.0
11
-44.702745
21
49.613210
31
0.0
0
LINE
8
0
6
CONTINUOUS
10
-43.978955
20
50.590230
30
0.0
11
-43.978621
21
51.217542
31
0.0
0
LINE
8
0
6
CONTINUOUS
10
-43.978955
20
50.590230
30
0.0
11
-44.702745
21
49.613210
31
0.0
0
LINE
8
0
6
CONTINUOUS
10
-42.532445
20
50.589410
30
0.0
11
-43.978955
21
50.590230
31
0.0
0
LINE
8
0
6
CONTINUOUS
10
-41.809755
20
49.611550
30
0.0
11
-42.532445
21
50.589410
31
0.0
0
LINE
8
0
6
CONTINUOUS
10
-44.702745
20
49.613210
30
0.0
11
-43.980055
21
48.635350
31
0.0
0
LINE
8
0
6
CONTINUOUS
10
-42.533545
20
48.634550
30
0.0
11
-41.809755
21
49.611550
31
0.0
0
LINE
8
0
6
CONTINUOUS
10
-43.980055
20
48.635350
30
0.0
11
-42.533545
21
48.634550
31
0.0
0
LINE
8
0
6
CONTINUOUS
10
-8.599515
20
48.372650
30
0.0
11
-7.876825
21
47.394810
31
0.0
0
LINE
8
0
6
CONTINUOUS
10
-7.876825
20
47.394810
30
0.0
11
-7.876424
21
48.136468
31
0.0
0
LINE
8
0
6
CONTINUOUS
10
-10.046035
20
48.373490
30
0.0
11
-8.599515
21
48.372650
31
0.0
0
LINE
8
0
6
CONTINUOUS
10
-8.599515
20
48.372650
30
0.0
11
-8.599095
21
49.150660
31
0.0
0
LINE
8
0
6
CONTINUOUS
10
-10.769825
20
47.396470
30
0.0
11
-10.046035
21
48.373490
31
0.0
0
LINE
8
0
6
CONTINUOUS
10
-10.769185
20
48.581390
30
0.0
11
-10.769825
21
47.396470
31
0.0
0
LINE
8
0
6
CONTINUOUS
10
-10.046035
20
48.373490
30
0.0
11
-10.045594
21
49.190693
31
0.0
0
LINE
8
0
6
CONTINUOUS
10
-10.046035
20
48.373490
30
0.0
11
-10.769825
21
47.396470
31
0.0
0
LINE
8
0
6
CONTINUOUS
10
-8.599515
20
48.372650
30
0.0
11
-10.046035
21
48.373490
31
0.0
0
LINE
8
0
6
CONTINUOUS
10
-7.876825
20
47.394810
30
0.0
11
-8.599515
21
48.372650
31
0.0
0
LINE
8
0
6
CONTINUOUS
10
-10.769825
20
47.396470
30
0.0
11
-10.047125
21
46.418610
31
0.0
0
LINE
8
0
6
CONTINUOUS
10
-8.600615
20
46.417790
30
0.0
11
-7.876825
21
47.394810
31
0.0
0
LINE
8
0
6
CONTINUOUS
10
-10.047125
20
46.418610
30
0.0
11
-8.600615
21
46.417790
31
0.0
0
LINE
8
0
6
CONTINUOUS
10
0.718185
20
48.296360
30
0.0
11
1.440875
21
47.318520
31
0.0
0
LINE
8
0
6
CONTINUOUS
10
1.440875
20
47.318520
30
0.0
11
1.441223
21
47.963443
31
0.0
0
LINE
8
0
6
CONTINUOUS
10
-0.728325
20
48.297180
30
0.0
11
0.718185
21
48.296360
31
0.0
0
LINE
8
0
6
CONTINUOUS
10
0.718185
20
48.296360
30
0.0
11
0.718531
21
48.937513
31
0.0
0
LINE
8
0
6
CONTINUOUS
10
-1.452115
20
47.320160
30
0.0
11
-0.728325
21
48.297180
31
0.0
0
LINE
8
0
6
CONTINUOUS
10
-1.451475
20
48.505080
30
0.0
11
-1.452115
21
47.320160
31
0.0
0
LINE
8
0
6
CONTINUOUS
10
-0.728325
20
48.297180
30
0.0
11
-0.727984
21
48.938288
31
0.0
0
LINE
8
0
6
CONTINUOUS
10
-0.728325
20
48.297180
30
0.0
11
-1.452115
21
47.320160
31
0.0
0
LINE
8
0
6
CONTINUOUS
10
0.718185
20
48.296360
30
0.0
11
-0.728325
21
48.297180
31
0.0
0
LINE
8
0
6
CONTINUOUS
10
1.440875
20
47.318520
30
0.0
11
0.718185
21
48.296360
31
0.0
0
LINE
8
0
6
CONTINUOUS
10
-1.452115
20
47.320160
30
0.0
11
-0.729425
21
46.342300
31
0.0
0
LINE
8
0
6
CONTINUOUS
10
0.717085
20
46.341500
30
0.0
11
1.440875
21
47.318520
31
0.0
0
LINE
8
0
6
CONTINUOUS
10
-0.729425
20
46.342300
30
0.0
11
0.717085
21
46.341500
31
0.0
0
LINE
8
0
6
CONTINUOUS
10
-25.613205
20
49.132000
30
0.0
11
-24.890515
21
48.154160
31
0.0
0
LINE
8
0
6
CONTINUOUS
10
-24.890515
20
48.154160
30
0.0
11
-24.890202
21
48.742020
31
0.0
0
LINE
8
0
6
CONTINUOUS
10
-27.059725
20
49.132840
30
0.0
11
-25.613205
21
49.132000
31
0.0
0
LINE
8
0
6
CONTINUOUS
10
-25.613205
20
49.132000
30
0.0
11
-25.612868
21
49.765744
31
0.0
0
LINE
8
0
6
CONTINUOUS
10
-27.783515
20
48.155800
30
0.0
11
-27.059725
21
49.132840
31
0.0
0
LINE
8
0
6
CONTINUOUS
10
-27.782885
20
49.340730
30
0.0
11
-27.783515
21
48.155800
31
0.0
0
LINE
8
0
6
CONTINUOUS
10
-27.059725
20
49.132840
30
0.0
11
-27.059328
21
49.879852
31
0.0
0
LINE
8
0
6
CONTINUOUS
10
-27.059725
20
49.132840
30
0.0
11
-27.783515
21
48.155800
31
0.0
0
LINE
8
0
6
CONTINUOUS
10
-25.613205
20
49.132000
30
0.0
11
-27.059725
21
49.132840
31
0.0
0
LINE
8
0
6
CONTINUOUS
10
-24.890515
20
48.154160
30
0.0
11
-25.613205
21
49.132000
31
0.0
0
LINE
8
0
6
CONTINUOUS
10
-27.783515
20
48.155800
30
0.0
11
-27.060825
21
47.177940
31
0.0
0
LINE
8
0
6
CONTINUOUS
10
-25.614315
20
47.177140
30
0.0
11
-24.890515
21
48.154160
31
0.0
0
LINE
8
0
6
CONTINUOUS
10
-27.060825
20
47.177940
30
0.0
11
-25.614315
21
47.177140
31
0.0
0
LINE
8
0
6
CONTINUOUS
10
-5.886925
20
43.280270
30
0.0
11
-5.164235
21
42.302430
31
0.0
0
LINE
8
0
6
CONTINUOUS
10
-5.164235
20
42.302430
30
0.0
11
-5.163836
21
43.052610
31
0.0
0
LINE
8
0
6
CONTINUOUS
10
-7.333445
20
43.281100
30
0.0
11
-5.886925
21
43.280270
31
0.0
0
LINE
8
0
6
CONTINUOUS
10
-5.886925
20
43.280270
30
0.0
11
-5.886524
21
44.033857
31
0.0
0
LINE
8
0
6
CONTINUOUS
10
-8.057235
20
42.304080
30
0.0
11
-7.333445
21
43.281100
31
0.0
0
LINE
8
0
6
CONTINUOUS
10
-8.056595
20
43.489000
30
0.0
11
-8.057235
21
42.304080
31
0.0
0
LINE
8
0
6
CONTINUOUS
10
-7.333445
20
43.281100
30
0.0
11
-7.333016
21
44.075366
31
0.0
0
LINE
8
0
6
CONTINUOUS
10
-7.333445
20
43.281100
30
0.0
11
-8.057235
21
42.304080
31
0.0
0
LINE
8
0
6
CONTINUOUS
10
-5.886925
20
43.280270
30
0.0
11
-7.333445
21
43.281100
31
0.0
0
LINE
8
0
6
CONTINUOUS
10
-5.164235
20
42.302430
30
0.0
11
-5.886925
21
43.280270
31
0.0
0
LINE
8
0
6
CONTINUOUS
10
-8.057235
20
42.304080
30
0.0
11
-7.334535
21
41.326220
31
0.0
0
LINE
8
0
6
CONTINUOUS
10
-5.888035
20
41.325410
30
0.0
11
-5.164235
21
42.302430
31
0.0
0
LINE
8
0
6
CONTINUOUS
10
-7.334535
20
41.326220
30
0.0
11
-5.888035
21
41.325410
31
0.0
0
LINE
8
0
6
CONTINUOUS
10
0.656465
20
41.171540
30
0.0
11
1.379155
21
40.193690
31
0.0
0
LINE
8
0
6
CONTINUOUS
10
1.379155
20
40.193690
30
0.0
11
1.379522
21
40.874017
31
0.0
0
LINE
8
0
6
CONTINUOUS
10
-0.790055
20
41.172360
30
0.0
11
0.656465
21
41.171540
31
0.0
0
LINE
8
0
6
CONTINUOUS
10
0.656465
20
41.171540
30
0.0
11
0.656812
21
41.814617
31
0.0
0
LINE
8
0
6
CONTINUOUS
10
-1.513835
20
40.195340
30
0.0
11
-0.790055
21
41.172360
31
0.0
0
LINE
8
0
6
CONTINUOUS
10
-1.513205
20
41.380260
30
0.0
11
-1.513835
21
40.195340
31
0.0
0
LINE
8
0
6
CONTINUOUS
10
-0.790055
20
41.172360
30
0.0
11
-0.789706
21
41.819051
31
0.0
0
LINE
8
0
6
CONTINUOUS
10
-0.790055
20
41.172360
30
0.0
11
-1.513835
21
40.195340
31
0.0
0
LINE
8
0
6
CONTINUOUS
10
0.656465
20
41.171540
30
0.0
11
-0.790055
21
41.172360
31
0.0
0
LINE
8
0
6
CONTINUOUS
10
1.379155
20
40.193690
30
0.0
11
0.656465
21
41.171540
31
0.0
0
LINE
8
0
6
CONTINUOUS
10
-1.513835
20
40.195340
30
0.0
11
-0.791145
21
39.217480
31
0.0
0
LINE
8
0
6
CONTINUOUS
10
0.655365
20
39.216670
30
0.0
11
1.379155
21
40.193690
31
0.0
0
LINE
8
0
6
CONTINUOUS
10
-0.791145
20
39.217480
30
0.0
11
0.655365
21
39.216670
31
0.0
0
LINE
8
0
6
CONTINUOUS
10
7.197645
20
43.281700
30
0.0
11
7.920335
21
42.303840
31
0.0
0
LINE
8
0
6
CONTINUOUS
10
7.920335
20
42.303840
30
0.0
11
7.920782
21
43.131760
31
0.0
0
LINE
8
0
6
CONTINUOUS
10
5.751125
20
43.282530
30
0.0
11
7.197645
21
43.281700
31
0.0
0
LINE
8
0
6
CONTINUOUS
10
7.197645
20
43.281700
30
0.0
11
7.198072
21
44.072367
31
0.0
0
LINE
8
0
6
CONTINUOUS
10
5.027335
20
42.305500
30
0.0
11
5.751125
21
43.282530
31
0.0
0
LINE
8
0
6
CONTINUOUS
10
5.027975
20
43.490410
30
0.0
11
5.027335
21
42.305500
31
0.0
0
LINE
8
0
6
CONTINUOUS
10
5.751125
20
43.282530
30
0.0
11
5.751530
21
44.032463
31
0.0
0
LINE
8
0
6
CONTINUOUS
10
5.751125
20
43.282530
30
0.0
11
5.027335
21
42.305500
31
0.0
0
LINE
8
0
6
CONTINUOUS
10
7.197645
20
43.281700
30
0.0
11
5.751125
21
43.282530
31
0.0
0
LINE
8
0
6
CONTINUOUS
10
7.920335
20
42.303840
30
0.0
11
7.197645
21
43.281700
31
0.0
0
LINE
8
0
6
CONTINUOUS
10
5.027335
20
42.305500
30
0.0
11
5.750035
21
41.327640
31
0.0
0
LINE
8
0
6
CONTINUOUS
10
7.196545
20
41.326840
30
0.0
11
7.920335
21
42.303840
31
0.0
0
LINE
8
0
6
CONTINUOUS
10
5.750035
20
41.327640
30
0.0
11
7.196545
21
41.326840
31
0.0
0
LINE
8
0
6
CONTINUOUS
10
9.904845
20
48.374650
30
0.0
11
10.627535
21
47.396810
31
0.0
0
LINE
8
0
6
CONTINUOUS
10
10.627535
20
47.396810
30
0.0
11
10.627976
21
48.212796
31
0.0
0
LINE
8
0
6
CONTINUOUS
10
8.458325
20
48.375490
30
0.0
11
9.904845
21
48.374650
31
0.0
0
LINE
8
0
6
CONTINUOUS
10
9.904845
20
48.374650
30
0.0
11
9.905284
21
49.188352
31
0.0
0
LINE
8
0
6
CONTINUOUS
10
7.734535
20
47.398450
30
0.0
11
8.458325
21
48.375490
31
0.0
0
LINE
8
0
6
CONTINUOUS
10
7.735175
20
48.583370
30
0.0
11
7.734535
21
47.398450
31
0.0
0
LINE
8
0
6
CONTINUOUS
10
8.458325
20
48.375490
30
0.0
11
8.458743
21
49.150017
31
0.0
0
LINE
8
0
6
CONTINUOUS
10
8.458325
20
48.375490
30
0.0
11
7.734535
21
47.398450
31
0.0
0
LINE
8
0
6
CONTINUOUS
10
9.904845
20
48.374650
30
0.0
11
8.458325
21
48.375490
31
0.0
0
LINE
8
0
6
CONTINUOUS
10
10.627535
20
47.396810
30
0.0
11
9.904845
21
48.374650
31
0.0
0
LINE
8
0
6
CONTINUOUS
10
7.734535
20
47.398450
30
0.0
11
8.457235
21
46.420590
31
0.0
0
LINE
8
0
6
CONTINUOUS
10
9.903735
20
46.419790
30
0.0
11
10.627535
21
47.396810
31
0.0
0
LINE
8
0
6
CONTINUOUS
10
8.457235
20
46.420590
30
0.0
11
9.903735
21
46.419790
31
0.0
0
LINE
8
0
6
CONTINUOUS
10
7.192255
20
53.467040
30
0.0
11
7.914945
21
52.489190
31
0.0
0
LINE
8
0
6
CONTINUOUS
10
7.914945
20
52.489190
30
0.0
11
7.915394
21
53.319643
31
0.0
0
LINE
8
0
6
CONTINUOUS
10
5.745745
20
53.467870
30
0.0
11
7.192255
21
53.467040
31
0.0
0
LINE
8
0
6
CONTINUOUS
10
7.192255
20
53.467040
30
0.0
11
7.192702
21
54.293808
31
0.0
0
LINE
8
0
6
CONTINUOUS
10
5.021955
20
52.490840
30
0.0
11
5.745745
21
53.467870
31
0.0
0
LINE
8
0
6
CONTINUOUS
10
5.022585
20
53.675770
30
0.0
11
5.021955
21
52.490840
31
0.0
0
LINE
8
0
6
CONTINUOUS
10
5.745745
20
53.467870
30
0.0
11
5.746163
21
54.253429
31
0.0
0
LINE
8
0
6
CONTINUOUS
10
5.745745
20
53.467870
30
0.0
11
5.021955
21
52.490840
31
0.0
0
LINE
8
0
6
CONTINUOUS
10
7.192255
20
53.467040
30
0.0
11
5.745745
21
53.467870
31
0.0
0
LINE
8
0
6
CONTINUOUS
10
7.914945
20
52.489190
30
0.0
11
7.192255
21
53.467040
31
0.0
0
LINE
8
0
6
CONTINUOUS
10
5.021955
20
52.490840
30
0.0
11
5.744645
21
51.512990
31
0.0
0
LINE
8
0
6
CONTINUOUS
10
7.191155
20
51.512170
30
0.0
11
7.914945
21
52.489190
31
0.0
0
LINE
8
0
6
CONTINUOUS
10
5.744645
20
51.512990
30
0.0
11
7.191155
21
51.512170
31
0.0
0
LINE
8
0
6
CONTINUOUS
10
0.648865
20
55.575770
30
0.0
11
1.371555
21
54.597930
31
0.0
0
LINE
8
0
6
CONTINUOUS
10
1.371555
20
54.597930
30
0.0
11
1.371916
21
55.276272
31
0.0
0
LINE
8
0
6
CONTINUOUS
10
-0.797655
20
55.576590
30
0.0
11
0.648865
21
55.575770
31
0.0
0
LINE
8
0
6
CONTINUOUS
10
0.648865
20
55.575770
30
0.0
11
0.649223
21
56.248594
31
0.0
0
LINE
8
0
6
CONTINUOUS
10
-1.521445
20
54.599570
30
0.0
11
-0.797655
21
55.576590
31
0.0
0
LINE
8
0
6
CONTINUOUS
10
-1.520805
20
55.784490
30
0.0
11
-1.521445
21
54.599570
31
0.0
0
LINE
8
0
6
CONTINUOUS
10
-0.797655
20
55.576590
30
0.0
11
-0.797290
21
56.253108
31
0.0
0
LINE
8
0
6
CONTINUOUS
10
-0.797655
20
55.576590
30
0.0
11
-1.521445
21
54.599570
31
0.0
0
LINE
8
0
6
CONTINUOUS
10
0.648865
20
55.575770
30
0.0
11
-0.797655
21
55.576590
31
0.0
0
LINE
8
0
6
CONTINUOUS
10
1.371555
20
54.597930
30
0.0
11
0.648865
21
55.575770
31
0.0
0
LINE
8
0
6
CONTINUOUS
10
-1.521445
20
54.599570
30
0.0
11
-0.798745
21
53.621710
31
0.0
0
LINE
8
0
6
CONTINUOUS
10
0.647755
20
53.620910
30
0.0
11
1.371555
21
54.597930
31
0.0
0
LINE
8
0
6
CONTINUOUS
10
-0.798745
20
53.621710
30
0.0
11
0.647755
21
53.620910
31
0.0
0
LINE
8
0
6
CONTINUOUS
10
-5.892315
20
53.465610
30
0.0
11
-5.169625
21
52.487750
31
0.0
0
LINE
8
0
6
CONTINUOUS
10
-5.169625
20
52.487750
30
0.0
11
-5.169224
21
53.241348
31
0.0
0
LINE
8
0
6
CONTINUOUS
10
-7.338835
20
53.466430
30
0.0
11
-5.892315
21
53.465610
31
0.0
0
LINE
8
0
6
CONTINUOUS
10
-5.892315
20
53.465610
30
0.0
11
-5.891895
21
54.254835
31
0.0
0
LINE
8
0
6
CONTINUOUS
10
-8.062625
20
52.489410
30
0.0
11
-7.338835
21
53.466430
31
0.0
0
LINE
8
0
6
CONTINUOUS
10
-8.061985
20
53.674340
30
0.0
11
-8.062625
21
52.489410
31
0.0
0
LINE
8
0
6
CONTINUOUS
10
-7.338835
20
53.466430
30
0.0
11
-7.338393
21
54.296884
31
0.0
0
LINE
8
0
6
CONTINUOUS
10
-7.338835
20
53.466430
30
0.0
11
-8.062625
21
52.489410
31
0.0
0
LINE
8
0
6
CONTINUOUS
10
-5.892315
20
53.465610
30
0.0
11
-7.338835
21
53.466430
31
0.0
0
LINE
8
0
6
CONTINUOUS
10
-5.169625
20
52.487750
30
0.0
11
-5.892315
21
53.465610
31
0.0
0
LINE
8
0
6
CONTINUOUS
10
-8.062625
20
52.489410
30
0.0
11
-7.339935
21
51.511550
31
0.0
0
LINE
8
0
6
CONTINUOUS
10
-5.893425
20
51.510750
30
0.0
11
-5.169625
21
52.487750
31
0.0
0
LINE
8
0
6
CONTINUOUS
10
-7.339935
20
51.511550
30
0.0
11
-5.893425
21
51.510750
31
0.0
0
LINE
8
0
6
CONTINUOUS
10
-14.891005
20
41.723750
30
0.0
11
-14.168315
21
40.745890
31
0.0
0
LINE
8
0
6
CONTINUOUS
10
-14.168315
20
40.745890
30
0.0
11
-14.167933
21
41.464981
31
0.0
0
LINE
8
0
6
CONTINUOUS
10
-16.337525
20
41.724570
30
0.0
11
-14.891005
21
41.723750
31
0.0
0
LINE
8
0
6
CONTINUOUS
10
-14.891005
20
41.723750
30
0.0
11
-14.890617
21
42.453011
31
0.0
0
LINE
8
0
6
CONTINUOUS
10
-17.061315
20
40.747540
30
0.0
11
-16.337525
21
41.724570
31
0.0
0
LINE
8
0
6
CONTINUOUS
10
-17.060675
20
41.932470
30
0.0
11
-17.061315
21
40.747540
31
0.0
0
LINE
8
0
6
CONTINUOUS
10
-16.337525
20
41.724570
30
0.0
11
-16.337100
21
42.510559
31
0.0
0
LINE
8
0
6
CONTINUOUS
10
-16.337525
20
41.724570
30
0.0
11
-17.061315
21
40.747540
31
0.0
0
LINE
8
0
6
CONTINUOUS
10
-14.891005
20
41.723750
30
0.0
11
-16.337525
21
41.724570
31
0.0
0
LINE
8
0
6
CONTINUOUS
10
-14.168315
20
40.745890
30
0.0
11
-14.891005
21
41.723750
31
0.0
0
LINE
8
0
6
CONTINUOUS
10
-17.061315
20
40.747540
30
0.0
11
-16.338615
21
39.769680
31
0.0
0
LINE
8
0
6
CONTINUOUS
10
-14.892115
20
39.768880
30
0.0
11
-14.168315
21
40.745890
31
0.0
0
LINE
8
0
6
CONTINUOUS
10
-16.338615
20
39.769680
30
0.0
11
-14.892115
21
39.768880
31
0.0
0
LINE
8
0
6
CONTINUOUS
10
-8.317135
20
36.609300
30
0.0
11
-7.594445
21
35.631450
31
0.0
0
LINE
8
0
6
CONTINUOUS
10
-7.594445
20
35.631450
30
0.0
11
-7.594053
21
36.368149
31
0.0
0
LINE
8
0
6
CONTINUOUS
10
-9.763655
20
36.610130
30
0.0
11
-8.317135
21
36.609300
31
0.0
0
LINE
8
0
6
CONTINUOUS
10
-8.317135
20
36.609300
30
0.0
11
-8.316771
21
37.294687
31
0.0
0
LINE
8
0
6
CONTINUOUS
10
-10.487445
20
35.633100
30
0.0
11
-9.763655
21
36.610130
31
0.0
0
LINE
8
0
6
CONTINUOUS
10
-10.486805
20
36.818030
30
0.0
11
-10.487445
21
35.633100
31
0.0
0
LINE
8
0
6
CONTINUOUS
10
-9.763655
20
36.610130
30
0.0
11
-9.763267
21
37.339164
31
0.0
0
LINE
8
0
6
CONTINUOUS
10
-9.763655
20
36.610130
30
0.0
11
-10.487445
21
35.633100
31
0.0
0
LINE
8
0
6
CONTINUOUS
10
-8.317135
20
36.609300
30
0.0
11
-9.763655
21
36.610130
31
0.0
0
LINE
8
0
6
CONTINUOUS
10
-7.594445
20
35.631450
30
0.0
11
-8.317135
21
36.609300
31
0.0
0
LINE
8
0
6
CONTINUOUS
10
-10.487445
20
35.633100
30
0.0
11
-9.764755
21
34.655240
31
0.0
0
LINE
8
0
6
CONTINUOUS
10
-8.318245
20
34.654440
30
0.0
11
-7.594445
21
35.631450
31
0.0
0
LINE
8
0
6
CONTINUOUS
10
-9.764755
20
34.655240
30
0.0
11
-8.318245
21
34.654440
31
0.0
0
LINE
8
0
6
CONTINUOUS
10
0.660225
20
34.738010
30
0.0
11
1.382915
21
33.760150
31
0.0
0
LINE
8
0
6
CONTINUOUS
10
1.382915
20
33.760150
30
0.0
11
1.383287
21
34.449037
31
0.0
0
LINE
8
0
6
CONTINUOUS
10
-0.786285
20
34.738830
30
0.0
11
0.660225
21
34.738010
31
0.0
0
LINE
8
0
6
CONTINUOUS
10
0.660225
20
34.738010
30
0.0
11
0.660546
21
35.331920
31
0.0
0
LINE
8
0
6
CONTINUOUS
10
-1.510075
20
33.761800
30
0.0
11
-0.786285
21
34.738830
31
0.0
0
LINE
8
0
6
CONTINUOUS
10
-1.509445
20
34.946730
30
0.0
11
-1.510075
21
33.761800
31
0.0
0
LINE
8
0
6
CONTINUOUS
10
-0.786285
20
34.738830
30
0.0
11
-0.785967
21
35.336559
31
0.0
0
LINE
8
0
6
CONTINUOUS
10
-0.786285
20
34.738830
30
0.0
11
-1.510075
21
33.761800
31
0.0
0
LINE
8
0
6
CONTINUOUS
10
0.660225
20
34.738010
30
0.0
11
-0.786285
21
34.738830
31
0.0
0
LINE
8
0
6
CONTINUOUS
10
1.382915
20
33.760150
30
0.0
11
0.660225
21
34.738010
31
0.0
0
LINE
8
0
6
CONTINUOUS
10
-1.510075
20
33.761800
30
0.0
11
-0.787385
21
32.783950
31
0.0
0
LINE
8
0
6
CONTINUOUS
10
0.659125
20
32.783150
30
0.0
11
1.382915
21
33.760150
31
0.0
0
LINE
8
0
6
CONTINUOUS
10
-0.787385
20
32.783950
30
0.0
11
0.659125
21
32.783150
31
0.0
0
LINE
8
0
6
CONTINUOUS
10
9.635625
20
36.611250
30
0.0
11
10.358315
21
35.633400
31
0.0
0
LINE
8
0
6
CONTINUOUS
10
10.358315
20
35.633400
30
0.0
11
10.358748
21
36.435776
31
0.0
0
LINE
8
0
6
CONTINUOUS
10
8.189115
20
36.612070
30
0.0
11
9.635625
21
36.611250
31
0.0
0
LINE
8
0
6
CONTINUOUS
10
9.635625
20
36.611250
30
0.0
11
9.636017
21
37.336469
31
0.0
0
LINE
8
0
6
CONTINUOUS
10
7.465325
20
35.635050
30
0.0
11
8.189115
21
36.612070
31
0.0
0
LINE
8
0
6
CONTINUOUS
10
7.465955
20
36.819970
30
0.0
11
7.465325
21
35.635050
31
0.0
0
LINE
8
0
6
CONTINUOUS
10
8.189115
20
36.612070
30
0.0
11
8.189477
21
37.293488
31
0.0
0
LINE
8
0
6
CONTINUOUS
10
8.189115
20
36.612070
30
0.0
11
7.465325
21
35.635050
31
0.0
0
LINE
8
0
6
CONTINUOUS
10
9.635625
20
36.611250
30
0.0
11
8.189115
21
36.612070
31
0.0
0
LINE
8
0
6
CONTINUOUS
10
10.358315
20
35.633400
30
0.0
11
9.635625
21
36.611250
31
0.0
0
LINE
8
0
6
CONTINUOUS
10
7.465325
20
35.635050
30
0.0
11
8.188015
21
34.657190
31
0.0
0
LINE
8
0
6
CONTINUOUS
10
9.634525
20
34.656390
30
0.0
11
10.358315
21
35.633400
31
0.0
0
LINE
8
0
6
CONTINUOUS
10
8.188015
20
34.657190
30
0.0
11
9.634525
21
34.656390
31
0.0
0
LINE
8
0
6
CONTINUOUS
10
16.204095
20
41.727110
30
0.0
11
16.926785
21
40.749260
31
0.0
0
LINE
8
0
6
CONTINUOUS
10
16.926785
20
40.749260
30
0.0
11
16.927230
21
41.572911
31
0.0
0
LINE
8
0
6
CONTINUOUS
10
14.757575
20
41.727940
30
0.0
11
16.204095
21
41.727110
31
0.0
0
LINE
8
0
6
CONTINUOUS
10
16.204095
20
41.727110
30
0.0
11
16.204517
21
42.508072
31
0.0
0
LINE
8
0
6
CONTINUOUS
10
14.033795
20
40.750910
30
0.0
11
14.757575
21
41.727940
31
0.0
0
LINE
8
0
6
CONTINUOUS
10
14.034425
20
41.935840
30
0.0
11
14.033795
21
40.750910
31
0.0
0
LINE
8
0
6
CONTINUOUS
10
14.757575
20
41.727940
30
0.0
11
14.757966
21
42.452126
31
0.0
0
LINE
8
0
6
CONTINUOUS
10
14.757575
20
41.727940
30
0.0
11
14.033795
21
40.750910
31
0.0
0
LINE
8
0
6
CONTINUOUS
10
16.204095
20
41.727110
30
0.0
11
14.757575
21
41.727940
31
0.0
0
LINE
8
0
6
CONTINUOUS
10
16.926785
20
40.749260
30
0.0
11
16.204095
21
41.727110
31
0.0
0
LINE
8
0
6
CONTINUOUS
10
14.033795
20
40.750910
30
0.0
11
14.756485
21
39.773060
31
0.0
0
LINE
8
0
6
CONTINUOUS
10
16.202995
20
39.772250
30
0.0
11
16.926785
21
40.749260
31
0.0
0
LINE
8
0
6
CONTINUOUS
10
14.756485
20
39.773060
30
0.0
11
16.202995
21
39.772250
31
0.0
0
LINE
8
0
6
CONTINUOUS
10
18.605605
20
48.714810
30
0.0
11
19.328295
21
47.736950
31
0.0
0
LINE
8
0
6
CONTINUOUS
10
19.328295
20
47.736950
30
0.0
11
19.328723
21
48.529007
31
0.0
0
LINE
8
0
6
CONTINUOUS
10
17.159095
20
48.715630
30
0.0
11
18.605605
21
48.714810
31
0.0
0
LINE
8
0
6
CONTINUOUS
10
18.605605
20
48.714810
30
0.0
11
18.606024
21
49.490127
31
0.0
0
LINE
8
0
6
CONTINUOUS
10
16.435305
20
47.738610
30
0.0
11
17.159095
21
48.715630
31
0.0
0
LINE
8
0
6
CONTINUOUS
10
16.435945
20
48.923530
30
0.0
11
16.435305
21
47.738610
31
0.0
0
LINE
8
0
6
CONTINUOUS
10
17.159095
20
48.715630
30
0.0
11
17.159477
21
49.434187
31
0.0
0
LINE
8
0
6
CONTINUOUS
10
17.159095
20
48.715630
30
0.0
11
16.435305
21
47.738610
31
0.0
0
LINE
8
0
6
CONTINUOUS
10
18.605605
20
48.714810
30
0.0
11
17.159095
21
48.715630
31
0.0
0
LINE
8
0
6
CONTINUOUS
10
19.328295
20
47.736950
30
0.0
11
18.605605
21
48.714810
31
0.0
0
LINE
8
0
6
CONTINUOUS
10
16.435305
20
47.738610
30
0.0
11
17.157995
21
46.760750
31
0.0
0
LINE
8
0
6
CONTINUOUS
10
18.604505
20
46.759950
30
0.0
11
19.328295
21
47.736950
31
0.0
0
LINE
8
0
6
CONTINUOUS
10
17.157995
20
46.760750
30
0.0
11
18.604505
21
46.759950
31
0.0
0
LINE
8
0
6
CONTINUOUS
10
16.196695
20
55.701980
30
0.0
11
16.919385
21
54.724120
31
0.0
0
LINE
8
0
6
CONTINUOUS
10
16.919385
20
54.724120
30
0.0
11
16.919821
21
55.531060
31
0.0
0
LINE
8
0
6
CONTINUOUS
10
14.750185
20
55.702800
30
0.0
11
16.196695
21
55.701980
31
0.0
0
LINE
8
0
6
CONTINUOUS
10
16.196695
20
55.701980
30
0.0
11
16.197126
21
56.499984
31
0.0
0
LINE
8
0
6
CONTINUOUS
10
14.026395
20
54.725780
30
0.0
11
14.750185
21
55.702800
31
0.0
0
LINE
8
0
6
CONTINUOUS
10
14.027025
20
55.910700
30
0.0
11
14.026395
21
54.725780
31
0.0
0
LINE
8
0
6
CONTINUOUS
10
14.750185
20
55.702800
30
0.0
11
14.750581
21
56.448411
31
0.0
0
LINE
8
0
6
CONTINUOUS
10
14.750185
20
55.702800
30
0.0
11
14.026395
21
54.725780
31
0.0
0
LINE
8
0
6
CONTINUOUS
10
16.196695
20
55.701980
30
0.0
11
14.750185
21
55.702800
31
0.0
0
LINE
8
0
6
CONTINUOUS
10
16.919385
20
54.724120
30
0.0
11
16.196695
21
55.701980
31
0.0
0
LINE
8
0
6
CONTINUOUS
10
14.026395
20
54.725780
30
0.0
11
14.749085
21
53.747920
31
0.0
0
LINE
8
0
6
CONTINUOUS
10
16.195595
20
53.747120
30
0.0
11
16.919385
21
54.724120
31
0.0
0
LINE
8
0
6
CONTINUOUS
10
14.749085
20
53.747920
30
0.0
11
16.195595
21
53.747120
31
0.0
0
LINE
8
0
6
CONTINUOUS
10
9.622825
20
60.816420
30
0.0
11
10.345515
21
59.838580
31
0.0
0
LINE
8
0
6
CONTINUOUS
10
10.345515
20
59.838580
30
0.0
11
10.345919
21
60.587362
31
0.0
0
LINE
8
0
6
CONTINUOUS
10
8.176305
20
60.817240
30
0.0
11
9.622825
21
60.816420
31
0.0
0
LINE
8
0
6
CONTINUOUS
10
9.622825
20
60.816420
30
0.0
11
9.623244
21
61.592482
31
0.0
0
LINE
8
0
6
CONTINUOUS
10
7.452525
20
59.840220
30
0.0
11
8.176305
21
60.817240
31
0.0
0
LINE
8
0
6
CONTINUOUS
10
7.453155
20
61.025140
30
0.0
11
7.452525
21
59.840220
31
0.0
0
LINE
8
0
6
CONTINUOUS
10
8.176305
20
60.817240
30
0.0
11
8.176702
21
61.552040
31
0.0
0
LINE
8
0
6
CONTINUOUS
10
8.176305
20
60.817240
30
0.0
11
7.452525
21
59.840220
31
0.0
0
LINE
8
0
6
CONTINUOUS
10
9.622825
20
60.816420
30
0.0
11
8.176305
21
60.817240
31
0.0
0
LINE
8
0
6
CONTINUOUS
10
10.345515
20
59.838580
30
0.0
11
9.622825
21
60.816420
31
0.0
0
LINE
8
0
6
CONTINUOUS
10
7.452525
20
59.840220
30
0.0
11
8.175215
21
58.862360
31
0.0
0
LINE
8
0
6
CONTINUOUS
10
9.621725
20
58.861560
30
0.0
11
10.345515
21
59.838580
31
0.0
0
LINE
8
0
6
CONTINUOUS
10
8.175215
20
58.862360
30
0.0
11
9.621725
21
58.861560
31
0.0
0
LINE
8
0
6
CONTINUOUS
10
0.645455
20
62.687720
30
0.0
11
1.368145
21
61.709860
31
0.0
0
LINE
8
0
6
CONTINUOUS
10
1.368145
20
61.709860
30
0.0
11
1.368470
21
62.320807
31
0.0
0
LINE
8
0
6
CONTINUOUS
10
-0.801065
20
62.688540
30
0.0
11
0.645455
21
62.687720
31
0.0
0
LINE
8
0
6
CONTINUOUS
10
0.645455
20
62.687720
30
0.0
11
0.645802
21
63.339565
31
0.0
0
LINE
8
0
6
CONTINUOUS
10
-1.524855
20
61.711520
30
0.0
11
-0.801065
21
62.688540
31
0.0
0
LINE
8
0
6
CONTINUOUS
10
-1.524215
20
62.896440
30
0.0
11
-1.524855
21
61.711520
31
0.0
0
LINE
8
0
6
CONTINUOUS
10
-0.801065
20
62.688540
30
0.0
11
-0.800711
21
63.343211
31
0.0
0
LINE
8
0
6
CONTINUOUS
10
-0.801065
20
62.688540
30
0.0
11
-1.524855
21
61.711520
31
0.0
0
LINE
8
0
6
CONTINUOUS
10
0.645455
20
62.687720
30
0.0
11
-0.801065
21
62.688540
31
0.0
0
LINE
8
0
6
CONTINUOUS
10
1.368145
20
61.709860
30
0.0
11
0.645455
21
62.687720
31
0.0
0
LINE
8
0
6
CONTINUOUS
10
-1.524855
20
61.711520
30
0.0
11
-0.802155
21
60.733660
31
0.0
0
LINE
8
0
6
CONTINUOUS
10
0.644345
20
60.732860
30
0.0
11
1.368145
21
61.709860
31
0.0
0
LINE
8
0
6
CONTINUOUS
10
-0.802155
20
60.733660
30
0.0
11
0.644345
21
60.732860
31
0.0
0
LINE
8
0
6
CONTINUOUS
10
-8.329945
20
60.814460
30
0.0
11
-7.607255
21
59.836620
31
0.0
0
LINE
8
0
6
CONTINUOUS
10
-7.607255
20
59.836620
30
0.0
11
-7.606893
21
60.506531
31
0.0
0
LINE
8
0
6
CONTINUOUS
10
-9.776465
20
60.815280
30
0.0
11
-8.329945
21
60.814460
31
0.0
0
LINE
8
0
6
CONTINUOUS
10
-8.329945
20
60.814460
30
0.0
11
-8.329546
21
61.552894
31
0.0
0
LINE
8
0
6
CONTINUOUS
10
-10.500245
20
59.838280
30
0.0
11
-9.776465
21
60.815280
31
0.0
0
LINE
8
0
6
CONTINUOUS
10
-10.499615
20
61.023200
30
0.0
11
-10.500245
21
59.838280
31
0.0
0
LINE
8
0
6
CONTINUOUS
10
-9.776465
20
60.815280
30
0.0
11
-9.776044
21
61.595064
31
0.0
0
LINE
8
0
6
CONTINUOUS
10
-9.776465
20
60.815280
30
0.0
11
-10.500245
21
59.838280
31
0.0
0
LINE
8
0
6
CONTINUOUS
10
-8.329945
20
60.814460
30
0.0
11
-9.776465
21
60.815280
31
0.0
0
LINE
8
0
6
CONTINUOUS
10
-7.607255
20
59.836620
30
0.0
11
-8.329945
21
60.814460
31
0.0
0
LINE
8
0
6
CONTINUOUS
10
-10.500245
20
59.838280
30
0.0
11
-9.777555
21
58.860420
31
0.0
0
LINE
8
0
6
CONTINUOUS
10
-8.331045
20
58.859600
30
0.0
11
-7.607255
21
59.836620
31
0.0
0
LINE
8
0
6
CONTINUOUS
10
-9.777555
20
58.860420
30
0.0
11
-8.331045
21
58.859600
31
0.0
0
LINE
8
0
6
CONTINUOUS
10
-14.898405
20
55.698590
30
0.0
11
-14.175725
21
54.720730
31
0.0
0
LINE
8
0
6
CONTINUOUS
10
-14.175725
20
54.720730
30
0.0
11
-14.175343
21
55.427578
31
0.0
0
LINE
8
0
6
CONTINUOUS
10
-16.344925
20
55.699410
30
0.0
11
-14.898405
21
55.698590
31
0.0
0
LINE
8
0
6
CONTINUOUS
10
-14.898405
20
55.698590
30
0.0
11
-14.898006
21
56.448845
31
0.0
0
LINE
8
0
6
CONTINUOUS
10
-17.068715
20
54.722390
30
0.0
11
-16.344925
21
55.699410
31
0.0
0
LINE
8
0
6
CONTINUOUS
10
-17.068075
20
55.907310
30
0.0
11
-17.068715
21
54.722390
31
0.0
0
LINE
8
0
6
CONTINUOUS
10
-16.344925
20
55.699410
30
0.0
11
-16.344498
21
56.502106
31
0.0
0
LINE
8
0
6
CONTINUOUS
10
-16.344925
20
55.699410
30
0.0
11
-17.068715
21
54.722390
31
0.0
0
LINE
8
0
6
CONTINUOUS
10
-14.898405
20
55.698590
30
0.0
11
-16.344925
21
55.699410
31
0.0
0
LINE
8
0
6
CONTINUOUS
10
-14.175725
20
54.720730
30
0.0
11
-14.898405
21
55.698590
31
0.0
0
LINE
8
0
6
CONTINUOUS
10
-17.068715
20
54.722390
30
0.0
11
-16.346025
21
53.744530
31
0.0
0
LINE
8
0
6
CONTINUOUS
10
-14.899515
20
53.743720
30
0.0
11
-14.175725
21
54.720730
31
0.0
0
LINE
8
0
6
CONTINUOUS
10
-16.346025
20
53.744530
30
0.0
11
-14.899515
21
53.743720
31
0.0
0
LINE
8
0
6
CONTINUOUS
10
-23.609675
20
41.307760
30
0.0
11
-22.886985
21
40.329900
31
0.0
0
LINE
8
0
6
CONTINUOUS
10
-22.886985
20
40.329900
30
0.0
11
-22.886650
21
40.950126
31
0.0
0
LINE
8
0
6
CONTINUOUS
10
-25.056185
20
41.308580
30
0.0
11
-23.609675
21
41.307760
31
0.0
0
LINE
8
0
6
CONTINUOUS
10
-23.609675
20
41.307760
30
0.0
11
-23.609333
21
41.940733
31
0.0
0
LINE
8
0
6
CONTINUOUS
10
-25.779975
20
40.331560
30
0.0
11
-25.056185
21
41.308580
31
0.0
0
LINE
8
0
6
CONTINUOUS
10
-25.779345
20
41.516490
30
0.0
11
-25.779975
21
40.331560
31
0.0
0
LINE
8
0
6
CONTINUOUS
10
-25.056185
20
41.308580
30
0.0
11
-25.055820
21
41.994309
31
0.0
0
LINE
8
0
6
CONTINUOUS
10
-25.056185
20
41.308580
30
0.0
11
-25.779975
21
40.331560
31
0.0
0
LINE
8
0
6
CONTINUOUS
10
-23.609675
20
41.307760
30
0.0
11
-25.056185
21
41.308580
31
0.0
0
LINE
8
0
6
CONTINUOUS
10
-22.886985
20
40.329900
30
0.0
11
-23.609675
21
41.307760
31
0.0
0
LINE
8
0
6
CONTINUOUS
10
-25.779975
20
40.331560
30
0.0
11
-25.057285
21
39.353700
31
0.0
0
LINE
8
0
6
CONTINUOUS
10
-23.610775
20
39.352900
30
0.0
11
-22.886985
21
40.329900
31
0.0
0
LINE
8
0
6
CONTINUOUS
10
-25.057285
20
39.353700
30
0.0
11
-23.610775
21
39.352900
31
0.0
0
LINE
8
0
6
CONTINUOUS
10
-17.912365
20
34.675110
30
0.0
11
-17.189675
21
33.697260
31
0.0
0
LINE
8
0
6
CONTINUOUS
10
-17.189675
20
33.697260
30
0.0
11
-17.189293
21
34.403626
31
0.0
0
LINE
8
0
6
CONTINUOUS
10
-19.358875
20
34.675930
30
0.0
11
-17.912365
21
34.675110
31
0.0
0
LINE
8
0
6
CONTINUOUS
10
-17.912365
20
34.675110
30
0.0
11
-17.911997
21
35.356466
31
0.0
0
LINE
8
0
6
CONTINUOUS
10
-20.082665
20
33.698920
30
0.0
11
-19.358875
21
34.675930
31
0.0
0
LINE
8
0
6
CONTINUOUS
10
-20.082035
20
34.883840
30
0.0
11
-20.082665
21
33.698920
31
0.0
0
LINE
8
0
6
CONTINUOUS
10
-19.358875
20
34.675930
30
0.0
11
-19.358483
21
35.412316
31
0.0
0
LINE
8
0
6
CONTINUOUS
10
-19.358875
20
34.675930
30
0.0
11
-20.082665
21
33.698920
31
0.0
0
LINE
8
0
6
CONTINUOUS
10
-17.912365
20
34.675110
30
0.0
11
-19.358875
21
34.675930
31
0.0
0
LINE
8
0
6
CONTINUOUS
10
-17.189675
20
33.697260
30
0.0
11
-17.912365
21
34.675110
31
0.0
0
LINE
8
0
6
CONTINUOUS
10
-20.082665
20
33.698920
30
0.0
11
-19.359975
21
32.721060
31
0.0
0
LINE
8
0
6
CONTINUOUS
10
-17.913465
20
32.720250
30
0.0
11
-17.189675
21
33.697260
31
0.0
0
LINE
8
0
6
CONTINUOUS
10
-19.359975
20
32.721060
30
0.0
11
-17.913465
21
32.720250
31
0.0
0
LINE
8
0
6
CONTINUOUS
10
-9.388615
20
30.243840
30
0.0
11
-8.665925
21
29.265990
31
0.0
0
LINE
8
0
6
CONTINUOUS
10
-8.665925
20
29.265990
30
0.0
11
-8.665549
21
29.973627
31
0.0
0
LINE
8
0
6
CONTINUOUS
10
-10.835135
20
30.244660
30
0.0
11
-9.388615
21
30.243840
31
0.0
0
LINE
8
0
6
CONTINUOUS
10
-9.388615
20
30.243840
30
0.0
11
-9.388261
21
30.909574
31
0.0
0
LINE
8
0
6
CONTINUOUS
10
-11.558925
20
29.267640
30
0.0
11
-10.835135
21
30.244660
31
0.0
0
LINE
8
0
6
CONTINUOUS
10
-11.558285
20
30.452570
30
0.0
11
-11.558925
21
29.267640
31
0.0
0
LINE
8
0
6
CONTINUOUS
10
-10.835135
20
30.244660
30
0.0
11
-10.834767
21
30.926180
31
0.0
0
LINE
8
0
6
CONTINUOUS
10
-10.835135
20
30.244660
30
0.0
11
-11.558925
21
29.267640
31
0.0
0
LINE
8
0
6
CONTINUOUS
10
-9.388615
20
30.243840
30
0.0
11
-10.835135
21
30.244660
31
0.0
0
LINE
8
0
6
CONTINUOUS
10
-8.665925
20
29.265990
30
0.0
11
-9.388615
21
30.243840
31
0.0
0
LINE
8
0
6
CONTINUOUS
10
-11.558925
20
29.267640
30
0.0
11
-10.836225
21
28.289790
31
0.0
0
LINE
8
0
6
CONTINUOUS
10
-9.389725
20
28.288970
30
0.0
11
-8.665925
21
29.265990
31
0.0
0
LINE
8
0
6
CONTINUOUS
10
-10.836225
20
28.289790
30
0.0
11
-9.389725
21
28.288970
31
0.0
0
LINE
8
0
6
CONTINUOUS
10
0.663875
20
28.688550
30
0.0
11
1.386565
21
27.710700
31
0.0
0
LINE
8
0
6
CONTINUOUS
10
1.386565
20
27.710700
30
0.0
11
1.386964
21
28.449834
31
0.0
0
LINE
8
0
6
CONTINUOUS
10
-0.782635
20
28.689370
30
0.0
11
0.663875
21
28.688550
31
0.0
0
LINE
8
0
6
CONTINUOUS
10
0.663875
20
28.688550
30
0.0
11
0.664226
21
29.337976
31
0.0
0
LINE
8
0
6
CONTINUOUS
10
-1.506425
20
27.712350
30
0.0
11
-0.782635
21
28.689370
31
0.0
0
LINE
8
0
6
CONTINUOUS
10
-1.505795
20
28.897280
30
0.0
11
-1.506425
21
27.712350
31
0.0
0
LINE
8
0
6
CONTINUOUS
10
-0.782635
20
28.689370
30
0.0
11
-0.782289
21
29.340155
31
0.0
0
LINE
8
0
6
CONTINUOUS
10
-0.782635
20
28.689370
30
0.0
11
-1.506425
21
27.712350
31
0.0
0
LINE
8
0
6
CONTINUOUS
10
0.663875
20
28.688550
30
0.0
11
-0.782635
21
28.689370
31
0.0
0
LINE
8
0
6
CONTINUOUS
10
1.386565
20
27.710700
30
0.0
11
0.663875
21
28.688550
31
0.0
0
LINE
8
0
6
CONTINUOUS
10
-1.506425
20
27.712350
30
0.0
11
-0.783735
21
26.734500
31
0.0
0
LINE
8
0
6
CONTINUOUS
10
0.662775
20
26.733680
30
0.0
11
1.386565
21
27.710700
31
0.0
0
LINE
8
0
6
CONTINUOUS
10
-0.783735
20
26.734500
30
0.0
11
0.662775
21
26.733680
31
0.0
0
LINE
8
0
6
CONTINUOUS
10
10.714735
20
30.246020
30
0.0
11
11.437425
21
29.268180
31
0.0
0
LINE
8
0
6
CONTINUOUS
10
11.437425
20
29.268180
30
0.0
11
11.437824
21
30.006041
31
0.0
0
LINE
8
0
6
CONTINUOUS
10
9.268215
20
30.246850
30
0.0
11
10.714735
21
30.246020
31
0.0
0
LINE
8
0
6
CONTINUOUS
10
10.714735
20
30.246020
30
0.0
11
10.715102
21
30.926178
31
0.0
0
LINE
8
0
6
CONTINUOUS
10
8.544435
20
29.269830
30
0.0
11
9.268215
21
30.246850
31
0.0
0
LINE
8
0
6
CONTINUOUS
10
8.545065
20
30.454750
30
0.0
11
8.544435
21
29.269830
31
0.0
0
LINE
8
0
6
CONTINUOUS
10
9.268215
20
30.246850
30
0.0
11
9.268574
21
30.911118
31
0.0
0
LINE
8
0
6
CONTINUOUS
10
9.268215
20
30.246850
30
0.0
11
8.544435
21
29.269830
31
0.0
0
LINE
8
0
6
CONTINUOUS
10
10.714735
20
30.246020
30
0.0
11
9.268215
21
30.246850
31
0.0
0
LINE
8
0
6
CONTINUOUS
10
11.437425
20
29.268180
30
0.0
11
10.714735
21
30.246020
31
0.0
0
LINE
8
0
6
CONTINUOUS
10
8.544435
20
29.269830
30
0.0
11
9.267125
21
28.291970
31
0.0
0
LINE
8
0
6
CONTINUOUS
10
10.713635
20
28.291160
30
0.0
11
11.437425
21
29.268180
31
0.0
0
LINE
8
0
6
CONTINUOUS
10
9.267125
20
28.291970
30
0.0
11
10.713635
21
28.291160
31
0.0
0
LINE
8
0
6
CONTINUOUS
10
19.233795
20
34.679150
30
0.0
11
19.956485
21
33.701300
31
0.0
0
LINE
8
0
6
CONTINUOUS
10
19.956485
20
33.701300
30
0.0
11
19.956936
21
34.536083
31
0.0
0
LINE
8
0
6
CONTINUOUS
10
17.787275
20
34.679980
30
0.0
11
19.233795
21
34.679150
31
0.0
0
LINE
8
0
6
CONTINUOUS
10
19.233795
20
34.679150
30
0.0
11
19.234189
21
35.408949
31
0.0
0
LINE
8
0
6
CONTINUOUS
10
17.063495
20
33.702960
30
0.0
11
17.787275
21
34.679980
31
0.0
0
LINE
8
0
6
CONTINUOUS
10
17.064125
20
34.887880
30
0.0
11
17.063495
21
33.702960
31
0.0
0
LINE
8
0
6
CONTINUOUS
10
17.787275
20
34.679980
30
0.0
11
17.787640
21
35.356539
31
0.0
0
LINE
8
0
6
CONTINUOUS
10
17.787275
20
34.679980
30
0.0
11
17.063495
21
33.702960
31
0.0
0
LINE
8
0
6
CONTINUOUS
10
19.233795
20
34.679150
30
0.0
11
17.787275
21
34.679980
31
0.0
0
LINE
8
0
6
CONTINUOUS
10
19.956485
20
33.701300
30
0.0
11
19.233795
21
34.679150
31
0.0
0
LINE
8
0
6
CONTINUOUS
10
17.063495
20
33.702960
30
0.0
11
17.786185
21
32.725100
31
0.0
0
LINE
8
0
6
CONTINUOUS
10
19.232695
20
32.724290
30
0.0
11
19.956485
21
33.701300
31
0.0
0
LINE
8
0
6
CONTINUOUS
10
17.786185
20
32.725100
30
0.0
11
19.232695
21
32.724290
31
0.0
0
LINE
8
0
6
CONTINUOUS
10
24.924095
20
41.313020
30
0.0
11
25.646785
21
40.335170
31
0.0
0
LINE
8
0
6
CONTINUOUS
10
25.646785
20
40.335170
30
0.0
11
25.647189
21
41.083701
31
0.0
0
LINE
8
0
6
CONTINUOUS
10
23.477575
20
41.313840
30
0.0
11
24.924095
21
41.313020
31
0.0
0
LINE
8
0
6
CONTINUOUS
10
24.924095
20
41.313020
30
0.0
11
24.924462
21
41.991973
31
0.0
0
LINE
8
0
6
CONTINUOUS
10
22.753795
20
40.336830
30
0.0
11
23.477575
21
41.313840
31
0.0
0
LINE
8
0
6
CONTINUOUS
10
22.754425
20
41.521750
30
0.0
11
22.753795
21
40.336830
31
0.0
0
LINE
8
0
6
CONTINUOUS
10
23.477575
20
41.313840
30
0.0
11
23.477914
21
41.942305
31
0.0
0
LINE
8
0
6
CONTINUOUS
10
23.477575
20
41.313840
30
0.0
11
22.753795
21
40.336830
31
0.0
0
LINE
8
0
6
CONTINUOUS
10
24.924095
20
41.313020
30
0.0
11
23.477575
21
41.313840
31
0.0
0
LINE
8
0
6
CONTINUOUS
10
25.646785
20
40.335170
30
0.0
11
24.924095
21
41.313020
31
0.0
0
LINE
8
0
6
CONTINUOUS
10
22.753795
20
40.336830
30
0.0
11
23.476485
21
39.358970
31
0.0
0
LINE
8
0
6
CONTINUOUS
10
24.922995
20
39.358160
30
0.0
11
25.646785
21
40.335170
31
0.0
0
LINE
8
0
6
CONTINUOUS
10
23.476485
20
39.358970
30
0.0
11
24.922995
21
39.358160
31
0.0
0
LINE
8
0
6
CONTINUOUS
10
26.919365
20
49.137710
30
0.0
11
27.642045
21
48.159850
31
0.0
0
LINE
8
0
6
CONTINUOUS
10
27.642045
20
48.159850
30
0.0
11
27.642467
21
48.941293
31
0.0
0
LINE
8
0
6
CONTINUOUS
10
25.472845
20
49.138530
30
0.0
11
26.919365
21
49.137710
31
0.0
0
LINE
8
0
6
CONTINUOUS
10
26.919365
20
49.137710
30
0.0
11
26.919757
21
49.874493
31
0.0
0
LINE
8
0
6
CONTINUOUS
10
24.749055
20
48.161510
30
0.0
11
25.472845
21
49.138530
31
0.0
0
LINE
8
0
6
CONTINUOUS
10
25.472845
20
49.138530
30
0.0
11
25.473177
21
49.762197
31
0.0
0
LINE
8
0
6
CONTINUOUS
10
25.472845
20
49.138530
30
0.0
11
24.749055
21
48.161510
31
0.0
0
LINE
8
0
6
CONTINUOUS
10
26.919365
20
49.137710
30
0.0
11
25.472845
21
49.138530
31
0.0
0
LINE
8
0
6
CONTINUOUS
10
27.642045
20
48.159850
30
0.0
11
26.919365
21
49.137710
31
0.0
0
LINE
8
0
6
CONTINUOUS
10
24.749055
20
48.161510
30
0.0
11
25.471745
21
47.183650
31
0.0
0
LINE
8
0
6
CONTINUOUS
10
26.918255
20
47.182850
30
0.0
11
27.642045
21
48.159850
31
0.0
0
LINE
8
0
6
CONTINUOUS
10
25.471745
20
47.183650
30
0.0
11
26.918255
21
47.182850
31
0.0
0
LINE
8
0
6
CONTINUOUS
10
24.915815
20
56.961960
30
0.0
11
25.638505
21
55.984100
31
0.0
0
LINE
8
0
6
CONTINUOUS
10
25.638505
20
55.984100
30
0.0
11
25.638909
21
56.732537
31
0.0
0
LINE
8
0
6
CONTINUOUS
10
23.469295
20
56.962780
30
0.0
11
24.915815
21
56.961960
31
0.0
0
LINE
8
0
6
CONTINUOUS
10
24.915815
20
56.961960
30
0.0
11
24.916197
21
57.670120
31
0.0
0
LINE
8
0
6
CONTINUOUS
10
22.745515
20
55.985760
30
0.0
11
23.469295
21
56.962780
31
0.0
0
LINE
8
0
6
CONTINUOUS
10
22.746145
20
57.170680
30
0.0
11
22.745515
21
55.985760
31
0.0
0
LINE
8
0
6
CONTINUOUS
10
23.469295
20
56.962780
30
0.0
11
23.469648
21
57.617089
31
0.0
0
LINE
8
0
6
CONTINUOUS
10
23.469295
20
56.962780
30
0.0
11
22.745515
21
55.985760
31
0.0
0
LINE
8
0
6
CONTINUOUS
10
24.915815
20
56.961960
30
0.0
11
23.469295
21
56.962780
31
0.0
0
LINE
8
0
6
CONTINUOUS
10
25.638505
20
55.984100
30
0.0
11
24.915815
21
56.961960
31
0.0
0
LINE
8
0
6
CONTINUOUS
10
22.745515
20
55.985760
30
0.0
11
23.468205
21
55.007900
31
0.0
0
LINE
8
0
6
CONTINUOUS
10
24.914715
20
55.007100
30
0.0
11
25.638505
21
55.984100
31
0.0
0
LINE
8
0
6
CONTINUOUS
10
23.468205
20
55.007900
30
0.0
11
24.914715
21
55.007100
31
0.0
0
LINE
8
0
6
CONTINUOUS
10
19.218505
20
63.594610
30
0.0
11
19.941195
21
62.616750
31
0.0
0
LINE
8
0
6
CONTINUOUS
10
19.941195
20
62.616750
30
0.0
11
19.941663
21
63.497423
31
0.0
0
LINE
8
0
6
CONTINUOUS
10
17.771985
20
63.595430
30
0.0
11
19.218505
21
63.594610
31
0.0
0
LINE
8
0
6
CONTINUOUS
10
19.218505
20
63.594610
30
0.0
11
19.218987
21
64.501863
31
0.0
0
LINE
8
0
6
CONTINUOUS
10
17.048195
20
62.618410
30
0.0
11
17.771985
21
63.595430
31
0.0
0
LINE
8
0
6
CONTINUOUS
10
17.048835
20
63.803330
30
0.0
11
17.048195
21
62.618410
31
0.0
0
LINE
8
0
6
CONTINUOUS
10
17.771985
20
63.595430
30
0.0
11
17.772428
21
64.428084
31
0.0
0
LINE
8
0
6
CONTINUOUS
10
17.771985
20
63.595430
30
0.0
11
17.048195
21
62.618410
31
0.0
0
LINE
8
0
6
CONTINUOUS
10
19.218505
20
63.594610
30
0.0
11
17.771985
21
63.595430
31
0.0
0
LINE
8
0
6
CONTINUOUS
10
19.941195
20
62.616750
30
0.0
11
19.218505
21
63.594610
31
0.0
0
LINE
8
0
6
CONTINUOUS
10
17.048195
20
62.618410
30
0.0
11
17.770885
21
61.640550
31
0.0
0
LINE
8
0
6
CONTINUOUS
10
19.217395
20
61.639730
30
0.0
11
19.941195
21
62.616750
31
0.0
0
LINE
8
0
6
CONTINUOUS
10
17.770885
20
61.640550
30
0.0
11
19.217395
21
61.639730
31
0.0
0
LINE
8
0
6
CONTINUOUS
10
10.694755
20
68.025880
30
0.0
11
11.417445
21
67.048020
31
0.0
0
LINE
8
0
6
CONTINUOUS
10
11.417445
20
67.048020
30
0.0
11
11.417812
21
67.737921
31
0.0
0
LINE
8
0
6
CONTINUOUS
10
9.248235
20
68.026700
30
0.0
11
10.694755
21
68.025880
31
0.0
0
LINE
8
0
6
CONTINUOUS
10
10.694755
20
68.025880
30
0.0
11
10.695153
21
68.774186
31
0.0
0
LINE
8
0
6
CONTINUOUS
10
8.524445
20
67.049680
30
0.0
11
9.248235
21
68.026700
31
0.0
0
LINE
8
0
6
CONTINUOUS
10
8.525085
20
68.234600
30
0.0
11
8.524445
21
67.049680
31
0.0
0
LINE
8
0
6
CONTINUOUS
10
9.248235
20
68.026700
30
0.0
11
9.248622
21
68.742712
31
0.0
0
LINE
8
0
6
CONTINUOUS
10
9.248235
20
68.026700
30
0.0
11
8.524445
21
67.049680
31
0.0
0
LINE
8
0
6
CONTINUOUS
10
10.694755
20
68.025880
30
0.0
11
9.248235
21
68.026700
31
0.0
0
LINE
8
0
6
CONTINUOUS
10
11.417445
20
67.048020
30
0.0
11
10.694755
21
68.025880
31
0.0
0
LINE
8
0
6
CONTINUOUS
10
8.524445
20
67.049680
30
0.0
11
9.247145
21
66.071820
31
0.0
0
LINE
8
0
6
CONTINUOUS
10
10.693645
20
66.071000
30
0.0
11
11.417445
21
67.048020
31
0.0
0
LINE
8
0
6
CONTINUOUS
10
9.247145
20
66.071820
30
0.0
11
10.693645
21
66.071000
31
0.0
0
LINE
8
0
6
CONTINUOUS
10
0.642255
20
69.581150
30
0.0
11
1.364945
21
68.603310
31
0.0
0
LINE
8
0
6
CONTINUOUS
10
1.364945
20
68.603310
30
0.0
11
1.365262
21
69.200072
31
0.0
0
LINE
8
0
6
CONTINUOUS
10
-0.804265
20
69.581970
30
0.0
11
0.642255
21
69.581150
31
0.0
0
LINE
8
0
6
CONTINUOUS
10
0.642255
20
69.581150
30
0.0
11
0.642623
21
70.273989
31
0.0
0
LINE
8
0
6
CONTINUOUS
10
-1.528055
20
68.604970
30
0.0
11
-0.804265
21
69.581970
31
0.0
0
LINE
8
0
6
CONTINUOUS
10
-1.527415
20
69.789890
30
0.0
11
-1.528055
21
68.604970
31
0.0
0
LINE
8
0
6
CONTINUOUS
10
-0.804265
20
69.581970
30
0.0
11
-0.803890
21
70.276490
31
0.0
0
LINE
8
0
6
CONTINUOUS
10
-0.804265
20
69.581970
30
0.0
11
-1.528055
21
68.604970
31
0.0
0
LINE
8
0
6
CONTINUOUS
10
0.642255
20
69.581150
30
0.0
11
-0.804265
21
69.581970
31
0.0
0
LINE
8
0
6
CONTINUOUS
10
1.364945
20
68.603310
30
0.0
11
0.642255
21
69.581150
31
0.0
0
LINE
8
0
6
CONTINUOUS
10
-1.528055
20
68.604970
30
0.0
11
-0.805355
21
67.627110
31
0.0
0
LINE
8
0
6
CONTINUOUS
10
0.641145
20
67.626290
30
0.0
11
1.364945
21
68.603310
31
0.0
0
LINE
8
0
6
CONTINUOUS
10
-0.805355
20
67.627110
30
0.0
11
0.641145
21
67.626290
31
0.0
0
LINE
8
0
6
CONTINUOUS
10
-9.408605
20
68.023660
30
0.0
11
-8.685915
21
67.045820
31
0.0
0
LINE
8
0
6
CONTINUOUS
10
-8.685915
20
67.045820
30
0.0
11
-8.685580
21
67.675040
31
0.0
0
LINE
8
0
6
CONTINUOUS
10
-10.855125
20
68.024500
30
0.0
11
-9.408605
21
68.023660
31
0.0
0
LINE
8
0
6
CONTINUOUS
10
-9.408605
20
68.023660
30
0.0
11
-9.408223
21
68.742482
31
0.0
0
LINE
8
0
6
CONTINUOUS
10
-11.578915
20
67.047480
30
0.0
11
-10.855125
21
68.024500
31
0.0
0
LINE
8
0
6
CONTINUOUS
10
-11.578275
20
68.232400
30
0.0
11
-11.578915
21
67.047480
31
0.0
0
LINE
8
0
6
CONTINUOUS
10
-10.855125
20
68.024500
30
0.0
11
-10.854719
21
68.775791
31
0.0
0
LINE
8
0
6
CONTINUOUS
10
-10.855125
20
68.024500
30
0.0
11
-11.578915
21
67.047480
31
0.0
0
LINE
8
0
6
CONTINUOUS
10
-9.408605
20
68.023660
30
0.0
11
-10.855125
21
68.024500
31
0.0
0
LINE
8
0
6
CONTINUOUS
10
-8.685915
20
67.045820
30
0.0
11
-9.408605
21
68.023660
31
0.0
0
LINE
8
0
6
CONTINUOUS
10
-11.578915
20
67.047480
30
0.0
11
-10.856215
21
66.069620
31
0.0
0
LINE
8
0
6
CONTINUOUS
10
-9.409715
20
66.068800
30
0.0
11
-8.685915
21
67.045820
31
0.0
0
LINE
8
0
6
CONTINUOUS
10
-10.856215
20
66.069620
30
0.0
11
-9.409715
21
66.068800
31
0.0
0
LINE
8
0
6
CONTINUOUS
10
-17.927665
20
63.590550
30
0.0
11
-17.204975
21
62.612690
31
0.0
0
LINE
8
0
6
CONTINUOUS
10
-17.204975
20
62.612690
30
0.0
11
-17.204569
21
63.365293
31
0.0
0
LINE
8
0
6
CONTINUOUS
10
-19.374185
20
63.591370
30
0.0
11
-17.927665
21
63.590550
31
0.0
0
LINE
8
0
6
CONTINUOUS
10
-17.927665
20
63.590550
30
0.0
11
-17.927212
21
64.429812
31
0.0
0
LINE
8
0
6
CONTINUOUS
10
-20.097975
20
62.614350
30
0.0
11
-19.374185
21
63.591370
31
0.0
0
LINE
8
0
6
CONTINUOUS
10
-20.097335
20
63.799270
30
0.0
11
-20.097975
21
62.614350
31
0.0
0
LINE
8
0
6
CONTINUOUS
10
-19.374185
20
63.591370
30
0.0
11
-19.373691
21
64.505321
31
0.0
0
LINE
8
0
6
CONTINUOUS
10
-19.374185
20
63.591370
30
0.0
11
-20.097975
21
62.614350
31
0.0
0
LINE
8
0
6
CONTINUOUS
10
-17.927665
20
63.590550
30
0.0
11
-19.374185
21
63.591370
31
0.0
0
LINE
8
0
6
CONTINUOUS
10
-17.204975
20
62.612690
30
0.0
11
-17.927665
21
63.590550
31
0.0
0
LINE
8
0
6
CONTINUOUS
10
-20.097975
20
62.614350
30
0.0
11
-19.375275
21
61.636490
31
0.0
0
LINE
8
0
6
CONTINUOUS
10
-17.928775
20
61.635690
30
0.0
11
-17.204975
21
62.612690
31
0.0
0
LINE
8
0
6
CONTINUOUS
10
-19.375275
20
61.636490
30
0.0
11
-17.928775
21
61.635690
31
0.0
0
LINE
8
0
6
CONTINUOUS
10
-23.617965
20
56.956670
30
0.0
11
-22.895275
21
55.978810
31
0.0
0
LINE
8
0
6
CONTINUOUS
10
-22.895275
20
55.978810
30
0.0
11
-22.894943
21
56.594366
31
0.0
0
LINE
8
0
6
CONTINUOUS
10
-25.064475
20
56.957490
30
0.0
11
-23.617965
21
56.956670
31
0.0
0
LINE
8
0
6
CONTINUOUS
10
-23.617965
20
56.956670
30
0.0
11
-23.617609
21
57.615632
31
0.0
0
LINE
8
0
6
CONTINUOUS
10
-25.788265
20
55.980450
30
0.0
11
-25.064475
21
56.957490
31
0.0
0
LINE
8
0
6
CONTINUOUS
10
-25.787635
20
57.165370
30
0.0
11
-25.788265
21
55.980450
31
0.0
0
LINE
8
0
6
CONTINUOUS
10
-25.064475
20
56.957490
30
0.0
11
-25.064093
21
57.675464
31
0.0
0
LINE
8
0
6
CONTINUOUS
10
-25.064475
20
56.957490
30
0.0
11
-25.788265
21
55.980450
31
0.0
0
LINE
8
0
6
CONTINUOUS
10
-23.617965
20
56.956670
30
0.0
11
-25.064475
21
56.957490
31
0.0
0
LINE
8
0
6
CONTINUOUS
10
-22.895275
20
55.978810
30
0.0
11
-23.617965
21
56.956670
31
0.0
0
LINE
8
0
6
CONTINUOUS
10
-25.788265
20
55.980450
30
0.0
11
-25.065575
21
55.002590
31
0.0
0
LINE
8
0
6
CONTINUOUS
10
-23.619065
20
55.001790
30
0.0
11
-22.895275
21
55.978810
31
0.0
0
LINE
8
0
6
CONTINUOUS
10
-25.065575
20
55.002590
30
0.0
11
-23.619065
21
55.001790
31
0.0
0
LINE
8
0
6
CONTINUOUS
10
-32.314405
20
41.597860
30
0.0
11
-31.591715
21
40.620010
31
0.0
0
LINE
8
0
6
CONTINUOUS
10
-31.591715
20
40.620010
30
0.0
11
-31.591495
21
41.034224
31
0.0
0
LINE
8
0
6
CONTINUOUS
10
-33.760925
20
41.598680
30
0.0
11
-32.314405
21
41.597860
31
0.0
0
LINE
8
0
6
CONTINUOUS
10
-32.314405
20
41.597860
30
0.0
11
-32.314162
21
42.054609
31
0.0
0
LINE
8
0
6
CONTINUOUS
10
-34.484715
20
40.621650
30
0.0
11
-33.760925
21
41.598680
31
0.0
0
LINE
8
0
6
CONTINUOUS
10
-34.484075
20
41.806580
30
0.0
11
-34.484715
21
40.621650
31
0.0
0
LINE
8
0
6
CONTINUOUS
10
-33.760925
20
41.598680
30
0.0
11
-33.760617
21
42.168133
31
0.0
0
LINE
8
0
6
CONTINUOUS
10
-33.760925
20
41.598680
30
0.0
11
-34.484715
21
40.621650
31
0.0
0
LINE
8
0
6
CONTINUOUS
10
-32.314405
20
41.597860
30
0.0
11
-33.760925
21
41.598680
31
0.0
0
LINE
8
0
6
CONTINUOUS
10
-31.591715
20
40.620010
30
0.0
11
-32.314405
21
41.597860
31
0.0
0
LINE
8
0
6
CONTINUOUS
10
-34.484715
20
40.621650
30
0.0
11
-33.762015
21
39.643800
31
0.0
0
LINE
8
0
6
CONTINUOUS
10
-32.315515
20
39.642990
30
0.0
11
-31.591715
21
40.620010
31
0.0
0
LINE
8
0
6
CONTINUOUS
10
-33.762015
20
39.643800
30
0.0
11
-32.315515
21
39.642990
31
0.0
0
LINE
8
0
6
CONTINUOUS
10
-27.386045
20
34.075180
30
0.0
11
-26.663355
21
33.097330
31
0.0
0
LINE
8
0
6
CONTINUOUS
10
-26.663355
20
33.097330
30
0.0
11
-26.663064
21
33.644579
31
0.0
0
LINE
8
0
6
CONTINUOUS
10
-28.832565
20
34.076010
30
0.0
11
-27.386045
21
34.075180
31
0.0
0
LINE
8
0
6
CONTINUOUS
10
-27.386045
20
34.075180
30
0.0
11
-27.385756
21
34.619431
31
0.0
0
LINE
8
0
6
CONTINUOUS
10
-29.556355
20
33.098980
30
0.0
11
-28.832565
21
34.076010
31
0.0
0
LINE
8
0
6
CONTINUOUS
10
-29.555715
20
34.283910
30
0.0
11
-29.556355
21
33.098980
31
0.0
0
LINE
8
0
6
CONTINUOUS
10
-28.832565
20
34.076010
30
0.0
11
-28.832225
21
34.704960
31
0.0
0
LINE
8
0
6
CONTINUOUS
10
-28.832565
20
34.076010
30
0.0
11
-29.556355
21
33.098980
31
0.0
0
LINE
8
0
6
CONTINUOUS
10
-27.386045
20
34.075180
30
0.0
11
-28.832565
21
34.076010
31
0.0
0
LINE
8
0
6
CONTINUOUS
10
-26.663355
20
33.097330
30
0.0
11
-27.386045
21
34.075180
31
0.0
0
LINE
8
0
6
CONTINUOUS
10
-29.556355
20
33.098980
30
0.0
11
-28.833655
21
32.121130
31
0.0
0
LINE
8
0
6
CONTINUOUS
10
-27.387155
20
32.120320
30
0.0
11
-26.663355
21
33.097330
31
0.0
0
LINE
8
0
6
CONTINUOUS
10
-28.833655
20
32.121130
30
0.0
11
-27.387155
21
32.120320
31
0.0
0
LINE
8
0
6
CONTINUOUS
10
-19.712975
20
28.105570
30
0.0
11
-18.990285
21
27.127720
31
0.0
0
LINE
8
0
6
CONTINUOUS
10
-18.990285
20
27.127720
30
0.0
11
-18.989974
21
27.713160
31
0.0
0
LINE
8
0
6
CONTINUOUS
10
-21.159495
20
28.106390
30
0.0
11
-19.712975
21
28.105570
31
0.0
0
LINE
8
0
6
CONTINUOUS
10
-19.712975
20
28.105570
30
0.0
11
-19.712690
21
28.640855
31
0.0
0
LINE
8
0
6
CONTINUOUS
10
-21.883285
20
27.129380
30
0.0
11
-21.159495
21
28.106390
31
0.0
0
LINE
8
0
6
CONTINUOUS
10
-21.882645
20
28.314300
30
0.0
11
-21.883285
21
27.129380
31
0.0
0
LINE
8
0
6
CONTINUOUS
10
-21.159495
20
28.106390
30
0.0
11
-21.159183
21
28.684830
31
0.0
0
LINE
8
0
6
CONTINUOUS
10
-21.159495
20
28.106390
30
0.0
11
-21.883285
21
27.129380
31
0.0
0
LINE
8
0
6
CONTINUOUS
10
-19.712975
20
28.105570
30
0.0
11
-21.159495
21
28.106390
31
0.0
0
LINE
8
0
6
CONTINUOUS
10
-18.990285
20
27.127720
30
0.0
11
-19.712975
21
28.105570
31
0.0
0
LINE
8
0
6
CONTINUOUS
10
-21.883285
20
27.129380
30
0.0
11
-21.160585
21
26.151520
31
0.0
0
LINE
8
0
6
CONTINUOUS
10
-19.714085
20
26.150710
30
0.0
11
-18.990285
21
27.127720
31
0.0
0
LINE
8
0
6
CONTINUOUS
10
-21.160585
20
26.151520
30
0.0
11
-19.714085
21
26.150710
31
0.0
0
LINE
8
0
6
CONTINUOUS
10
-10.046295
20
24.273370
30
0.0
11
-9.323605
21
23.295520
31
0.0
0
LINE
8
0
6
CONTINUOUS
10
-9.323605
20
23.295520
30
0.0
11
-9.323325
21
23.814190
31
0.0
0
LINE
8
0
6
CONTINUOUS
10
-11.492815
20
24.274190
30
0.0
11
-10.046295
21
24.273370
31
0.0
0
LINE
8
0
6
CONTINUOUS
10
-10.046295
20
24.273370
30
0.0
11
-10.046059
21
24.710028
31
0.0
0
LINE
8
0
6
CONTINUOUS
10
-12.216605
20
23.297170
30
0.0
11
-11.492815
21
24.274190
31
0.0
0
LINE
8
0
6
CONTINUOUS
10
-12.215965
20
24.482090
30
0.0
11
-12.216605
21
23.297170
31
0.0
0
LINE
8
0
6
CONTINUOUS
10
-11.492815
20
24.274190
30
0.0
11
-11.492561
21
24.744876
31
0.0
0
LINE
8
0
6
CONTINUOUS
10
-11.492815
20
24.274190
30
0.0
11
-12.216605
21
23.297170
31
0.0
0
LINE
8
0
6
CONTINUOUS
10
-10.046295
20
24.273370
30
0.0
11
-11.492815
21
24.274190
31
0.0
0
LINE
8
0
6
CONTINUOUS
10
-9.323605
20
23.295520
30
0.0
11
-10.046295
21
24.273370
31
0.0
0
LINE
8
0
6
CONTINUOUS
10
-12.216605
20
23.297170
30
0.0
11
-11.493905
21
22.319310
31
0.0
0
LINE
8
0
6
CONTINUOUS
10
-10.047405
20
22.318500
30
0.0
11
-9.323605
21
23.295520
31
0.0
0
LINE
8
0
6
CONTINUOUS
10
-11.493905
20
22.319310
30
0.0
11
-10.047405
21
22.318500
31
0.0
0
LINE
8
0
6
CONTINUOUS
10
0.667755
20
22.953670
30
0.0
11
1.390445
21
21.975830
31
0.0
0
LINE
8
0
6
CONTINUOUS
10
1.390445
20
21.975830
30
0.0
11
1.390738
21
22.517917
31
0.0
0
LINE
8
0
6
CONTINUOUS
10
-0.778755
20
22.954500
30
0.0
11
0.667755
21
22.953670
31
0.0
0
LINE
8
0
6
CONTINUOUS
10
0.667755
20
22.953670
30
0.0
11
0.667994
21
23.395663
31
0.0
0
LINE
8
0
6
CONTINUOUS
10
-1.502545
20
21.977470
30
0.0
11
-0.778755
21
22.954500
31
0.0
0
LINE
8
0
6
CONTINUOUS
10
-0.778755
20
22.954500
30
0.0
11
-0.778519
21
23.398009
31
0.0
0
LINE
8
0
6
CONTINUOUS
10
-0.778755
20
22.954500
30
0.0
11
-1.502545
21
21.977470
31
0.0
0
LINE
8
0
6
CONTINUOUS
10
0.667755
20
22.953670
30
0.0
11
-0.778755
21
22.954500
31
0.0
0
LINE
8
0
6
CONTINUOUS
10
1.390445
20
21.975830
30
0.0
11
0.667755
21
22.953670
31
0.0
0
LINE
8
0
6
CONTINUOUS
10
-1.502545
20
21.977470
30
0.0
11
-0.779855
21
20.999620
31
0.0
0
LINE
8
0
6
CONTINUOUS
10
0.666655
20
20.998810
30
0.0
11
1.390445
21
21.975830
31
0.0
0
LINE
8
0
6
CONTINUOUS
10
-0.779855
20
20.999620
30
0.0
11
0.666655
21
20.998810
31
0.0
0
LINE
8
0
6
CONTINUOUS
10
11.380425
20
24.275680
30
0.0
11
12.103115
21
23.297830
31
0.0
0
LINE
8
0
6
CONTINUOUS
10
12.103115
20
23.297830
30
0.0
11
12.103438
21
23.896438
31
0.0
0
LINE
8
0
6
CONTINUOUS
10
9.933905
20
24.276500
30
0.0
11
11.380425
21
24.275680
31
0.0
0
LINE
8
0
6
CONTINUOUS
10
11.380425
20
24.275680
30
0.0
11
11.380676
21
24.739557
31
0.0
0
LINE
8
0
6
CONTINUOUS
10
9.210115
20
23.299490
30
0.0
11
9.933905
21
24.276500
31
0.0
0
LINE
8
0
6
CONTINUOUS
10
9.933905
20
24.276500
30
0.0
11
9.934140
21
24.711453
31
0.0
0
LINE
8
0
6
CONTINUOUS
10
9.933905
20
24.276500
30
0.0
11
9.210115
21
23.299490
31
0.0
0
LINE
8
0
6
CONTINUOUS
10
11.380425
20
24.275680
30
0.0
11
9.933905
21
24.276500
31
0.0
0
LINE
8
0
6
CONTINUOUS
10
12.103115
20
23.297830
30
0.0
11
11.380425
21
24.275680
31
0.0
0
LINE
8
0
6
CONTINUOUS
10
9.210115
20
23.299490
30
0.0
11
9.932815
21
22.321630
31
0.0
0
LINE
8
0
6
CONTINUOUS
10
11.379315
20
22.320820
30
0.0
11
12.103115
21
23.297830
31
0.0
0
LINE
8
0
6
CONTINUOUS
10
9.932815
20
22.321630
30
0.0
11
11.379315
21
22.320820
31
0.0
0
LINE
8
0
6
CONTINUOUS
10
21.043065
20
28.110000
30
0.0
11
21.765755
21
27.132150
31
0.0
0
LINE
8
0
6
CONTINUOUS
10
21.765755
20
27.132150
30
0.0
11
21.766106
21
27.791866
31
0.0
0
LINE
8
0
6
CONTINUOUS
10
19.596545
20
28.110820
30
0.0
11
21.043065
21
28.110000
31
0.0
0
LINE
8
0
6
CONTINUOUS
10
21.043065
20
28.110000
30
0.0
11
21.043371
21
28.685039
31
0.0
0
LINE
8
0
6
CONTINUOUS
10
18.872755
20
27.133800
30
0.0
11
19.596545
21
28.110820
31
0.0
0
LINE
8
0
6
CONTINUOUS
10
19.596545
20
28.110820
30
0.0
11
19.596830
21
28.639090
31
0.0
0
LINE
8
0
6
CONTINUOUS
10
19.596545
20
28.110820
30
0.0
11
18.872755
21
27.133800
31
0.0
0
LINE
8
0
6
CONTINUOUS
10
21.043065
20
28.110000
30
0.0
11
19.596545
21
28.110820
31
0.0
0
LINE
8
0
6
CONTINUOUS
10
21.765755
20
27.132150
30
0.0
11
21.043065
21
28.110000
31
0.0
0
LINE
8
0
6
CONTINUOUS
10
18.872755
20
27.133800
30
0.0
11
19.595455
21
26.155950
31
0.0
0
LINE
8
0
6
CONTINUOUS
10
21.041955
20
26.155130
30
0.0
11
21.765755
21
27.132150
31
0.0
0
LINE
8
0
6
CONTINUOUS
10
19.595455
20
26.155950
30
0.0
11
21.041955
21
26.155130
31
0.0
0
LINE
8
0
6
CONTINUOUS
10
28.709825
20
34.081270
30
0.0
11
29.432515
21
33.103420
31
0.0
0
LINE
8
0
6
CONTINUOUS
10
29.432515
20
33.103420
30
0.0
11
29.432891
21
33.799356
31
0.0
0
LINE
8
0
6
CONTINUOUS
10
27.263315
20
34.082090
30
0.0
11
28.709825
21
34.081270
31
0.0
0
LINE
8
0
6
CONTINUOUS
10
28.709825
20
34.081270
30
0.0
11
28.710161
21
34.703317
31
0.0
0
LINE
8
0
6
CONTINUOUS
10
26.539525
20
33.105070
30
0.0
11
27.263315
21
34.082090
31
0.0
0
LINE
8
0
6
CONTINUOUS
10
27.263315
20
34.082090
30
0.0
11
27.263599
21
34.615716
31
0.0
0
LINE
8
0
6
CONTINUOUS
10
27.263315
20
34.082090
30
0.0
11
26.539525
21
33.105070
31
0.0
0
LINE
8
0
6
CONTINUOUS
10
28.709825
20
34.081270
30
0.0
11
27.263315
21
34.082090
31
0.0
0
LINE
8
0
6
CONTINUOUS
10
29.432515
20
33.103420
30
0.0
11
28.709825
21
34.081270
31
0.0
0
LINE
8
0
6
CONTINUOUS
10
26.539525
20
33.105070
30
0.0
11
27.262215
21
32.127210
31
0.0
0
LINE
8
0
6
CONTINUOUS
10
28.708725
20
32.126400
30
0.0
11
29.432515
21
33.103420
31
0.0
0
LINE
8
0
6
CONTINUOUS
10
27.262215
20
32.127210
30
0.0
11
28.708725
21
32.126400
31
0.0
0
LINE
8
0
6
CONTINUOUS
10
33.630235
20
41.605000
30
0.0
11
34.352925
21
40.627150
31
0.0
0
LINE
8
0
6
CONTINUOUS
10
34.352925
20
40.627150
30
0.0
11
34.353260
21
41.256589
31
0.0
0
LINE
8
0
6
CONTINUOUS
10
32.183715
20
41.605820
30
0.0
11
33.630235
21
41.605000
31
0.0
0
LINE
8
0
6
CONTINUOUS
10
33.630235
20
41.605000
30
0.0
11
33.630532
21
42.164421
31
0.0
0
LINE
8
0
6
CONTINUOUS
10
31.459925
20
40.628800
30
0.0
11
32.183715
21
41.605820
31
0.0
0
LINE
8
0
6
CONTINUOUS
10
32.183715
20
41.605820
30
0.0
11
32.183956
21
42.052508
31
0.0
0
LINE
8
0
6
CONTINUOUS
10
32.183715
20
41.605820
30
0.0
11
31.459925
21
40.628800
31
0.0
0
LINE
8
0
6
CONTINUOUS
10
33.630235
20
41.605000
30
0.0
11
32.183715
21
41.605820
31
0.0
0
LINE
8
0
6
CONTINUOUS
10
34.352925
20
40.627150
30
0.0
11
33.630235
21
41.605000
31
0.0
0
LINE
8
0
6
CONTINUOUS
10
31.459925
20
40.628800
30
0.0
11
32.182625
21
39.650950
31
0.0
0
LINE
8
0
6
CONTINUOUS
10
33.629125
20
39.650130
30
0.0
11
34.352925
21
40.627150
31
0.0
0
LINE
8
0
6
CONTINUOUS
10
32.182625
20
39.650950
30
0.0
11
33.629125
21
39.650130
31
0.0
0
LINE
8
0
6
CONTINUOUS
10
35.322655
20
49.944710
30
0.0
11
36.045345
21
48.966850
31
0.0
0
LINE
8
0
6
CONTINUOUS
10
36.045345
20
48.966850
30
0.0
11
36.045686
21
49.608936
31
0.0
0
LINE
8
0
6
CONTINUOUS
10
33.876135
20
49.945550
30
0.0
11
35.322655
21
49.944710
31
0.0
0
LINE
8
0
6
CONTINUOUS
10
35.322655
20
49.944710
30
0.0
11
35.322978
21
50.542805
31
0.0
0
LINE
8
0
6
CONTINUOUS
10
33.152345
20
48.968510
30
0.0
11
33.876135
21
49.945550
31
0.0
0
LINE
8
0
6
CONTINUOUS
10
33.876135
20
49.945550
30
0.0
11
33.876396
21
50.428754
31
0.0
0
LINE
8
0
6
CONTINUOUS
10
33.876135
20
49.945550
30
0.0
11
33.152345
21
48.968510
31
0.0
0
LINE
8
0
6
CONTINUOUS
10
35.322655
20
49.944710
30
0.0
11
33.876135
21
49.945550
31
0.0
0
LINE
8
0
6
CONTINUOUS
10
36.045345
20
48.966850
30
0.0
11
35.322655
21
49.944710
31
0.0
0
LINE
8
0
6
CONTINUOUS
10
33.152345
20
48.968510
30
0.0
11
33.875045
21
47.990650
31
0.0
0
LINE
8
0
6
CONTINUOUS
10
35.321545
20
47.989850
30
0.0
11
36.045345
21
48.966850
31
0.0
0
LINE
8
0
6
CONTINUOUS
10
33.875045
20
47.990650
30
0.0
11
35.321545
21
47.989850
31
0.0
0
LINE
8
0
6
CONTINUOUS
10
33.621415
20
58.284070
30
0.0
11
34.344115
21
57.306210
31
0.0
0
LINE
8
0
6
CONTINUOUS
10
34.344115
20
57.306210
30
0.0
11
34.344457
21
57.949536
31
0.0
0
LINE
8
0
6
CONTINUOUS
10
32.174905
20
58.284890
30
0.0
11
33.621415
21
58.284070
31
0.0
0
LINE
8
0
6
CONTINUOUS
10
33.621415
20
58.284070
30
0.0
11
33.621751
21
58.906120
31
0.0
0
LINE
8
0
6
CONTINUOUS
10
31.451115
20
57.307870
30
0.0
11
32.174905
21
58.284890
31
0.0
0
LINE
8
0
6
CONTINUOUS
10
32.174905
20
58.284890
30
0.0
11
32.175177
21
58.789282
31
0.0
0
LINE
8
0
6
CONTINUOUS
10
32.174905
20
58.284890
30
0.0
11
31.451115
21
57.307870
31
0.0
0
LINE
8
0
6
CONTINUOUS
10
33.621415
20
58.284070
30
0.0
11
32.174905
21
58.284890
31
0.0
0
LINE
8
0
6
CONTINUOUS
10
34.344115
20
57.306210
30
0.0
11
33.621415
21
58.284070
31
0.0
0
LINE
8
0
6
CONTINUOUS
10
31.451115
20
57.307870
30
0.0
11
32.173805
21
56.330010
31
0.0
0
LINE
8
0
6
CONTINUOUS
10
33.620315
20
56.329190
30
0.0
11
34.344115
21
57.306210
31
0.0
0
LINE
8
0
6
CONTINUOUS
10
32.173805
20
56.330010
30
0.0
11
33.620315
21
56.329190
31
0.0
0
LINE
8
0
6
CONTINUOUS
10
28.693065
20
65.806730
30
0.0
11
29.415755
21
64.828890
31
0.0
0
LINE
8
0
6
CONTINUOUS
10
29.415755
20
64.828890
30
0.0
11
29.416115
21
65.495817
31
0.0
0
LINE
8
0
6
CONTINUOUS
10
27.246545
20
65.807570
30
0.0
11
28.693065
21
65.806730
31
0.0
0
LINE
8
0
6
CONTINUOUS
10
28.693065
20
65.806730
30
0.0
11
28.693430
21
66.492675
31
0.0
0
LINE
8
0
6
CONTINUOUS
10
26.522755
20
64.830530
30
0.0
11
27.246545
21
65.807570
31
0.0
0
LINE
8
0
6
CONTINUOUS
10
27.246545
20
65.807570
30
0.0
11
27.246866
21
66.410444
31
0.0
0
LINE
8
0
6
CONTINUOUS
10
27.246545
20
65.807570
30
0.0
11
26.522755
21
64.830530
31
0.0
0
LINE
8
0
6
CONTINUOUS
10
28.693065
20
65.806730
30
0.0
11
27.246545
21
65.807570
31
0.0
0
LINE
8
0
6
CONTINUOUS
10
29.415755
20
64.828890
30
0.0
11
28.693065
21
65.806730
31
0.0
0
LINE
8
0
6
CONTINUOUS
10
26.522755
20
64.830530
30
0.0
11
27.245455
21
63.852690
31
0.0
0
LINE
8
0
6
CONTINUOUS
10
28.691955
20
63.851870
30
0.0
11
29.415755
21
64.828890
31
0.0
0
LINE
8
0
6
CONTINUOUS
10
27.245455
20
63.852690
30
0.0
11
28.691955
21
63.851870
31
0.0
0
LINE
8
0
6
CONTINUOUS
10
21.019995
20
71.776350
30
0.0
11
21.742695
21
70.798510
31
0.0
0
LINE
8
0
6
CONTINUOUS
10
21.742695
20
70.798510
30
0.0
11
21.743037
21
71.441879
31
0.0
0
LINE
8
0
6
CONTINUOUS
10
19.573485
20
71.777170
30
0.0
11
21.019995
21
71.776350
31
0.0
0
LINE
8
0
6
CONTINUOUS
10
21.019995
20
71.776350
30
0.0
11
21.020360
21
72.453016
31
0.0
0
LINE
8
0
6
CONTINUOUS
10
18.849695
20
70.800150
30
0.0
11
19.573485
21
71.777170
31
0.0
0
LINE
8
0
6
CONTINUOUS
10
19.573485
20
71.777170
30
0.0
11
19.573803
21
72.374831
31
0.0
0
LINE
8
0
6
CONTINUOUS
10
19.573485
20
71.777170
30
0.0
11
18.849695
21
70.800150
31
0.0
0
LINE
8
0
6
CONTINUOUS
10
21.019995
20
71.776350
30
0.0
11
19.573485
21
71.777170
31
0.0
0
LINE
8
0
6
CONTINUOUS
10
21.742695
20
70.798510
30
0.0
11
21.019995
21
71.776350
31
0.0
0
LINE
8
0
6
CONTINUOUS
10
18.849695
20
70.800150
30
0.0
11
19.572385
21
69.822290
31
0.0
0
LINE
8
0
6
CONTINUOUS
10
21.018895
20
69.821490
30
0.0
11
21.742695
21
70.798510
31
0.0
0
LINE
8
0
6
CONTINUOUS
10
19.572385
20
69.822290
30
0.0
11
21.018895
21
69.821490
31
0.0
0
LINE
8
0
6
CONTINUOUS
10
11.353315
20
75.608560
30
0.0
11
12.076005
21
74.630720
31
0.0
0
LINE
8
0
6
CONTINUOUS
10
12.076005
20
74.630720
30
0.0
11
12.076301
21
75.187250
31
0.0
0
LINE
8
0
6
CONTINUOUS
10
9.906795
20
75.609380
30
0.0
11
11.353315
21
75.608560
31
0.0
0
LINE
8
0
6
CONTINUOUS
10
11.353315
20
75.608560
30
0.0
11
11.353650
21
76.239023
31
0.0
0
LINE
8
0
6
CONTINUOUS
10
9.183005
20
74.632380
30
0.0
11
9.906795
21
75.609380
31
0.0
0
LINE
8
0
6
CONTINUOUS
10
9.906795
20
75.609380
30
0.0
11
9.907117
21
76.206008
31
0.0
0
LINE
8
0
6
CONTINUOUS
10
9.906795
20
75.609380
30
0.0
11
9.183005
21
74.632380
31
0.0
0
LINE
8
0
6
CONTINUOUS
10
11.353315
20
75.608560
30
0.0
11
9.906795
21
75.609380
31
0.0
0
LINE
8
0
6
CONTINUOUS
10
12.076005
20
74.630720
30
0.0
11
11.353315
21
75.608560
31
0.0
0
LINE
8
0
6
CONTINUOUS
10
9.183005
20
74.632380
30
0.0
11
9.905705
21
73.654500
31
0.0
0
LINE
8
0
6
CONTINUOUS
10
11.352205
20
73.653700
30
0.0
11
12.076005
21
74.630720
31
0.0
0
LINE
8
0
6
CONTINUOUS
10
9.905705
20
73.654500
30
0.0
11
11.352205
21
73.653700
31
0.0
0
LINE
8
0
6
CONTINUOUS
10
0.639255
20
76.928250
30
0.0
11
1.361945
21
75.950390
31
0.0
0
LINE
8
0
6
CONTINUOUS
10
1.361945
20
75.950390
30
0.0
11
1.362224
21
76.466339
31
0.0
0
LINE
8
0
6
CONTINUOUS
10
-0.807265
20
76.929070
30
0.0
11
0.639255
21
76.928250
31
0.0
0
LINE
8
0
6
CONTINUOUS
10
0.639255
20
76.928250
30
0.0
11
0.639588
21
77.544493
31
0.0
0
LINE
8
0
6
CONTINUOUS
10
-1.531055
20
75.952050
30
0.0
11
-0.807265
21
76.929070
31
0.0
0
LINE
8
0
6
CONTINUOUS
10
-0.807265
20
76.929070
30
0.0
11
-0.806931
21
77.546988
31
0.0
0
LINE
8
0
6
CONTINUOUS
10
-0.807265
20
76.929070
30
0.0
11
-1.531055
21
75.952050
31
0.0
0
LINE
8
0
6
CONTINUOUS
10
0.639255
20
76.928250
30
0.0
11
-0.807265
21
76.929070
31
0.0
0
LINE
8
0
6
CONTINUOUS
10
1.361945
20
75.950390
30
0.0
11
0.639255
21
76.928250
31
0.0
0
LINE
8
0
6
CONTINUOUS
10
-1.531055
20
75.952050
30
0.0
11
-0.808355
21
74.974190
31
0.0
0
LINE
8
0
6
CONTINUOUS
10
0.638145
20
74.973390
30
0.0
11
1.361945
21
75.950390
31
0.0
0
LINE
8
0
6
CONTINUOUS
10
-0.808355
20
74.974190
30
0.0
11
0.638145
21
74.973390
31
0.0
0
LINE
8
0
6
CONTINUOUS
10
-10.073415
20
75.606250
30
0.0
11
-9.350725
21
74.628390
31
0.0
0
LINE
8
0
6
CONTINUOUS
10
-9.350725
20
74.628390
30
0.0
11
-9.350462
21
75.114661
31
0.0
0
LINE
8
0
6
CONTINUOUS
10
-11.519935
20
75.607070
30
0.0
11
-10.073415
21
75.606250
31
0.0
0
LINE
8
0
6
CONTINUOUS
10
-10.073415
20
75.606250
30
0.0
11
-10.073091
21
76.205652
31
0.0
0
LINE
8
0
6
CONTINUOUS
10
-12.243725
20
74.630030
30
0.0
11
-11.519935
21
75.607070
31
0.0
0
LINE
8
0
6
CONTINUOUS
10
-11.519935
20
75.607070
30
0.0
11
-11.519592
21
76.241904
31
0.0
0
LINE
8
0
6
CONTINUOUS
10
-11.519935
20
75.607070
30
0.0
11
-12.243725
21
74.630030
31
0.0
0
LINE
8
0
6
CONTINUOUS
10
-10.073415
20
75.606250
30
0.0
11
-11.519935
21
75.607070
31
0.0
0
LINE
8
0
6
CONTINUOUS
10
-9.350725
20
74.628390
30
0.0
11
-10.073415
21
75.606250
31
0.0
0
LINE
8
0
6
CONTINUOUS
10
-12.243725
20
74.630030
30
0.0
11
-11.521025
21
73.652170
31
0.0
0
LINE
8
0
6
CONTINUOUS
10
-10.074515
20
73.651370
30
0.0
11
-9.350725
21
74.628390
31
0.0
0
LINE
8
0
6
CONTINUOUS
10
-11.521025
20
73.652170
30
0.0
11
-10.074515
21
73.651370
31
0.0
0
LINE
8
0
6
CONTINUOUS
10
-19.736055
20
71.771930
30
0.0
11
-19.013365
21
70.794090
31
0.0
0
LINE
8
0
6
CONTINUOUS
10
-19.013365
20
70.794090
30
0.0
11
-19.013103
21
71.286470
31
0.0
0
LINE
8
0
6
CONTINUOUS
10
-21.182575
20
71.772750
30
0.0
11
-19.736055
21
71.771930
31
0.0
0
LINE
8
0
6
CONTINUOUS
10
-19.736055
20
71.771930
30
0.0
11
-19.735728
21
72.376566
31
0.0
0
LINE
8
0
6
CONTINUOUS
10
-21.906365
20
70.795730
30
0.0
11
-21.182575
21
71.772750
31
0.0
0
LINE
8
0
6
CONTINUOUS
10
-21.905725
20
71.980650
30
0.0
11
-21.906365
21
70.795730
31
0.0
0
LINE
8
0
6
CONTINUOUS
10
-21.182575
20
71.772750
30
0.0
11
-21.182206
21
72.456540
31
0.0
0
LINE
8
0
6
CONTINUOUS
10
-21.182575
20
71.772750
30
0.0
11
-21.906365
21
70.795730
31
0.0
0
LINE
8
0
6
CONTINUOUS
10
-19.736055
20
71.771930
30
0.0
11
-21.182575
21
71.772750
31
0.0
0
LINE
8
0
6
CONTINUOUS
10
-19.013365
20
70.794090
30
0.0
11
-19.736055
21
71.771930
31
0.0
0
LINE
8
0
6
CONTINUOUS
10
-21.906365
20
70.795730
30
0.0
11
-21.183665
21
69.817870
31
0.0
0
LINE
8
0
6
CONTINUOUS
10
-19.737165
20
69.817070
30
0.0
11
-19.013365
21
70.794090
31
0.0
0
LINE
8
0
6
CONTINUOUS
10
-21.183665
20
69.817870
30
0.0
11
-19.737165
21
69.817070
31
0.0
0
LINE
8
0
6
CONTINUOUS
10
-27.402825
20
65.800650
30
0.0
11
-26.680135
21
64.822810
31
0.0
0
LINE
8
0
6
CONTINUOUS
10
-26.680135
20
64.822810
30
0.0
11
-26.679867
21
65.318769
31
0.0
0
LINE
8
0
6
CONTINUOUS
10
-28.849345
20
65.801470
30
0.0
11
-27.402825
21
65.800650
31
0.0
0
LINE
8
0
6
CONTINUOUS
10
-27.402825
20
65.800650
30
0.0
11
-27.402495
21
66.411014
31
0.0
0
LINE
8
0
6
CONTINUOUS
10
-29.573135
20
64.824470
30
0.0
11
-28.849345
21
65.801470
31
0.0
0
LINE
8
0
6
CONTINUOUS
10
-29.572495
20
66.009390
30
0.0
11
-29.573135
21
64.824470
31
0.0
0
LINE
8
0
6
CONTINUOUS
10
-28.849345
20
65.801470
30
0.0
11
-28.848970
21
66.494858
31
0.0
0
LINE
8
0
6
CONTINUOUS
10
-28.849345
20
65.801470
30
0.0
11
-29.573135
21
64.824470
31
0.0
0
LINE
8
0
6
CONTINUOUS
10
-27.402825
20
65.800650
30
0.0
11
-28.849345
21
65.801470
31
0.0
0
LINE
8
0
6
CONTINUOUS
10
-26.680135
20
64.822810
30
0.0
11
-27.402825
21
65.800650
31
0.0
0
LINE
8
0
6
CONTINUOUS
10
-29.573135
20
64.824470
30
0.0
11
-28.850435
21
63.846610
31
0.0
0
LINE
8
0
6
CONTINUOUS
10
-27.403935
20
63.845790
30
0.0
11
-26.680135
21
64.822810
31
0.0
0
LINE
8
0
6
CONTINUOUS
10
-28.850435
20
63.846610
30
0.0
11
-27.403935
21
63.845790
31
0.0
0
LINE
8
0
6
CONTINUOUS
10
-32.323225
20
58.276920
30
0.0
11
-31.600535
21
57.299060
31
0.0
0
LINE
8
0
6
CONTINUOUS
10
-31.600535
20
57.299060
30
0.0
11
-31.600309
21
57.717666
31
0.0
0
LINE
8
0
6
CONTINUOUS
10
-33.769745
20
58.277740
30
0.0
11
-32.323225
21
58.276920
31
0.0
0
LINE
8
0
6
CONTINUOUS
10
-32.323225
20
58.276920
30
0.0
11
-32.322947
21
58.791767
31
0.0
0
LINE
8
0
6
CONTINUOUS
10
-34.493525
20
57.300720
30
0.0
11
-33.769745
21
58.277740
31
0.0
0
LINE
8
0
6
CONTINUOUS
10
-34.492895
20
58.485640
30
0.0
11
-34.493525
21
57.300720
31
0.0
0
LINE
8
0
6
CONTINUOUS
10
-33.769745
20
58.277740
30
0.0
11
-33.769403
21
58.910314
31
0.0
0
LINE
8
0
6
CONTINUOUS
10
-33.769745
20
58.277740
30
0.0
11
-34.493525
21
57.300720
31
0.0
0
LINE
8
0
6
CONTINUOUS
10
-32.323225
20
58.276920
30
0.0
11
-33.769745
21
58.277740
31
0.0
0
LINE
8
0
6
CONTINUOUS
10
-31.600535
20
57.299060
30
0.0
11
-32.323225
21
58.276920
31
0.0
0
LINE
8
0
6
CONTINUOUS
10
-34.493525
20
57.300720
30
0.0
11
-33.770835
21
56.322860
31
0.0
0
LINE
8
0
6
CONTINUOUS
10
-32.324325
20
56.322040
30
0.0
11
-31.600535
21
57.299060
31
0.0
0
LINE
8
0
6
CONTINUOUS
10
-33.770835
20
56.322860
30
0.0
11
-32.324325
21
56.322040
31
0.0
0
LINE
8
0
6
CONTINUOUS
10
-41.056315
20
41.888770
30
0.0
11
-40.333625
21
40.910920
31
0.0
0
LINE
8
0
6
CONTINUOUS
10
-40.333625
20
40.910920
30
0.0
11
-40.333376
21
41.371144
31
0.0
0
LINE
8
0
6
CONTINUOUS
10
-42.502825
20
41.889610
30
0.0
11
-41.056315
21
41.888770
31
0.0
0
LINE
8
0
6
CONTINUOUS
10
-41.056315
20
41.888770
30
0.0
11
-41.056052
21
42.374962
31
0.0
0
LINE
8
0
6
CONTINUOUS
10
-43.226615
20
40.912580
30
0.0
11
-42.502825
21
41.889610
31
0.0
0
LINE
8
0
6
CONTINUOUS
10
-43.225985
20
42.097500
30
0.0
11
-43.226615
21
40.912580
31
0.0
0
LINE
8
0
6
CONTINUOUS
10
-42.502825
20
41.889610
30
0.0
11
-42.502503
21
42.486237
31
0.0
0
LINE
8
0
6
CONTINUOUS
10
-42.502825
20
41.889610
30
0.0
11
-43.226615
21
40.912580
31
0.0
0
LINE
8
0
6
CONTINUOUS
10
-41.056315
20
41.888770
30
0.0
11
-42.502825
21
41.889610
31
0.0
0
LINE
8
0
6
CONTINUOUS
10
-40.333625
20
40.910920
30
0.0
11
-41.056315
21
41.888770
31
0.0
0
LINE
8
0
6
CONTINUOUS
10
-43.226615
20
40.912580
30
0.0
11
-42.503925
21
39.934720
31
0.0
0
LINE
8
0
6
CONTINUOUS
10
-41.057415
20
39.933910
30
0.0
11
-40.333625
21
40.910920
31
0.0
0
LINE
8
0
6
CONTINUOUS
10
-42.503925
20
39.934720
30
0.0
11
-41.057415
21
39.933910
31
0.0
0
LINE
8
0
6
CONTINUOUS
10
-36.737695
20
33.781400
30
0.0
11
-36.015005
21
32.803550
31
0.0
0
LINE
8
0
6
CONTINUOUS
10
-36.015005
20
32.803550
30
0.0
11
-36.014750
21
33.276410
31
0.0
0
LINE
8
0
6
CONTINUOUS
10
-38.184215
20
33.782230
30
0.0
11
-36.737695
21
33.781400
31
0.0
0
LINE
8
0
6
CONTINUOUS
10
-36.737695
20
33.781400
30
0.0
11
-36.737442
21
34.250628
31
0.0
0
LINE
8
0
6
CONTINUOUS
10
-38.908005
20
32.805200
30
0.0
11
-38.184215
21
33.782230
31
0.0
0
LINE
8
0
6
CONTINUOUS
10
-38.907365
20
33.990130
30
0.0
11
-38.908005
21
32.805200
31
0.0
0
LINE
8
0
6
CONTINUOUS
10
-38.184215
20
33.782230
30
0.0
11
-38.183908
21
34.350614
31
0.0
0
LINE
8
0
6
CONTINUOUS
10
-38.184215
20
33.782230
30
0.0
11
-38.908005
21
32.805200
31
0.0
0
LINE
8
0
6
CONTINUOUS
10
-36.737695
20
33.781400
30
0.0
11
-38.184215
21
33.782230
31
0.0
0
LINE
8
0
6
CONTINUOUS
10
-36.015005
20
32.803550
30
0.0
11
-36.737695
21
33.781400
31
0.0
0
LINE
8
0
6
CONTINUOUS
10
-38.908005
20
32.805200
30
0.0
11
-38.185305
21
31.827340
31
0.0
0
LINE
8
0
6
CONTINUOUS
10
-36.738805
20
31.826540
30
0.0
11
-36.015005
21
32.803550
31
0.0
0
LINE
8
0
6
CONTINUOUS
10
-38.185305
20
31.827340
30
0.0
11
-36.738805
21
31.826540
31
0.0
0
LINE
8
0
6
CONTINUOUS
10
-29.870915
20
26.819790
30
0.0
11
-29.148225
21
25.841930
31
0.0
0
LINE
8
0
6
CONTINUOUS
10
-29.148225
20
25.841930
30
0.0
11
-29.147943
21
26.364525
31
0.0
0
LINE
8
0
6
CONTINUOUS
10
-31.317425
20
26.820610
30
0.0
11
-29.870915
21
26.819790
31
0.0
0
LINE
8
0
6
CONTINUOUS
10
-29.870915
20
26.819790
30
0.0
11
-29.870646
21
27.318356
31
0.0
0
LINE
8
0
6
CONTINUOUS
10
-32.041215
20
25.843580
30
0.0
11
-31.317425
21
26.820610
31
0.0
0
LINE
8
0
6
CONTINUOUS
10
-32.040585
20
27.028500
30
0.0
11
-32.041215
21
25.843580
31
0.0
0
LINE
8
0
6
CONTINUOUS
10
-31.317425
20
26.820610
30
0.0
11
-31.317124
21
27.385909
31
0.0
0
LINE
8
0
6
CONTINUOUS
10
-31.317425
20
26.820610
30
0.0
11
-32.041215
21
25.843580
31
0.0
0
LINE
8
0
6
CONTINUOUS
10
-29.870915
20
26.819790
30
0.0
11
-31.317425
21
26.820610
31
0.0
0
LINE
8
0
6
CONTINUOUS
10
-29.148225
20
25.841930
30
0.0
11
-29.870915
21
26.819790
31
0.0
0
LINE
8
0
6
CONTINUOUS
10
-32.041215
20
25.843580
30
0.0
11
-31.318525
21
24.865720
31
0.0
0
LINE
8
0
6
CONTINUOUS
10
-29.872015
20
24.864910
30
0.0
11
-29.148225
21
25.841930
31
0.0
0
LINE
8
0
6
CONTINUOUS
10
-31.318525
20
24.865720
30
0.0
11
-29.872015
21
24.864910
31
0.0
0
LINE
8
0
6
CONTINUOUS
10
-20.923915
20
21.478340
30
0.0
11
-20.201225
21
20.500490
31
0.0
0
LINE
8
0
6
CONTINUOUS
10
-20.201225
20
20.500490
30
0.0
11
-20.200953
21
21.003504
31
0.0
0
LINE
8
0
6
CONTINUOUS
10
-22.370435
20
21.479180
30
0.0
11
-20.923915
21
21.478340
31
0.0
0
LINE
8
0
6
CONTINUOUS
10
-20.923915
20
21.478340
30
0.0
11
-20.923674
21
21.924055
31
0.0
0
LINE
8
0
6
CONTINUOUS
10
-23.094215
20
20.502150
30
0.0
11
-22.370435
21
21.479180
31
0.0
0
LINE
8
0
6
CONTINUOUS
10
-23.093585
20
21.687070
30
0.0
11
-23.094215
21
20.502150
31
0.0
0
LINE
8
0
6
CONTINUOUS
10
-22.370435
20
21.479180
30
0.0
11
-22.370150
21
22.006160
31
0.0
0
LINE
8
0
6
CONTINUOUS
10
-22.370435
20
21.479180
30
0.0
11
-23.094215
21
20.502150
31
0.0
0
LINE
8
0
6
CONTINUOUS
10
-20.923915
20
21.478340
30
0.0
11
-22.370435
21
21.479180
31
0.0
0
LINE
8
0
6
CONTINUOUS
10
-20.201225
20
20.500490
30
0.0
11
-20.923915
21
21.478340
31
0.0
0
LINE
8
0
6
CONTINUOUS
10
-23.094215
20
20.502150
30
0.0
11
-22.371525
21
19.524290
31
0.0
0
LINE
8
0
6
CONTINUOUS
10
-20.925015
20
19.523480
30
0.0
11
-20.201225
21
20.500490
31
0.0
0
LINE
8
0
6
CONTINUOUS
10
-22.371525
20
19.524290
30
0.0
11
-20.925015
21
19.523480
31
0.0
0
LINE
8
0
6
CONTINUOUS
10
-10.506425
20
18.121090
30
0.0
11
-9.783735
21
17.143250
31
0.0
0
LINE
8
0
6
CONTINUOUS
10
-9.783735
20
17.143250
30
0.0
11
-9.783448
21
17.674387
31
0.0
0
LINE
8
0
6
CONTINUOUS
10
-11.952945
20
18.121930
30
0.0
11
-10.506425
21
18.121090
31
0.0
0
LINE
8
0
6
CONTINUOUS
10
-10.506425
20
18.121090
30
0.0
11
-10.506185
21
18.565636
31
0.0
0
LINE
8
0
6
CONTINUOUS
10
-12.676725
20
17.144900
30
0.0
11
-11.952945
21
18.121930
31
0.0
0
LINE
8
0
6
CONTINUOUS
10
-12.676095
20
18.329820
30
0.0
11
-12.676725
21
17.144900
31
0.0
0
LINE
8
0
6
CONTINUOUS
10
-11.952945
20
18.121930
30
0.0
11
-11.952679
21
18.614075
31
0.0
0
LINE
8
0
6
CONTINUOUS
10
-11.952945
20
18.121930
30
0.0
11
-12.676725
21
17.144900
31
0.0
0
LINE
8
0
6
CONTINUOUS
10
-10.506425
20
18.121090
30
0.0
11
-11.952945
21
18.121930
31
0.0
0
LINE
8
0
6
CONTINUOUS
10
-9.783735
20
17.143250
30
0.0
11
-10.506425
21
18.121090
31
0.0
0
LINE
8
0
6
CONTINUOUS
10
-12.676725
20
17.144900
30
0.0
11
-11.954035
21
16.167040
31
0.0
0
LINE
8
0
6
CONTINUOUS
10
-10.507525
20
16.166230
30
0.0
11
-9.783735
21
17.143250
31
0.0
0
LINE
8
0
6
CONTINUOUS
10
-11.954035
20
16.167040
30
0.0
11
-10.507525
21
16.166230
31
0.0
0
LINE
8
0
6
CONTINUOUS
10
11.848445
20
18.123520
30
0.0
11
12.571135
21
17.145670
31
0.0
0
LINE
8
0
6
CONTINUOUS
10
12.571135
20
17.145670
30
0.0
11
12.571465
21
17.756752
31
0.0
0
LINE
8
0
6
CONTINUOUS
10
10.401935
20
18.124350
30
0.0
11
11.848445
21
18.123520
31
0.0
0
LINE
8
0
6
CONTINUOUS
10
11.848445
20
18.123520
30
0.0
11
11.848709
21
18.611521
31
0.0
0
LINE
8
0
6
CONTINUOUS
10
9.678145
20
17.147320
30
0.0
11
10.401935
21
18.124350
31
0.0
0
LINE
8
0
6
CONTINUOUS
10
10.401935
20
18.124350
30
0.0
11
10.402169
21
18.564536
31
0.0
0
LINE
8
0
6
CONTINUOUS
10
10.401935
20
18.124350
30
0.0
11
9.678145
21
17.147320
31
0.0
0
LINE
8
0
6
CONTINUOUS
10
11.848445
20
18.123520
30
0.0
11
10.401935
21
18.124350
31
0.0
0
LINE
8
0
6
CONTINUOUS
10
12.571135
20
17.145670
30
0.0
11
11.848445
21
18.123520
31
0.0
0
LINE
8
0
6
CONTINUOUS
10
9.678145
20
17.147320
30
0.0
11
10.400835
21
16.169460
31
0.0
0
LINE
8
0
6
CONTINUOUS
10
11.847345
20
16.168660
30
0.0
11
12.571135
21
17.145670
31
0.0
0
LINE
8
0
6
CONTINUOUS
10
10.400835
20
16.169460
30
0.0
11
11.847345
21
16.168660
31
0.0
0
LINE
8
0
6
CONTINUOUS
10
22.262395
20
21.483030
30
0.0
11
22.985085
21
20.505180
31
0.0
0
LINE
8
0
6
CONTINUOUS
10
22.985085
20
20.505180
30
0.0
11
22.985439
21
21.160140
31
0.0
0
LINE
8
0
6
CONTINUOUS
10
20.815875
20
21.483850
30
0.0
11
22.262395
21
21.483030
31
0.0
0
LINE
8
0
6
CONTINUOUS
10
22.262395
20
21.483030
30
0.0
11
22.262676
21
22.002867
31
0.0
0
LINE
8
0
6
CONTINUOUS
10
20.092095
20
20.506830
30
0.0
11
20.815875
21
21.483850
31
0.0
0
LINE
8
0
6
CONTINUOUS
10
20.815875
20
21.483850
30
0.0
11
20.816112
21
21.922219
31
0.0
0
LINE
8
0
6
CONTINUOUS
10
20.815875
20
21.483850
30
0.0
11
20.092095
21
20.506830
31
0.0
0
LINE
8
0
6
CONTINUOUS
10
22.262395
20
21.483030
30
0.0
11
20.815875
21
21.483850
31
0.0
0
LINE
8
0
6
CONTINUOUS
10
22.985085
20
20.505180
30
0.0
11
22.262395
21
21.483030
31
0.0
0
LINE
8
0
6
CONTINUOUS
10
20.092095
20
20.506830
30
0.0
11
20.814785
21
19.528970
31
0.0
0
LINE
8
0
6
CONTINUOUS
10
22.261285
20
19.528160
30
0.0
11
22.985085
21
20.505180
31
0.0
0
LINE
8
0
6
CONTINUOUS
10
20.814785
20
19.528970
30
0.0
11
22.261285
21
19.528160
31
0.0
0
LINE
8
0
6
CONTINUOUS
10
31.203755
20
26.826400
30
0.0
11
31.926435
21
25.848550
31
0.0
0
LINE
8
0
6
CONTINUOUS
10
31.926435
20
25.848550
30
0.0
11
31.926797
21
26.518777
31
0.0
0
LINE
8
0
6
CONTINUOUS
10
29.757235
20
26.827230
30
0.0
11
31.203755
21
26.826400
31
0.0
0
LINE
8
0
6
CONTINUOUS
10
31.203755
20
26.826400
30
0.0
11
31.204052
21
27.385815
31
0.0
0
LINE
8
0
6
CONTINUOUS
10
29.033445
20
25.850210
30
0.0
11
29.757235
21
26.827230
31
0.0
0
LINE
8
0
6
CONTINUOUS
10
29.757235
20
26.827230
30
0.0
11
29.757497
21
27.319791
31
0.0
0
LINE
8
0
6
CONTINUOUS
10
29.757235
20
26.827230
30
0.0
11
29.033445
21
25.850210
31
0.0
0
LINE
8
0
6
CONTINUOUS
10
31.203755
20
26.826400
30
0.0
11
29.757235
21
26.827230
31
0.0
0
LINE
8
0
6
CONTINUOUS
10
31.926435
20
25.848550
30
0.0
11
31.203755
21
26.826400
31
0.0
0
LINE
8
0
6
CONTINUOUS
10
29.033445
20
25.850210
30
0.0
11
29.756135
21
24.872350
31
0.0
0
LINE
8
0
6
CONTINUOUS
10
31.202645
20
24.871540
30
0.0
11
31.926435
21
25.848550
31
0.0
0
LINE
8
0
6
CONTINUOUS
10
29.756135
20
24.872350
30
0.0
11
31.202645
21
24.871540
31
0.0
0
LINE
8
0
6
CONTINUOUS
10
38.063185
20
33.789510
30
0.0
11
38.785865
21
32.811650
31
0.0
0
LINE
8
0
6
CONTINUOUS
10
38.785865
20
32.811650
30
0.0
11
38.786233
21
33.493790
31
0.0
0
LINE
8
0
6
CONTINUOUS
10
36.616665
20
33.790330
30
0.0
11
38.063185
21
33.789510
31
0.0
0
LINE
8
0
6
CONTINUOUS
10
38.063185
20
33.789510
30
0.0
11
38.063483
21
34.349080
31
0.0
0
LINE
8
0
6
CONTINUOUS
10
35.892875
20
32.813310
30
0.0
11
36.616665
21
33.790330
31
0.0
0
LINE
8
0
6
CONTINUOUS
10
36.616665
20
33.790330
30
0.0
11
36.616910
21
34.250680
31
0.0
0
LINE
8
0
6
CONTINUOUS
10
36.616665
20
33.790330
30
0.0
11
35.892875
21
32.813310
31
0.0
0
LINE
8
0
6
CONTINUOUS
10
38.063185
20
33.789510
30
0.0
11
36.616665
21
33.790330
31
0.0
0
LINE
8
0
6
CONTINUOUS
10
38.785865
20
32.811650
30
0.0
11
38.063185
21
33.789510
31
0.0
0
LINE
8
0
6
CONTINUOUS
10
35.892875
20
32.813310
30
0.0
11
36.615565
21
31.835450
31
0.0
0
LINE
8
0
6
CONTINUOUS
10
38.062075
20
31.834650
30
0.0
11
38.785865
21
32.811650
31
0.0
0
LINE
8
0
6
CONTINUOUS
10
36.615565
20
31.835450
30
0.0
11
38.062075
21
31.834650
31
0.0
0
LINE
8
0
6
CONTINUOUS
10
42.373215
20
41.897810
30
0.0
11
43.095905
21
40.919960
31
0.0
0
LINE
8
0
6
CONTINUOUS
10
43.095905
20
40.919960
30
0.0
11
43.096271
21
41.597248
31
0.0
0
LINE
8
0
6
CONTINUOUS
10
40.926705
20
41.898630
30
0.0
11
42.373215
21
41.897810
31
0.0
0
LINE
8
0
6
CONTINUOUS
10
42.373215
20
41.897810
30
0.0
11
42.373532
21
42.484611
31
0.0
0
LINE
8
0
6
CONTINUOUS
10
40.202915
20
40.921610
30
0.0
11
40.926705
21
41.898630
31
0.0
0
LINE
8
0
6
CONTINUOUS
10
40.926705
20
41.898630
30
0.0
11
40.926958
21
42.374962
31
0.0
0
LINE
8
0
6
CONTINUOUS
10
40.926705
20
41.898630
30
0.0
11
40.202915
21
40.921610
31
0.0
0
LINE
8
0
6
CONTINUOUS
10
42.373215
20
41.897810
30
0.0
11
40.926705
21
41.898630
31
0.0
0
LINE
8
0
6
CONTINUOUS
10
43.095905
20
40.919960
30
0.0
11
42.373215
21
41.897810
31
0.0
0
LINE
8
0
6
CONTINUOUS
10
40.202915
20
40.921610
30
0.0
11
40.925605
21
39.943750
31
0.0
0
LINE
8
0
6
CONTINUOUS
10
42.372115
20
39.942940
30
0.0
11
43.095905
21
40.919960
31
0.0
0
LINE
8
0
6
CONTINUOUS
10
40.925605
20
39.943750
30
0.0
11
42.372115
21
39.942940
31
0.0
0
LINE
8
0
6
CONTINUOUS
10
43.840145
20
50.598750
30
0.0
11
44.562835
21
49.620900
31
0.0
0
LINE
8
0
6
CONTINUOUS
10
44.562835
20
49.620900
30
0.0
11
44.563194
21
50.285477
31
0.0
0
LINE
8
0
6
CONTINUOUS
10
42.393635
20
50.599580
30
0.0
11
43.840145
21
50.598750
31
0.0
0
LINE
8
0
6
CONTINUOUS
10
43.840145
20
50.598750
30
0.0
11
43.840478
21
51.215826
31
0.0
0
LINE
8
0
6
CONTINUOUS
10
41.669835
20
49.622550
30
0.0
11
42.393635
21
50.599580
31
0.0
0
LINE
8
0
6
CONTINUOUS
10
42.393635
20
50.599580
30
0.0
11
42.393902
21
51.101817
31
0.0
0
LINE
8
0
6
CONTINUOUS
10
42.393635
20
50.599580
30
0.0
11
41.669835
21
49.622550
31
0.0
0
LINE
8
0
6
CONTINUOUS
10
43.840145
20
50.598750
30
0.0
11
42.393635
21
50.599580
31
0.0
0
LINE
8
0
6
CONTINUOUS
10
44.562835
20
49.620900
30
0.0
11
43.840145
21
50.598750
31
0.0
0
LINE
8
0
6
CONTINUOUS
10
41.669835
20
49.622550
30
0.0
11
42.392535
21
48.644700
31
0.0
0
LINE
8
0
6
CONTINUOUS
10
43.839045
20
48.643890
30
0.0
11
44.562835
21
49.620900
31
0.0
0
LINE
8
0
6
CONTINUOUS
10
42.392535
20
48.644700
30
0.0
11
43.839045
21
48.643890
31
0.0
0
LINE
8
0
6
CONTINUOUS
10
42.364015
20
59.299370
30
0.0
11
43.086715
21
58.321530
31
0.0
0
LINE
8
0
6
CONTINUOUS
10
43.086715
20
58.321530
30
0.0
11
43.087074
21
58.995858
31
0.0
0
LINE
8
0
6
CONTINUOUS
10
40.917505
20
59.300210
30
0.0
11
42.364015
21
59.299370
31
0.0
0
LINE
8
0
6
CONTINUOUS
10
42.364015
20
59.299370
30
0.0
11
42.364365
21
59.947593
31
0.0
0
LINE
8
0
6
CONTINUOUS
10
40.193715
20
58.323170
30
0.0
11
40.917505
21
59.300210
31
0.0
0
LINE
8
0
6
CONTINUOUS
10
40.917505
20
59.300210
30
0.0
11
40.917791
21
59.837810
31
0.0
0
LINE
8
0
6
CONTINUOUS
10
40.917505
20
59.300210
30
0.0
11
40.193715
21
58.323170
31
0.0
0
LINE
8
0
6
CONTINUOUS
10
42.364015
20
59.299370
30
0.0
11
40.917505
21
59.300210
31
0.0
0
LINE
8
0
6
CONTINUOUS
10
43.086715
20
58.321530
30
0.0
11
42.364015
21
59.299370
31
0.0
0
LINE
8
0
6
CONTINUOUS
10
40.193715
20
58.323170
30
0.0
11
40.916415
21
57.345330
31
0.0
0
LINE
8
0
6
CONTINUOUS
10
42.362915
20
57.344510
30
0.0
11
43.086715
21
58.321530
31
0.0
0
LINE
8
0
6
CONTINUOUS
10
40.916415
20
57.345330
30
0.0
11
42.362915
21
57.344510
31
0.0
0
LINE
8
0
6
CONTINUOUS
10
38.045405
20
67.406750
30
0.0
11
38.768095
21
66.428910
31
0.0
0
LINE
8
0
6
CONTINUOUS
10
38.768095
20
66.428910
30
0.0
11
38.768450
21
67.086711
31
0.0
0
LINE
8
0
6
CONTINUOUS
10
36.598885
20
67.407590
30
0.0
11
38.045405
21
67.406750
31
0.0
0
LINE
8
0
6
CONTINUOUS
10
38.045405
20
67.406750
30
0.0
11
38.045758
21
68.060923
31
0.0
0
LINE
8
0
6
CONTINUOUS
10
35.875105
20
66.430570
30
0.0
11
36.598885
21
67.407590
31
0.0
0
LINE
8
0
6
CONTINUOUS
10
36.598885
20
67.407590
30
0.0
11
36.599187
21
67.966399
31
0.0
0
LINE
8
0
6
CONTINUOUS
10
36.598885
20
67.407590
30
0.0
11
35.875105
21
66.430570
31
0.0
0
LINE
8
0
6
CONTINUOUS
10
38.045405
20
67.406750
30
0.0
11
36.598885
21
67.407590
31
0.0
0
LINE
8
0
6
CONTINUOUS
10
38.768095
20
66.428910
30
0.0
11
38.045405
21
67.406750
31
0.0
0
LINE
8
0
6
CONTINUOUS
10
35.875105
20
66.430570
30
0.0
11
36.597795
21
65.452710
31
0.0
0
LINE
8
0
6
CONTINUOUS
10
38.044305
20
65.451910
30
0.0
11
38.768095
21
66.428910
31
0.0
0
LINE
8
0
6
CONTINUOUS
10
36.597795
20
65.452710
30
0.0
11
38.044305
21
65.451910
31
0.0
0
LINE
8
0
6
CONTINUOUS
10
31.178615
20
74.368380
30
0.0
11
31.901305
21
73.390540
31
0.0
0
LINE
8
0
6
CONTINUOUS
10
31.901305
20
73.390540
30
0.0
11
31.901651
21
74.030356
31
0.0
0
LINE
8
0
6
CONTINUOUS
10
29.732095
20
74.369200
30
0.0
11
31.178615
21
74.368380
31
0.0
0
LINE
8
0
6
CONTINUOUS
10
31.178615
20
74.368380
30
0.0
11
31.178982
21
75.047695
31
0.0
0
LINE
8
0
6
CONTINUOUS
10
29.008315
20
73.392180
30
0.0
11
29.732095
21
74.369200
31
0.0
0
LINE
8
0
6
CONTINUOUS
10
29.732095
20
74.369200
30
0.0
11
29.732423
21
74.977331
31
0.0
0
LINE
8
0
6
CONTINUOUS
10
29.732095
20
74.369200
30
0.0
11
29.008315
21
73.392180
31
0.0
0
LINE
8
0
6
CONTINUOUS
10
31.178615
20
74.368380
30
0.0
11
29.732095
21
74.369200
31
0.0
0
LINE
8
0
6
CONTINUOUS
10
31.901305
20
73.390540
30
0.0
11
31.178615
21
74.368380
31
0.0
0
LINE
8
0
6
CONTINUOUS
10
29.008315
20
73.392180
30
0.0
11
29.731005
21
72.414320
31
0.0
0
LINE
8
0
6
CONTINUOUS
10
31.177505
20
72.413520
30
0.0
11
31.901305
21
73.390540
31
0.0
0
LINE
8
0
6
CONTINUOUS
10
29.731005
20
72.414320
30
0.0
11
31.177505
21
72.413520
31
0.0
0
LINE
8
0
6
CONTINUOUS
10
22.231615
20
79.709820
30
0.0
11
22.954295
21
78.731980
31
0.0
0
LINE
8
0
6
CONTINUOUS
10
22.954295
20
78.731980
30
0.0
11
22.954623
21
79.338626
31
0.0
0
LINE
8
0
6
CONTINUOUS
10
20.785095
20
79.710640
30
0.0
11
22.231615
21
79.709820
31
0.0
0
LINE
8
0
6
CONTINUOUS
10
22.231615
20
79.709820
30
0.0
11
22.231971
21
80.379697
31
0.0
0
LINE
8
0
6
CONTINUOUS
10
20.061305
20
78.733640
30
0.0
11
20.785095
21
79.710640
31
0.0
0
LINE
8
0
6
CONTINUOUS
10
20.785095
20
79.710640
30
0.0
11
20.785421
21
80.324374
31
0.0
0
LINE
8
0
6
CONTINUOUS
10
20.785095
20
79.710640
30
0.0
11
20.061305
21
78.733640
31
0.0
0
LINE
8
0
6
CONTINUOUS
10
22.231615
20
79.709820
30
0.0
11
20.785095
21
79.710640
31
0.0
0
LINE
8
0
6
CONTINUOUS
10
22.954295
20
78.731980
30
0.0
11
22.231615
21
79.709820
31
0.0
0
LINE
8
0
6
CONTINUOUS
10
20.061305
20
78.733640
30
0.0
11
20.783995
21
77.755760
31
0.0
0
LINE
8
0
6
CONTINUOUS
10
22.230505
20
77.754960
30
0.0
11
22.954295
21
78.731980
31
0.0
0
LINE
8
0
6
CONTINUOUS
10
20.783995
20
77.755760
30
0.0
11
22.230505
21
77.754960
31
0.0
0
LINE
8
0
6
CONTINUOUS
10
11.814125
20
83.067050
30
0.0
11
12.536815
21
82.089200
31
0.0
0
LINE
8
0
6
CONTINUOUS
10
12.536815
20
82.089200
30
0.0
11
12.537128
21
82.677563
31
0.0
0
LINE
8
0
6
CONTINUOUS
10
10.367605
20
83.067890
30
0.0
11
11.814125
21
83.067050
31
0.0
0
LINE
8
0
6
CONTINUOUS
10
11.814125
20
83.067050
30
0.0
11
11.814487
21
83.736799
31
0.0
0
LINE
8
0
6
CONTINUOUS
10
9.643815
20
82.090870
30
0.0
11
10.367605
21
83.067890
31
0.0
0
LINE
8
0
6
CONTINUOUS
10
10.367605
20
83.067890
30
0.0
11
10.367948
21
83.703315
31
0.0
0
LINE
8
0
6
CONTINUOUS
10
10.367605
20
83.067890
30
0.0
11
9.643815
21
82.090870
31
0.0
0
LINE
8
0
6
CONTINUOUS
10
11.814125
20
83.067050
30
0.0
11
10.367605
21
83.067890
31
0.0
0
LINE
8
0
6
CONTINUOUS
10
12.536815
20
82.089200
30
0.0
11
11.814125
21
83.067050
31
0.0
0
LINE
8
0
6
CONTINUOUS
10
9.643815
20
82.090870
30
0.0
11
10.366515
21
81.113000
31
0.0
0
LINE
8
0
6
CONTINUOUS
10
11.813015
20
81.112210
30
0.0
11
12.536815
21
82.089200
31
0.0
0
LINE
8
0
6
CONTINUOUS
10
10.366515
20
81.113000
30
0.0
11
11.813015
21
81.112210
31
0.0
0
LINE
8
0
6
CONTINUOUS
10
0.636065
20
84.211310
30
0.0
11
1.358755
21
83.233470
31
0.0
0
LINE
8
0
6
CONTINUOUS
10
1.358755
20
83.233470
30
0.0
11
1.359053
21
83.793271
31
0.0
0
LINE
8
0
6
CONTINUOUS
10
-0.810455
20
84.212150
30
0.0
11
0.636065
21
84.211310
31
0.0
0
LINE
8
0
6
CONTINUOUS
10
0.636065
20
84.211310
30
0.0
11
0.636413
21
84.866278
31
0.0
0
LINE
8
0
6
CONTINUOUS
10
-1.534245
20
83.235110
30
0.0
11
-0.810455
21
84.212150
31
0.0
0
LINE
8
0
6
CONTINUOUS
10
-0.810455
20
84.212150
30
0.0
11
-0.810101
21
84.868218
31
0.0
0
LINE
8
0
6
CONTINUOUS
10
-0.810455
20
84.212150
30
0.0
11
-1.534245
21
83.235110
31
0.0
0
LINE
8
0
6
CONTINUOUS
10
0.636065
20
84.211310
30
0.0
11
-0.810455
21
84.212150
31
0.0
0
LINE
8
0
6
CONTINUOUS
10
1.358755
20
83.233470
30
0.0
11
0.636065
21
84.211310
31
0.0
0
LINE
8
0
6
CONTINUOUS
10
-1.534245
20
83.235110
30
0.0
11
-0.811545
21
82.257270
31
0.0
0
LINE
8
0
6
CONTINUOUS
10
0.634955
20
82.256450
30
0.0
11
1.358755
21
83.233470
31
0.0
0
LINE
8
0
6
CONTINUOUS
10
-0.811545
20
82.257270
30
0.0
11
0.634955
21
82.256450
31
0.0
0
LINE
8
0
6
CONTINUOUS
10
-34.015635
20
49.937210
30
0.0
11
-33.292945
21
48.959370
31
0.0
0
LINE
8
0
6
CONTINUOUS
10
-33.292945
20
48.959370
30
0.0
11
-33.292720
21
49.382290
31
0.0
0
LINE
8
0
6
CONTINUOUS
10
-35.462155
20
49.938030
30
0.0
11
-34.015635
21
49.937210
31
0.0
0
LINE
8
0
6
CONTINUOUS
10
-34.015635
20
49.937210
30
0.0
11
-34.015373
21
50.430647
31
0.0
0
LINE
8
0
6
CONTINUOUS
10
-36.185945
20
48.961010
30
0.0
11
-35.462155
21
49.938030
31
0.0
0
LINE
8
0
6
CONTINUOUS
10
-36.185305
20
50.145930
30
0.0
11
-36.185945
21
48.961010
31
0.0
0
LINE
8
0
6
CONTINUOUS
10
-35.462155
20
49.938030
30
0.0
11
-35.461832
21
50.546379
31
0.0
0
LINE
8
0
6
CONTINUOUS
10
-35.462155
20
49.938030
30
0.0
11
-36.185945
21
48.961010
31
0.0
0
LINE
8
0
6
CONTINUOUS
10
-34.015635
20
49.937210
30
0.0
11
-35.462155
21
49.938030
31
0.0
0
LINE
8
0
6
CONTINUOUS
10
-33.292945
20
48.959370
30
0.0
11
-34.015635
21
49.937210
31
0.0
0
LINE
8
0
6
CONTINUOUS
10
-36.185945
20
48.961010
30
0.0
11
-35.463245
21
47.983150
31
0.0
0
LINE
8
0
6
CONTINUOUS
10
-34.016745
20
47.982350
30
0.0
11
-33.292945
21
48.959370
31
0.0
0
LINE
8
0
6
CONTINUOUS
10
-35.463245
20
47.983150
30
0.0
11
-34.016745
21
47.982350
31
0.0
0
LINE
8
0
6
CONTINUOUS
10
-10.540785
20
83.064610
30
0.0
11
-9.818095
21
82.086750
31
0.0
0
LINE
8
0
6
CONTINUOUS
10
-9.818095
20
82.086750
30
0.0
11
-9.817813
21
82.617780
31
0.0
0
LINE
8
0
6
CONTINUOUS
10
-11.987305
20
83.065450
30
0.0
11
-10.540785
21
83.064610
31
0.0
0
LINE
8
0
6
CONTINUOUS
10
-10.540785
20
83.064610
30
0.0
11
-10.540446
21
83.703004
31
0.0
0
LINE
8
0
6
CONTINUOUS
10
-12.711095
20
82.088430
30
0.0
11
-11.987305
21
83.065450
31
0.0
0
LINE
8
0
6
CONTINUOUS
10
-12.710455
20
83.273350
30
0.0
11
-12.711095
21
82.088430
31
0.0
0
LINE
8
0
6
CONTINUOUS
10
-11.987305
20
83.065450
30
0.0
11
-11.986942
21
83.738355
31
0.0
0
LINE
8
0
6
CONTINUOUS
10
-11.987305
20
83.065450
30
0.0
11
-12.711095
21
82.088430
31
0.0
0
LINE
8
0
6
CONTINUOUS
10
-10.540785
20
83.064610
30
0.0
11
-11.987305
21
83.065450
31
0.0
0
LINE
8
0
6
CONTINUOUS
10
-9.818095
20
82.086750
30
0.0
11
-10.540785
21
83.064610
31
0.0
0
LINE
8
0
6
CONTINUOUS
10
-12.711095
20
82.088430
30
0.0
11
-11.988395
21
81.110550
31
0.0
0
LINE
8
0
6
CONTINUOUS
10
-10.541895
20
81.109750
30
0.0
11
-9.818095
21
82.086750
31
0.0
0
LINE
8
0
6
CONTINUOUS
10
-11.988395
20
81.110550
30
0.0
11
-10.541895
21
81.109750
31
0.0
0
LINE
8
0
6
CONTINUOUS
10
-20.954745
20
79.705090
30
0.0
11
-20.232055
21
78.727250
31
0.0
0
LINE
8
0
6
CONTINUOUS
10
-20.232055
20
78.727250
30
0.0
11
-20.231784
21
79.228369
31
0.0
0
LINE
8
0
6
CONTINUOUS
10
-22.401265
20
79.705930
30
0.0
11
-20.954745
21
79.705090
31
0.0
0
LINE
8
0
6
CONTINUOUS
10
-20.954745
20
79.705090
30
0.0
11
-20.954411
21
80.323736
31
0.0
0
LINE
8
0
6
CONTINUOUS
10
-23.125045
20
78.728900
30
0.0
11
-22.401265
21
79.705930
31
0.0
0
LINE
8
0
6
CONTINUOUS
10
-23.124415
20
79.913830
30
0.0
11
-23.125045
21
78.728900
31
0.0
0
LINE
8
0
6
CONTINUOUS
10
-22.401265
20
79.705930
30
0.0
11
-22.400900
21
80.380902
31
0.0
0
LINE
8
0
6
CONTINUOUS
10
-22.401265
20
79.705930
30
0.0
11
-23.125045
21
78.728900
31
0.0
0
LINE
8
0
6
CONTINUOUS
10
-20.954745
20
79.705090
30
0.0
11
-22.401265
21
79.705930
31
0.0
0
LINE
8
0
6
CONTINUOUS
10
-20.232055
20
78.727250
30
0.0
11
-20.954745
21
79.705090
31
0.0
0
LINE
8
0
6
CONTINUOUS
10
-23.125045
20
78.728900
30
0.0
11
-22.402355
21
77.751050
31
0.0
0
LINE
8
0
6
CONTINUOUS
10
-20.955845
20
77.750240
30
0.0
11
-20.232055
21
78.727250
31
0.0
0
LINE
8
0
6
CONTINUOUS
10
-22.402355
20
77.751050
30
0.0
11
-20.955845
21
77.750240
31
0.0
0
LINE
8
0
6
CONTINUOUS
10
-29.896085
20
74.361710
30
0.0
11
-29.173395
21
73.383870
31
0.0
0
LINE
8
0
6
CONTINUOUS
10
-29.173395
20
73.383870
30
0.0
11
-29.173124
21
73.885899
31
0.0
0
LINE
8
0
6
CONTINUOUS
10
-31.342605
20
74.362550
30
0.0
11
-29.896085
21
74.361710
31
0.0
0
LINE
8
0
6
CONTINUOUS
10
-29.896085
20
74.361710
30
0.0
11
-29.895753
21
74.976381
31
0.0
0
LINE
8
0
6
CONTINUOUS
10
-32.066385
20
73.385510
30
0.0
11
-31.342605
21
74.362550
31
0.0
0
LINE
8
0
6
CONTINUOUS
10
-32.065755
20
74.570430
30
0.0
11
-32.066385
21
73.385510
31
0.0
0
LINE
8
0
6
CONTINUOUS
10
-31.342605
20
74.362550
30
0.0
11
-31.342235
21
75.048228
31
0.0
0
LINE
8
0
6
CONTINUOUS
10
-31.342605
20
74.362550
30
0.0
11
-32.066385
21
73.385510
31
0.0
0
LINE
8
0
6
CONTINUOUS
10
-29.896085
20
74.361710
30
0.0
11
-31.342605
21
74.362550
31
0.0
0
LINE
8
0
6
CONTINUOUS
10
-29.173395
20
73.383870
30
0.0
11
-29.896085
21
74.361710
31
0.0
0
LINE
8
0
6
CONTINUOUS
10
-32.066385
20
73.385510
30
0.0
11
-31.343695
21
72.407650
31
0.0
0
LINE
8
0
6
CONTINUOUS
10
-29.897195
20
72.406850
30
0.0
11
-29.173395
21
73.383870
31
0.0
0
LINE
8
0
6
CONTINUOUS
10
-31.343695
20
72.407650
30
0.0
11
-29.897195
21
72.406850
31
0.0
0
LINE
8
0
6
CONTINUOUS
10
-36.755495
20
67.398610
30
0.0
11
-36.032815
21
66.420750
31
0.0
0
LINE
8
0
6
CONTINUOUS
10
-36.032815
20
66.420750
30
0.0
11
-36.032564
21
66.885100
31
0.0
0
LINE
8
0
6
CONTINUOUS
10
-38.202025
20
67.399430
30
0.0
11
-36.755495
21
67.398610
31
0.0
0
LINE
8
0
6
CONTINUOUS
10
-36.755495
20
67.398610
30
0.0
11
-36.755194
21
67.965482
31
0.0
0
LINE
8
0
6
CONTINUOUS
10
-38.925805
20
66.422410
30
0.0
11
-38.202025
21
67.399430
31
0.0
0
LINE
8
0
6
CONTINUOUS
10
-38.925165
20
67.607330
30
0.0
11
-38.925805
21
66.422410
31
0.0
0
LINE
8
0
6
CONTINUOUS
10
-38.202025
20
67.399430
30
0.0
11
-38.201667
21
68.062905
31
0.0
0
LINE
8
0
6
CONTINUOUS
10
-38.202025
20
67.399430
30
0.0
11
-38.925805
21
66.422410
31
0.0
0
LINE
8
0
6
CONTINUOUS
10
-36.755495
20
67.398610
30
0.0
11
-38.202025
21
67.399430
31
0.0
0
LINE
8
0
6
CONTINUOUS
10
-36.032815
20
66.420750
30
0.0
11
-36.755495
21
67.398610
31
0.0
0
LINE
8
0
6
CONTINUOUS
10
-38.925805
20
66.422410
30
0.0
11
-38.203115
21
65.444550
31
0.0
0
LINE
8
0
6
CONTINUOUS
10
-36.756605
20
65.443740
30
0.0
11
-36.032815
21
66.420750
31
0.0
0
LINE
8
0
6
CONTINUOUS
10
-38.203115
20
65.444550
30
0.0
11
-36.756605
21
65.443740
31
0.0
0
LINE
8
0
6
CONTINUOUS
10
-41.065525
20
59.290280
30
0.0
11
-40.342835
21
58.312420
31
0.0
0
LINE
8
0
6
CONTINUOUS
10
-40.342835
20
58.312420
30
0.0
11
-40.342585
21
58.775488
31
0.0
0
LINE
8
0
6
CONTINUOUS
10
-42.512045
20
59.291100
30
0.0
11
-41.065525
21
59.290280
31
0.0
0
LINE
8
0
6
CONTINUOUS
10
-41.065525
20
59.290280
30
0.0
11
-41.065229
21
59.837712
31
0.0
0
LINE
8
0
6
CONTINUOUS
10
-43.235835
20
58.314080
30
0.0
11
-42.512045
21
59.291100
31
0.0
0
LINE
8
0
6
CONTINUOUS
10
-43.235195
20
59.499000
30
0.0
11
-43.235835
21
58.314080
31
0.0
0
LINE
8
0
6
CONTINUOUS
10
-42.512045
20
59.291100
30
0.0
11
-42.511690
21
59.949204
31
0.0
0
LINE
8
0
6
CONTINUOUS
10
-42.512045
20
59.291100
30
0.0
11
-43.235835
21
58.314080
31
0.0
0
LINE
8
0
6
CONTINUOUS
10
-41.065525
20
59.290280
30
0.0
11
-42.512045
21
59.291100
31
0.0
0
LINE
8
0
6
CONTINUOUS
10
-40.342835
20
58.312420
30
0.0
11
-41.065525
21
59.290280
31
0.0
0
LINE
8
0
6
CONTINUOUS
10
-43.235835
20
58.314080
30
0.0
11
-42.513135
21
57.336220
31
0.0
0
LINE
8
0
6
CONTINUOUS
10
-41.066625
20
57.335410
30
0.0
11
-40.342835
21
58.312420
31
0.0
0
LINE
8
0
6
CONTINUOUS
10
-42.513135
20
57.336220
30
0.0
11
-41.066625
21
57.335410
31
0.0
0
LINE
8
0
6
CONTINUOUS
10
-5.679815
20
-8.758320
30
0.0
11
0.017695
21
-9.776010
31
0.0
0
LINE
8
0
6
CONTINUOUS
10
-16.997545
20
10.621160
30
0.0
11
-16.710275
21
8.113690
31
0.0
0
LINE
8
0
6
CONTINUOUS
10
-15.283615
20
0.109960
30
0.0
11
-13.527465
21
-3.362090
31
0.0
0
LINE
8
0
6
CONTINUOUS
10
-10.717085
20
-6.219290
30
0.0
11
-5.679815
21
-8.758320
31
0.0
0
LINE
8
0
6
CONTINUOUS
10
-13.527465
20
-3.362090
30
0.0
11
-10.717085
21
-6.219290
31
0.0
0
LINE
8
0
6
CONTINUOUS
10
-16.710275
20
8.113690
30
0.0
11
-16.504415
21
5.767200
31
0.0
0
LINE
8
0
6
CONTINUOUS
10
-16.504415
20
5.767200
30
0.0
11
-16.174375
21
3.517860
31
0.0
0
LINE
8
0
6
CONTINUOUS
10
-16.174375
20
3.517860
30
0.0
11
-15.283615
21
0.109960
31
0.0
0
LINE
8
0
6
CONTINUOUS
10
-4.784935
20
11.674440
30
0.0
11
0.016785
21
11.532980
31
0.0
0
LINE
8
0
6
CONTINUOUS
10
-9.580055
20
12.262000
30
0.0
11
-4.784935
21
11.674440
31
0.0
0
LINE
8
0
6
CONTINUOUS
10
-19.649635
20
14.705080
30
0.0
11
-17.011295
21
13.845730
31
0.0
0
LINE
8
0
6
CONTINUOUS
10
-20.148377
20
15.180245
30
0.0
11
-20.119025
21
15.043890
31
0.0
0
LINE
8
0
6
CONTINUOUS
10
-17.011295
20
13.845730
30
0.0
11
-14.902885
21
13.253070
31
0.0
0
LINE
8
0
6
CONTINUOUS
10
-9.580055
20
12.262000
30
0.0
11
-14.315835
21
13.088050
31
0.0
0
LINE
8
0
6
CONTINUOUS
10
-14.315835
20
13.088050
30
0.0
11
-14.902885
21
13.253070
31
0.0
0
LINE
8
0
6
CONTINUOUS
10
-15.021485
20
7.288070
30
0.0
11
-14.366125
21
5.481980
31
0.0
0
LINE
8
0
6
CONTINUOUS
10
-19.739215
20
14.523660
30
0.0
11
-18.282475
21
13.138220
31
0.0
0
LINE
8
0
6
CONTINUOUS
10
-20.119025
20
15.043890
30
0.0
11
-20.075985
21
14.843950
31
0.0
0
LINE
8
0
6
CONTINUOUS
10
-20.075985
20
14.843950
30
0.0
11
-19.739215
21
14.523660
31
0.0
0
LINE
8
0
6
CONTINUOUS
10
-19.649635
20
14.705080
30
0.0
11
-20.075985
21
14.843950
31
0.0
0
LINE
8
0
6
CONTINUOUS
10
-15.788695
20
9.214010
30
0.0
11
-15.021485
21
7.288070
31
0.0
0
LINE
8
0
6
CONTINUOUS
10
-18.282475
20
13.138220
30
0.0
11
-16.806285
21
11.220460
31
0.0
0
LINE
8
0
6
CONTINUOUS
10
-16.806285
20
11.220460
30
0.0
11
-15.788695
21
9.214010
31
0.0
0
LINE
8
0
6
CONTINUOUS
10
0.017695
20
-9.776010
30
0.0
11
5.715685
21
-8.757080
31
0.0
0
LINE
8
0
6
CONTINUOUS
10
16.749545
20
8.117310
30
0.0
11
17.036145
21
10.624850
31
0.0
0
LINE
8
0
6
CONTINUOUS
10
13.566125
20
-3.359160
30
0.0
11
15.323145
21
0.113270
31
0.0
0
LINE
8
0
6
CONTINUOUS
10
5.715685
20
-8.757080
30
0.0
11
10.754385
21
-6.216960
31
0.0
0
LINE
8
0
6
CONTINUOUS
10
10.754385
20
-6.216960
30
0.0
11
13.566125
21
-3.359160
31
0.0
0
LINE
8
0
6
CONTINUOUS
10
16.544065
20
5.770780
30
0.0
11
16.749545
21
8.117310
31
0.0
0
LINE
8
0
6
CONTINUOUS
10
16.214245
20
3.521370
30
0.0
11
16.544065
21
5.770780
31
0.0
0
LINE
8
0
6
CONTINUOUS
10
15.323145
20
0.113270
30
0.0
11
16.214245
21
3.521370
31
0.0
0
LINE
8
0
6
CONTINUOUS
10
0.016785
20
11.532980
30
0.0
11
4.818425
21
11.675490
31
0.0
0
LINE
8
0
6
CONTINUOUS
10
4.818425
20
11.675490
30
0.0
11
9.612945
21
12.264080
31
0.0
0
LINE
8
0
6
CONTINUOUS
10
17.042495
20
13.849420
30
0.0
11
19.680025
21
14.709340
31
0.0
0
LINE
8
0
6
CONTINUOUS
10
20.149505
20
15.048260
30
0.0
11
20.179089
21
15.184982
31
0.0
0
LINE
8
0
6
CONTINUOUS
10
14.934685
20
13.256290
30
0.0
11
17.042495
21
13.849420
31
0.0
0
LINE
8
0
6
CONTINUOUS
10
14.347805
20
13.091160
30
0.0
11
9.612945
21
12.264080
31
0.0
0
LINE
8
0
6
CONTINUOUS
10
14.934685
20
13.256290
30
0.0
11
14.347805
21
13.091160
31
0.0
0
LINE
8
0
6
CONTINUOUS
10
14.401175
20
5.485100
30
0.0
11
15.056175
21
7.291330
31
0.0
0
LINE
8
0
6
CONTINUOUS
10
18.314225
20
13.142190
30
0.0
11
19.769745
21
14.527930
31
0.0
0
LINE
8
0
6
CONTINUOUS
10
20.106245
20
14.848300
30
0.0
11
20.149505
21
15.048260
31
0.0
0
LINE
8
0
6
CONTINUOUS
10
20.106245
20
14.848300
30
0.0
11
19.680025
21
14.709340
31
0.0
0
LINE
8
0
6
CONTINUOUS
10
19.769745
20
14.527930
30
0.0
11
20.106245
21
14.848300
31
0.0
0
LINE
8
0
6
CONTINUOUS
10
15.056175
20
7.291330
30
0.0
11
15.822755
21
9.217430
31
0.0
0
LINE
8
0
6
CONTINUOUS
10
16.839385
20
11.224100
30
0.0
11
18.314225
21
13.142190
31
0.0
0
LINE
8
0
6
CONTINUOUS
10
15.822755
20
9.217430
30
0.0
11
16.839385
21
11.224100
31
0.0
0
LINE
8
0
6
CONTINUOUS
10
49.996205
20
50.856490
30
0.0
11
49.998115
21
54.406360
31
0.0
0
LINE
8
0
6
CONTINUOUS
10
-50.001865
20
54.395520
30
0.0
11
-50.003765
21
50.845660
31
0.0
0
LINE
8
0
6
CONTINUOUS
10
-27.765285
20
18.347940
30
0.0
11
-19.119045
21
14.752170
31
0.0
0
LINE
8
0
6
CONTINUOUS
10
46.197995
20
35.823270
30
0.0
11
49.039415
21
43.124910
31
0.0
0
LINE
8
0
6
CONTINUOUS
10
0.016705
20
11.791540
30
0.0
11
9.770845
21
12.540460
31
0.0
0
LINE
8
0
6
CONTINUOUS
10
-9.738215
20
12.538350
30
0.0
11
0.016705
21
11.791540
31
0.0
0
LINE
8
0
6
CONTINUOUS
10
9.770845
20
12.540460
30
0.0
11
19.149335
21
14.756320
31
0.0
0
LINE
8
0
6
CONTINUOUS
10
19.149335
20
14.756320
30
0.0
11
27.791775
21
18.353960
31
0.0
0
LINE
8
0
6
CONTINUOUS
10
27.791775
20
18.353960
30
0.0
11
35.366045
21
23.195130
31
0.0
0
LINE
8
0
6
CONTINUOUS
10
35.366045
20
23.195130
30
0.0
11
41.581055
21
29.093800
31
0.0
0
LINE
8
0
6
CONTINUOUS
10
41.581055
20
29.093800
30
0.0
11
46.197995
21
35.823270
31
0.0
0
LINE
8
0
6
CONTINUOUS
10
49.039415
20
43.124910
30
0.0
11
49.996135
21
50.718170
31
0.0
0
LINE
8
0
6
CONTINUOUS
10
-19.119045
20
14.752170
30
0.0
11
-9.738215
21
12.538350
31
0.0
0
LINE
8
0
6
CONTINUOUS
10
-35.344665
20
23.187480
30
0.0
11
-27.765285
21
18.347940
31
0.0
0
LINE
8
0
6
CONTINUOUS
10
-41.565925
20
29.084790
30
0.0
11
-35.344665
21
23.187480
31
0.0
0
LINE
8
0
6
CONTINUOUS
10
-46.189965
20
35.813260
30
0.0
11
-41.565925
21
29.084790
31
0.0
0
LINE
8
0
6
CONTINUOUS
10
-49.039105
20
43.114290
30
0.0
11
-46.189965
21
35.813260
31
0.0
0
LINE
8
0
6
CONTINUOUS
10
-50.003835
20
50.707340
30
0.0
11
-49.039105
21
43.114290
31
0.0
0
LINE
8
0
6
CONTINUOUS
10
-50.003835
20
50.707340
30
0.0
11
-49.047105
21
58.300590
31
0.0
0
LINE
8
0
6
CONTINUOUS
10
-50.003765
20
50.845660
30
0.0
11
-50.003835
21
50.707340
31
0.0
0
LINE
8
0
6
CONTINUOUS
10
-49.047105
20
58.300590
30
0.0
11
-46.205665
21
65.602250
31
0.0
0
LINE
8
0
6
CONTINUOUS
10
-46.205665
20
65.602250
30
0.0
11
-41.588715
21
72.331700
31
0.0
0
LINE
8
0
6
CONTINUOUS
10
-9.778455
20
88.884980
30
0.0
11
-0.024405
21
89.633880
31
0.0
0
LINE
8
0
6
CONTINUOUS
10
35.336895
20
78.238010
30
0.0
11
41.558165
21
72.340700
31
0.0
0
LINE
8
0
6
CONTINUOUS
10
9.730425
20
88.887100
30
0.0
11
19.111255
21
86.673300
31
0.0
0
LINE
8
0
6
CONTINUOUS
10
-0.024405
20
89.633880
30
0.0
11
9.730425
21
88.887100
31
0.0
0
LINE
8
0
6
CONTINUOUS
10
49.033435
20
62.137720
30
0.0
11
46.184275
21
69.438760
31
0.0
0
LINE
8
0
6
CONTINUOUS
10
49.998195
20
54.544680
30
0.0
11
49.033435
21
62.137720
31
0.0
0
LINE
8
0
6
CONTINUOUS
10
49.998115
20
54.406360
30
0.0
11
49.998195
21
54.544680
31
0.0
0
LINE
8
0
6
CONTINUOUS
10
9.732485
20
92.713600
30
0.0
11
-0.022355
21
93.460390
31
0.0
0
LINE
8
0
6
CONTINUOUS
10
-9.776395
20
92.711510
30
0.0
11
-19.154885
21
90.495660
31
0.0
0
LINE
8
0
6
CONTINUOUS
10
-0.022355
20
93.460390
30
0.0
11
-9.776395
21
92.711510
31
0.0
0
LINE
8
0
6
CONTINUOUS
10
49.996135
20
50.718170
30
0.0
11
49.996205
21
50.856490
31
0.0
0
LINE
8
0
6
CONTINUOUS
10
49.031375
20
58.311210
30
0.0
11
49.996135
21
50.718170
31
0.0
0
LINE
8
0
6
CONTINUOUS
10
46.182225
20
65.612260
30
0.0
11
49.031375
21
58.311210
31
0.0
0
LINE
8
0
6
CONTINUOUS
10
41.558165
20
72.340700
30
0.0
11
46.182225
21
65.612260
31
0.0
0
LINE
8
0
6
CONTINUOUS
10
27.757505
20
83.077530
30
0.0
11
35.336895
21
78.238010
31
0.0
0
LINE
8
0
6
CONTINUOUS
10
19.111255
20
86.673300
30
0.0
11
27.757505
21
83.077530
31
0.0
0
LINE
8
0
6
CONTINUOUS
10
19.113315
20
90.499800
30
0.0
11
9.732485
21
92.713600
31
0.0
0
LINE
8
0
6
CONTINUOUS
10
27.759565
20
86.904030
30
0.0
11
19.113315
21
90.499800
31
0.0
0
LINE
8
0
6
CONTINUOUS
10
35.338955
20
82.064510
30
0.0
11
27.759565
21
86.904030
31
0.0
0
LINE
8
0
6
CONTINUOUS
10
41.560215
20
76.167220
30
0.0
11
35.338955
21
82.064510
31
0.0
0
LINE
8
0
6
CONTINUOUS
10
46.184275
20
69.438760
30
0.0
11
41.560215
21
76.167220
31
0.0
0
LINE
8
0
6
CONTINUOUS
10
-41.588715
20
72.331700
30
0.0
11
-35.373675
21
78.230360
31
0.0
0
LINE
8
0
6
CONTINUOUS
10
-35.373675
20
78.230360
30
0.0
11
-27.799395
21
83.071520
31
0.0
0
LINE
8
0
6
CONTINUOUS
10
-27.799395
20
83.071520
30
0.0
11
-19.156945
21
86.669160
31
0.0
0
LINE
8
0
6
CONTINUOUS
10
-19.156945
20
86.669160
30
0.0
11
-9.778455
21
88.884980
31
0.0
0
LINE
8
0
6
CONTINUOUS
10
-19.154885
20
90.495660
30
0.0
11
-27.797335
21
86.898020
31
0.0
0
LINE
8
0
6
CONTINUOUS
10
-27.797335
20
86.898020
30
0.0
11
-35.371615
21
82.056870
31
0.0
0
LINE
8
0
6
CONTINUOUS
10
-35.371615
20
82.056870
30
0.0
11
-41.586655
21
76.158200
31
0.0
0
LINE
8
0
6
CONTINUOUS
10
-41.586655
20
76.158200
30
0.0
11
-46.203605
21
69.428750
31
0.0
0
LINE
8
0
6
CONTINUOUS
10
-46.203605
20
69.428750
30
0.0
11
-49.045045
21
62.127090
31
0.0
0
LINE
8
0
6
CONTINUOUS
10
-50.001785
20
54.533840
30
0.0
11
-50.001865
21
54.395520
31
0.0
0
LINE
8
0
6
CONTINUOUS
10
-49.045045
20
62.127090
30
0.0
11
-50.001785
21
54.533840
31
0.0
0
LINE
8
0
6
CONTINUOUS
10
-8.778645
20
-94.015380
30
0.0
11
-4.700575
21
-94.652530
31
0.0
0
LINE
8
0
6
CONTINUOUS
10
-8.778645
20
-94.015380
30
0.0
11
-8.791415
21
-93.304200
31
0.0
0
LINE
8
0
6
CONTINUOUS
10
-11.503875
20
-93.050930
30
0.0
11
-8.778645
21
-94.015380
31
0.0
0
LINE
8
0
6
CONTINUOUS
10
12.553925
20
-91.905060
30
0.0
11
12.583025
21
-91.191060
31
0.0
0
LINE
8
0
6
CONTINUOUS
10
11.587815
20
-93.048420
30
0.0
11
12.553925
21
-91.905060
31
0.0
0
LINE
8
0
6
CONTINUOUS
10
4.778015
20
-94.651510
30
0.0
11
8.858685
21
-94.013470
31
0.0
0
LINE
8
0
6
CONTINUOUS
10
-12.494815
20
-91.193780
30
0.0
11
-12.465385
21
-91.907780
31
0.0
0
LINE
8
0
6
CONTINUOUS
10
-12.465385
20
-91.907780
30
0.0
11
-11.503875
21
-93.050930
31
0.0
0
LINE
8
0
6
CONTINUOUS
10
8.871105
20
-93.302280
30
0.0
11
8.858685
21
-94.013470
31
0.0
0
LINE
8
0
6
CONTINUOUS
10
8.858685
20
-94.013470
30
0.0
11
11.587815
21
-93.048420
31
0.0
0
LINE
8
0
6
CONTINUOUS
10
-4.700575
20
-94.652530
30
0.0
11
0.038265
21
-94.874330
31
0.0
0
LINE
8
0
6
CONTINUOUS
10
0.038265
20
-94.874330
30
0.0
11
4.778015
21
-94.651510
31
0.0
0
LINE
8
0
6
CONTINUOUS
10
-7.385925
20
-103.247240
30
0.0
11
-3.947425
21
-103.782910
31
0.0
0
LINE
8
0
6
CONTINUOUS
10
-7.385925
20
-103.247240
30
0.0
11
-7.386045
21
-102.761850
31
0.0
0
LINE
8
0
6
CONTINUOUS
10
-9.682335
20
-102.436240
30
0.0
11
-7.385925
21
-103.247240
31
0.0
0
LINE
8
0
6
CONTINUOUS
10
10.591035
20
-101.464920
30
0.0
11
10.590925
21
-100.979520
31
0.0
0
LINE
8
0
6
CONTINUOUS
10
9.771535
20
-102.434150
30
0.0
11
10.591035
21
-101.464920
31
0.0
0
LINE
8
0
6
CONTINUOUS
10
4.031155
20
-103.782040
30
0.0
11
7.471835
21
-103.245630
31
0.0
0
LINE
8
0
6
CONTINUOUS
10
-10.498045
20
-100.981800
30
0.0
11
-10.497935
21
-101.467200
31
0.0
0
LINE
8
0
6
CONTINUOUS
10
-10.497935
20
-101.467200
30
0.0
11
-9.682335
21
-102.436240
31
0.0
0
LINE
8
0
6
CONTINUOUS
10
7.471725
20
-102.760240
30
0.0
11
7.471835
21
-103.245630
31
0.0
0
LINE
8
0
6
CONTINUOUS
10
7.471835
20
-103.245630
30
0.0
11
9.771535
21
-102.434150
31
0.0
0
LINE
8
0
6
CONTINUOUS
10
-3.947425
20
-103.782910
30
0.0
11
0.041475
21
-103.969000
31
0.0
0
LINE
8
0
6
CONTINUOUS
10
0.041475
20
-103.969000
30
0.0
11
4.031155
21
-103.782040
31
0.0
0
LINE
8
0
6
CONTINUOUS
10
0.041365
20
-103.483600
30
0.0
11
0.041475
21
-103.969000
31
0.0
0
LINE
8
0
6
CONTINUOUS
10
-4.850055
20
-73.244400
30
0.0
11
-4.705555
21
-93.940290
31
0.0
0
LINE
8
0
6
CONTINUOUS
10
-8.791415
20
-93.304200
30
0.0
11
-9.162425
21
-72.643040
31
0.0
0
LINE
8
0
6
CONTINUOUS
10
-13.349405
20
-70.463530
30
0.0
11
-12.494815
21
-91.193780
31
0.0
0
LINE
8
0
6
CONTINUOUS
10
-11.526275
20
-92.340310
30
0.0
11
-12.176945
21
-71.702300
31
0.0
0
LINE
8
0
6
CONTINUOUS
10
12.583025
20
-91.191060
30
0.0
11
13.427855
21
-70.460630
31
0.0
0
LINE
8
0
6
CONTINUOUS
10
-50.001625
20
54.837630
30
0.0
11
-49.982487
21
54.687002
31
0.0
0
LINE
8
0
6
CONTINUOUS
10
49.979057
20
54.695300
30
0.0
11
49.998355
21
54.848460
31
0.0
0
LINE
8
0
6
CONTINUOUS
10
16.299355
20
3.661740
30
0.0
11
15.627535
21
0.380980
31
0.0
0
LINE
8
0
6
CONTINUOUS
10
-41.586495
20
76.462000
30
0.0
11
-35.371455
21
82.360650
31
0.0
0
LINE
8
0
6
CONTINUOUS
10
-16.543895
20
4.146980
30
0.0
11
-15.997555
21
-8.552270
31
0.0
0
LINE
8
0
6
CONTINUOUS
10
-16.698395
20
6.843820
30
0.0
11
-16.543895
21
4.146980
31
0.0
0
LINE
8
0
6
CONTINUOUS
10
-14.253495
20
-2.817490
30
0.0
11
-15.587325
21
0.377610
31
0.0
0
LINE
8
0
6
CONTINUOUS
10
-10.718595
20
-6.798300
30
0.0
11
-14.253495
21
-2.817490
31
0.0
0
LINE
8
0
6
CONTINUOUS
10
-50.001625
20
54.837630
30
0.0
11
-49.044885
21
62.430900
31
0.0
0
LINE
8
0
6
CONTINUOUS
10
-50.001475
20
55.101430
30
0.0
11
-50.001625
21
54.837630
31
0.0
0
LINE
8
0
6
CONTINUOUS
10
-50.001045
20
55.912840
30
0.0
11
-50.001475
21
55.101430
31
0.0
0
LINE
8
0
6
CONTINUOUS
10
14.292895
20
-2.814400
30
0.0
11
10.756175
21
-6.795980
31
0.0
0
LINE
8
0
6
CONTINUOUS
10
-49.996415
20
64.536230
30
0.0
11
-49.998725
21
60.224530
31
0.0
0
LINE
8
0
6
CONTINUOUS
10
-49.998725
20
60.224530
30
0.0
11
-50.001045
21
55.912840
31
0.0
0
LINE
8
0
6
CONTINUOUS
10
-9.770755
20
103.220120
30
0.0
11
-19.149245
21
101.004280
31
0.0
0
LINE
8
0
6
CONTINUOUS
10
-0.016705
20
103.969000
30
0.0
11
-9.770755
21
103.220120
31
0.0
0
LINE
8
0
6
CONTINUOUS
10
-19.149245
20
101.004280
30
0.0
11
-27.791695
21
97.406640
31
0.0
0
LINE
8
0
6
CONTINUOUS
10
-27.791695
20
97.406640
30
0.0
11
-35.365975
21
92.565480
31
0.0
0
LINE
8
0
6
CONTINUOUS
10
-41.581015
20
86.666810
30
0.0
11
-46.197975
21
79.937360
31
0.0
0
LINE
8
0
6
CONTINUOUS
10
-46.197975
20
79.937360
30
0.0
11
-49.039415
21
72.635710
31
0.0
0
LINE
8
0
6
CONTINUOUS
10
-49.039415
20
72.635710
30
0.0
11
-49.996145
21
65.042460
31
0.0
0
LINE
8
0
6
CONTINUOUS
10
-49.996145
20
65.042460
30
0.0
11
-49.996415
21
64.536230
31
0.0
0
LINE
8
0
6
CONTINUOUS
10
-0.022185
20
93.764190
30
0.0
11
9.732645
21
93.017390
31
0.0
0
LINE
8
0
6
CONTINUOUS
10
46.184435
20
69.742550
30
0.0
11
49.033595
21
62.441520
31
0.0
0
LINE
8
0
6
CONTINUOUS
10
-49.044885
20
62.430900
30
0.0
11
-46.203445
21
69.732530
31
0.0
0
LINE
8
0
6
CONTINUOUS
10
-46.203445
20
69.732530
30
0.0
11
-41.586495
21
76.462000
31
0.0
0
LINE
8
0
6
CONTINUOUS
10
-27.797175
20
87.201810
30
0.0
11
-19.154725
21
90.799450
31
0.0
0
LINE
8
0
6
CONTINUOUS
10
-35.371455
20
82.360650
30
0.0
11
-27.797175
21
87.201810
31
0.0
0
LINE
8
0
6
CONTINUOUS
10
-19.154725
20
90.799450
30
0.0
11
-9.776235
21
93.015290
31
0.0
0
LINE
8
0
6
CONTINUOUS
10
-15.587325
20
0.377610
30
0.0
11
-16.258925
21
3.658210
31
0.0
0
LINE
8
0
6
CONTINUOUS
10
0.017775
20
-10.125230
30
0.0
11
-5.400885
21
-9.396260
31
0.0
0
LINE
8
0
6
CONTINUOUS
10
-5.400885
20
-9.396260
30
0.0
11
-10.718595
21
-6.798300
31
0.0
0
LINE
8
0
6
CONTINUOUS
10
-16.804545
20
9.313140
30
0.0
11
-16.698395
21
6.843820
31
0.0
0
LINE
8
0
6
CONTINUOUS
10
-15.997555
20
-8.552270
30
0.0
11
-15.114825
21
-29.189330
31
0.0
0
LINE
8
0
6
CONTINUOUS
10
-14.062735
20
-10.077780
30
0.0
11
-13.473385
21
-30.609530
31
0.0
0
LINE
8
0
6
CONTINUOUS
10
-15.114825
20
-29.189330
30
0.0
11
-14.232115
21
-49.826400
31
0.0
0
LINE
8
0
6
CONTINUOUS
10
-9.524535
20
-52.071810
30
0.0
11
-9.162425
21
-72.643040
31
0.0
0
LINE
8
0
6
CONTINUOUS
10
-14.232115
20
-49.826400
30
0.0
11
-13.349405
21
-70.463530
31
0.0
0
LINE
8
0
6
CONTINUOUS
10
-12.176945
20
-71.702300
30
0.0
11
-12.827065
21
-51.156110
31
0.0
0
LINE
8
0
6
CONTINUOUS
10
-13.473385
20
-30.609530
30
0.0
11
-12.827065
21
-51.156110
31
0.0
0
LINE
8
0
6
CONTINUOUS
10
-9.524535
20
-52.071810
30
0.0
11
-9.862675
21
-31.491910
31
0.0
0
LINE
8
0
6
CONTINUOUS
10
-7.388025
20
-94.394090
30
0.0
11
-7.386045
21
-102.761850
31
0.0
0
LINE
8
0
6
CONTINUOUS
10
9.231975
20
-72.641040
30
0.0
11
8.871105
21
-93.302280
31
0.0
0
LINE
8
0
6
CONTINUOUS
10
11.609875
20
-92.337800
30
0.0
11
12.250375
21
-71.699660
31
0.0
0
LINE
8
0
6
CONTINUOUS
10
-10.499847
20
-93.406252
30
0.0
11
-10.498045
21
-100.981800
31
0.0
0
LINE
8
0
6
CONTINUOUS
10
49.998355
20
54.848460
30
0.0
11
49.998495
21
55.112270
31
0.0
0
LINE
8
0
6
CONTINUOUS
10
49.033595
20
62.441520
30
0.0
11
49.998355
21
54.848460
31
0.0
0
LINE
8
0
6
CONTINUOUS
10
15.627535
20
0.380980
30
0.0
11
14.292895
21
-2.814400
31
0.0
0
LINE
8
0
6
CONTINUOUS
10
35.339115
20
82.368300
30
0.0
11
41.560385
21
76.471000
31
0.0
0
LINE
8
0
6
CONTINUOUS
10
27.759725
20
87.207830
30
0.0
11
35.339115
21
82.368300
31
0.0
0
LINE
8
0
6
CONTINUOUS
10
16.740415
20
6.847450
30
0.0
11
16.844595
21
9.316780
31
0.0
0
LINE
8
0
6
CONTINUOUS
10
-9.776235
20
93.015290
30
0.0
11
-0.022185
21
93.764190
31
0.0
0
LINE
8
0
6
CONTINUOUS
10
49.998495
20
55.112270
30
0.0
11
49.998935
21
55.923670
31
0.0
0
LINE
8
0
6
CONTINUOUS
10
19.113475
20
90.803590
30
0.0
11
27.759725
21
87.207830
31
0.0
0
LINE
8
0
6
CONTINUOUS
10
50.001245
20
60.235370
30
0.0
11
50.003565
21
64.547060
31
0.0
0
LINE
8
0
6
CONTINUOUS
10
49.998935
20
55.923670
30
0.0
11
50.001245
21
60.235370
31
0.0
0
LINE
8
0
6
CONTINUOUS
10
19.118955
20
101.008420
30
0.0
11
9.738125
21
103.222220
31
0.0
0
LINE
8
0
6
CONTINUOUS
10
9.738125
20
103.222220
30
0.0
11
-0.016705
21
103.969000
31
0.0
0
LINE
8
0
6
CONTINUOUS
10
27.765205
20
97.412640
30
0.0
11
19.118955
21
101.008420
31
0.0
0
LINE
8
0
6
CONTINUOUS
10
35.344595
20
92.573130
30
0.0
11
27.765205
21
97.412640
31
0.0
0
LINE
8
0
6
CONTINUOUS
10
41.565865
20
86.675830
30
0.0
11
35.344595
21
92.573130
31
0.0
0
LINE
8
0
6
CONTINUOUS
10
46.189925
20
79.947380
30
0.0
11
41.565865
21
86.675830
31
0.0
0
LINE
8
0
6
CONTINUOUS
10
49.039085
20
72.646330
30
0.0
11
46.189925
21
79.947380
31
0.0
0
LINE
8
0
6
CONTINUOUS
10
50.003565
20
64.547060
30
0.0
11
50.003835
21
65.053290
31
0.0
0
LINE
8
0
6
CONTINUOUS
10
50.003835
20
65.053290
30
0.0
11
49.039085
21
72.646330
31
0.0
0
LINE
8
0
6
CONTINUOUS
10
10.756175
20
-6.795980
30
0.0
11
5.436935
21
-9.395080
31
0.0
0
LINE
8
0
6
CONTINUOUS
10
41.560385
20
76.471000
30
0.0
11
46.184435
21
69.742550
31
0.0
0
LINE
8
0
6
CONTINUOUS
10
16.046875
20
-8.548800
30
0.0
11
16.587235
21
4.150560
31
0.0
0
LINE
8
0
6
CONTINUOUS
10
9.732645
20
93.017390
30
0.0
11
19.113475
21
90.803590
31
0.0
0
LINE
8
0
6
CONTINUOUS
10
16.587235
20
4.150560
30
0.0
11
16.740415
21
6.847450
31
0.0
0
LINE
8
0
6
CONTINUOUS
10
5.436935
20
-9.395080
30
0.0
11
0.017775
21
-10.125230
31
0.0
0
LINE
8
0
6
CONTINUOUS
10
15.173855
20
-29.186050
30
0.0
11
16.046875
21
-8.548800
31
0.0
0
LINE
8
0
6
CONTINUOUS
10
13.526575
20
-30.606600
30
0.0
11
14.105745
21
-10.074730
31
0.0
0
LINE
8
0
6
CONTINUOUS
10
14.300855
20
-49.823310
30
0.0
11
15.173855
21
-29.186050
31
0.0
0
LINE
8
0
6
CONTINUOUS
10
9.231975
20
-72.641040
30
0.0
11
9.584005
21
-52.069740
31
0.0
0
LINE
8
0
6
CONTINUOUS
10
12.890365
20
-51.153320
30
0.0
11
12.250375
21
-71.699660
31
0.0
0
LINE
8
0
6
CONTINUOUS
10
13.427855
20
-70.460630
30
0.0
11
14.300855
21
-49.823310
31
0.0
0
LINE
8
0
6
CONTINUOUS
10
9.912095
20
-31.489760
30
0.0
11
9.584005
21
-52.069740
31
0.0
0
LINE
8
0
6
CONTINUOUS
10
12.890365
20
-51.153320
30
0.0
11
13.526575
21
-30.606600
31
0.0
0
LINE
8
0
6
CONTINUOUS
10
10.590925
20
-100.979520
30
0.0
11
10.589123
21
-93.401568
31
0.0
0
LINE
8
0
6
CONTINUOUS
10
7.471725
20
-102.760240
30
0.0
11
7.469745
21
-94.392480
31
0.0
0
LINE
8
0
6
CONTINUOUS
10
4.782645
20
-93.939260
30
0.0
11
4.917115
21
-73.243340
31
0.0
0
LINE
8
0
6
CONTINUOUS
10
0.039385
20
-95.115840
30
0.0
11
0.041365
21
-103.483600
31
0.0
0
LINE
8
0
6
CONTINUOUS
10
-35.365975
20
92.565480
30
0.0
11
-41.581015
21
86.666810
31
0.0
0
LINE
8
0
6
CONTINUOUS
10
-42.511690
20
59.949204
30
0.0
11
-41.065229
21
59.837712
31
0.0
0
LINE
8
0
6
CONTINUOUS
10
-38.201667
20
68.062905
30
0.0
11
-37.589796
21
68.018528
31
0.0
0
LINE
8
0
6
CONTINUOUS
10
-31.342235
20
75.048228
30
0.0
11
-29.989330
21
74.981243
31
0.0
0
LINE
8
0
6
CONTINUOUS
10
-22.400900
20
80.380902
30
0.0
11
-20.954411
21
80.323736
31
0.0
0
LINE
8
0
6
CONTINUOUS
10
-11.986942
20
83.738355
30
0.0
11
-10.540446
21
83.703004
31
0.0
0
LINE
8
0
6
CONTINUOUS
10
-35.461832
20
50.546379
30
0.0
11
-34.015373
21
50.430647
31
0.0
0
LINE
8
0
6
CONTINUOUS
10
-0.810101
20
84.868218
30
0.0
11
-0.022365
21
84.861495
31
0.0
0
LINE
8
0
6
CONTINUOUS
10
38.768450
20
67.086711
30
0.0
11
38.045758
21
68.060923
31
0.0
0
LINE
8
0
6
CONTINUOUS
10
43.087074
20
58.995858
30
0.0
11
42.364365
21
59.947593
31
0.0
0
LINE
8
0
6
CONTINUOUS
10
44.556851
20
50.293642
30
0.0
11
43.840478
21
51.215826
31
0.0
0
LINE
8
0
6
CONTINUOUS
10
40.926958
20
42.374962
30
0.0
11
42.373532
21
42.484611
31
0.0
0
LINE
8
0
6
CONTINUOUS
10
42.537538
20
42.277365
30
0.0
11
42.373532
21
42.484611
31
0.0
0
LINE
8
0
6
CONTINUOUS
10
36.616910
20
34.250680
30
0.0
11
38.063483
21
34.349080
31
0.0
0
LINE
8
0
6
CONTINUOUS
10
38.133273
20
34.261951
30
0.0
11
38.063483
21
34.349080
31
0.0
0
LINE
8
0
6
CONTINUOUS
10
22.262676
20
22.002867
30
0.0
11
22.985439
21
21.160140
31
0.0
0
LINE
8
0
6
CONTINUOUS
10
-11.952679
20
18.614075
30
0.0
11
-10.506185
21
18.565636
31
0.0
0
LINE
8
0
6
CONTINUOUS
10
-22.370150
20
22.006160
30
0.0
11
-20.923674
21
21.924055
31
0.0
0
LINE
8
0
6
CONTINUOUS
10
-31.317124
20
27.385909
30
0.0
11
-29.870646
21
27.318356
31
0.0
0
LINE
8
0
6
CONTINUOUS
10
-33.769403
20
58.910314
30
0.0
11
-32.322947
21
58.791767
31
0.0
0
LINE
8
0
6
CONTINUOUS
10
-21.182206
20
72.456540
30
0.0
11
-19.735728
21
72.376566
31
0.0
0
LINE
8
0
6
CONTINUOUS
10
-11.519592
20
76.241904
30
0.0
11
-11.246825
21
76.232684
31
0.0
0
LINE
8
0
6
CONTINUOUS
10
-0.806931
20
77.546988
30
0.0
11
-0.019238
21
77.536913
31
0.0
0
LINE
8
0
6
CONTINUOUS
10
29.058974
20
65.991620
30
0.0
11
28.693430
21
66.492675
31
0.0
0
LINE
8
0
6
CONTINUOUS
10
34.344457
20
57.949536
30
0.0
11
33.621751
21
58.906120
31
0.0
0
LINE
8
0
6
CONTINUOUS
10
36.028275
20
49.630736
30
0.0
11
35.322978
21
50.542805
31
0.0
0
LINE
8
0
6
CONTINUOUS
10
34.353260
20
41.256589
30
0.0
11
33.630532
21
42.164421
31
0.0
0
LINE
8
0
6
CONTINUOUS
10
29.432891
20
33.799356
30
0.0
11
28.710161
21
34.703317
31
0.0
0
LINE
8
0
6
CONTINUOUS
10
0.667994
20
23.395663
30
0.0
11
1.390738
21
22.517917
31
0.0
0
LINE
8
0
6
CONTINUOUS
10
-11.492561
20
24.744876
30
0.0
11
-11.110372
21
24.724184
31
0.0
0
LINE
8
0
6
CONTINUOUS
10
-21.159183
20
28.684830
30
0.0
11
-19.874285
21
28.649604
31
0.0
0
LINE
8
0
6
CONTINUOUS
10
-28.832225
20
34.704960
30
0.0
11
-27.631689
21
34.639675
31
0.0
0
LINE
8
0
6
CONTINUOUS
10
-33.760617
20
42.168133
30
0.0
11
-32.314162
21
42.054609
31
0.0
0
LINE
8
0
6
CONTINUOUS
10
-19.373691
20
64.505321
30
0.0
11
-17.927212
21
64.429812
31
0.0
0
LINE
8
0
6
CONTINUOUS
10
-10.854719
20
68.775791
30
0.0
11
-9.408223
21
68.742482
31
0.0
0
LINE
8
0
6
CONTINUOUS
10
-0.803890
20
70.276490
30
0.0
11
-0.016170
21
70.266414
31
0.0
0
LINE
8
0
6
CONTINUOUS
10
11.036042
20
68.274796
30
0.0
11
10.695153
21
68.774186
31
0.0
0
LINE
8
0
6
CONTINUOUS
10
19.545130
20
64.055092
30
0.0
11
19.218987
21
64.501863
31
0.0
0
LINE
8
0
6
CONTINUOUS
10
19.234189
20
35.409118
30
0.0
11
19.956936
21
34.536083
31
0.0
0
LINE
8
0
6
CONTINUOUS
10
11.437824
20
30.006041
30
0.0
11
10.715102
21
30.926178
31
0.0
0
LINE
8
0
6
CONTINUOUS
10
0.833232
20
29.122804
30
0.0
11
0.664226
21
29.337976
31
0.0
0
LINE
8
0
6
CONTINUOUS
10
-10.834767
20
30.926180
30
0.0
11
-9.388261
21
30.909574
31
0.0
0
LINE
8
0
6
CONTINUOUS
10
-19.358483
20
35.412316
30
0.0
11
-19.218284
21
35.405192
31
0.0
0
LINE
8
0
6
CONTINUOUS
10
-25.055820
20
41.994309
30
0.0
11
-25.004275
21
41.990190
31
0.0
0
LINE
8
0
6
CONTINUOUS
10
-16.344498
20
56.502106
30
0.0
11
-14.898006
21
56.448845
31
0.0
0
LINE
8
0
6
CONTINUOUS
10
-9.776044
20
61.595064
30
0.0
11
-8.329546
21
61.552894
31
0.0
0
LINE
8
0
6
CONTINUOUS
10
-0.800711
20
63.343211
30
0.0
11
-0.013003
21
63.325802
31
0.0
0
LINE
8
0
6
CONTINUOUS
10
10.345919
20
60.587362
30
0.0
11
9.623244
21
61.592482
31
0.0
0
LINE
8
0
6
CONTINUOUS
10
16.919821
20
55.531060
30
0.0
11
16.197126
21
56.499984
31
0.0
0
LINE
8
0
6
CONTINUOUS
10
19.288087
20
48.581375
30
0.0
11
18.606024
21
49.490127
31
0.0
0
LINE
8
0
6
CONTINUOUS
10
9.636017
20
37.336469
30
0.0
11
10.013193
21
36.875721
31
0.0
0
LINE
8
0
6
CONTINUOUS
10
-0.785967
20
35.336559
30
0.0
11
0.001729
21
35.312345
31
0.0
0
LINE
8
0
6
CONTINUOUS
10
-9.763267
20
37.339164
30
0.0
11
-8.316771
21
37.294687
31
0.0
0
LINE
8
0
6
CONTINUOUS
10
-16.337100
20
42.510559
30
0.0
11
-14.890617
21
42.453011
31
0.0
0
LINE
8
0
6
CONTINUOUS
10
-7.338393
20
54.296884
30
0.0
11
-5.891895
21
54.254835
31
0.0
0
LINE
8
0
6
CONTINUOUS
10
-0.797290
20
56.253108
30
0.0
11
-0.009601
21
56.230210
31
0.0
0
LINE
8
0
6
CONTINUOUS
10
7.432381
20
53.971338
30
0.0
11
7.192702
21
54.293808
31
0.0
0
LINE
8
0
6
CONTINUOUS
10
5.751530
20
44.032463
30
0.0
11
7.198072
21
44.072367
31
0.0
0
LINE
8
0
6
CONTINUOUS
10
1.379522
20
40.874017
30
0.0
11
0.656812
21
41.814617
31
0.0
0
LINE
8
0
6
CONTINUOUS
10
-5.163836
20
43.052610
30
0.0
11
-5.886524
21
44.033857
31
0.0
0
LINE
8
0
6
CONTINUOUS
10
-27.059328
20
49.879852
30
0.0
11
-26.949023
21
49.871025
31
0.0
0
LINE
8
0
6
CONTINUOUS
10
-0.727984
20
48.938288
30
0.0
11
-0.005857
21
48.917297
31
0.0
0
LINE
8
0
6
CONTINUOUS
10
-10.045594
20
49.190693
30
0.0
11
-8.599095
21
49.150660
31
0.0
0
LINE
8
0
6
CONTINUOUS
10
-43.978621
20
51.217542
30
0.0
11
-42.532168
21
51.101875
31
0.0
0
LINE
8
0
6
CONTINUOUS
10
-18.746013
20
49.492124
30
0.0
11
-17.299524
21
49.434523
31
0.0
0
LINE
8
0
6
CONTINUOUS
10
5.030175
20
57.686974
30
0.0
11
7.354436
21
56.846608
31
0.0
0
LINE
8
0
6
CONTINUOUS
10
7.365851
20
39.688263
30
0.0
11
8.636707
21
40.487036
31
0.0
0
LINE
8
0
6
CONTINUOUS
10
7.354436
20
56.846608
30
0.0
11
8.658943
21
56.078632
31
0.0
0
LINE
8
0
6
CONTINUOUS
10
13.289855
20
48.293080
30
0.0
11
13.279246
21
48.347687
31
0.0
0
LINE
8
0
6
CONTINUOUS
10
-27.233553
20
59.612015
30
0.0
11
-25.506411
21
62.458555
31
0.0
0
LINE
8
0
6
CONTINUOUS
10
-11.717932
20
27.150336
30
0.0
11
-11.427767
21
27.084852
31
0.0
0
LINE
8
0
6
CONTINUOUS
10
-11.427767
20
27.084852
30
0.0
11
-5.986085
21
25.781970
31
0.0
0
LINE
8
0
6
CONTINUOUS
10
13.836150
20
70.170977
30
0.0
11
17.020435
21
69.049508
31
0.0
0
LINE
8
0
6
CONTINUOUS
10
-11.711932
20
71.116521
30
0.0
11
-11.651568
21
71.129267
31
0.0
0
LINE
8
0
6
CONTINUOUS
10
-11.651568
20
71.129267
30
0.0
11
-5.981240
21
72.484260
31
0.0
0
LINE
8
0
6
CONTINUOUS
10
0.008006
20
25.333246
30
0.0
11
6.001725
21
25.783290
31
0.0
0
LINE
8
0
6
CONTINUOUS
10
28.397017
20
57.793878
30
0.0
11
28.227418
21
58.246596
31
0.0
0
LINE
8
0
6
CONTINUOUS
10
30.066045
20
53.860520
30
0.0
11
28.397017
21
57.793878
31
0.0
0
LINE
8
0
6
CONTINUOUS
10
-0.017201
20
72.846215
30
0.0
11
4.545102
21
72.539777
31
0.0
0
LINE
8
0
6
CONTINUOUS
10
-13.867759
20
70.167930
30
0.0
11
-11.711932
21
71.116521
31
0.0
0
LINE
8
0
6
CONTINUOUS
10
28.227418
20
58.246596
30
0.0
11
27.213129
21
59.617977
31
0.0
0
LINE
8
0
6
CONTINUOUS
10
30.081445
20
44.552642
30
0.0
11
30.616817
21
49.178607
31
0.0
0
LINE
8
0
6
CONTINUOUS
10
28.312526
20
40.260509
30
0.0
11
29.647605
21
43.496099
31
0.0
0
LINE
8
0
6
CONTINUOUS
10
29.647605
20
43.496099
30
0.0
11
30.081445
21
44.552642
31
0.0
0
LINE
8
0
6
CONTINUOUS
10
-25.506411
20
62.458555
30
0.0
11
-24.015879
21
63.904582
31
0.0
0
LINE
8
0
6
CONTINUOUS
10
-24.015879
20
63.904582
30
0.0
11
-23.081314
21
64.873556
31
0.0
0
LINE
8
0
6
CONTINUOUS
10
17.020435
20
69.049508
30
0.0
11
19.272651
21
67.658905
31
0.0
0
LINE
8
0
6
CONTINUOUS
10
19.272651
20
67.658905
30
0.0
11
20.204062
21
67.115224
31
0.0
0
LINE
8
0
6
CONTINUOUS
10
-4.579226
20
72.538765
30
0.0
11
-0.017258
21
72.846205
31
0.0
0
LINE
8
0
6
CONTINUOUS
10
-5.981240
20
72.484260
30
0.0
11
-4.579226
21
72.538765
31
0.0
0
LINE
8
0
6
CONTINUOUS
10
30.610296
20
49.214760
30
0.0
11
30.242300
21
52.321298
31
0.0
0
LINE
8
0
6
CONTINUOUS
10
30.242300
20
52.321298
30
0.0
11
30.066045
21
53.860520
31
0.0
0
ENDSEC
0
EOF
