999
Erzeugt mit innoplus bad 
0
SECTION
2
HEADER
9
$ACADVER
1
AC1009
9
$DWGCODEPAGE
3
ISO8859-1
0
ENDSEC
0
SECTION
2
TABLES
0
TABLE
2
LAYER
70
1
0
LAYER
2
0
70
0
62
7
6
CONTINUOUS
0
ENDTAB
0
ENDSEC
0
SECTION
2
ENTITIES
0
LINE
8
0
6
CONTINUOUS
10
23.251840
20
116.894880
30
0.0
11
0.000000
21
119.184980
31
0.0
0
LINE
8
0
6
CONTINUOUS
10
45.610130
20
110.112570
30
0.0
11
23.251840
21
116.894880
31
0.0
0
LINE
8
0
6
CONTINUOUS
10
66.215640
20
99.098690
30
0.0
11
45.610130
21
110.112570
31
0.0
0
LINE
8
0
6
CONTINUOUS
10
84.276520
20
84.276510
30
0.0
11
66.215640
21
99.098690
31
0.0
0
LINE
8
0
6
CONTINUOUS
10
99.098710
20
66.215630
30
0.0
11
84.276520
21
84.276510
31
0.0
0
LINE
8
0
6
CONTINUOUS
10
110.112580
20
45.610120
30
0.0
11
99.098710
21
66.215630
31
0.0
0
LINE
8
0
6
CONTINUOUS
10
116.894890
20
23.251840
30
0.0
11
110.112580
21
45.610120
31
0.0
0
LINE
8
0
6
CONTINUOUS
10
119.184990
20
0.000010
30
0.0
11
116.894890
21
23.251840
31
0.0
0
LINE
8
0
6
CONTINUOUS
10
116.894890
20
-23.251830
30
0.0
11
119.184990
21
0.000010
31
0.0
0
LINE
8
0
6
CONTINUOUS
10
110.112580
20
-45.610100
30
0.0
11
116.894890
21
-23.251830
31
0.0
0
LINE
8
0
6
CONTINUOUS
10
99.098710
20
-66.215630
30
0.0
11
110.112580
21
-45.610100
31
0.0
0
LINE
8
0
6
CONTINUOUS
10
84.276520
20
-84.276510
30
0.0
11
99.098710
21
-66.215630
31
0.0
0
LINE
8
0
6
CONTINUOUS
10
66.215640
20
-99.098700
30
0.0
11
84.276520
21
-84.276510
31
0.0
0
LINE
8
0
6
CONTINUOUS
10
45.610110
20
-110.112580
30
0.0
11
66.215640
21
-99.098700
31
0.0
0
LINE
8
0
6
CONTINUOUS
10
23.251810
20
-116.894880
30
0.0
11
45.610110
21
-110.112580
31
0.0
0
LINE
8
0
6
CONTINUOUS
10
-0.000040
20
-119.184980
30
0.0
11
23.251810
21
-116.894880
31
0.0
0
LINE
8
0
6
CONTINUOUS
10
-23.251890
20
-116.894870
30
0.0
11
-0.000040
21
-119.184980
31
0.0
0
LINE
8
0
6
CONTINUOUS
10
-45.610180
20
-110.112540
30
0.0
11
-23.251890
21
-116.894870
31
0.0
0
LINE
8
0
6
CONTINUOUS
10
-66.215700
20
-99.098650
30
0.0
11
-45.610180
21
-110.112540
31
0.0
0
LINE
8
0
6
CONTINUOUS
10
-84.276580
20
-84.276460
30
0.0
11
-66.215700
21
-99.098650
31
0.0
0
LINE
8
0
6
CONTINUOUS
10
-99.098750
20
-66.215570
30
0.0
11
-84.276580
21
-84.276460
31
0.0
0
LINE
8
0
6
CONTINUOUS
10
-110.112620
20
-45.610030
30
0.0
11
-99.098750
21
-66.215570
31
0.0
0
LINE
8
0
6
CONTINUOUS
10
-116.894910
20
-23.251740
30
0.0
11
-110.112620
21
-45.610030
31
0.0
0
LINE
8
0
6
CONTINUOUS
10
-119.184990
20
0.000120
30
0.0
11
-116.894910
21
-23.251740
31
0.0
0
LINE
8
0
6
CONTINUOUS
10
-116.894860
20
23.251960
30
0.0
11
-119.184990
21
0.000120
31
0.0
0
LINE
8
0
6
CONTINUOUS
10
-110.112520
20
45.610240
30
0.0
11
-116.894860
21
23.251960
31
0.0
0
LINE
8
0
6
CONTINUOUS
10
-99.098630
20
66.215750
30
0.0
11
-110.112520
21
45.610240
31
0.0
0
LINE
8
0
6
CONTINUOUS
10
-84.276410
20
84.276630
30
0.0
11
-99.098630
21
66.215750
31
0.0
0
LINE
8
0
6
CONTINUOUS
10
-66.215500
20
99.098790
30
0.0
11
-84.276410
21
84.276630
31
0.0
0
LINE
8
0
6
CONTINUOUS
10
-45.609960
20
110.112640
30
0.0
11
-66.215500
21
99.098790
31
0.0
0
LINE
8
0
6
CONTINUOUS
10
-23.251660
20
116.894900
30
0.0
11
-45.609960
21
110.112640
31
0.0
0
LINE
8
0
6
CONTINUOUS
10
0.000000
20
119.184980
30
0.0
11
-23.251660
21
116.894900
31
0.0
0
LINE
8
0
6
CONTINUOUS
10
0.000000
20
16.050620
30
0.0
11
-6.142300
21
14.828850
31
0.0
0
LINE
8
0
6
CONTINUOUS
10
-6.142300
20
14.828850
30
0.0
11
-11.349500
21
11.349500
31
0.0
0
LINE
8
0
6
CONTINUOUS
10
-11.349500
20
11.349500
30
0.0
11
-14.828840
21
6.142300
31
0.0
0
LINE
8
0
6
CONTINUOUS
10
-14.828840
20
6.142300
30
0.0
11
-16.050620
21
0.000000
31
0.0
0
LINE
8
0
6
CONTINUOUS
10
-16.050620
20
0.000000
30
0.0
11
-14.828840
21
-6.142310
31
0.0
0
LINE
8
0
6
CONTINUOUS
10
-14.828840
20
-6.142310
30
0.0
11
-11.349500
21
-11.349510
31
0.0
0
LINE
8
0
6
CONTINUOUS
10
-11.349500
20
-11.349510
30
0.0
11
-6.142310
21
-14.828840
31
0.0
0
LINE
8
0
6
CONTINUOUS
10
-6.142310
20
-14.828840
30
0.0
11
0.000000
21
-16.050620
31
0.0
0
LINE
8
0
6
CONTINUOUS
10
0.000000
20
-16.050620
30
0.0
11
6.142300
21
-14.828840
31
0.0
0
LINE
8
0
6
CONTINUOUS
10
6.142300
20
-14.828840
30
0.0
11
11.349500
21
-11.349500
31
0.0
0
LINE
8
0
6
CONTINUOUS
10
11.349500
20
-11.349500
30
0.0
11
14.828840
21
-6.142310
31
0.0
0
LINE
8
0
6
CONTINUOUS
10
14.828840
20
-6.142310
30
0.0
11
16.050620
21
0.000000
31
0.0
0
LINE
8
0
6
CONTINUOUS
10
16.050620
20
0.000000
30
0.0
11
14.828840
21
6.142300
31
0.0
0
LINE
8
0
6
CONTINUOUS
10
14.828840
20
6.142300
30
0.0
11
11.349500
21
11.349500
31
0.0
0
LINE
8
0
6
CONTINUOUS
10
11.349500
20
11.349500
30
0.0
11
6.142300
21
14.828830
31
0.0
0
LINE
8
0
6
CONTINUOUS
10
6.142300
20
14.828830
30
0.0
11
0.000000
21
16.050620
31
0.0
0
LINE
8
0
6
CONTINUOUS
10
-4.355060
20
-10.514050
30
0.0
11
0.000000
21
-11.380330
31
0.0
0
LINE
8
0
6
CONTINUOUS
10
8.047110
20
-8.047110
30
0.0
11
10.514050
21
-4.355060
31
0.0
0
LINE
8
0
6
CONTINUOUS
10
-8.047110
20
-8.047110
30
0.0
11
-4.355060
21
-10.514050
31
0.0
0
LINE
8
0
6
CONTINUOUS
10
10.514050
20
4.355060
30
0.0
11
8.047110
21
8.047100
31
0.0
0
LINE
8
0
6
CONTINUOUS
10
0.000000
20
11.380320
30
0.0
11
-4.355050
21
10.514060
31
0.0
0
LINE
8
0
6
CONTINUOUS
10
-11.380330
20
0.000000
30
0.0
11
-10.514050
21
-4.355060
31
0.0
0
LINE
8
0
6
CONTINUOUS
10
4.355060
20
-10.514050
30
0.0
11
8.047110
21
-8.047110
31
0.0
0
LINE
8
0
6
CONTINUOUS
10
-10.514050
20
4.355060
30
0.0
11
-11.380330
21
0.000000
31
0.0
0
LINE
8
0
6
CONTINUOUS
10
8.047110
20
8.047100
30
0.0
11
4.355060
21
10.514040
31
0.0
0
LINE
8
0
6
CONTINUOUS
10
10.514050
20
-4.355060
30
0.0
11
11.380330
21
0.000000
31
0.0
0
LINE
8
0
6
CONTINUOUS
10
0.000000
20
-11.380330
30
0.0
11
4.355060
21
-10.514050
31
0.0
0
LINE
8
0
6
CONTINUOUS
10
-4.355050
20
10.514060
30
0.0
11
-8.047110
21
8.047100
31
0.0
0
LINE
8
0
6
CONTINUOUS
10
-10.514050
20
-4.355060
30
0.0
11
-8.047110
21
-8.047110
31
0.0
0
LINE
8
0
6
CONTINUOUS
10
11.380330
20
0.000000
30
0.0
11
10.514050
21
4.355060
31
0.0
0
LINE
8
0
6
CONTINUOUS
10
-8.047110
20
8.047100
30
0.0
11
-10.514050
21
4.355060
31
0.0
0
LINE
8
0
6
CONTINUOUS
10
4.355060
20
10.514040
30
0.0
11
0.000000
21
11.380320
31
0.0
0
LINE
8
0
6
CONTINUOUS
10
-14.175210
20
-14.175210
30
0.0
11
-18.520800
21
-7.671570
31
0.0
0
LINE
8
0
6
CONTINUOUS
10
20.046770
20
0.000000
30
0.0
11
18.520800
21
-7.671570
31
0.0
0
LINE
8
0
6
CONTINUOUS
10
-7.671560
20
18.520810
30
0.0
11
0.000000
21
20.046770
31
0.0
0
LINE
8
0
6
CONTINUOUS
10
14.175210
20
14.175210
30
0.0
11
18.520800
21
7.671570
31
0.0
0
LINE
8
0
6
CONTINUOUS
10
0.000000
20
20.046770
30
0.0
11
7.671570
21
18.520800
31
0.0
0
LINE
8
0
6
CONTINUOUS
10
-20.046780
20
0.000000
30
0.0
11
-18.520800
21
7.671570
31
0.0
0
LINE
8
0
6
CONTINUOUS
10
-7.671570
20
-18.520800
30
0.0
11
-14.175210
21
-14.175210
31
0.0
0
LINE
8
0
6
CONTINUOUS
10
-18.520800
20
-7.671570
30
0.0
11
-20.046780
21
0.000000
31
0.0
0
LINE
8
0
6
CONTINUOUS
10
14.175210
20
-14.175210
30
0.0
11
7.671570
21
-18.520800
31
0.0
0
LINE
8
0
6
CONTINUOUS
10
7.671570
20
18.520800
30
0.0
11
14.175210
21
14.175210
31
0.0
0
LINE
8
0
6
CONTINUOUS
10
7.671570
20
-18.520800
30
0.0
11
0.000000
21
-20.046780
31
0.0
0
LINE
8
0
6
CONTINUOUS
10
-18.520800
20
7.671570
30
0.0
11
-14.175210
21
14.175210
31
0.0
0
LINE
8
0
6
CONTINUOUS
10
0.000000
20
-20.046780
30
0.0
11
-7.671570
21
-18.520800
31
0.0
0
LINE
8
0
6
CONTINUOUS
10
-14.175210
20
14.175210
30
0.0
11
-7.671560
21
18.520810
31
0.0
0
LINE
8
0
6
CONTINUOUS
10
18.520800
20
-7.671570
30
0.0
11
14.175210
21
-14.175210
31
0.0
0
LINE
8
0
6
CONTINUOUS
10
18.520800
20
7.671570
30
0.0
11
20.046770
21
0.000000
31
0.0
0
LINE
8
0
6
CONTINUOUS
10
0.000000
20
-32.639096
30
0.0
11
12.490448
21
-30.154610
31
0.0
0
LINE
8
0
6
CONTINUOUS
10
30.154604
20
12.490446
30
0.0
11
23.079337
21
23.079337
31
0.0
0
LINE
8
0
6
CONTINUOUS
10
32.639117
20
0.000000
30
0.0
11
30.154604
21
12.490446
31
0.0
0
LINE
8
0
6
CONTINUOUS
10
-23.079337
20
23.079337
30
0.0
11
-12.490427
21
30.154634
31
0.0
0
LINE
8
0
6
CONTINUOUS
10
-30.154605
20
12.490446
30
0.0
11
-23.079337
21
23.079337
31
0.0
0
LINE
8
0
6
CONTINUOUS
10
12.490446
20
30.154605
30
0.0
11
23.079337
21
23.079337
31
0.0
0
LINE
8
0
6
CONTINUOUS
10
-30.154608
20
-12.490447
30
0.0
11
-32.639127
21
0.000000
31
0.0
0
LINE
8
0
6
CONTINUOUS
10
-12.490427
20
30.154634
30
0.0
11
0.000000
21
32.639116
31
0.0
0
LINE
8
0
6
CONTINUOUS
10
0.000000
20
32.639116
30
0.0
11
12.490446
21
30.154605
31
0.0
0
LINE
8
0
6
CONTINUOUS
10
12.490448
20
-30.154610
30
0.0
11
23.079339
21
-23.079339
31
0.0
0
LINE
8
0
6
CONTINUOUS
10
-23.079339
20
-23.079339
30
0.0
11
-12.490448
21
-30.154610
31
0.0
0
LINE
8
0
6
CONTINUOUS
10
23.079339
20
-23.079339
30
0.0
11
30.154607
21
-12.490447
31
0.0
0
LINE
8
0
6
CONTINUOUS
10
-12.490448
20
-30.154610
30
0.0
11
0.000000
21
-32.639096
31
0.0
0
LINE
8
0
6
CONTINUOUS
10
-32.639127
20
0.000000
30
0.0
11
-30.154605
21
12.490446
31
0.0
0
LINE
8
0
6
CONTINUOUS
10
-23.079339
20
-23.079339
30
0.0
11
-30.154608
21
-12.490447
31
0.0
0
ENDSEC
0
EOF
