999
Erzeugt mit innoplus bad 
0
SECTION
2
HEADER
9
$ACADVER
1
AC1009
9
$DWGCODEPAGE
3
ISO8859-1
0
ENDSEC
0
SECTION
2
TABLES
0
TABLE
2
LAYER
70
1
0
LAYER
2
0
70
0
62
7
6
CONTINUOUS
0
ENDTAB
0
ENDSEC
0
SECTION
2
ENTITIES
0
LINE
8
0
6
CONTINUOUS
10
-119.184990
20
-16.635260
30
0.0
11
-119.184990
21
-27.446230
31
0.0
0
LINE
8
0
6
CONTINUOUS
10
119.184990
20
-27.446230
30
0.0
11
119.184990
21
-16.635250
31
0.0
0
LINE
8
0
6
CONTINUOUS
10
119.184980
20
-28.441250
30
0.0
11
119.184990
21
-27.446230
31
0.0
0
LINE
8
0
6
CONTINUOUS
10
116.894880
20
-28.441250
30
0.0
11
119.184980
21
-28.441250
31
0.0
0
LINE
8
0
6
CONTINUOUS
10
119.184980
20
-15.640220
30
0.0
11
116.894880
21
-15.640220
31
0.0
0
LINE
8
0
6
CONTINUOUS
10
119.184990
20
-16.635250
30
0.0
11
119.184980
21
-15.640220
31
0.0
0
LINE
8
0
6
CONTINUOUS
10
110.112570
20
-28.441250
30
0.0
11
116.894880
21
-28.441250
31
0.0
0
LINE
8
0
6
CONTINUOUS
10
116.894880
20
-15.640220
30
0.0
11
110.112570
21
-15.640220
31
0.0
0
LINE
8
0
6
CONTINUOUS
10
99.098690
20
-28.441250
30
0.0
11
110.112570
21
-28.441250
31
0.0
0
LINE
8
0
6
CONTINUOUS
10
110.112570
20
-15.640220
30
0.0
11
99.098690
21
-15.640220
31
0.0
0
LINE
8
0
6
CONTINUOUS
10
84.276520
20
-28.441250
30
0.0
11
99.098690
21
-28.441250
31
0.0
0
LINE
8
0
6
CONTINUOUS
10
99.098690
20
-15.640220
30
0.0
11
84.276510
21
-15.640220
31
0.0
0
LINE
8
0
6
CONTINUOUS
10
66.215630
20
-28.441250
30
0.0
11
84.276520
21
-28.441250
31
0.0
0
LINE
8
0
6
CONTINUOUS
10
84.276510
20
-15.640220
30
0.0
11
66.215630
21
-15.640230
31
0.0
0
LINE
8
0
6
CONTINUOUS
10
45.610120
20
-28.441250
30
0.0
11
66.215630
21
-28.441250
31
0.0
0
LINE
8
0
6
CONTINUOUS
10
66.215630
20
-15.640230
30
0.0
11
45.610120
21
-15.640230
31
0.0
0
LINE
8
0
6
CONTINUOUS
10
23.251840
20
-28.441250
30
0.0
11
45.610120
21
-28.441250
31
0.0
0
LINE
8
0
6
CONTINUOUS
10
45.610120
20
-15.640230
30
0.0
11
23.251840
21
-15.640230
31
0.0
0
LINE
8
0
6
CONTINUOUS
10
0.000010
20
-28.441250
30
0.0
11
23.251840
21
-28.441250
31
0.0
0
LINE
8
0
6
CONTINUOUS
10
23.251840
20
-15.640230
30
0.0
11
0.000010
21
-15.640230
31
0.0
0
LINE
8
0
6
CONTINUOUS
10
-23.251830
20
-28.441250
30
0.0
11
0.000010
21
-28.441250
31
0.0
0
LINE
8
0
6
CONTINUOUS
10
0.000010
20
-15.640230
30
0.0
11
-23.251830
21
-15.640230
31
0.0
0
LINE
8
0
6
CONTINUOUS
10
-45.610100
20
-28.441250
30
0.0
11
-23.251830
21
-28.441250
31
0.0
0
LINE
8
0
6
CONTINUOUS
10
-23.251830
20
-15.640230
30
0.0
11
-45.610100
21
-15.640230
31
0.0
0
LINE
8
0
6
CONTINUOUS
10
-66.215630
20
-28.441250
30
0.0
11
-45.610100
21
-28.441250
31
0.0
0
LINE
8
0
6
CONTINUOUS
10
-45.610100
20
-15.640230
30
0.0
11
-66.215630
21
-15.640230
31
0.0
0
LINE
8
0
6
CONTINUOUS
10
-66.215630
20
-28.441250
30
0.0
11
-84.276510
21
-28.441250
31
0.0
0
LINE
8
0
6
CONTINUOUS
10
-66.215630
20
-15.640230
30
0.0
11
-84.276510
21
-15.640230
31
0.0
0
LINE
8
0
6
CONTINUOUS
10
-84.276510
20
-28.441250
30
0.0
11
-99.098700
21
-28.441250
31
0.0
0
LINE
8
0
6
CONTINUOUS
10
-84.276510
20
-15.640230
30
0.0
11
-99.098700
21
-15.640230
31
0.0
0
LINE
8
0
6
CONTINUOUS
10
-99.098700
20
-28.441250
30
0.0
11
-110.112580
21
-28.441260
31
0.0
0
LINE
8
0
6
CONTINUOUS
10
-99.098700
20
-15.640230
30
0.0
11
-110.112580
21
-15.640230
31
0.0
0
LINE
8
0
6
CONTINUOUS
10
-116.894880
20
-28.441260
30
0.0
11
-110.112580
21
-28.441260
31
0.0
0
LINE
8
0
6
CONTINUOUS
10
-110.112580
20
-15.640230
30
0.0
11
-116.894880
21
-15.640230
31
0.0
0
LINE
8
0
6
CONTINUOUS
10
-119.184980
20
-28.441260
30
0.0
11
-116.894880
21
-28.441260
31
0.0
0
LINE
8
0
6
CONTINUOUS
10
-119.184990
20
-27.446230
30
0.0
11
-119.184980
21
-28.441260
31
0.0
0
LINE
8
0
6
CONTINUOUS
10
-119.184980
20
-15.640230
30
0.0
11
-119.184990
21
-16.635260
31
0.0
0
LINE
8
0
6
CONTINUOUS
10
-116.894880
20
-15.640230
30
0.0
11
-119.184980
21
-15.640230
31
0.0
0
LINE
8
0
6
CONTINUOUS
10
19.308050
20
-8.336870
30
0.0
11
16.050620
21
8.805980
31
0.0
0
LINE
8
0
6
CONTINUOUS
10
-16.050620
20
9.801000
30
0.0
11
-16.050620
21
8.805980
31
0.0
0
LINE
8
0
6
CONTINUOUS
10
-14.828840
20
9.801000
30
0.0
11
-16.050620
21
9.801000
31
0.0
0
LINE
8
0
6
CONTINUOUS
10
-11.349500
20
9.801000
30
0.0
11
-14.828840
21
9.801000
31
0.0
0
LINE
8
0
6
CONTINUOUS
10
-6.142310
20
9.801000
30
0.0
11
-11.349500
21
9.801000
31
0.0
0
LINE
8
0
6
CONTINUOUS
10
0.000000
20
9.801000
30
0.0
11
-6.142310
21
9.801000
31
0.0
0
LINE
8
0
6
CONTINUOUS
10
6.142300
20
9.801000
30
0.0
11
0.000000
21
9.801000
31
0.0
0
LINE
8
0
6
CONTINUOUS
10
11.349500
20
9.801000
30
0.0
11
6.142300
21
9.801000
31
0.0
0
LINE
8
0
6
CONTINUOUS
10
14.828830
20
9.801000
30
0.0
11
11.349500
21
9.801000
31
0.0
0
LINE
8
0
6
CONTINUOUS
10
16.050620
20
9.801000
30
0.0
11
14.828830
21
9.801000
31
0.0
0
LINE
8
0
6
CONTINUOUS
10
16.050620
20
8.805980
30
0.0
11
16.050620
21
9.801000
31
0.0
0
LINE
8
0
6
CONTINUOUS
10
-16.050620
20
8.805980
30
0.0
11
-19.308050
21
-8.336870
31
0.0
0
LINE
8
0
6
CONTINUOUS
10
-10.514050
20
16.897060
30
0.0
11
-8.047110
21
16.897060
31
0.0
0
LINE
8
0
6
CONTINUOUS
10
-8.047110
20
29.502490
30
0.0
11
-8.047110
21
16.897060
31
0.0
0
LINE
8
0
6
CONTINUOUS
10
-8.047110
20
16.897060
30
0.0
11
-4.355060
21
16.897060
31
0.0
0
LINE
8
0
6
CONTINUOUS
10
8.047100
20
16.897060
30
0.0
11
10.514050
21
16.897060
31
0.0
0
LINE
8
0
6
CONTINUOUS
10
11.380320
20
16.897060
30
0.0
11
11.380320
21
29.502490
31
0.0
0
LINE
8
0
6
CONTINUOUS
10
10.514050
20
16.897060
30
0.0
11
11.380320
21
16.897060
31
0.0
0
LINE
8
0
6
CONTINUOUS
10
-11.380330
20
29.502490
30
0.0
11
-11.380330
21
16.897060
31
0.0
0
LINE
8
0
6
CONTINUOUS
10
-11.380330
20
16.897060
30
0.0
11
-10.514050
21
16.897060
31
0.0
0
LINE
8
0
6
CONTINUOUS
10
0.000000
20
16.897060
30
0.0
11
4.355060
21
16.897060
31
0.0
0
LINE
8
0
6
CONTINUOUS
10
4.355060
20
16.897060
30
0.0
11
8.047100
21
16.897060
31
0.0
0
LINE
8
0
6
CONTINUOUS
10
-4.355060
20
16.897060
30
0.0
11
0.000000
21
16.897060
31
0.0
0
LINE
8
0
6
CONTINUOUS
10
-4.355060
20
30.000000
30
0.0
11
-8.047110
21
30.000000
31
0.0
0
LINE
8
0
6
CONTINUOUS
10
8.047100
20
30.000000
30
0.0
11
4.355060
21
30.000000
31
0.0
0
LINE
8
0
6
CONTINUOUS
10
-8.047110
20
30.000000
30
0.0
11
-10.514050
21
30.000000
31
0.0
0
LINE
8
0
6
CONTINUOUS
10
-8.047110
20
29.502490
30
0.0
11
-8.047110
21
30.000000
31
0.0
0
LINE
8
0
6
CONTINUOUS
10
10.514040
20
30.000000
30
0.0
11
8.047100
21
30.000000
31
0.0
0
LINE
8
0
6
CONTINUOUS
10
0.000000
20
30.000000
30
0.0
11
-4.355060
21
30.000000
31
0.0
0
LINE
8
0
6
CONTINUOUS
10
-11.380330
20
30.000000
30
0.0
11
-11.380330
21
29.502490
31
0.0
0
LINE
8
0
6
CONTINUOUS
10
-10.514050
20
30.000000
30
0.0
11
-11.380330
21
30.000000
31
0.0
0
LINE
8
0
6
CONTINUOUS
10
4.355060
20
30.000000
30
0.0
11
0.000000
21
30.000000
31
0.0
0
LINE
8
0
6
CONTINUOUS
10
11.380320
20
29.502490
30
0.0
11
11.380320
21
30.000000
31
0.0
0
LINE
8
0
6
CONTINUOUS
10
11.380320
20
30.000000
30
0.0
11
10.514040
21
30.000000
31
0.0
0
LINE
8
0
6
CONTINUOUS
10
0.000000
20
16.897060
30
0.0
11
-4.355060
21
16.897060
31
0.0
0
LINE
8
0
6
CONTINUOUS
10
-3.488960
20
15.277560
30
0.0
11
0.000000
21
15.277560
31
0.0
0
LINE
8
0
6
CONTINUOUS
10
8.047100
20
16.897060
30
0.0
11
4.355060
21
16.897060
31
0.0
0
LINE
8
0
6
CONTINUOUS
10
3.488950
20
15.277560
30
0.0
11
6.446740
21
15.277560
31
0.0
0
LINE
8
0
6
CONTINUOUS
10
4.355060
20
16.897060
30
0.0
11
0.000000
21
16.897060
31
0.0
0
LINE
8
0
6
CONTINUOUS
10
0.000000
20
15.277560
30
0.0
11
3.488950
21
15.277560
31
0.0
0
LINE
8
0
6
CONTINUOUS
10
-11.380330
20
16.897060
30
0.0
11
-9.117080
21
15.277560
31
0.0
0
LINE
8
0
6
CONTINUOUS
10
-10.514050
20
16.897060
30
0.0
11
-11.380330
21
16.897060
31
0.0
0
LINE
8
0
6
CONTINUOUS
10
-9.117080
20
15.277560
30
0.0
11
-8.423080
21
15.277560
31
0.0
0
LINE
8
0
6
CONTINUOUS
10
11.380320
20
16.897060
30
0.0
11
10.514050
21
16.897060
31
0.0
0
LINE
8
0
6
CONTINUOUS
10
9.117070
20
15.277560
30
0.0
11
11.380320
21
16.897060
31
0.0
0
LINE
8
0
6
CONTINUOUS
10
8.423080
20
15.277560
30
0.0
11
9.117070
21
15.277560
31
0.0
0
LINE
8
0
6
CONTINUOUS
10
10.514050
20
16.897060
30
0.0
11
8.047100
21
16.897060
31
0.0
0
LINE
8
0
6
CONTINUOUS
10
6.446740
20
15.277560
30
0.0
11
8.423080
21
15.277560
31
0.0
0
LINE
8
0
6
CONTINUOUS
10
-4.355060
20
16.897060
30
0.0
11
-8.047110
21
16.897060
31
0.0
0
LINE
8
0
6
CONTINUOUS
10
-6.446750
20
15.277560
30
0.0
11
-3.488960
21
15.277560
31
0.0
0
LINE
8
0
6
CONTINUOUS
10
-8.047110
20
16.897060
30
0.0
11
-10.514050
21
16.897060
31
0.0
0
LINE
8
0
6
CONTINUOUS
10
-8.423080
20
15.277560
30
0.0
11
-6.446750
21
15.277560
31
0.0
0
LINE
8
0
6
CONTINUOUS
10
-6.446750
20
11.723710
30
0.0
11
-8.423080
21
11.723710
31
0.0
0
LINE
8
0
6
CONTINUOUS
10
-3.488960
20
11.723710
30
0.0
11
-6.446750
21
11.723710
31
0.0
0
LINE
8
0
6
CONTINUOUS
10
8.423080
20
11.723710
30
0.0
11
6.446740
21
11.723710
31
0.0
0
LINE
8
0
6
CONTINUOUS
10
9.117070
20
11.723710
30
0.0
11
8.423080
21
11.723710
31
0.0
0
LINE
8
0
6
CONTINUOUS
10
11.380320
20
9.801000
30
0.0
11
9.117070
21
11.723710
31
0.0
0
LINE
8
0
6
CONTINUOUS
10
-9.117080
20
11.723710
30
0.0
11
-11.380330
21
9.801000
31
0.0
0
LINE
8
0
6
CONTINUOUS
10
-8.423080
20
11.723710
30
0.0
11
-9.117080
21
11.723710
31
0.0
0
LINE
8
0
6
CONTINUOUS
10
3.488950
20
11.723710
30
0.0
11
0.000000
21
11.723710
31
0.0
0
LINE
8
0
6
CONTINUOUS
10
6.446740
20
11.723710
30
0.0
11
3.488950
21
11.723710
31
0.0
0
LINE
8
0
6
CONTINUOUS
10
0.000000
20
11.723710
30
0.0
11
-3.488960
21
11.723710
31
0.0
0
LINE
8
0
6
CONTINUOUS
10
-8.423080
20
11.723710
30
0.0
11
-6.446750
21
11.723710
31
0.0
0
LINE
8
0
6
CONTINUOUS
10
-6.446750
20
15.277560
30
0.0
11
-8.423080
21
15.277560
31
0.0
0
LINE
8
0
6
CONTINUOUS
10
-6.446750
20
11.723710
30
0.0
11
-3.488960
21
11.723710
31
0.0
0
LINE
8
0
6
CONTINUOUS
10
-3.488960
20
15.277560
30
0.0
11
-6.446750
21
15.277560
31
0.0
0
LINE
8
0
6
CONTINUOUS
10
6.446740
20
11.723710
30
0.0
11
8.423080
21
11.723710
31
0.0
0
LINE
8
0
6
CONTINUOUS
10
8.423080
20
15.277560
30
0.0
11
6.446740
21
15.277560
31
0.0
0
LINE
8
0
6
CONTINUOUS
10
8.423080
20
11.723710
30
0.0
11
9.117070
21
11.723710
31
0.0
0
LINE
8
0
6
CONTINUOUS
10
9.117070
20
15.277560
30
0.0
11
8.423080
21
15.277560
31
0.0
0
LINE
8
0
6
CONTINUOUS
10
9.117070
20
11.723710
30
0.0
11
9.117070
21
15.277560
31
0.0
0
LINE
8
0
6
CONTINUOUS
10
-9.117080
20
11.723710
30
0.0
11
-8.423080
21
11.723710
31
0.0
0
LINE
8
0
6
CONTINUOUS
10
-9.117080
20
15.277560
30
0.0
11
-9.117080
21
11.723710
31
0.0
0
LINE
8
0
6
CONTINUOUS
10
-8.423080
20
15.277560
30
0.0
11
-9.117080
21
15.277560
31
0.0
0
LINE
8
0
6
CONTINUOUS
10
0.000000
20
11.723710
30
0.0
11
3.488950
21
11.723710
31
0.0
0
LINE
8
0
6
CONTINUOUS
10
3.488950
20
15.277560
30
0.0
11
0.000000
21
15.277560
31
0.0
0
LINE
8
0
6
CONTINUOUS
10
3.488950
20
11.723710
30
0.0
11
6.446740
21
11.723710
31
0.0
0
LINE
8
0
6
CONTINUOUS
10
6.446740
20
15.277560
30
0.0
11
3.488950
21
15.277560
31
0.0
0
LINE
8
0
6
CONTINUOUS
10
-3.488960
20
11.723710
30
0.0
11
0.000000
21
11.723710
31
0.0
0
LINE
8
0
6
CONTINUOUS
10
0.000000
20
15.277560
30
0.0
11
-3.488960
21
15.277560
31
0.0
0
LINE
8
0
6
CONTINUOUS
10
20.046770
20
-10.392000
30
0.0
11
19.308050
21
-8.336870
31
0.0
0
LINE
8
0
6
CONTINUOUS
10
-19.308050
20
-8.336870
30
0.0
11
-20.046780
21
-10.392000
31
0.0
0
LINE
8
0
6
CONTINUOUS
10
0.000000
20
-10.392000
30
0.0
11
-7.671570
21
-10.392000
31
0.0
0
LINE
8
0
6
CONTINUOUS
10
14.175210
20
-10.392000
30
0.0
11
7.671570
21
-10.392000
31
0.0
0
LINE
8
0
6
CONTINUOUS
10
22.390730
20
-12.053030
30
0.0
11
20.046770
21
-10.392000
31
0.0
0
LINE
8
0
6
CONTINUOUS
10
20.046770
20
-10.392000
30
0.0
11
18.520800
21
-10.392000
31
0.0
0
LINE
8
0
6
CONTINUOUS
10
-14.175210
20
-10.392000
30
0.0
11
-18.520800
21
-10.392000
31
0.0
0
LINE
8
0
6
CONTINUOUS
10
18.520800
20
-10.392000
30
0.0
11
14.175210
21
-10.392000
31
0.0
0
LINE
8
0
6
CONTINUOUS
10
-20.046780
20
-10.392000
30
0.0
11
-22.390740
21
-12.053040
31
0.0
0
LINE
8
0
6
CONTINUOUS
10
-18.520800
20
-10.392000
30
0.0
11
-20.046780
21
-10.392000
31
0.0
0
LINE
8
0
6
CONTINUOUS
10
-7.671570
20
-10.392000
30
0.0
11
-14.175210
21
-10.392000
31
0.0
0
LINE
8
0
6
CONTINUOUS
10
7.671570
20
-10.392000
30
0.0
11
0.000000
21
-10.392000
31
0.0
0
LINE
8
0
6
CONTINUOUS
10
-22.390740
20
-12.053040
30
0.0
11
-32.639106
21
-15.640230
31
0.0
0
LINE
8
0
6
CONTINUOUS
10
32.639134
20
-15.640230
30
0.0
11
22.390730
21
-12.053030
31
0.0
0
LINE
8
0
6
CONTINUOUS
10
43.480760
20
-29.502460
30
0.0
11
43.480757
21
-28.441250
31
0.0
0
LINE
8
0
6
CONTINUOUS
10
43.480760
20
-29.502460
30
0.0
11
41.846500
21
-29.502460
31
0.0
0
LINE
8
0
6
CONTINUOUS
10
54.631530
20
-29.502460
30
0.0
11
54.631527
21
-28.441250
31
0.0
0
LINE
8
0
6
CONTINUOUS
10
54.631530
20
-29.502460
30
0.0
11
52.997270
21
-29.502460
31
0.0
0
LINE
8
0
6
CONTINUOUS
10
64.668910
20
-29.502460
30
0.0
11
64.668907
21
-28.441250
31
0.0
0
LINE
8
0
6
CONTINUOUS
10
64.668910
20
-29.502460
30
0.0
11
63.034640
21
-29.502470
31
0.0
0
LINE
8
0
6
CONTINUOUS
10
64.724780
20
-29.502460
30
0.0
11
64.724777
21
-28.441250
31
0.0
0
LINE
8
0
6
CONTINUOUS
10
69.559230
20
-28.441250
30
0.0
11
69.559230
21
-29.751230
31
0.0
0
LINE
8
0
6
CONTINUOUS
10
69.559230
20
-29.751230
30
0.0
11
71.193480
21
-29.751230
31
0.0
0
LINE
8
0
6
CONTINUOUS
10
75.513700
20
-29.751220
30
0.0
11
75.513696
21
-28.441250
31
0.0
0
LINE
8
0
6
CONTINUOUS
10
75.513700
20
-29.751220
30
0.0
11
73.879440
21
-29.751230
31
0.0
0
LINE
8
0
6
CONTINUOUS
10
75.859390
20
-29.751220
30
0.0
11
75.859386
21
-28.441250
31
0.0
0
LINE
8
0
6
CONTINUOUS
10
83.344990
20
-29.999980
30
0.0
11
83.344985
21
-28.441250
31
0.0
0
LINE
8
0
6
CONTINUOUS
10
80.076480
20
-28.441250
30
0.0
11
80.076480
21
-29.999990
31
0.0
0
LINE
8
0
6
CONTINUOUS
10
81.710730
20
-29.999980
30
0.0
11
81.710725
21
-28.441250
31
0.0
0
LINE
8
0
6
CONTINUOUS
10
83.344990
20
-29.999980
30
0.0
11
81.710730
21
-29.999980
31
0.0
0
LINE
8
0
6
CONTINUOUS
10
81.710730
20
-29.999980
30
0.0
11
80.076480
21
-29.999990
31
0.0
0
LINE
8
0
6
CONTINUOUS
10
85.634270
20
-29.999980
30
0.0
11
85.634265
21
-28.441250
31
0.0
0
LINE
8
0
6
CONTINUOUS
10
84.000010
20
-29.999980
30
0.0
11
84.000005
21
-28.441250
31
0.0
0
LINE
8
0
6
CONTINUOUS
10
85.634270
20
-29.999980
30
0.0
11
84.000010
21
-29.999980
31
0.0
0
LINE
8
0
6
CONTINUOUS
10
-12.899990
20
-29.502460
30
0.0
11
-14.534240
21
-29.502460
31
0.0
0
LINE
8
0
6
CONTINUOUS
10
-2.352040
20
-29.502460
30
0.0
11
-2.352043
21
-28.441250
31
0.0
0
LINE
8
0
6
CONTINUOUS
10
-20.791730
20
-29.502460
30
0.0
11
-22.425980
21
-29.502460
31
0.0
0
LINE
8
0
6
CONTINUOUS
10
-6.307460
20
-29.502460
30
0.0
11
-6.307460
21
-28.441250
31
0.0
0
LINE
8
0
6
CONTINUOUS
10
6.307477
20
-28.441250
30
0.0
11
6.307480
21
-29.502470
31
0.0
0
LINE
8
0
6
CONTINUOUS
10
22.425990
20
-29.502460
30
0.0
11
20.791730
21
-29.502460
31
0.0
0
LINE
8
0
6
CONTINUOUS
10
-25.761510
20
-29.502460
30
0.0
11
-25.761513
21
-28.441250
31
0.0
0
LINE
8
0
6
CONTINUOUS
10
-10.262870
20
-29.502460
30
0.0
11
-10.262873
21
-28.441250
31
0.0
0
LINE
8
0
6
CONTINUOUS
10
-48.789180
20
-29.502450
30
0.0
11
-48.789183
21
-28.441250
31
0.0
0
LINE
8
0
6
CONTINUOUS
10
-48.789180
20
-29.502450
30
0.0
11
-50.423430
21
-29.502460
31
0.0
0
LINE
8
0
6
CONTINUOUS
10
-39.868290
20
-29.502450
30
0.0
11
-41.502550
21
-29.502460
31
0.0
0
LINE
8
0
6
CONTINUOUS
10
-14.218290
20
-29.502460
30
0.0
11
-14.218293
21
-28.441250
31
0.0
0
LINE
8
0
6
CONTINUOUS
10
14.218317
20
-28.441250
30
0.0
11
14.218320
21
-29.502470
31
0.0
0
LINE
8
0
6
CONTINUOUS
10
30.153380
20
-29.502460
30
0.0
11
28.519130
21
-29.502470
31
0.0
0
LINE
8
0
6
CONTINUOUS
10
-65.734243
20
-28.441250
30
0.0
11
-65.734240
21
-29.502460
31
0.0
0
LINE
8
0
6
CONTINUOUS
10
-64.099990
20
-29.502450
30
0.0
11
-64.099993
21
-28.441250
31
0.0
0
LINE
8
0
6
CONTINUOUS
10
-64.099990
20
-29.502450
30
0.0
11
-65.734240
21
-29.502460
31
0.0
0
LINE
8
0
6
CONTINUOUS
10
-57.805503
20
-28.441250
30
0.0
11
-57.805500
21
-29.502460
31
0.0
0
LINE
8
0
6
CONTINUOUS
10
-48.361133
20
-28.441250
30
0.0
11
-48.361130
21
-29.502460
31
0.0
0
LINE
8
0
6
CONTINUOUS
10
-35.980740
20
-28.441250
30
0.0
11
-35.980740
21
-29.502460
31
0.0
0
LINE
8
0
6
CONTINUOUS
10
-34.346480
20
-29.502460
30
0.0
11
-34.346483
21
-28.441250
31
0.0
0
LINE
8
0
6
CONTINUOUS
10
-35.980740
20
-29.502460
30
0.0
11
-34.346480
21
-29.502460
31
0.0
0
LINE
8
0
6
CONTINUOUS
10
-32.712220
20
-29.502450
30
0.0
11
-34.346480
21
-29.502460
31
0.0
0
LINE
8
0
6
CONTINUOUS
10
-18.173720
20
-29.502460
30
0.0
11
-18.173723
21
-28.441250
31
0.0
0
LINE
8
0
6
CONTINUOUS
10
-19.807980
20
-29.502460
30
0.0
11
-18.173720
21
-29.502460
31
0.0
0
LINE
8
0
6
CONTINUOUS
10
-21.442240
20
-28.441250
30
0.0
11
-21.442240
21
-29.502460
31
0.0
0
LINE
8
0
6
CONTINUOUS
10
-19.807980
20
-29.502460
30
0.0
11
-19.807983
21
-28.441250
31
0.0
0
LINE
8
0
6
CONTINUOUS
10
-19.807980
20
-29.502460
30
0.0
11
-21.442240
21
-29.502460
31
0.0
0
LINE
8
0
6
CONTINUOUS
10
-2.390600
20
-29.502460
30
0.0
11
-2.390603
21
-28.441250
31
0.0
0
LINE
8
0
6
CONTINUOUS
10
-5.659123
20
-28.441250
30
0.0
11
-5.659120
21
-29.502460
31
0.0
0
LINE
8
0
6
CONTINUOUS
10
-4.024870
20
-29.502460
30
0.0
11
-4.024870
21
-28.441250
31
0.0
0
LINE
8
0
6
CONTINUOUS
10
-2.390600
20
-29.502460
30
0.0
11
-4.024870
21
-29.502460
31
0.0
0
LINE
8
0
6
CONTINUOUS
10
-4.024870
20
-29.502460
30
0.0
11
-5.659120
21
-29.502460
31
0.0
0
LINE
8
0
6
CONTINUOUS
10
13.645410
20
-29.502460
30
0.0
11
13.645407
21
-28.441250
31
0.0
0
LINE
8
0
6
CONTINUOUS
10
10.376887
20
-28.441250
30
0.0
11
10.376890
21
-29.502470
31
0.0
0
LINE
8
0
6
CONTINUOUS
10
12.011140
20
-29.502460
30
0.0
11
12.011140
21
-28.441250
31
0.0
0
LINE
8
0
6
CONTINUOUS
10
13.645410
20
-29.502460
30
0.0
11
12.011140
21
-29.502460
31
0.0
0
LINE
8
0
6
CONTINUOUS
10
12.011140
20
-29.502460
30
0.0
11
10.376890
21
-29.502470
31
0.0
0
LINE
8
0
6
CONTINUOUS
10
28.926710
20
-29.502460
30
0.0
11
28.926707
21
-28.441250
31
0.0
0
LINE
8
0
6
CONTINUOUS
10
25.658190
20
-28.441250
30
0.0
11
25.658190
21
-29.502470
31
0.0
0
LINE
8
0
6
CONTINUOUS
10
27.292440
20
-29.502460
30
0.0
11
27.292440
21
-28.441250
31
0.0
0
LINE
8
0
6
CONTINUOUS
10
28.926710
20
-29.502460
30
0.0
11
27.292440
21
-29.502460
31
0.0
0
LINE
8
0
6
CONTINUOUS
10
27.292440
20
-29.502460
30
0.0
11
25.658190
21
-29.502470
31
0.0
0
LINE
8
0
6
CONTINUOUS
10
42.493130
20
-29.502460
30
0.0
11
42.493127
21
-28.441250
31
0.0
0
LINE
8
0
6
CONTINUOUS
10
40.858870
20
-29.502460
30
0.0
11
40.858867
21
-28.441250
31
0.0
0
LINE
8
0
6
CONTINUOUS
10
42.493130
20
-29.502460
30
0.0
11
40.858870
21
-29.502460
31
0.0
0
LINE
8
0
6
CONTINUOUS
10
-75.219520
20
-29.502450
30
0.0
11
-75.219523
21
-28.441255
31
0.0
0
LINE
8
0
6
CONTINUOUS
10
-73.585260
20
-29.502450
30
0.0
11
-75.219520
21
-29.502450
31
0.0
0
LINE
8
0
6
CONTINUOUS
10
-70.251630
20
-29.502450
30
0.0
11
-70.251633
21
-28.441253
31
0.0
0
LINE
8
0
6
CONTINUOUS
10
-68.617370
20
-29.502450
30
0.0
11
-70.251630
21
-29.502450
31
0.0
0
LINE
8
0
6
CONTINUOUS
10
-63.847643
20
-28.441250
30
0.0
11
-63.847640
21
-29.502460
31
0.0
0
LINE
8
0
6
CONTINUOUS
10
-62.213390
20
-29.502450
30
0.0
11
-62.213390
21
-28.441250
31
0.0
0
LINE
8
0
6
CONTINUOUS
10
-62.213390
20
-29.502450
30
0.0
11
-63.847640
21
-29.502460
31
0.0
0
LINE
8
0
6
CONTINUOUS
10
-49.821860
20
-29.502450
30
0.0
11
-49.821860
21
-28.441250
31
0.0
0
LINE
8
0
6
CONTINUOUS
10
-53.090373
20
-28.441250
30
0.0
11
-53.090370
21
-29.502460
31
0.0
0
LINE
8
0
6
CONTINUOUS
10
-51.456120
20
-29.502450
30
0.0
11
-51.456123
21
-28.441250
31
0.0
0
LINE
8
0
6
CONTINUOUS
10
-49.821860
20
-29.502450
30
0.0
11
-51.456120
21
-29.502450
31
0.0
0
LINE
8
0
6
CONTINUOUS
10
-51.456120
20
-29.502450
30
0.0
11
-53.090370
21
-29.502460
31
0.0
0
LINE
8
0
6
CONTINUOUS
10
-36.815710
20
-29.502450
30
0.0
11
-36.815713
21
-28.441250
31
0.0
0
LINE
8
0
6
CONTINUOUS
10
-40.084223
20
-28.441250
30
0.0
11
-40.084220
21
-29.502460
31
0.0
0
LINE
8
0
6
CONTINUOUS
10
-38.449970
20
-29.502460
30
0.0
11
-38.449973
21
-28.441250
31
0.0
0
LINE
8
0
6
CONTINUOUS
10
-40.084220
20
-29.502460
30
0.0
11
-38.449970
21
-29.502460
31
0.0
0
LINE
8
0
6
CONTINUOUS
10
-36.815710
20
-29.502450
30
0.0
11
-38.449970
21
-29.502460
31
0.0
0
LINE
8
0
6
CONTINUOUS
10
-22.129120
20
-29.502460
30
0.0
11
-22.129123
21
-28.441250
31
0.0
0
LINE
8
0
6
CONTINUOUS
10
-23.763380
20
-29.502460
30
0.0
11
-22.129120
21
-29.502460
31
0.0
0
LINE
8
0
6
CONTINUOUS
10
-25.397643
20
-28.441250
30
0.0
11
-25.397640
21
-29.502460
31
0.0
0
LINE
8
0
6
CONTINUOUS
10
-23.763380
20
-29.502460
30
0.0
11
-23.763383
21
-28.441250
31
0.0
0
LINE
8
0
6
CONTINUOUS
10
-23.763380
20
-29.502460
30
0.0
11
-25.397640
21
-29.502460
31
0.0
0
LINE
8
0
6
CONTINUOUS
10
-6.403960
20
-29.502460
30
0.0
11
-6.403960
21
-28.441250
31
0.0
0
LINE
8
0
6
CONTINUOUS
10
-9.672473
20
-28.441250
30
0.0
11
-9.672470
21
-29.502460
31
0.0
0
LINE
8
0
6
CONTINUOUS
10
-8.038220
20
-29.502460
30
0.0
11
-8.038223
21
-28.441250
31
0.0
0
LINE
8
0
6
CONTINUOUS
10
-6.403960
20
-29.502460
30
0.0
11
-8.038220
21
-29.502460
31
0.0
0
LINE
8
0
6
CONTINUOUS
10
-8.038220
20
-29.502460
30
0.0
11
-9.672470
21
-29.502460
31
0.0
0
LINE
8
0
6
CONTINUOUS
10
9.672520
20
-29.502460
30
0.0
11
9.672517
21
-28.441250
31
0.0
0
LINE
8
0
6
CONTINUOUS
10
6.403997
20
-28.441250
30
0.0
11
6.404000
21
-29.502470
31
0.0
0
LINE
8
0
6
CONTINUOUS
10
8.038260
20
-29.502460
30
0.0
11
8.038257
21
-28.441250
31
0.0
0
LINE
8
0
6
CONTINUOUS
10
9.672520
20
-29.502460
30
0.0
11
8.038260
21
-29.502460
31
0.0
0
LINE
8
0
6
CONTINUOUS
10
8.038260
20
-29.502460
30
0.0
11
6.404000
21
-29.502470
31
0.0
0
LINE
8
0
6
CONTINUOUS
10
25.397670
20
-29.502460
30
0.0
11
25.397667
21
-28.441250
31
0.0
0
LINE
8
0
6
CONTINUOUS
10
22.129147
20
-28.441250
30
0.0
11
22.129150
21
-29.502470
31
0.0
0
LINE
8
0
6
CONTINUOUS
10
23.763400
20
-29.502460
30
0.0
11
23.763400
21
-28.441250
31
0.0
0
LINE
8
0
6
CONTINUOUS
10
25.397670
20
-29.502460
30
0.0
11
23.763400
21
-29.502460
31
0.0
0
LINE
8
0
6
CONTINUOUS
10
23.763400
20
-29.502460
30
0.0
11
22.129150
21
-29.502470
31
0.0
0
LINE
8
0
6
CONTINUOUS
10
40.084260
20
-29.502460
30
0.0
11
40.084257
21
-28.441250
31
0.0
0
LINE
8
0
6
CONTINUOUS
10
38.449990
20
-29.502460
30
0.0
11
38.449990
21
-28.441250
31
0.0
0
LINE
8
0
6
CONTINUOUS
10
40.084260
20
-29.502460
30
0.0
11
38.449990
21
-29.502460
31
0.0
0
LINE
8
0
6
CONTINUOUS
10
38.449990
20
-29.502460
30
0.0
11
36.815740
21
-29.502470
31
0.0
0
LINE
8
0
6
CONTINUOUS
10
53.090410
20
-29.502460
30
0.0
11
53.090407
21
-28.441250
31
0.0
0
LINE
8
0
6
CONTINUOUS
10
51.456140
20
-29.502460
30
0.0
11
51.456140
21
-28.441250
31
0.0
0
LINE
8
0
6
CONTINUOUS
10
53.090410
20
-29.502460
30
0.0
11
51.456140
21
-29.502460
31
0.0
0
LINE
8
0
6
CONTINUOUS
10
-86.624200
20
-29.751210
30
0.0
11
-86.624204
21
-28.441260
31
0.0
0
LINE
8
0
6
CONTINUOUS
10
-88.258470
20
-29.751210
30
0.0
11
-88.258470
21
-28.441260
31
0.0
0
LINE
8
0
6
CONTINUOUS
10
-86.624200
20
-29.751210
30
0.0
11
-88.258470
21
-29.751210
31
0.0
0
LINE
8
0
6
CONTINUOUS
10
-88.258470
20
-29.751210
30
0.0
11
-89.892710
21
-29.751220
31
0.0
0
LINE
8
0
6
CONTINUOUS
10
-85.614494
20
-28.441260
30
0.0
11
-85.614490
21
-29.751220
31
0.0
0
LINE
8
0
6
CONTINUOUS
10
-83.980250
20
-29.751210
30
0.0
11
-85.614490
21
-29.751220
31
0.0
0
LINE
8
0
6
CONTINUOUS
10
-75.368580
20
-29.751210
30
0.0
11
-75.368584
21
-28.441255
31
0.0
0
LINE
8
0
6
CONTINUOUS
10
-78.637094
20
-28.441257
30
0.0
11
-78.637090
21
-29.751220
31
0.0
0
LINE
8
0
6
CONTINUOUS
10
-77.002840
20
-29.751210
30
0.0
11
-77.002840
21
-28.441256
31
0.0
0
LINE
8
0
6
CONTINUOUS
10
-75.368580
20
-29.751210
30
0.0
11
-77.002840
21
-29.751210
31
0.0
0
LINE
8
0
6
CONTINUOUS
10
-77.002840
20
-29.751210
30
0.0
11
-78.637090
21
-29.751220
31
0.0
0
LINE
8
0
6
CONTINUOUS
10
-65.916220
20
-29.751210
30
0.0
11
-65.916224
21
-28.441250
31
0.0
0
LINE
8
0
6
CONTINUOUS
10
-69.184734
20
-28.441252
30
0.0
11
-69.184730
21
-29.751220
31
0.0
0
LINE
8
0
6
CONTINUOUS
10
-67.550480
20
-29.751210
30
0.0
11
-67.550484
21
-28.441251
31
0.0
0
LINE
8
0
6
CONTINUOUS
10
-65.916220
20
-29.751210
30
0.0
11
-67.550480
21
-29.751210
31
0.0
0
LINE
8
0
6
CONTINUOUS
10
-67.550480
20
-29.751210
30
0.0
11
-69.184730
21
-29.751220
31
0.0
0
LINE
8
0
6
CONTINUOUS
10
-54.292750
20
-29.751210
30
0.0
11
-54.292754
21
-28.441250
31
0.0
0
LINE
8
0
6
CONTINUOUS
10
-57.561264
20
-28.441250
30
0.0
11
-57.561260
21
-29.751220
31
0.0
0
LINE
8
0
6
CONTINUOUS
10
-55.927010
20
-29.751210
30
0.0
11
-55.927014
21
-28.441250
31
0.0
0
LINE
8
0
6
CONTINUOUS
10
-54.292750
20
-29.751210
30
0.0
11
-55.927010
21
-29.751210
31
0.0
0
LINE
8
0
6
CONTINUOUS
10
-55.927010
20
-29.751210
30
0.0
11
-57.561260
21
-29.751220
31
0.0
0
LINE
8
0
6
CONTINUOUS
10
-40.871720
20
-29.751210
30
0.0
11
-40.871724
21
-28.441250
31
0.0
0
LINE
8
0
6
CONTINUOUS
10
-44.140234
20
-28.441250
30
0.0
11
-44.140230
21
-29.751220
31
0.0
0
LINE
8
0
6
CONTINUOUS
10
-42.505980
20
-29.751220
30
0.0
11
-42.505984
21
-28.441250
31
0.0
0
LINE
8
0
6
CONTINUOUS
10
-44.140230
20
-29.751220
30
0.0
11
-42.505980
21
-29.751220
31
0.0
0
LINE
8
0
6
CONTINUOUS
10
-40.871720
20
-29.751210
30
0.0
11
-42.505980
21
-29.751220
31
0.0
0
LINE
8
0
6
CONTINUOUS
10
-26.084540
20
-29.751210
30
0.0
11
-26.084540
21
-28.441250
31
0.0
0
LINE
8
0
6
CONTINUOUS
10
-29.353054
20
-28.441250
30
0.0
11
-29.353050
21
-29.751220
31
0.0
0
LINE
8
0
6
CONTINUOUS
10
-27.718800
20
-29.751220
30
0.0
11
-27.718804
21
-28.441250
31
0.0
0
LINE
8
0
6
CONTINUOUS
10
-29.353050
20
-29.751220
30
0.0
11
-27.718800
21
-29.751220
31
0.0
0
LINE
8
0
6
CONTINUOUS
10
-26.084540
20
-29.751210
30
0.0
11
-27.718800
21
-29.751220
31
0.0
0
LINE
8
0
6
CONTINUOUS
10
-10.406450
20
-29.751220
30
0.0
11
-10.406454
21
-28.441250
31
0.0
0
LINE
8
0
6
CONTINUOUS
10
-12.040720
20
-29.751220
30
0.0
11
-10.406450
21
-29.751220
31
0.0
0
LINE
8
0
6
CONTINUOUS
10
-13.674974
20
-28.441250
30
0.0
11
-13.674970
21
-29.751220
31
0.0
0
LINE
8
0
6
CONTINUOUS
10
-12.040720
20
-29.751220
30
0.0
11
-12.040720
21
-28.441250
31
0.0
0
LINE
8
0
6
CONTINUOUS
10
-12.040720
20
-29.751220
30
0.0
11
-13.674970
21
-29.751220
31
0.0
0
LINE
8
0
6
CONTINUOUS
10
5.658650
20
-29.751220
30
0.0
11
5.658646
21
-28.441250
31
0.0
0
LINE
8
0
6
CONTINUOUS
10
2.390130
20
-28.441250
30
0.0
11
2.390130
21
-29.751220
31
0.0
0
LINE
8
0
6
CONTINUOUS
10
4.024390
20
-29.751220
30
0.0
11
4.024386
21
-28.441250
31
0.0
0
LINE
8
0
6
CONTINUOUS
10
5.658650
20
-29.751220
30
0.0
11
4.024390
21
-29.751220
31
0.0
0
LINE
8
0
6
CONTINUOUS
10
4.024390
20
-29.751220
30
0.0
11
2.390130
21
-29.751220
31
0.0
0
LINE
8
0
6
CONTINUOUS
10
21.594400
20
-29.751220
30
0.0
11
21.594396
21
-28.441250
31
0.0
0
LINE
8
0
6
CONTINUOUS
10
18.325876
20
-28.441250
30
0.0
11
18.325880
21
-29.751230
31
0.0
0
LINE
8
0
6
CONTINUOUS
10
19.960130
20
-29.751220
30
0.0
11
19.960130
21
-28.441250
31
0.0
0
LINE
8
0
6
CONTINUOUS
10
21.594400
20
-29.751220
30
0.0
11
19.960130
21
-29.751220
31
0.0
0
LINE
8
0
6
CONTINUOUS
10
19.960130
20
-29.751220
30
0.0
11
18.325880
21
-29.751230
31
0.0
0
LINE
8
0
6
CONTINUOUS
10
36.888600
20
-29.751220
30
0.0
11
36.888596
21
-28.441250
31
0.0
0
LINE
8
0
6
CONTINUOUS
10
33.620086
20
-28.441250
30
0.0
11
33.620090
21
-29.751230
31
0.0
0
LINE
8
0
6
CONTINUOUS
10
35.254340
20
-29.751220
30
0.0
11
35.254336
21
-28.441250
31
0.0
0
LINE
8
0
6
CONTINUOUS
10
36.888600
20
-29.751220
30
0.0
11
35.254340
21
-29.751220
31
0.0
0
LINE
8
0
6
CONTINUOUS
10
35.254340
20
-29.751220
30
0.0
11
33.620090
21
-29.751230
31
0.0
0
LINE
8
0
6
CONTINUOUS
10
51.049710
20
-29.751220
30
0.0
11
51.049706
21
-28.441250
31
0.0
0
LINE
8
0
6
CONTINUOUS
10
49.415450
20
-29.751220
30
0.0
11
49.415450
21
-28.441250
31
0.0
0
LINE
8
0
6
CONTINUOUS
10
51.049710
20
-29.751220
30
0.0
11
49.415450
21
-29.751220
31
0.0
0
LINE
8
0
6
CONTINUOUS
10
49.415450
20
-29.751220
30
0.0
11
47.781200
21
-29.751230
31
0.0
0
LINE
8
0
6
CONTINUOUS
10
63.622580
20
-29.751220
30
0.0
11
63.622576
21
-28.441250
31
0.0
0
LINE
8
0
6
CONTINUOUS
10
61.988320
20
-29.751220
30
0.0
11
61.988320
21
-28.441250
31
0.0
0
LINE
8
0
6
CONTINUOUS
10
63.622580
20
-29.751220
30
0.0
11
61.988320
21
-29.751220
31
0.0
0
LINE
8
0
6
CONTINUOUS
10
-104.134210
20
-28.441260
30
0.0
11
-104.134210
21
-29.999980
31
0.0
0
LINE
8
0
6
CONTINUOUS
10
-102.499950
20
-29.999970
30
0.0
11
-104.134210
21
-29.999980
31
0.0
0
LINE
8
0
6
CONTINUOUS
10
-99.603760
20
-29.999970
30
0.0
11
-99.603765
21
-28.441260
31
0.0
0
LINE
8
0
6
CONTINUOUS
10
-102.872280
20
-28.441260
30
0.0
11
-102.872280
21
-29.999980
31
0.0
0
LINE
8
0
6
CONTINUOUS
10
-101.238020
20
-29.999970
30
0.0
11
-101.238025
21
-28.441260
31
0.0
0
LINE
8
0
6
CONTINUOUS
10
-99.603760
20
-29.999970
30
0.0
11
-101.238020
21
-29.999970
31
0.0
0
LINE
8
0
6
CONTINUOUS
10
-101.238020
20
-29.999970
30
0.0
11
-102.872280
21
-29.999980
31
0.0
0
LINE
8
0
6
CONTINUOUS
10
-95.849000
20
-29.999970
30
0.0
11
-95.849005
21
-28.441260
31
0.0
0
LINE
8
0
6
CONTINUOUS
10
-99.117520
20
-28.441260
30
0.0
11
-99.117520
21
-29.999980
31
0.0
0
LINE
8
0
6
CONTINUOUS
10
-97.483260
20
-29.999970
30
0.0
11
-97.483265
21
-28.441260
31
0.0
0
LINE
8
0
6
CONTINUOUS
10
-95.849000
20
-29.999970
30
0.0
11
-97.483260
21
-29.999970
31
0.0
0
LINE
8
0
6
CONTINUOUS
10
-97.483260
20
-29.999970
30
0.0
11
-99.117520
21
-29.999980
31
0.0
0
LINE
8
0
6
CONTINUOUS
10
-89.693890
20
-29.999970
30
0.0
11
-89.693895
21
-28.441260
31
0.0
0
LINE
8
0
6
CONTINUOUS
10
-92.962410
20
-28.441260
30
0.0
11
-92.962410
21
-29.999980
31
0.0
0
LINE
8
0
6
CONTINUOUS
10
-91.328150
20
-29.999970
30
0.0
11
-91.328150
21
-28.441260
31
0.0
0
LINE
8
0
6
CONTINUOUS
10
-89.693890
20
-29.999970
30
0.0
11
-91.328150
21
-29.999970
31
0.0
0
LINE
8
0
6
CONTINUOUS
10
-91.328150
20
-29.999970
30
0.0
11
-92.962410
21
-29.999980
31
0.0
0
LINE
8
0
6
CONTINUOUS
10
-81.289980
20
-29.999970
30
0.0
11
-81.289985
21
-28.441259
31
0.0
0
LINE
8
0
6
CONTINUOUS
10
-84.558495
20
-28.441260
30
0.0
11
-84.558490
21
-29.999980
31
0.0
0
LINE
8
0
6
CONTINUOUS
10
-82.924240
20
-29.999970
30
0.0
11
-82.924240
21
-28.441260
31
0.0
0
LINE
8
0
6
CONTINUOUS
10
-81.289980
20
-29.999970
30
0.0
11
-82.924240
21
-29.999970
31
0.0
0
LINE
8
0
6
CONTINUOUS
10
-82.924240
20
-29.999970
30
0.0
11
-84.558490
21
-29.999980
31
0.0
0
LINE
8
0
6
CONTINUOUS
10
-70.844180
20
-29.999970
30
0.0
11
-70.844185
21
-28.441253
31
0.0
0
LINE
8
0
6
CONTINUOUS
10
-74.112695
20
-28.441255
30
0.0
11
-74.112690
21
-29.999980
31
0.0
0
LINE
8
0
6
CONTINUOUS
10
-72.478440
20
-29.999970
30
0.0
11
-72.478445
21
-28.441254
31
0.0
0
LINE
8
0
6
CONTINUOUS
10
-70.844180
20
-29.999970
30
0.0
11
-72.478440
21
-29.999970
31
0.0
0
LINE
8
0
6
CONTINUOUS
10
-72.478440
20
-29.999970
30
0.0
11
-74.112690
21
-29.999980
31
0.0
0
LINE
8
0
6
CONTINUOUS
10
-58.613730
20
-29.999970
30
0.0
11
-58.613735
21
-28.441250
31
0.0
0
LINE
8
0
6
CONTINUOUS
10
-61.882255
20
-28.441250
30
0.0
11
-61.882250
21
-29.999980
31
0.0
0
LINE
8
0
6
CONTINUOUS
10
-60.248000
20
-29.999980
30
0.0
11
-60.248000
21
-28.441250
31
0.0
0
LINE
8
0
6
CONTINUOUS
10
-61.882250
20
-29.999980
30
0.0
11
-60.248000
21
-29.999980
31
0.0
0
LINE
8
0
6
CONTINUOUS
10
-58.613730
20
-29.999970
30
0.0
11
-60.248000
21
-29.999980
31
0.0
0
LINE
8
0
6
CONTINUOUS
10
-44.899760
20
-29.999970
30
0.0
11
-44.899765
21
-28.441250
31
0.0
0
LINE
8
0
6
CONTINUOUS
10
-48.168285
20
-28.441250
30
0.0
11
-48.168280
21
-29.999980
31
0.0
0
LINE
8
0
6
CONTINUOUS
10
-46.534020
20
-29.999980
30
0.0
11
-46.534025
21
-28.441250
31
0.0
0
LINE
8
0
6
CONTINUOUS
10
-48.168280
20
-29.999980
30
0.0
11
-46.534020
21
-29.999980
31
0.0
0
LINE
8
0
6
CONTINUOUS
10
-44.899760
20
-29.999970
30
0.0
11
-46.534020
21
-29.999980
31
0.0
0
LINE
8
0
6
CONTINUOUS
10
-30.039950
20
-29.999980
30
0.0
11
-30.039950
21
-28.441250
31
0.0
0
LINE
8
0
6
CONTINUOUS
10
-31.674210
20
-29.999980
30
0.0
11
-30.039950
21
-29.999980
31
0.0
0
LINE
8
0
6
CONTINUOUS
10
-33.308465
20
-28.441250
30
0.0
11
-33.308460
21
-29.999980
31
0.0
0
LINE
8
0
6
CONTINUOUS
10
-31.674210
20
-29.999980
30
0.0
11
-31.674215
21
-28.441250
31
0.0
0
LINE
8
0
6
CONTINUOUS
10
-31.674210
20
-29.999980
30
0.0
11
-33.308460
21
-29.999980
31
0.0
0
LINE
8
0
6
CONTINUOUS
10
-14.400250
20
-29.999980
30
0.0
11
-14.400255
21
-28.441250
31
0.0
0
LINE
8
0
6
CONTINUOUS
10
-17.668765
20
-28.441250
30
0.0
11
-17.668760
21
-29.999980
31
0.0
0
LINE
8
0
6
CONTINUOUS
10
-16.034510
20
-29.999980
30
0.0
11
-16.034515
21
-28.441250
31
0.0
0
LINE
8
0
6
CONTINUOUS
10
-14.400250
20
-29.999980
30
0.0
11
-16.034510
21
-29.999980
31
0.0
0
LINE
8
0
6
CONTINUOUS
10
-16.034510
20
-29.999980
30
0.0
11
-17.668760
21
-29.999980
31
0.0
0
LINE
8
0
6
CONTINUOUS
10
1.634280
20
-29.999980
30
0.0
11
1.634280
21
-28.441250
31
0.0
0
LINE
8
0
6
CONTINUOUS
10
-1.634235
20
-28.441250
30
0.0
11
-1.634230
21
-29.999990
31
0.0
0
LINE
8
0
6
CONTINUOUS
10
0.000020
20
-29.999980
30
0.0
11
0.000015
21
-28.441250
31
0.0
0
LINE
8
0
6
CONTINUOUS
10
1.634280
20
-29.999980
30
0.0
11
0.000020
21
-29.999980
31
0.0
0
LINE
8
0
6
CONTINUOUS
10
0.000020
20
-29.999980
30
0.0
11
-1.634230
21
-29.999990
31
0.0
0
LINE
8
0
6
CONTINUOUS
10
17.668790
20
-29.999980
30
0.0
11
17.668785
21
-28.441250
31
0.0
0
LINE
8
0
6
CONTINUOUS
10
14.400270
20
-28.441250
30
0.0
11
14.400270
21
-29.999990
31
0.0
0
LINE
8
0
6
CONTINUOUS
10
16.034530
20
-29.999980
30
0.0
11
16.034525
21
-28.441250
31
0.0
0
LINE
8
0
6
CONTINUOUS
10
17.668790
20
-29.999980
30
0.0
11
16.034530
21
-29.999980
31
0.0
0
LINE
8
0
6
CONTINUOUS
10
16.034530
20
-29.999980
30
0.0
11
14.400270
21
-29.999990
31
0.0
0
LINE
8
0
6
CONTINUOUS
10
33.308520
20
-29.999980
30
0.0
11
33.308515
21
-28.441250
31
0.0
0
LINE
8
0
6
CONTINUOUS
10
30.040005
20
-28.441250
30
0.0
11
30.040010
21
-29.999990
31
0.0
0
LINE
8
0
6
CONTINUOUS
10
31.674260
20
-29.999980
30
0.0
11
31.674255
21
-28.441250
31
0.0
0
LINE
8
0
6
CONTINUOUS
10
33.308520
20
-29.999980
30
0.0
11
31.674260
21
-29.999980
31
0.0
0
LINE
8
0
6
CONTINUOUS
10
31.674260
20
-29.999980
30
0.0
11
30.040010
21
-29.999990
31
0.0
0
LINE
8
0
6
CONTINUOUS
10
48.168310
20
-29.999980
30
0.0
11
48.168305
21
-28.441250
31
0.0
0
LINE
8
0
6
CONTINUOUS
10
44.899785
20
-28.441250
30
0.0
11
44.899790
21
-29.999990
31
0.0
0
LINE
8
0
6
CONTINUOUS
10
46.534040
20
-29.999990
30
0.0
11
46.534040
21
-28.441250
31
0.0
0
LINE
8
0
6
CONTINUOUS
10
44.899790
20
-29.999990
30
0.0
11
46.534040
21
-29.999990
31
0.0
0
LINE
8
0
6
CONTINUOUS
10
48.168310
20
-29.999980
30
0.0
11
46.534040
21
-29.999990
31
0.0
0
LINE
8
0
6
CONTINUOUS
10
61.882270
20
-29.999980
30
0.0
11
61.882265
21
-28.441250
31
0.0
0
LINE
8
0
6
CONTINUOUS
10
58.613755
20
-28.441250
30
0.0
11
58.613760
21
-29.999990
31
0.0
0
LINE
8
0
6
CONTINUOUS
10
60.248010
20
-29.999990
30
0.0
11
60.248005
21
-28.441250
31
0.0
0
LINE
8
0
6
CONTINUOUS
10
58.613760
20
-29.999990
30
0.0
11
60.248010
21
-29.999990
31
0.0
0
LINE
8
0
6
CONTINUOUS
10
61.882270
20
-29.999980
30
0.0
11
60.248010
21
-29.999990
31
0.0
0
LINE
8
0
6
CONTINUOUS
10
74.112720
20
-29.999990
30
0.0
11
74.112715
21
-28.441250
31
0.0
0
LINE
8
0
6
CONTINUOUS
10
72.478450
20
-29.999990
30
0.0
11
74.112720
21
-29.999990
31
0.0
0
LINE
8
0
6
CONTINUOUS
10
70.844200
20
-28.441250
30
0.0
11
70.844200
21
-29.999990
31
0.0
0
LINE
8
0
6
CONTINUOUS
10
72.478450
20
-29.999990
30
0.0
11
72.478445
21
-28.441250
31
0.0
0
LINE
8
0
6
CONTINUOUS
10
72.478450
20
-29.999990
30
0.0
11
70.844200
21
-29.999990
31
0.0
0
ENDSEC
0
EOF
