999
Erzeugt mit innoplus bad 
0
SECTION
2
HEADER
9
$ACADVER
1
AC1009
9
$DWGCODEPAGE
3
ISO8859-1
0
ENDSEC
0
SECTION
2
TABLES
0
TABLE
2
LAYER
70
1
0
LAYER
2
0
70
0
62
7
6
CONTINUOUS
0
ENDTAB
0
ENDSEC
0
SECTION
2
ENTITIES
0
LINE
8
0
6
CONTINUOUS
10
119.185000
20
-27.446230
30
0.0
11
119.185000
21
-16.635250
31
0.0
0
LINE
8
0
6
CONTINUOUS
10
-119.185000
20
-16.635250
30
0.0
11
-119.185000
21
-27.446230
31
0.0
0
LINE
8
0
6
CONTINUOUS
10
119.184990
20
-28.441250
30
0.0
11
119.185000
21
-27.446230
31
0.0
0
LINE
8
0
6
CONTINUOUS
10
116.894890
20
-28.441250
30
0.0
11
119.184990
21
-28.441250
31
0.0
0
LINE
8
0
6
CONTINUOUS
10
119.184990
20
-15.640230
30
0.0
11
116.894890
21
-15.640230
31
0.0
0
LINE
8
0
6
CONTINUOUS
10
119.185000
20
-16.635250
30
0.0
11
119.184990
21
-15.640230
31
0.0
0
LINE
8
0
6
CONTINUOUS
10
110.112580
20
-28.441250
30
0.0
11
116.894890
21
-28.441250
31
0.0
0
LINE
8
0
6
CONTINUOUS
10
116.894890
20
-15.640230
30
0.0
11
110.112580
21
-15.640230
31
0.0
0
LINE
8
0
6
CONTINUOUS
10
99.098710
20
-28.441250
30
0.0
11
110.112580
21
-28.441250
31
0.0
0
LINE
8
0
6
CONTINUOUS
10
110.112580
20
-15.640230
30
0.0
11
99.098710
21
-15.640230
31
0.0
0
LINE
8
0
6
CONTINUOUS
10
99.098710
20
-28.441250
30
0.0
11
84.276520
21
-28.441250
31
0.0
0
LINE
8
0
6
CONTINUOUS
10
99.098710
20
-15.640230
30
0.0
11
84.276520
21
-15.640230
31
0.0
0
LINE
8
0
6
CONTINUOUS
10
84.276520
20
-28.441250
30
0.0
11
66.215630
21
-28.441250
31
0.0
0
LINE
8
0
6
CONTINUOUS
10
84.276520
20
-15.640230
30
0.0
11
66.215640
21
-15.640230
31
0.0
0
LINE
8
0
6
CONTINUOUS
10
66.215630
20
-28.441250
30
0.0
11
45.610110
21
-28.441260
31
0.0
0
LINE
8
0
6
CONTINUOUS
10
66.215640
20
-15.640230
30
0.0
11
45.610110
21
-15.640230
31
0.0
0
LINE
8
0
6
CONTINUOUS
10
23.251810
20
-28.441260
30
0.0
11
45.610110
21
-28.441260
31
0.0
0
LINE
8
0
6
CONTINUOUS
10
45.610110
20
-15.640230
30
0.0
11
23.251810
21
-15.640230
31
0.0
0
LINE
8
0
6
CONTINUOUS
10
-0.000040
20
-28.441260
30
0.0
11
23.251810
21
-28.441260
31
0.0
0
LINE
8
0
6
CONTINUOUS
10
23.251810
20
-15.640230
30
0.0
11
-0.000040
21
-15.640230
31
0.0
0
LINE
8
0
6
CONTINUOUS
10
-23.251890
20
-28.441260
30
0.0
11
-0.000040
21
-28.441260
31
0.0
0
LINE
8
0
6
CONTINUOUS
10
-0.000040
20
-15.640230
30
0.0
11
-23.251890
21
-15.640230
31
0.0
0
LINE
8
0
6
CONTINUOUS
10
-45.610180
20
-28.441260
30
0.0
11
-23.251890
21
-28.441260
31
0.0
0
LINE
8
0
6
CONTINUOUS
10
-23.251890
20
-15.640230
30
0.0
11
-45.610180
21
-15.640230
31
0.0
0
LINE
8
0
6
CONTINUOUS
10
-45.610180
20
-28.441260
30
0.0
11
-66.215700
21
-28.441250
31
0.0
0
LINE
8
0
6
CONTINUOUS
10
-45.610180
20
-15.640230
30
0.0
11
-66.215700
21
-15.640230
31
0.0
0
LINE
8
0
6
CONTINUOUS
10
-66.215700
20
-28.441250
30
0.0
11
-84.276580
21
-28.441250
31
0.0
0
LINE
8
0
6
CONTINUOUS
10
-66.215700
20
-15.640230
30
0.0
11
-84.276580
21
-15.640230
31
0.0
0
LINE
8
0
6
CONTINUOUS
10
-84.276580
20
-28.441250
30
0.0
11
-99.098750
21
-28.441250
31
0.0
0
LINE
8
0
6
CONTINUOUS
10
-84.276580
20
-15.640230
30
0.0
11
-99.098750
21
-15.640230
31
0.0
0
LINE
8
0
6
CONTINUOUS
10
-110.112620
20
-28.441250
30
0.0
11
-99.098750
21
-28.441250
31
0.0
0
LINE
8
0
6
CONTINUOUS
10
-99.098750
20
-15.640230
30
0.0
11
-110.112620
21
-15.640230
31
0.0
0
LINE
8
0
6
CONTINUOUS
10
-116.894910
20
-28.441250
30
0.0
11
-110.112620
21
-28.441250
31
0.0
0
LINE
8
0
6
CONTINUOUS
10
-110.112620
20
-15.640230
30
0.0
11
-116.894910
21
-15.640230
31
0.0
0
LINE
8
0
6
CONTINUOUS
10
-119.184990
20
-28.441250
30
0.0
11
-116.894910
21
-28.441250
31
0.0
0
LINE
8
0
6
CONTINUOUS
10
-119.185000
20
-27.446230
30
0.0
11
-119.184990
21
-28.441250
31
0.0
0
LINE
8
0
6
CONTINUOUS
10
-119.184990
20
-15.640230
30
0.0
11
-119.185000
21
-16.635250
31
0.0
0
LINE
8
0
6
CONTINUOUS
10
-116.894910
20
-15.640230
30
0.0
11
-119.184990
21
-15.640230
31
0.0
0
LINE
8
0
6
CONTINUOUS
10
-16.050620
20
9.801000
30
0.0
11
-16.050620
21
8.805980
31
0.0
0
LINE
8
0
6
CONTINUOUS
10
-14.828840
20
9.801000
30
0.0
11
-16.050620
21
9.801000
31
0.0
0
LINE
8
0
6
CONTINUOUS
10
-11.349500
20
9.801000
30
0.0
11
-14.828840
21
9.801000
31
0.0
0
LINE
8
0
6
CONTINUOUS
10
-6.142310
20
9.801000
30
0.0
11
-11.349500
21
9.801000
31
0.0
0
LINE
8
0
6
CONTINUOUS
10
0.000000
20
9.801000
30
0.0
11
-6.142310
21
9.801000
31
0.0
0
LINE
8
0
6
CONTINUOUS
10
6.142300
20
9.801000
30
0.0
11
0.000000
21
9.801000
31
0.0
0
LINE
8
0
6
CONTINUOUS
10
11.349500
20
9.801000
30
0.0
11
6.142300
21
9.801000
31
0.0
0
LINE
8
0
6
CONTINUOUS
10
14.828840
20
9.801000
30
0.0
11
11.349500
21
9.801000
31
0.0
0
LINE
8
0
6
CONTINUOUS
10
16.050620
20
9.801000
30
0.0
11
14.828840
21
9.801000
31
0.0
0
LINE
8
0
6
CONTINUOUS
10
16.050620
20
8.805980
30
0.0
11
16.050620
21
9.801000
31
0.0
0
LINE
8
0
6
CONTINUOUS
10
-16.050620
20
8.805980
30
0.0
11
-19.308060
21
-8.336870
31
0.0
0
LINE
8
0
6
CONTINUOUS
10
19.308050
20
-8.336870
30
0.0
11
16.050620
21
8.805980
31
0.0
0
LINE
8
0
6
CONTINUOUS
10
-8.047110
20
16.897060
30
0.0
11
-4.355060
21
16.897060
31
0.0
0
LINE
8
0
6
CONTINUOUS
10
4.355060
20
16.897060
30
0.0
11
8.047110
21
16.897060
31
0.0
0
LINE
8
0
6
CONTINUOUS
10
8.047110
20
29.502490
30
0.0
11
8.047110
21
16.897060
31
0.0
0
LINE
8
0
6
CONTINUOUS
10
8.047110
20
16.897060
30
0.0
11
10.514050
21
16.897060
31
0.0
0
LINE
8
0
6
CONTINUOUS
10
-4.355060
20
16.897060
30
0.0
11
0.000000
21
16.897060
31
0.0
0
LINE
8
0
6
CONTINUOUS
10
-11.380320
20
29.502490
30
0.0
11
-11.380330
21
16.897060
31
0.0
0
LINE
8
0
6
CONTINUOUS
10
-11.380330
20
16.897060
30
0.0
11
-10.514050
21
16.897060
31
0.0
0
LINE
8
0
6
CONTINUOUS
10
0.000000
20
16.897060
30
0.0
11
4.355060
21
16.897060
31
0.0
0
LINE
8
0
6
CONTINUOUS
10
-8.047110
20
16.897060
30
0.0
11
-8.047110
21
29.502490
31
0.0
0
LINE
8
0
6
CONTINUOUS
10
-10.514050
20
16.897060
30
0.0
11
-8.047110
21
16.897060
31
0.0
0
LINE
8
0
6
CONTINUOUS
10
11.380320
20
16.897060
30
0.0
11
11.380320
21
29.502490
31
0.0
0
LINE
8
0
6
CONTINUOUS
10
10.514050
20
16.897060
30
0.0
11
11.380320
21
16.897060
31
0.0
0
LINE
8
0
6
CONTINUOUS
10
0.000000
20
30.000000
30
0.0
11
-4.355060
21
30.000000
31
0.0
0
LINE
8
0
6
CONTINUOUS
10
10.514050
20
30.000000
30
0.0
11
8.047110
21
30.000000
31
0.0
0
LINE
8
0
6
CONTINUOUS
10
-4.355060
20
30.000000
30
0.0
11
-8.047110
21
30.000000
31
0.0
0
LINE
8
0
6
CONTINUOUS
10
-11.380330
20
30.000000
30
0.0
11
-11.380320
21
29.502490
31
0.0
0
LINE
8
0
6
CONTINUOUS
10
-10.514050
20
30.000000
30
0.0
11
-11.380330
21
30.000000
31
0.0
0
LINE
8
0
6
CONTINUOUS
10
8.047110
20
30.000000
30
0.0
11
4.355060
21
30.000000
31
0.0
0
LINE
8
0
6
CONTINUOUS
10
8.047110
20
29.502490
30
0.0
11
8.047110
21
30.000000
31
0.0
0
LINE
8
0
6
CONTINUOUS
10
11.380330
20
30.000000
30
0.0
11
10.514050
21
30.000000
31
0.0
0
LINE
8
0
6
CONTINUOUS
10
11.380320
20
29.502490
30
0.0
11
11.380330
21
30.000000
31
0.0
0
LINE
8
0
6
CONTINUOUS
10
4.355060
20
30.000000
30
0.0
11
0.000000
21
30.000000
31
0.0
0
LINE
8
0
6
CONTINUOUS
10
-8.047110
20
30.000000
30
0.0
11
-10.514050
21
30.000000
31
0.0
0
LINE
8
0
6
CONTINUOUS
10
-8.047110
20
29.502490
30
0.0
11
-8.047110
21
30.000000
31
0.0
0
LINE
8
0
6
CONTINUOUS
10
11.380320
20
16.897060
30
0.0
11
10.514050
21
16.897060
31
0.0
0
LINE
8
0
6
CONTINUOUS
10
9.117070
20
15.277560
30
0.0
11
11.380320
21
16.897060
31
0.0
0
LINE
8
0
6
CONTINUOUS
10
8.423080
20
15.277560
30
0.0
11
9.117070
21
15.277560
31
0.0
0
LINE
8
0
6
CONTINUOUS
10
-8.047110
20
16.897060
30
0.0
11
-10.514050
21
16.897060
31
0.0
0
LINE
8
0
6
CONTINUOUS
10
-8.423080
20
15.277560
30
0.0
11
-6.446750
21
15.277560
31
0.0
0
LINE
8
0
6
CONTINUOUS
10
4.355060
20
16.897060
30
0.0
11
0.000000
21
16.897060
31
0.0
0
LINE
8
0
6
CONTINUOUS
10
0.000000
20
15.277560
30
0.0
11
3.488950
21
15.277560
31
0.0
0
LINE
8
0
6
CONTINUOUS
10
-11.380330
20
16.897060
30
0.0
11
-9.117080
21
15.277560
31
0.0
0
LINE
8
0
6
CONTINUOUS
10
-10.514050
20
16.897060
30
0.0
11
-11.380330
21
16.897060
31
0.0
0
LINE
8
0
6
CONTINUOUS
10
-9.117080
20
15.277560
30
0.0
11
-8.423080
21
15.277560
31
0.0
0
LINE
8
0
6
CONTINUOUS
10
0.000000
20
16.897060
30
0.0
11
-4.355060
21
16.897060
31
0.0
0
LINE
8
0
6
CONTINUOUS
10
-3.488960
20
15.277560
30
0.0
11
0.000000
21
15.277560
31
0.0
0
LINE
8
0
6
CONTINUOUS
10
10.514050
20
16.897060
30
0.0
11
8.047110
21
16.897060
31
0.0
0
LINE
8
0
6
CONTINUOUS
10
6.446750
20
15.277560
30
0.0
11
8.423080
21
15.277560
31
0.0
0
LINE
8
0
6
CONTINUOUS
10
8.047110
20
16.897060
30
0.0
11
4.355060
21
16.897060
31
0.0
0
LINE
8
0
6
CONTINUOUS
10
3.488950
20
15.277560
30
0.0
11
6.446750
21
15.277560
31
0.0
0
LINE
8
0
6
CONTINUOUS
10
-4.355060
20
16.897060
30
0.0
11
-8.047110
21
16.897060
31
0.0
0
LINE
8
0
6
CONTINUOUS
10
-6.446750
20
15.277560
30
0.0
11
-3.488960
21
15.277560
31
0.0
0
LINE
8
0
6
CONTINUOUS
10
-3.488960
20
11.723710
30
0.0
11
-6.446750
21
12.148550
31
0.0
0
LINE
8
0
6
CONTINUOUS
10
6.446750
20
11.723710
30
0.0
11
3.488950
21
11.723710
31
0.0
0
LINE
8
0
6
CONTINUOUS
10
8.423080
20
11.723710
30
0.0
11
6.446750
21
11.723710
31
0.0
0
LINE
8
0
6
CONTINUOUS
10
0.000000
20
11.723710
30
0.0
11
-3.488960
21
11.723710
31
0.0
0
LINE
8
0
6
CONTINUOUS
10
-9.117080
20
11.723710
30
0.0
11
-11.380330
21
9.801000
31
0.0
0
LINE
8
0
6
CONTINUOUS
10
-8.423080
20
11.723710
30
0.0
11
-9.117080
21
11.723710
31
0.0
0
LINE
8
0
6
CONTINUOUS
10
3.488950
20
11.723710
30
0.0
11
0.000000
21
11.723710
31
0.0
0
LINE
8
0
6
CONTINUOUS
10
-6.446750
20
12.148550
30
0.0
11
-8.423080
21
11.723710
31
0.0
0
LINE
8
0
6
CONTINUOUS
10
9.117070
20
11.723710
30
0.0
11
8.423080
21
11.723710
31
0.0
0
LINE
8
0
6
CONTINUOUS
10
11.380320
20
9.801000
30
0.0
11
9.117070
21
11.723710
31
0.0
0
LINE
8
0
6
CONTINUOUS
10
-3.488960
20
15.277560
30
0.0
11
-6.446750
21
15.277560
31
0.0
0
LINE
8
0
6
CONTINUOUS
10
3.488950
20
11.723710
30
0.0
11
6.446750
21
11.723710
31
0.0
0
LINE
8
0
6
CONTINUOUS
10
6.446750
20
15.277560
30
0.0
11
3.488950
21
15.277560
31
0.0
0
LINE
8
0
6
CONTINUOUS
10
6.446750
20
11.723710
30
0.0
11
8.423080
21
11.723710
31
0.0
0
LINE
8
0
6
CONTINUOUS
10
8.423080
20
15.277560
30
0.0
11
6.446750
21
15.277560
31
0.0
0
LINE
8
0
6
CONTINUOUS
10
-3.488960
20
11.723710
30
0.0
11
0.000000
21
11.723710
31
0.0
0
LINE
8
0
6
CONTINUOUS
10
0.000000
20
15.277560
30
0.0
11
-3.488960
21
15.277560
31
0.0
0
LINE
8
0
6
CONTINUOUS
10
-9.117080
20
11.723710
30
0.0
11
-8.423080
21
11.723710
31
0.0
0
LINE
8
0
6
CONTINUOUS
10
-9.117080
20
15.277560
30
0.0
11
-9.117080
21
11.723710
31
0.0
0
LINE
8
0
6
CONTINUOUS
10
-8.423080
20
15.277560
30
0.0
11
-9.117080
21
15.277560
31
0.0
0
LINE
8
0
6
CONTINUOUS
10
0.000000
20
11.723710
30
0.0
11
3.488950
21
11.723710
31
0.0
0
LINE
8
0
6
CONTINUOUS
10
3.488950
20
15.277560
30
0.0
11
0.000000
21
15.277560
31
0.0
0
LINE
8
0
6
CONTINUOUS
10
-6.446750
20
15.277560
30
0.0
11
-8.423080
21
15.277560
31
0.0
0
LINE
8
0
6
CONTINUOUS
10
8.423080
20
11.723710
30
0.0
11
9.117070
21
11.723710
31
0.0
0
LINE
8
0
6
CONTINUOUS
10
9.117070
20
15.277560
30
0.0
11
8.423080
21
15.277560
31
0.0
0
LINE
8
0
6
CONTINUOUS
10
9.117070
20
11.723710
30
0.0
11
9.117070
21
15.277560
31
0.0
0
LINE
8
0
6
CONTINUOUS
10
-19.308060
20
-8.336870
30
0.0
11
-20.046780
21
-10.392000
31
0.0
0
LINE
8
0
6
CONTINUOUS
10
20.046770
20
-10.392000
30
0.0
11
19.308050
21
-8.336870
31
0.0
0
LINE
8
0
6
CONTINUOUS
10
-14.175210
20
-10.392000
30
0.0
11
-18.520800
21
-10.392000
31
0.0
0
LINE
8
0
6
CONTINUOUS
10
22.390730
20
-12.053040
30
0.0
11
20.046770
21
-10.392000
31
0.0
0
LINE
8
0
6
CONTINUOUS
10
20.046770
20
-10.392000
30
0.0
11
18.520800
21
-10.392000
31
0.0
0
LINE
8
0
6
CONTINUOUS
10
-7.671570
20
-10.392000
30
0.0
11
-14.175210
21
-10.392000
31
0.0
0
LINE
8
0
6
CONTINUOUS
10
-20.046780
20
-10.392000
30
0.0
11
-22.390740
21
-12.053040
31
0.0
0
LINE
8
0
6
CONTINUOUS
10
-18.520800
20
-10.392000
30
0.0
11
-20.046780
21
-10.392000
31
0.0
0
LINE
8
0
6
CONTINUOUS
10
14.175210
20
-10.392000
30
0.0
11
7.671570
21
-10.392000
31
0.0
0
LINE
8
0
6
CONTINUOUS
10
7.671570
20
-10.392000
30
0.0
11
0.000000
21
-10.392000
31
0.0
0
LINE
8
0
6
CONTINUOUS
10
0.000000
20
-10.392000
30
0.0
11
-7.671570
21
-10.392000
31
0.0
0
LINE
8
0
6
CONTINUOUS
10
18.520800
20
-10.392000
30
0.0
11
14.175210
21
-10.392000
31
0.0
0
LINE
8
0
6
CONTINUOUS
10
32.639132
20
-15.640230
30
0.0
11
22.390730
21
-12.053040
31
0.0
0
LINE
8
0
6
CONTINUOUS
10
-22.390740
20
-12.053040
30
0.0
11
-32.639142
21
-15.640230
31
0.0
0
LINE
8
0
6
CONTINUOUS
10
4.662147
20
-28.441260
30
0.0
11
4.662150
21
-29.502470
31
0.0
0
LINE
8
0
6
CONTINUOUS
10
4.662150
20
-29.502470
30
0.0
11
5.605680
21
-29.502470
31
0.0
0
LINE
8
0
6
CONTINUOUS
10
5.605677
20
-28.441260
30
0.0
11
5.605680
21
-29.502470
31
0.0
0
LINE
8
0
6
CONTINUOUS
10
19.096020
20
-28.441260
30
0.0
11
19.096020
21
-29.502470
31
0.0
0
LINE
8
0
6
CONTINUOUS
10
19.096020
20
-29.502470
30
0.0
11
20.039550
21
-29.502470
31
0.0
0
LINE
8
0
6
CONTINUOUS
10
20.039550
20
-28.441260
30
0.0
11
20.039550
21
-29.502470
31
0.0
0
LINE
8
0
6
CONTINUOUS
10
26.177750
20
-29.502470
30
0.0
11
27.121280
21
-29.502470
31
0.0
0
LINE
8
0
6
CONTINUOUS
10
49.838060
20
-29.751230
30
0.0
11
50.781590
21
-29.751230
31
0.0
0
LINE
8
0
6
CONTINUOUS
10
52.668670
20
-29.751230
30
0.0
11
53.612220
21
-29.751230
31
0.0
0
LINE
8
0
6
CONTINUOUS
10
50.781590
20
-29.751230
30
0.0
11
52.668670
21
-29.751230
31
0.0
0
LINE
8
0
6
CONTINUOUS
10
33.691380
20
-29.751230
30
0.0
11
34.634910
21
-29.751230
31
0.0
0
LINE
8
0
6
CONTINUOUS
10
36.521990
20
-29.751230
30
0.0
11
37.465530
21
-29.751230
31
0.0
0
LINE
8
0
6
CONTINUOUS
10
34.634910
20
-29.751230
30
0.0
11
36.521990
21
-29.751230
31
0.0
0
LINE
8
0
6
CONTINUOUS
10
18.597786
20
-28.441260
30
0.0
11
18.597790
21
-29.751230
31
0.0
0
LINE
8
0
6
CONTINUOUS
10
18.597790
20
-29.751230
30
0.0
11
19.541320
21
-29.751230
31
0.0
0
LINE
8
0
6
CONTINUOUS
10
21.428400
20
-29.751230
30
0.0
11
22.371950
21
-29.751230
31
0.0
0
LINE
8
0
6
CONTINUOUS
10
19.541320
20
-29.751230
30
0.0
11
21.428400
21
-29.751230
31
0.0
0
LINE
8
0
6
CONTINUOUS
10
4.746230
20
-29.751230
30
0.0
11
5.689760
21
-29.751230
31
0.0
0
LINE
8
0
6
CONTINUOUS
10
7.576840
20
-29.751230
30
0.0
11
8.520390
21
-29.751220
31
0.0
0
LINE
8
0
6
CONTINUOUS
10
5.689760
20
-29.751230
30
0.0
11
7.576840
21
-29.751230
31
0.0
0
LINE
8
0
6
CONTINUOUS
10
57.479240
20
-29.999990
30
0.0
11
58.422770
21
-29.999990
31
0.0
0
LINE
8
0
6
CONTINUOUS
10
40.913050
20
-29.999990
30
0.0
11
41.856580
21
-29.999990
31
0.0
0
LINE
8
0
6
CONTINUOUS
10
43.743660
20
-29.999990
30
0.0
11
44.687210
21
-29.999980
31
0.0
0
LINE
8
0
6
CONTINUOUS
10
41.856580
20
-29.999990
30
0.0
11
43.743660
21
-29.999990
31
0.0
0
LINE
8
0
6
CONTINUOUS
10
25.406160
20
-29.999990
30
0.0
11
26.349690
21
-29.999990
31
0.0
0
LINE
8
0
6
CONTINUOUS
10
28.236770
20
-29.999990
30
0.0
11
29.180320
21
-29.999980
31
0.0
0
LINE
8
0
6
CONTINUOUS
10
26.349690
20
-29.999990
30
0.0
11
28.236770
21
-29.999990
31
0.0
0
LINE
8
0
6
CONTINUOUS
10
11.417200
20
-29.999990
30
0.0
11
12.360730
21
-29.999990
31
0.0
0
LINE
8
0
6
CONTINUOUS
10
12.360730
20
-29.999990
30
0.0
11
14.247810
21
-29.999990
31
0.0
0
LINE
8
0
6
CONTINUOUS
10
-20.448750
20
-29.502460
30
0.0
11
-20.448753
21
-28.441260
31
0.0
0
LINE
8
0
6
CONTINUOUS
10
-21.392300
20
-29.502470
30
0.0
11
-20.448750
21
-29.502460
31
0.0
0
LINE
8
0
6
CONTINUOUS
10
-21.392300
20
-29.502470
30
0.0
11
-21.392300
21
-28.441260
31
0.0
0
LINE
8
0
6
CONTINUOUS
10
-23.279380
20
-29.502470
30
0.0
11
-21.392300
21
-29.502470
31
0.0
0
LINE
8
0
6
CONTINUOUS
10
-4.662130
20
-29.502460
30
0.0
11
-4.662130
21
-28.441260
31
0.0
0
LINE
8
0
6
CONTINUOUS
10
-5.605680
20
-29.502470
30
0.0
11
-4.662130
21
-29.502460
31
0.0
0
LINE
8
0
6
CONTINUOUS
10
-5.605680
20
-29.502470
30
0.0
11
-5.605680
21
-28.441260
31
0.0
0
LINE
8
0
6
CONTINUOUS
10
-19.096020
20
-29.502460
30
0.0
11
-19.096020
21
-28.441260
31
0.0
0
LINE
8
0
6
CONTINUOUS
10
-20.039560
20
-29.502470
30
0.0
11
-19.096020
21
-29.502460
31
0.0
0
LINE
8
0
6
CONTINUOUS
10
-20.039560
20
-29.502470
30
0.0
11
-20.039563
21
-28.441260
31
0.0
0
LINE
8
0
6
CONTINUOUS
10
-27.121290
20
-29.502470
30
0.0
11
-26.177740
21
-29.502470
31
0.0
0
LINE
8
0
6
CONTINUOUS
10
-53.612170
20
-29.751230
30
0.0
11
-52.668640
21
-29.751230
31
0.0
0
LINE
8
0
6
CONTINUOUS
10
-50.781560
20
-29.751230
30
0.0
11
-49.838010
21
-29.751220
31
0.0
0
LINE
8
0
6
CONTINUOUS
10
-52.668640
20
-29.751230
30
0.0
11
-50.781560
21
-29.751230
31
0.0
0
LINE
8
0
6
CONTINUOUS
10
-37.465570
20
-29.751230
30
0.0
11
-36.522030
21
-29.751230
31
0.0
0
LINE
8
0
6
CONTINUOUS
10
-34.634950
20
-29.751230
30
0.0
11
-33.691410
21
-29.751220
31
0.0
0
LINE
8
0
6
CONTINUOUS
10
-36.522030
20
-29.751230
30
0.0
11
-34.634950
21
-29.751230
31
0.0
0
LINE
8
0
6
CONTINUOUS
10
-22.371910
20
-29.751230
30
0.0
11
-21.428380
21
-29.751230
31
0.0
0
LINE
8
0
6
CONTINUOUS
10
-18.597750
20
-29.751220
30
0.0
11
-18.597754
21
-28.441260
31
0.0
0
LINE
8
0
6
CONTINUOUS
10
-19.541300
20
-29.751230
30
0.0
11
-18.597750
21
-29.751220
31
0.0
0
LINE
8
0
6
CONTINUOUS
10
-21.428380
20
-29.751230
30
0.0
11
-19.541300
21
-29.751230
31
0.0
0
LINE
8
0
6
CONTINUOUS
10
-8.520390
20
-29.751230
30
0.0
11
-7.576860
21
-29.751230
31
0.0
0
LINE
8
0
6
CONTINUOUS
10
-5.689780
20
-29.751230
30
0.0
11
-4.746240
21
-29.751220
31
0.0
0
LINE
8
0
6
CONTINUOUS
10
-7.576860
20
-29.751230
30
0.0
11
-5.689780
21
-29.751230
31
0.0
0
LINE
8
0
6
CONTINUOUS
10
-58.422780
20
-29.999990
30
0.0
11
-57.479220
21
-29.999980
31
0.0
0
LINE
8
0
6
CONTINUOUS
10
-44.687210
20
-29.999990
30
0.0
11
-43.743680
21
-29.999990
31
0.0
0
LINE
8
0
6
CONTINUOUS
10
-41.856600
20
-29.999990
30
0.0
11
-40.913050
21
-29.999980
31
0.0
0
LINE
8
0
6
CONTINUOUS
10
-43.743680
20
-29.999990
30
0.0
11
-41.856600
21
-29.999990
31
0.0
0
LINE
8
0
6
CONTINUOUS
10
-29.180330
20
-29.999990
30
0.0
11
-28.236790
21
-29.999990
31
0.0
0
LINE
8
0
6
CONTINUOUS
10
-26.349720
20
-29.999990
30
0.0
11
-25.406170
21
-29.999980
31
0.0
0
LINE
8
0
6
CONTINUOUS
10
-28.236790
20
-29.999990
30
0.0
11
-26.349720
21
-29.999990
31
0.0
0
LINE
8
0
6
CONTINUOUS
10
-12.360750
20
-29.999990
30
0.0
11
-11.417210
21
-29.999980
31
0.0
0
LINE
8
0
6
CONTINUOUS
10
-14.247830
20
-29.999990
30
0.0
11
-12.360750
21
-29.999990
31
0.0
0
LINE
8
0
6
CONTINUOUS
10
10.381537
20
-28.441260
30
0.0
11
10.381540
21
-29.502470
31
0.0
0
LINE
8
0
6
CONTINUOUS
10
10.381540
20
-29.502470
30
0.0
11
11.325070
21
-29.502470
31
0.0
0
LINE
8
0
6
CONTINUOUS
10
11.325067
20
-28.441260
30
0.0
11
11.325070
21
-29.502470
31
0.0
0
LINE
8
0
6
CONTINUOUS
10
13.212150
20
-29.502460
30
0.0
11
13.212147
21
-28.441260
31
0.0
0
LINE
8
0
6
CONTINUOUS
10
11.325070
20
-29.502470
30
0.0
11
13.212150
21
-29.502460
31
0.0
0
LINE
8
0
6
CONTINUOUS
10
5.695337
20
-28.441260
30
0.0
11
5.695340
21
-29.502470
31
0.0
0
LINE
8
0
6
CONTINUOUS
10
5.695340
20
-29.502470
30
0.0
11
6.638870
21
-29.502470
31
0.0
0
LINE
8
0
6
CONTINUOUS
10
9.469490
20
-29.502460
30
0.0
11
9.469490
21
-28.441260
31
0.0
0
LINE
8
0
6
CONTINUOUS
10
8.525950
20
-29.502470
30
0.0
11
9.469490
21
-29.502460
31
0.0
0
LINE
8
0
6
CONTINUOUS
10
6.638867
20
-28.441260
30
0.0
11
6.638870
21
-29.502470
31
0.0
0
LINE
8
0
6
CONTINUOUS
10
8.525950
20
-29.502470
30
0.0
11
8.525947
21
-28.441260
31
0.0
0
LINE
8
0
6
CONTINUOUS
10
6.638870
20
-29.502470
30
0.0
11
8.525950
21
-29.502470
31
0.0
0
LINE
8
0
6
CONTINUOUS
10
-9.469520
20
-28.441260
30
0.0
11
-9.469520
21
-29.502470
31
0.0
0
LINE
8
0
6
CONTINUOUS
10
-9.469520
20
-29.502470
30
0.0
11
-8.525990
21
-29.502470
31
0.0
0
LINE
8
0
6
CONTINUOUS
10
-5.695360
20
-29.502460
30
0.0
11
-5.695363
21
-28.441260
31
0.0
0
LINE
8
0
6
CONTINUOUS
10
-6.638910
20
-29.502470
30
0.0
11
-5.695360
21
-29.502460
31
0.0
0
LINE
8
0
6
CONTINUOUS
10
-8.525990
20
-28.441260
30
0.0
11
-8.525990
21
-29.502470
31
0.0
0
LINE
8
0
6
CONTINUOUS
10
-6.638910
20
-29.502470
30
0.0
11
-6.638910
21
-28.441260
31
0.0
0
LINE
8
0
6
CONTINUOUS
10
-8.525990
20
-29.502470
30
0.0
11
-6.638910
21
-29.502470
31
0.0
0
LINE
8
0
6
CONTINUOUS
10
-10.381560
20
-29.502460
30
0.0
11
-10.381560
21
-28.441260
31
0.0
0
LINE
8
0
6
CONTINUOUS
10
-11.325100
20
-29.502460
30
0.0
11
-10.381560
21
-29.502460
31
0.0
0
LINE
8
0
6
CONTINUOUS
10
-13.212183
20
-28.441260
30
0.0
11
-13.212180
21
-29.502470
31
0.0
0
LINE
8
0
6
CONTINUOUS
10
-11.325100
20
-29.502460
30
0.0
11
-11.325103
21
-28.441260
31
0.0
0
LINE
8
0
6
CONTINUOUS
10
-13.212180
20
-29.502470
30
0.0
11
-11.325100
21
-29.502460
31
0.0
0
LINE
8
0
6
CONTINUOUS
10
13.218990
20
-28.441260
30
0.0
11
13.218990
21
-29.502460
31
0.0
0
LINE
8
0
6
CONTINUOUS
10
13.218990
20
-29.502460
30
0.0
11
14.162520
21
-29.502470
31
0.0
0
LINE
8
0
6
CONTINUOUS
10
22.555067
20
-28.441260
30
0.0
11
22.555070
21
-29.502470
31
0.0
0
LINE
8
0
6
CONTINUOUS
10
22.555070
20
-29.502470
30
0.0
11
23.498600
21
-29.502470
31
0.0
0
LINE
8
0
6
CONTINUOUS
10
26.329220
20
-29.502460
30
0.0
11
26.329220
21
-28.441260
31
0.0
0
LINE
8
0
6
CONTINUOUS
10
25.385680
20
-29.502460
30
0.0
11
26.329220
21
-29.502460
31
0.0
0
LINE
8
0
6
CONTINUOUS
10
23.498597
20
-28.441260
30
0.0
11
23.498600
21
-29.502470
31
0.0
0
LINE
8
0
6
CONTINUOUS
10
25.385680
20
-29.502460
30
0.0
11
25.385677
21
-28.441260
31
0.0
0
LINE
8
0
6
CONTINUOUS
10
23.498600
20
-29.502470
30
0.0
11
25.385680
21
-29.502460
31
0.0
0
LINE
8
0
6
CONTINUOUS
10
-26.329243
20
-28.441260
30
0.0
11
-26.329240
21
-29.502470
31
0.0
0
LINE
8
0
6
CONTINUOUS
10
-26.329240
20
-29.502470
30
0.0
11
-25.385710
21
-29.502470
31
0.0
0
LINE
8
0
6
CONTINUOUS
10
-22.555090
20
-29.502460
30
0.0
11
-22.555090
21
-28.441260
31
0.0
0
LINE
8
0
6
CONTINUOUS
10
-23.498630
20
-29.502460
30
0.0
11
-22.555090
21
-29.502460
31
0.0
0
LINE
8
0
6
CONTINUOUS
10
-25.385713
20
-28.441260
30
0.0
11
-25.385710
21
-29.502470
31
0.0
0
LINE
8
0
6
CONTINUOUS
10
-23.498630
20
-29.502460
30
0.0
11
-23.498633
21
-28.441260
31
0.0
0
LINE
8
0
6
CONTINUOUS
10
-25.385710
20
-29.502470
30
0.0
11
-23.498630
21
-29.502460
31
0.0
0
LINE
8
0
6
CONTINUOUS
10
-13.219030
20
-29.502460
30
0.0
11
-13.219030
21
-28.441260
31
0.0
0
LINE
8
0
6
CONTINUOUS
10
-14.162570
20
-29.502460
30
0.0
11
-13.219030
21
-29.502460
31
0.0
0
LINE
8
0
6
CONTINUOUS
10
13.772277
20
-28.441260
30
0.0
11
13.772280
21
-29.502460
31
0.0
0
LINE
8
0
6
CONTINUOUS
10
26.723987
20
-28.441260
30
0.0
11
26.723990
21
-29.502460
31
0.0
0
LINE
8
0
6
CONTINUOUS
10
26.723990
20
-29.502460
30
0.0
11
27.667520
21
-29.502470
31
0.0
0
LINE
8
0
6
CONTINUOUS
10
27.667520
20
-28.441260
30
0.0
11
27.667520
21
-29.502470
31
0.0
0
LINE
8
0
6
CONTINUOUS
10
34.728587
20
-28.441260
30
0.0
11
34.728590
21
-29.502460
31
0.0
0
LINE
8
0
6
CONTINUOUS
10
34.728590
20
-29.502460
30
0.0
11
35.672120
21
-29.502470
31
0.0
0
LINE
8
0
6
CONTINUOUS
10
38.502740
20
-29.502460
30
0.0
11
38.502740
21
-28.441260
31
0.0
0
LINE
8
0
6
CONTINUOUS
10
37.559200
20
-29.502460
30
0.0
11
38.502740
21
-29.502460
31
0.0
0
LINE
8
0
6
CONTINUOUS
10
35.672117
20
-28.441260
30
0.0
11
35.672120
21
-29.502470
31
0.0
0
LINE
8
0
6
CONTINUOUS
10
37.559200
20
-29.502460
30
0.0
11
37.559197
21
-28.441260
31
0.0
0
LINE
8
0
6
CONTINUOUS
10
35.672120
20
-29.502470
30
0.0
11
37.559200
21
-29.502460
31
0.0
0
LINE
8
0
6
CONTINUOUS
10
39.232610
20
-29.502470
30
0.0
11
39.232607
21
-28.441260
31
0.0
0
LINE
8
0
6
CONTINUOUS
10
34.285510
20
-29.502470
30
0.0
11
34.285507
21
-28.441260
31
0.0
0
LINE
8
0
6
CONTINUOUS
10
-34.285530
20
-28.441260
30
0.0
11
-34.285530
21
-29.502470
31
0.0
0
LINE
8
0
6
CONTINUOUS
10
-39.232650
20
-28.441260
30
0.0
11
-39.232650
21
-29.502470
31
0.0
0
LINE
8
0
6
CONTINUOUS
10
-38.502750
20
-28.441260
30
0.0
11
-38.502750
21
-29.502460
31
0.0
0
LINE
8
0
6
CONTINUOUS
10
-38.502750
20
-29.502460
30
0.0
11
-37.559220
21
-29.502470
31
0.0
0
LINE
8
0
6
CONTINUOUS
10
-34.728590
20
-29.502460
30
0.0
11
-34.728593
21
-28.441260
31
0.0
0
LINE
8
0
6
CONTINUOUS
10
-35.672140
20
-29.502460
30
0.0
11
-34.728590
21
-29.502460
31
0.0
0
LINE
8
0
6
CONTINUOUS
10
-37.559220
20
-28.441260
30
0.0
11
-37.559220
21
-29.502470
31
0.0
0
LINE
8
0
6
CONTINUOUS
10
-35.672140
20
-29.502460
30
0.0
11
-35.672140
21
-28.441260
31
0.0
0
LINE
8
0
6
CONTINUOUS
10
-37.559220
20
-29.502470
30
0.0
11
-35.672140
21
-29.502460
31
0.0
0
LINE
8
0
6
CONTINUOUS
10
-26.724000
20
-29.502460
30
0.0
11
-26.724000
21
-28.441260
31
0.0
0
LINE
8
0
6
CONTINUOUS
10
-27.667550
20
-29.502460
30
0.0
11
-26.724000
21
-29.502460
31
0.0
0
LINE
8
0
6
CONTINUOUS
10
-27.667550
20
-29.502460
30
0.0
11
-27.667550
21
-28.441260
31
0.0
0
LINE
8
0
6
CONTINUOUS
10
-13.772280
20
-29.502460
30
0.0
11
-13.772283
21
-28.441260
31
0.0
0
LINE
8
0
6
CONTINUOUS
10
13.965487
20
-28.441260
30
0.0
11
13.965490
21
-29.502460
31
0.0
0
LINE
8
0
6
CONTINUOUS
10
28.266290
20
-28.441260
30
0.0
11
28.266290
21
-29.502460
31
0.0
0
LINE
8
0
6
CONTINUOUS
10
28.266290
20
-29.502460
30
0.0
11
29.209820
21
-29.502460
31
0.0
0
LINE
8
0
6
CONTINUOUS
10
39.615490
20
-28.441260
30
0.0
11
39.615490
21
-29.502460
31
0.0
0
LINE
8
0
6
CONTINUOUS
10
39.615490
20
-29.502460
30
0.0
11
40.559020
21
-29.502470
31
0.0
0
LINE
8
0
6
CONTINUOUS
10
40.559020
20
-28.441260
30
0.0
11
40.559020
21
-29.502470
31
0.0
0
LINE
8
0
6
CONTINUOUS
10
40.559020
20
-29.502470
30
0.0
11
42.446100
21
-29.502460
31
0.0
0
LINE
8
0
6
CONTINUOUS
10
50.676270
20
-29.502460
30
0.0
11
50.676267
21
-28.441260
31
0.0
0
LINE
8
0
6
CONTINUOUS
10
49.732720
20
-29.502460
30
0.0
11
50.676270
21
-29.502460
31
0.0
0
LINE
8
0
6
CONTINUOUS
10
49.732720
20
-29.502460
30
0.0
11
49.732720
21
-28.441260
31
0.0
0
LINE
8
0
6
CONTINUOUS
10
47.845640
20
-29.502470
30
0.0
11
49.732720
21
-29.502460
31
0.0
0
LINE
8
0
6
CONTINUOUS
10
50.356440
20
-29.502470
30
0.0
11
52.243510
21
-29.502460
31
0.0
0
LINE
8
0
6
CONTINUOUS
10
-52.243550
20
-29.502470
30
0.0
11
-50.356470
21
-29.502460
31
0.0
0
LINE
8
0
6
CONTINUOUS
10
-50.676273
20
-28.441260
30
0.0
11
-50.676270
21
-29.502460
31
0.0
0
LINE
8
0
6
CONTINUOUS
10
-50.676270
20
-29.502460
30
0.0
11
-49.732750
21
-29.502470
31
0.0
0
LINE
8
0
6
CONTINUOUS
10
-49.732750
20
-28.441260
30
0.0
11
-49.732750
21
-29.502470
31
0.0
0
LINE
8
0
6
CONTINUOUS
10
-49.732750
20
-29.502470
30
0.0
11
-47.845670
21
-29.502460
31
0.0
0
LINE
8
0
6
CONTINUOUS
10
-39.615500
20
-29.502460
30
0.0
11
-39.615500
21
-28.441260
31
0.0
0
LINE
8
0
6
CONTINUOUS
10
-40.559040
20
-29.502460
30
0.0
11
-39.615500
21
-29.502460
31
0.0
0
LINE
8
0
6
CONTINUOUS
10
-40.559040
20
-29.502460
30
0.0
11
-40.559043
21
-28.441260
31
0.0
0
LINE
8
0
6
CONTINUOUS
10
-42.446120
20
-29.502470
30
0.0
11
-40.559040
21
-29.502460
31
0.0
0
LINE
8
0
6
CONTINUOUS
10
-28.266300
20
-29.502460
30
0.0
11
-28.266303
21
-28.441260
31
0.0
0
LINE
8
0
6
CONTINUOUS
10
-29.209850
20
-29.502460
30
0.0
11
-28.266300
21
-29.502460
31
0.0
0
LINE
8
0
6
CONTINUOUS
10
-13.965500
20
-29.502450
30
0.0
11
-13.965500
21
-28.441260
31
0.0
0
LINE
8
0
6
CONTINUOUS
10
14.053947
20
-28.441260
30
0.0
11
14.053950
21
-29.502460
31
0.0
0
LINE
8
0
6
CONTINUOUS
10
28.993320
20
-28.441260
30
0.0
11
28.993320
21
-29.502460
31
0.0
0
LINE
8
0
6
CONTINUOUS
10
41.992377
20
-28.441260
30
0.0
11
41.992380
21
-29.502460
31
0.0
0
LINE
8
0
6
CONTINUOUS
10
41.992380
20
-29.502460
30
0.0
11
42.935910
21
-29.502460
31
0.0
0
LINE
8
0
6
CONTINUOUS
10
42.935910
20
-28.441260
30
0.0
11
42.935910
21
-29.502460
31
0.0
0
LINE
8
0
6
CONTINUOUS
10
52.234337
20
-28.441260
30
0.0
11
52.234340
21
-29.502460
31
0.0
0
LINE
8
0
6
CONTINUOUS
10
52.234340
20
-29.502460
30
0.0
11
53.177870
21
-29.502460
31
0.0
0
LINE
8
0
6
CONTINUOUS
10
53.177867
20
-28.441260
30
0.0
11
53.177870
21
-29.502460
31
0.0
0
LINE
8
0
6
CONTINUOUS
10
55.064950
20
-29.502460
30
0.0
11
55.064947
21
-28.441260
31
0.0
0
LINE
8
0
6
CONTINUOUS
10
53.177870
20
-29.502460
30
0.0
11
55.064950
21
-29.502460
31
0.0
0
LINE
8
0
6
CONTINUOUS
10
62.849790
20
-29.502460
30
0.0
11
62.849787
21
-28.441260
31
0.0
0
LINE
8
0
6
CONTINUOUS
10
61.906240
20
-29.502460
30
0.0
11
62.849790
21
-29.502460
31
0.0
0
LINE
8
0
6
CONTINUOUS
10
63.029940
20
-28.441260
30
0.0
11
63.029940
21
-29.502470
31
0.0
0
LINE
8
0
6
CONTINUOUS
10
63.029940
20
-29.502470
30
0.0
11
64.917020
21
-29.502460
31
0.0
0
LINE
8
0
6
CONTINUOUS
10
-63.029990
20
-29.502460
30
0.0
11
-63.029990
21
-28.441260
31
0.0
0
LINE
8
0
6
CONTINUOUS
10
-64.917060
20
-29.502470
30
0.0
11
-63.029990
21
-29.502460
31
0.0
0
LINE
8
0
6
CONTINUOUS
10
-62.849813
20
-28.441260
30
0.0
11
-62.849810
21
-29.502460
31
0.0
0
LINE
8
0
6
CONTINUOUS
10
-62.849810
20
-29.502460
30
0.0
11
-61.906280
21
-29.502470
31
0.0
0
LINE
8
0
6
CONTINUOUS
10
-52.234340
20
-29.502460
30
0.0
11
-52.234343
21
-28.441260
31
0.0
0
LINE
8
0
6
CONTINUOUS
10
-53.177890
20
-29.502460
30
0.0
11
-52.234340
21
-29.502460
31
0.0
0
LINE
8
0
6
CONTINUOUS
10
-55.064970
20
-28.441260
30
0.0
11
-55.064970
21
-29.502460
31
0.0
0
LINE
8
0
6
CONTINUOUS
10
-53.177890
20
-29.502460
30
0.0
11
-53.177893
21
-28.441260
31
0.0
0
LINE
8
0
6
CONTINUOUS
10
-55.064970
20
-29.502460
30
0.0
11
-53.177890
21
-29.502460
31
0.0
0
LINE
8
0
6
CONTINUOUS
10
-41.992410
20
-29.502450
30
0.0
11
-41.992413
21
-28.441260
31
0.0
0
LINE
8
0
6
CONTINUOUS
10
-42.935960
20
-29.502460
30
0.0
11
-41.992410
21
-29.502450
31
0.0
0
LINE
8
0
6
CONTINUOUS
10
-42.935960
20
-29.502460
30
0.0
11
-42.935963
21
-28.441260
31
0.0
0
LINE
8
0
6
CONTINUOUS
10
-28.993340
20
-29.502450
30
0.0
11
-28.993340
21
-28.441260
31
0.0
0
LINE
8
0
6
CONTINUOUS
10
-14.053940
20
-29.502450
30
0.0
11
-14.053943
21
-28.441260
31
0.0
0
LINE
8
0
6
CONTINUOUS
10
14.101330
20
-28.441260
30
0.0
11
14.101330
21
-29.502460
31
0.0
0
LINE
8
0
6
CONTINUOUS
10
29.390960
20
-28.441260
30
0.0
11
29.390960
21
-29.502460
31
0.0
0
LINE
8
0
6
CONTINUOUS
10
43.313590
20
-28.441260
30
0.0
11
43.313590
21
-29.502460
31
0.0
0
LINE
8
0
6
CONTINUOUS
10
43.313590
20
-29.502460
30
0.0
11
44.257130
21
-29.502460
31
0.0
0
LINE
8
0
6
CONTINUOUS
10
55.260747
20
-28.441260
30
0.0
11
55.260750
21
-29.502460
31
0.0
0
LINE
8
0
6
CONTINUOUS
10
55.260750
20
-29.502460
30
0.0
11
56.204280
21
-29.502460
31
0.0
0
LINE
8
0
6
CONTINUOUS
10
56.204277
20
-28.441260
30
0.0
11
56.204280
21
-29.502460
31
0.0
0
LINE
8
0
6
CONTINUOUS
10
64.710267
20
-28.441260
30
0.0
11
64.710270
21
-29.502460
31
0.0
0
LINE
8
0
6
CONTINUOUS
10
64.710270
20
-29.502460
30
0.0
11
65.653800
21
-29.502460
31
0.0
0
LINE
8
0
6
CONTINUOUS
10
67.540880
20
-29.502460
30
0.0
11
68.484430
21
-29.502460
31
0.0
0
LINE
8
0
6
CONTINUOUS
10
65.653800
20
-28.441260
30
0.0
11
65.653800
21
-29.502460
31
0.0
0
LINE
8
0
6
CONTINUOUS
10
67.540880
20
-29.502460
30
0.0
11
67.540877
21
-28.441260
31
0.0
0
LINE
8
0
6
CONTINUOUS
10
65.653800
20
-29.502460
30
0.0
11
67.540880
21
-29.502460
31
0.0
0
LINE
8
0
6
CONTINUOUS
10
75.023300
20
-29.502460
30
0.0
11
75.023297
21
-28.441260
31
0.0
0
LINE
8
0
6
CONTINUOUS
10
74.079750
20
-29.502460
30
0.0
11
75.023300
21
-29.502460
31
0.0
0
LINE
8
0
6
CONTINUOUS
10
74.591640
20
-29.502470
30
0.0
11
75.535170
21
-29.502470
31
0.0
0
LINE
8
0
6
CONTINUOUS
10
75.535167
20
-28.441260
30
0.0
11
75.535170
21
-29.502470
31
0.0
0
LINE
8
0
6
CONTINUOUS
10
75.535170
20
-29.502470
30
0.0
11
77.422250
21
-29.502460
31
0.0
0
LINE
8
0
6
CONTINUOUS
10
-75.535200
20
-29.502460
30
0.0
11
-74.591650
21
-29.502460
31
0.0
0
LINE
8
0
6
CONTINUOUS
10
-75.535200
20
-29.502460
30
0.0
11
-75.535203
21
-28.441260
31
0.0
0
LINE
8
0
6
CONTINUOUS
10
-77.422280
20
-29.502470
30
0.0
11
-75.535200
21
-29.502460
31
0.0
0
LINE
8
0
6
CONTINUOUS
10
-75.023303
20
-28.441260
30
0.0
11
-75.023300
21
-29.502460
31
0.0
0
LINE
8
0
6
CONTINUOUS
10
-75.023300
20
-29.502460
30
0.0
11
-74.079780
21
-29.502470
31
0.0
0
LINE
8
0
6
CONTINUOUS
10
-68.484430
20
-29.502460
30
0.0
11
-67.540900
21
-29.502460
31
0.0
0
LINE
8
0
6
CONTINUOUS
10
-64.710270
20
-29.502460
30
0.0
11
-64.710273
21
-28.441260
31
0.0
0
LINE
8
0
6
CONTINUOUS
10
-65.653820
20
-29.502460
30
0.0
11
-64.710270
21
-29.502460
31
0.0
0
LINE
8
0
6
CONTINUOUS
10
-67.540900
20
-28.441260
30
0.0
11
-67.540900
21
-29.502460
31
0.0
0
LINE
8
0
6
CONTINUOUS
10
-65.653820
20
-29.502460
30
0.0
11
-65.653820
21
-28.441260
31
0.0
0
LINE
8
0
6
CONTINUOUS
10
-67.540900
20
-29.502460
30
0.0
11
-65.653820
21
-29.502460
31
0.0
0
LINE
8
0
6
CONTINUOUS
10
-55.260780
20
-29.502450
30
0.0
11
-55.260783
21
-28.441260
31
0.0
0
LINE
8
0
6
CONTINUOUS
10
-56.204330
20
-29.502460
30
0.0
11
-55.260780
21
-29.502450
31
0.0
0
LINE
8
0
6
CONTINUOUS
10
-56.204330
20
-29.502460
30
0.0
11
-56.204330
21
-28.441260
31
0.0
0
LINE
8
0
6
CONTINUOUS
10
-43.313600
20
-29.502450
30
0.0
11
-43.313603
21
-28.441260
31
0.0
0
LINE
8
0
6
CONTINUOUS
10
-44.257150
20
-29.502460
30
0.0
11
-43.313600
21
-29.502450
31
0.0
0
LINE
8
0
6
CONTINUOUS
10
-29.390970
20
-29.502450
30
0.0
11
-29.390970
21
-28.441260
31
0.0
0
LINE
8
0
6
CONTINUOUS
10
-14.101340
20
-29.502450
30
0.0
11
-14.101340
21
-28.441260
31
0.0
0
LINE
8
0
6
CONTINUOUS
10
14.129480
20
-28.441260
30
0.0
11
14.129480
21
-29.751220
31
0.0
0
LINE
8
0
6
CONTINUOUS
10
29.631236
20
-28.441260
30
0.0
11
29.631240
21
-29.751220
31
0.0
0
LINE
8
0
6
CONTINUOUS
10
44.119966
20
-28.441260
30
0.0
11
44.119970
21
-29.751220
31
0.0
0
LINE
8
0
6
CONTINUOUS
10
44.119970
20
-29.751220
30
0.0
11
45.063500
21
-29.751220
31
0.0
0
LINE
8
0
6
CONTINUOUS
10
57.130016
20
-28.441260
30
0.0
11
57.130020
21
-29.751220
31
0.0
0
LINE
8
0
6
CONTINUOUS
10
57.130020
20
-29.751220
30
0.0
11
58.073540
21
-29.751220
31
0.0
0
LINE
8
0
6
CONTINUOUS
10
58.073540
20
-28.441260
30
0.0
11
58.073540
21
-29.751220
31
0.0
0
LINE
8
0
6
CONTINUOUS
10
68.243190
20
-28.441260
30
0.0
11
68.243190
21
-29.751220
31
0.0
0
LINE
8
0
6
CONTINUOUS
10
68.243190
20
-29.751220
30
0.0
11
69.186730
21
-29.751220
31
0.0
0
LINE
8
0
6
CONTINUOUS
10
69.186726
20
-28.441260
30
0.0
11
69.186730
21
-29.751220
31
0.0
0
LINE
8
0
6
CONTINUOUS
10
69.186730
20
-29.751220
30
0.0
11
71.073800
21
-29.751220
31
0.0
0
LINE
8
0
6
CONTINUOUS
10
77.102336
20
-28.441260
30
0.0
11
77.102340
21
-29.751220
31
0.0
0
LINE
8
0
6
CONTINUOUS
10
77.102340
20
-29.751220
30
0.0
11
78.045870
21
-29.751220
31
0.0
0
LINE
8
0
6
CONTINUOUS
10
80.876490
20
-29.751220
30
0.0
11
80.876486
21
-28.441260
31
0.0
0
LINE
8
0
6
CONTINUOUS
10
79.932950
20
-29.751220
30
0.0
11
80.876490
21
-29.751220
31
0.0
0
LINE
8
0
6
CONTINUOUS
10
78.045866
20
-28.441260
30
0.0
11
78.045870
21
-29.751220
31
0.0
0
LINE
8
0
6
CONTINUOUS
10
79.932950
20
-29.751220
30
0.0
11
79.932946
21
-28.441260
31
0.0
0
LINE
8
0
6
CONTINUOUS
10
78.045870
20
-29.751220
30
0.0
11
79.932950
21
-29.751220
31
0.0
0
LINE
8
0
6
CONTINUOUS
10
87.196840
20
-29.751220
30
0.0
11
87.196840
21
-28.441258
31
0.0
0
LINE
8
0
6
CONTINUOUS
10
86.253290
20
-29.751220
30
0.0
11
87.196840
21
-29.751220
31
0.0
0
LINE
8
0
6
CONTINUOUS
10
86.253290
20
-29.751220
30
0.0
11
86.253290
21
-28.441258
31
0.0
0
LINE
8
0
6
CONTINUOUS
10
84.366220
20
-29.751220
30
0.0
11
86.253290
21
-29.751220
31
0.0
0
LINE
8
0
6
CONTINUOUS
10
87.001090
20
-29.751220
30
0.0
11
87.944630
21
-29.751230
31
0.0
0
LINE
8
0
6
CONTINUOUS
10
87.944626
20
-28.441257
30
0.0
11
87.944630
21
-29.751230
31
0.0
0
LINE
8
0
6
CONTINUOUS
10
87.944630
20
-29.751230
30
0.0
11
89.831710
21
-29.751220
31
0.0
0
LINE
8
0
6
CONTINUOUS
10
75.804730
20
-29.751230
30
0.0
11
76.748280
21
-29.751220
31
0.0
0
LINE
8
0
6
CONTINUOUS
10
73.917650
20
-29.751230
30
0.0
11
75.804730
21
-29.751230
31
0.0
0
LINE
8
0
6
CONTINUOUS
10
62.947620
20
-29.751230
30
0.0
11
63.891150
21
-29.751230
31
0.0
0
LINE
8
0
6
CONTINUOUS
10
65.778230
20
-29.751230
30
0.0
11
66.721780
21
-29.751220
31
0.0
0
LINE
8
0
6
CONTINUOUS
10
63.891150
20
-29.751230
30
0.0
11
65.778230
21
-29.751230
31
0.0
0
LINE
8
0
6
CONTINUOUS
10
-66.721810
20
-29.751230
30
0.0
11
-65.778280
21
-29.751230
31
0.0
0
LINE
8
0
6
CONTINUOUS
10
-63.891200
20
-29.751230
30
0.0
11
-62.947650
21
-29.751230
31
0.0
0
LINE
8
0
6
CONTINUOUS
10
-65.778280
20
-29.751230
30
0.0
11
-63.891200
21
-29.751230
31
0.0
0
LINE
8
0
6
CONTINUOUS
10
-76.748300
20
-29.751230
30
0.0
11
-75.804770
21
-29.751230
31
0.0
0
LINE
8
0
6
CONTINUOUS
10
-75.804770
20
-29.751230
30
0.0
11
-73.917690
21
-29.751230
31
0.0
0
LINE
8
0
6
CONTINUOUS
10
-87.944690
20
-29.751220
30
0.0
11
-87.001140
21
-29.751220
31
0.0
0
LINE
8
0
6
CONTINUOUS
10
-87.944690
20
-29.751220
30
0.0
11
-87.944690
21
-28.441257
31
0.0
0
LINE
8
0
6
CONTINUOUS
10
-89.831760
20
-29.751230
30
0.0
11
-87.944690
21
-29.751220
31
0.0
0
LINE
8
0
6
CONTINUOUS
10
-87.196870
20
-28.441258
30
0.0
11
-87.196870
21
-29.751220
31
0.0
0
LINE
8
0
6
CONTINUOUS
10
-87.196870
20
-29.751220
30
0.0
11
-86.253330
21
-29.751220
31
0.0
0
LINE
8
0
6
CONTINUOUS
10
-86.253334
20
-28.441258
30
0.0
11
-86.253330
21
-29.751220
31
0.0
0
LINE
8
0
6
CONTINUOUS
10
-86.253330
20
-29.751220
30
0.0
11
-84.366250
21
-29.751220
31
0.0
0
LINE
8
0
6
CONTINUOUS
10
-80.876514
20
-28.441260
30
0.0
11
-80.876510
21
-29.751220
31
0.0
0
LINE
8
0
6
CONTINUOUS
10
-80.876510
20
-29.751220
30
0.0
11
-79.932980
21
-29.751220
31
0.0
0
LINE
8
0
6
CONTINUOUS
10
-77.102350
20
-29.751220
30
0.0
11
-77.102354
21
-28.441260
31
0.0
0
LINE
8
0
6
CONTINUOUS
10
-78.045900
20
-29.751220
30
0.0
11
-77.102350
21
-29.751220
31
0.0
0
LINE
8
0
6
CONTINUOUS
10
-79.932984
20
-28.441260
30
0.0
11
-79.932980
21
-29.751220
31
0.0
0
LINE
8
0
6
CONTINUOUS
10
-78.045900
20
-29.751220
30
0.0
11
-78.045904
21
-28.441260
31
0.0
0
LINE
8
0
6
CONTINUOUS
10
-79.932980
20
-29.751220
30
0.0
11
-78.045900
21
-29.751220
31
0.0
0
LINE
8
0
6
CONTINUOUS
10
-68.243230
20
-29.751210
30
0.0
11
-68.243234
21
-28.441260
31
0.0
0
LINE
8
0
6
CONTINUOUS
10
-69.186780
20
-29.751220
30
0.0
11
-68.243230
21
-29.751210
31
0.0
0
LINE
8
0
6
CONTINUOUS
10
-69.186780
20
-29.751220
30
0.0
11
-69.186784
21
-28.441260
31
0.0
0
LINE
8
0
6
CONTINUOUS
10
-71.073860
20
-29.751220
30
0.0
11
-69.186780
21
-29.751220
31
0.0
0
LINE
8
0
6
CONTINUOUS
10
-57.130020
20
-29.751210
30
0.0
11
-57.130020
21
-28.441260
31
0.0
0
LINE
8
0
6
CONTINUOUS
10
-58.073560
20
-29.751220
30
0.0
11
-57.130020
21
-29.751210
31
0.0
0
LINE
8
0
6
CONTINUOUS
10
-58.073560
20
-29.751220
30
0.0
11
-58.073564
21
-28.441260
31
0.0
0
LINE
8
0
6
CONTINUOUS
10
-44.119970
20
-29.751210
30
0.0
11
-44.119974
21
-28.441260
31
0.0
0
LINE
8
0
6
CONTINUOUS
10
-45.063520
20
-29.751220
30
0.0
11
-44.119970
21
-29.751210
31
0.0
0
LINE
8
0
6
CONTINUOUS
10
-29.631230
20
-29.751210
30
0.0
11
-29.631234
21
-28.441260
31
0.0
0
LINE
8
0
6
CONTINUOUS
10
-14.129480
20
-29.751210
30
0.0
11
-14.129480
21
-28.441260
31
0.0
0
LINE
8
0
6
CONTINUOUS
10
-1.887065
20
-28.441260
30
0.0
11
-1.887060
21
-29.999980
31
0.0
0
LINE
8
0
6
CONTINUOUS
10
-1.887060
20
-29.999980
30
0.0
11
-0.943530
21
-29.999980
31
0.0
0
LINE
8
0
6
CONTINUOUS
10
1.887090
20
-29.999970
30
0.0
11
1.887090
21
-28.441260
31
0.0
0
LINE
8
0
6
CONTINUOUS
10
0.943550
20
-29.999980
30
0.0
11
1.887090
21
-29.999970
31
0.0
0
LINE
8
0
6
CONTINUOUS
10
-0.943535
20
-28.441260
30
0.0
11
-0.943530
21
-29.999980
31
0.0
0
LINE
8
0
6
CONTINUOUS
10
0.943550
20
-29.999980
30
0.0
11
0.943545
21
-28.441260
31
0.0
0
LINE
8
0
6
CONTINUOUS
10
-0.943530
20
-29.999980
30
0.0
11
0.943550
21
-29.999980
31
0.0
0
LINE
8
0
6
CONTINUOUS
10
14.147455
20
-28.441260
30
0.0
11
14.147460
21
-29.999980
31
0.0
0
LINE
8
0
6
CONTINUOUS
10
14.147460
20
-29.999980
30
0.0
11
15.090990
21
-29.999980
31
0.0
0
LINE
8
0
6
CONTINUOUS
10
17.921610
20
-29.999970
30
0.0
11
17.921610
21
-28.441260
31
0.0
0
LINE
8
0
6
CONTINUOUS
10
16.978070
20
-29.999980
30
0.0
11
17.921610
21
-29.999970
31
0.0
0
LINE
8
0
6
CONTINUOUS
10
15.090985
20
-28.441260
30
0.0
11
15.090990
21
-29.999980
31
0.0
0
LINE
8
0
6
CONTINUOUS
10
16.978070
20
-29.999980
30
0.0
11
16.978065
21
-28.441260
31
0.0
0
LINE
8
0
6
CONTINUOUS
10
15.090990
20
-29.999980
30
0.0
11
16.978070
21
-29.999980
31
0.0
0
LINE
8
0
6
CONTINUOUS
10
29.787160
20
-28.441260
30
0.0
11
29.787160
21
-29.999980
31
0.0
0
LINE
8
0
6
CONTINUOUS
10
29.787160
20
-29.999980
30
0.0
11
30.730700
21
-29.999980
31
0.0
0
LINE
8
0
6
CONTINUOUS
10
33.561320
20
-29.999970
30
0.0
11
33.561320
21
-28.441260
31
0.0
0
LINE
8
0
6
CONTINUOUS
10
32.617770
20
-29.999980
30
0.0
11
33.561320
21
-29.999970
31
0.0
0
LINE
8
0
6
CONTINUOUS
10
30.730695
20
-28.441260
30
0.0
11
30.730700
21
-29.999980
31
0.0
0
LINE
8
0
6
CONTINUOUS
10
32.617770
20
-29.999980
30
0.0
11
32.617770
21
-28.441260
31
0.0
0
LINE
8
0
6
CONTINUOUS
10
30.730700
20
-29.999980
30
0.0
11
32.617770
21
-29.999980
31
0.0
0
LINE
8
0
6
CONTINUOUS
10
44.646950
20
-28.441260
30
0.0
11
44.646950
21
-29.999980
31
0.0
0
LINE
8
0
6
CONTINUOUS
10
44.646950
20
-29.999980
30
0.0
11
45.590490
21
-29.999980
31
0.0
0
LINE
8
0
6
CONTINUOUS
10
48.421110
20
-29.999970
30
0.0
11
48.421110
21
-28.441260
31
0.0
0
LINE
8
0
6
CONTINUOUS
10
47.477560
20
-29.999980
30
0.0
11
48.421110
21
-29.999970
31
0.0
0
LINE
8
0
6
CONTINUOUS
10
45.590485
20
-28.441260
30
0.0
11
45.590490
21
-29.999980
31
0.0
0
LINE
8
0
6
CONTINUOUS
10
47.477560
20
-29.999980
30
0.0
11
47.477560
21
-28.441260
31
0.0
0
LINE
8
0
6
CONTINUOUS
10
45.590490
20
-29.999980
30
0.0
11
47.477560
21
-29.999980
31
0.0
0
LINE
8
0
6
CONTINUOUS
10
58.360920
20
-28.441260
30
0.0
11
58.360920
21
-29.999980
31
0.0
0
LINE
8
0
6
CONTINUOUS
10
58.360920
20
-29.999980
30
0.0
11
59.304450
21
-29.999980
31
0.0
0
LINE
8
0
6
CONTINUOUS
10
62.135080
20
-29.999970
30
0.0
11
62.135075
21
-28.441260
31
0.0
0
LINE
8
0
6
CONTINUOUS
10
61.191530
20
-29.999980
30
0.0
11
62.135080
21
-29.999970
31
0.0
0
LINE
8
0
6
CONTINUOUS
10
59.304450
20
-28.441260
30
0.0
11
59.304450
21
-29.999980
31
0.0
0
LINE
8
0
6
CONTINUOUS
10
61.191530
20
-29.999980
30
0.0
11
61.191530
21
-28.441260
31
0.0
0
LINE
8
0
6
CONTINUOUS
10
59.304450
20
-29.999980
30
0.0
11
61.191530
21
-29.999980
31
0.0
0
LINE
8
0
6
CONTINUOUS
10
70.591365
20
-28.441260
30
0.0
11
70.591370
21
-29.999980
31
0.0
0
LINE
8
0
6
CONTINUOUS
10
70.591370
20
-29.999980
30
0.0
11
71.534900
21
-29.999980
31
0.0
0
LINE
8
0
6
CONTINUOUS
10
74.365530
20
-29.999970
30
0.0
11
74.365525
21
-28.441260
31
0.0
0
LINE
8
0
6
CONTINUOUS
10
73.421980
20
-29.999980
30
0.0
11
74.365530
21
-29.999970
31
0.0
0
LINE
8
0
6
CONTINUOUS
10
71.534900
20
-28.441260
30
0.0
11
71.534900
21
-29.999980
31
0.0
0
LINE
8
0
6
CONTINUOUS
10
73.421980
20
-29.999980
30
0.0
11
73.421975
21
-28.441260
31
0.0
0
LINE
8
0
6
CONTINUOUS
10
71.534900
20
-29.999980
30
0.0
11
73.421980
21
-29.999980
31
0.0
0
LINE
8
0
6
CONTINUOUS
10
81.037180
20
-28.441260
30
0.0
11
81.037180
21
-29.999980
31
0.0
0
LINE
8
0
6
CONTINUOUS
10
81.037180
20
-29.999980
30
0.0
11
81.980710
21
-29.999980
31
0.0
0
LINE
8
0
6
CONTINUOUS
10
84.811330
20
-29.999980
30
0.0
11
84.811330
21
-28.441259
31
0.0
0
LINE
8
0
6
CONTINUOUS
10
83.867790
20
-29.999980
30
0.0
11
84.811330
21
-29.999980
31
0.0
0
LINE
8
0
6
CONTINUOUS
10
81.980710
20
-28.441260
30
0.0
11
81.980710
21
-29.999980
31
0.0
0
LINE
8
0
6
CONTINUOUS
10
83.867790
20
-29.999980
30
0.0
11
83.867790
21
-28.441260
31
0.0
0
LINE
8
0
6
CONTINUOUS
10
81.980710
20
-29.999980
30
0.0
11
83.867790
21
-29.999980
31
0.0
0
LINE
8
0
6
CONTINUOUS
10
89.441130
20
-28.441256
30
0.0
11
89.441130
21
-29.999980
31
0.0
0
LINE
8
0
6
CONTINUOUS
10
89.441130
20
-29.999980
30
0.0
11
90.384660
21
-29.999980
31
0.0
0
LINE
8
0
6
CONTINUOUS
10
93.215280
20
-29.999980
30
0.0
11
93.215280
21
-28.441253
31
0.0
0
LINE
8
0
6
CONTINUOUS
10
92.271740
20
-29.999980
30
0.0
11
93.215280
21
-29.999980
31
0.0
0
LINE
8
0
6
CONTINUOUS
10
90.384655
20
-28.441255
30
0.0
11
90.384660
21
-29.999980
31
0.0
0
LINE
8
0
6
CONTINUOUS
10
92.271740
20
-29.999980
30
0.0
11
92.271740
21
-28.441254
31
0.0
0
LINE
8
0
6
CONTINUOUS
10
90.384660
20
-29.999980
30
0.0
11
92.271740
21
-29.999980
31
0.0
0
LINE
8
0
6
CONTINUOUS
10
95.596240
20
-28.441252
30
0.0
11
95.596240
21
-29.999980
31
0.0
0
LINE
8
0
6
CONTINUOUS
10
95.596240
20
-29.999980
30
0.0
11
96.539770
21
-29.999990
31
0.0
0
LINE
8
0
6
CONTINUOUS
10
99.370390
20
-29.999980
30
0.0
11
99.370390
21
-28.441250
31
0.0
0
LINE
8
0
6
CONTINUOUS
10
98.426850
20
-29.999980
30
0.0
11
99.370390
21
-29.999980
31
0.0
0
LINE
8
0
6
CONTINUOUS
10
96.539765
20
-28.441251
30
0.0
11
96.539770
21
-29.999990
31
0.0
0
LINE
8
0
6
CONTINUOUS
10
96.539770
20
-29.999990
30
0.0
11
98.426850
21
-29.999980
31
0.0
0
LINE
8
0
6
CONTINUOUS
10
99.351010
20
-29.999990
30
0.0
11
100.294540
21
-29.999990
31
0.0
0
LINE
8
0
6
CONTINUOUS
10
103.125160
20
-29.999980
30
0.0
11
103.125160
21
-28.441250
31
0.0
0
LINE
8
0
6
CONTINUOUS
10
102.181620
20
-29.999980
30
0.0
11
103.125160
21
-29.999980
31
0.0
0
LINE
8
0
6
CONTINUOUS
10
100.294535
20
-28.441250
30
0.0
11
100.294540
21
-29.999990
31
0.0
0
LINE
8
0
6
CONTINUOUS
10
102.181620
20
-29.999980
30
0.0
11
102.181620
21
-28.441250
31
0.0
0
LINE
8
0
6
CONTINUOUS
10
100.294540
20
-29.999990
30
0.0
11
102.181620
21
-29.999980
31
0.0
0
LINE
8
0
6
CONTINUOUS
10
104.387100
20
-29.999980
30
0.0
11
104.387100
21
-28.441250
31
0.0
0
LINE
8
0
6
CONTINUOUS
10
103.443560
20
-29.999990
30
0.0
11
104.387100
21
-29.999980
31
0.0
0
LINE
8
0
6
CONTINUOUS
10
103.443560
20
-29.999990
30
0.0
11
103.443560
21
-28.441250
31
0.0
0
LINE
8
0
6
CONTINUOUS
10
-104.387050
20
-28.441250
30
0.0
11
-104.387050
21
-29.999990
31
0.0
0
LINE
8
0
6
CONTINUOUS
10
-104.387050
20
-29.999990
30
0.0
11
-103.443520
21
-29.999990
31
0.0
0
LINE
8
0
6
CONTINUOUS
10
-103.443525
20
-28.441250
30
0.0
11
-103.443520
21
-29.999990
31
0.0
0
LINE
8
0
6
CONTINUOUS
10
-103.125120
20
-28.441250
30
0.0
11
-103.125120
21
-29.999990
31
0.0
0
LINE
8
0
6
CONTINUOUS
10
-103.125120
20
-29.999990
30
0.0
11
-102.181590
21
-29.999990
31
0.0
0
LINE
8
0
6
CONTINUOUS
10
-100.294510
20
-29.999980
30
0.0
11
-99.350970
21
-29.999980
31
0.0
0
LINE
8
0
6
CONTINUOUS
10
-102.181595
20
-28.441250
30
0.0
11
-102.181590
21
-29.999990
31
0.0
0
LINE
8
0
6
CONTINUOUS
10
-100.294510
20
-29.999980
30
0.0
11
-100.294510
21
-28.441250
31
0.0
0
LINE
8
0
6
CONTINUOUS
10
-102.181590
20
-29.999990
30
0.0
11
-100.294510
21
-29.999980
31
0.0
0
LINE
8
0
6
CONTINUOUS
10
-99.370370
20
-28.441250
30
0.0
11
-99.370370
21
-29.999980
31
0.0
0
LINE
8
0
6
CONTINUOUS
10
-99.370370
20
-29.999980
30
0.0
11
-98.426830
21
-29.999990
31
0.0
0
LINE
8
0
6
CONTINUOUS
10
-95.596210
20
-29.999980
30
0.0
11
-95.596210
21
-28.441252
31
0.0
0
LINE
8
0
6
CONTINUOUS
10
-96.539750
20
-29.999980
30
0.0
11
-95.596210
21
-29.999980
31
0.0
0
LINE
8
0
6
CONTINUOUS
10
-96.539750
20
-29.999980
30
0.0
11
-96.539750
21
-28.441251
31
0.0
0
LINE
8
0
6
CONTINUOUS
10
-98.426830
20
-29.999990
30
0.0
11
-96.539750
21
-29.999980
31
0.0
0
LINE
8
0
6
CONTINUOUS
10
-93.215230
20
-28.441253
30
0.0
11
-93.215230
21
-29.999980
31
0.0
0
LINE
8
0
6
CONTINUOUS
10
-93.215230
20
-29.999980
30
0.0
11
-92.271690
21
-29.999980
31
0.0
0
LINE
8
0
6
CONTINUOUS
10
-89.441070
20
-29.999980
30
0.0
11
-89.441070
21
-28.441256
31
0.0
0
LINE
8
0
6
CONTINUOUS
10
-90.384620
20
-29.999980
30
0.0
11
-89.441070
21
-29.999980
31
0.0
0
LINE
8
0
6
CONTINUOUS
10
-92.271695
20
-28.441254
30
0.0
11
-92.271690
21
-29.999980
31
0.0
0
LINE
8
0
6
CONTINUOUS
10
-90.384620
20
-29.999980
30
0.0
11
-90.384620
21
-28.441255
31
0.0
0
LINE
8
0
6
CONTINUOUS
10
-92.271690
20
-29.999980
30
0.0
11
-90.384620
21
-29.999980
31
0.0
0
LINE
8
0
6
CONTINUOUS
10
-84.811310
20
-28.441259
30
0.0
11
-84.811310
21
-29.999980
31
0.0
0
LINE
8
0
6
CONTINUOUS
10
-84.811310
20
-29.999980
30
0.0
11
-83.867770
21
-29.999980
31
0.0
0
LINE
8
0
6
CONTINUOUS
10
-81.037150
20
-29.999980
30
0.0
11
-81.037150
21
-28.441260
31
0.0
0
LINE
8
0
6
CONTINUOUS
10
-81.980700
20
-29.999980
30
0.0
11
-81.037150
21
-29.999980
31
0.0
0
LINE
8
0
6
CONTINUOUS
10
-83.867775
20
-28.441260
30
0.0
11
-83.867770
21
-29.999980
31
0.0
0
LINE
8
0
6
CONTINUOUS
10
-81.980700
20
-29.999980
30
0.0
11
-81.980700
21
-28.441260
31
0.0
0
LINE
8
0
6
CONTINUOUS
10
-83.867770
20
-29.999980
30
0.0
11
-81.980700
21
-29.999980
31
0.0
0
LINE
8
0
6
CONTINUOUS
10
-74.365530
20
-28.441260
30
0.0
11
-74.365530
21
-29.999980
31
0.0
0
LINE
8
0
6
CONTINUOUS
10
-74.365530
20
-29.999980
30
0.0
11
-73.422000
21
-29.999980
31
0.0
0
LINE
8
0
6
CONTINUOUS
10
-70.591370
20
-29.999970
30
0.0
11
-70.591375
21
-28.441260
31
0.0
0
LINE
8
0
6
CONTINUOUS
10
-71.534920
20
-29.999980
30
0.0
11
-70.591370
21
-29.999970
31
0.0
0
LINE
8
0
6
CONTINUOUS
10
-73.422000
20
-28.441260
30
0.0
11
-73.422000
21
-29.999980
31
0.0
0
LINE
8
0
6
CONTINUOUS
10
-71.534920
20
-29.999980
30
0.0
11
-71.534920
21
-28.441260
31
0.0
0
LINE
8
0
6
CONTINUOUS
10
-73.422000
20
-29.999980
30
0.0
11
-71.534920
21
-29.999980
31
0.0
0
LINE
8
0
6
CONTINUOUS
10
-62.135075
20
-28.441260
30
0.0
11
-62.135070
21
-29.999980
31
0.0
0
LINE
8
0
6
CONTINUOUS
10
-62.135070
20
-29.999980
30
0.0
11
-61.191540
21
-29.999980
31
0.0
0
LINE
8
0
6
CONTINUOUS
10
-58.360920
20
-29.999970
30
0.0
11
-58.360920
21
-28.441260
31
0.0
0
LINE
8
0
6
CONTINUOUS
10
-59.304470
20
-29.999980
30
0.0
11
-58.360920
21
-29.999970
31
0.0
0
LINE
8
0
6
CONTINUOUS
10
-61.191545
20
-28.441260
30
0.0
11
-61.191540
21
-29.999980
31
0.0
0
LINE
8
0
6
CONTINUOUS
10
-59.304470
20
-29.999980
30
0.0
11
-59.304470
21
-28.441260
31
0.0
0
LINE
8
0
6
CONTINUOUS
10
-61.191540
20
-29.999980
30
0.0
11
-59.304470
21
-29.999980
31
0.0
0
LINE
8
0
6
CONTINUOUS
10
-48.421115
20
-28.441260
30
0.0
11
-48.421110
21
-29.999980
31
0.0
0
LINE
8
0
6
CONTINUOUS
10
-48.421110
20
-29.999980
30
0.0
11
-47.477580
21
-29.999980
31
0.0
0
LINE
8
0
6
CONTINUOUS
10
-44.646950
20
-29.999970
30
0.0
11
-44.646955
21
-28.441260
31
0.0
0
LINE
8
0
6
CONTINUOUS
10
-45.590500
20
-29.999980
30
0.0
11
-44.646950
21
-29.999970
31
0.0
0
LINE
8
0
6
CONTINUOUS
10
-47.477580
20
-28.441260
30
0.0
11
-47.477580
21
-29.999980
31
0.0
0
LINE
8
0
6
CONTINUOUS
10
-45.590500
20
-29.999980
30
0.0
11
-45.590505
21
-28.441260
31
0.0
0
LINE
8
0
6
CONTINUOUS
10
-47.477580
20
-29.999980
30
0.0
11
-45.590500
21
-29.999980
31
0.0
0
LINE
8
0
6
CONTINUOUS
10
-33.561310
20
-28.441260
30
0.0
11
-33.561310
21
-29.999980
31
0.0
0
LINE
8
0
6
CONTINUOUS
10
-33.561310
20
-29.999980
30
0.0
11
-32.617780
21
-29.999980
31
0.0
0
LINE
8
0
6
CONTINUOUS
10
-29.787150
20
-29.999970
30
0.0
11
-29.787155
21
-28.441260
31
0.0
0
LINE
8
0
6
CONTINUOUS
10
-30.730700
20
-29.999980
30
0.0
11
-29.787150
21
-29.999970
31
0.0
0
LINE
8
0
6
CONTINUOUS
10
-32.617780
20
-28.441260
30
0.0
11
-32.617780
21
-29.999980
31
0.0
0
LINE
8
0
6
CONTINUOUS
10
-30.730700
20
-29.999980
30
0.0
11
-30.730700
21
-28.441260
31
0.0
0
LINE
8
0
6
CONTINUOUS
10
-32.617780
20
-29.999980
30
0.0
11
-30.730700
21
-29.999980
31
0.0
0
LINE
8
0
6
CONTINUOUS
10
-17.921605
20
-28.441260
30
0.0
11
-17.921600
21
-29.999980
31
0.0
0
LINE
8
0
6
CONTINUOUS
10
-17.921600
20
-29.999980
30
0.0
11
-16.978070
21
-29.999980
31
0.0
0
LINE
8
0
6
CONTINUOUS
10
-14.147450
20
-29.999970
30
0.0
11
-14.147450
21
-28.441260
31
0.0
0
LINE
8
0
6
CONTINUOUS
10
-15.090990
20
-29.999980
30
0.0
11
-14.147450
21
-29.999970
31
0.0
0
LINE
8
0
6
CONTINUOUS
10
-16.978075
20
-28.441260
30
0.0
11
-16.978070
21
-29.999980
31
0.0
0
LINE
8
0
6
CONTINUOUS
10
-15.090990
20
-29.999980
30
0.0
11
-15.090995
21
-28.441260
31
0.0
0
LINE
8
0
6
CONTINUOUS
10
-16.978070
20
-29.999980
30
0.0
11
-15.090990
21
-29.999980
31
0.0
0
LINE
8
0
6
CONTINUOUS
10
20.448767
20
-28.441260
30
0.0
11
20.448770
21
-29.502470
31
0.0
0
LINE
8
0
6
CONTINUOUS
10
20.448770
20
-29.502470
30
0.0
11
21.392300
21
-29.502470
31
0.0
0
LINE
8
0
6
CONTINUOUS
10
21.392300
20
-28.441260
30
0.0
11
21.392300
21
-29.502470
31
0.0
0
LINE
8
0
6
CONTINUOUS
10
21.392300
20
-29.502470
30
0.0
11
23.279380
21
-29.502470
31
0.0
0
ENDSEC
0
EOF
