999
Erzeugt mit innoplus bad 
0
SECTION
2
HEADER
9
$ACADVER
1
AC1009
9
$DWGCODEPAGE
3
ISO8859-1
0
ENDSEC
0
SECTION
2
TABLES
0
TABLE
2
LAYER
70
1
0
LAYER
2
0
70
0
62
7
6
CONTINUOUS
0
ENDTAB
0
ENDSEC
0
SECTION
2
ENTITIES
0
LINE
8
0
6
CONTINUOUS
10
-232.284424
20
830.360082
30
0.0
11
-234.167039
21
819.716747
31
0.0
0
LINE
8
0
6
CONTINUOUS
10
1.242341
20
778.336732
30
0.0
11
3.124956
21
788.980147
31
0.0
0
LINE
8
0
6
CONTINUOUS
10
1.069064
20
777.357119
30
0.0
11
1.242341
21
778.336732
31
0.0
0
LINE
8
0
6
CONTINUOUS
10
-1.192605
20
777.754715
30
0.0
11
1.069064
21
777.357119
31
0.0
0
LINE
8
0
6
CONTINUOUS
10
3.124956
20
788.980147
30
0.0
11
3.298222
21
789.959760
31
0.0
0
LINE
8
0
6
CONTINUOUS
10
1.036553
20
790.357276
30
0.0
11
3.298222
21
789.959760
31
0.0
0
LINE
8
0
6
CONTINUOUS
10
-7.890698
20
778.932096
30
0.0
11
-1.192605
21
777.754715
31
0.0
0
LINE
8
0
6
CONTINUOUS
10
-5.661541
20
791.534657
30
0.0
11
1.036553
21
790.357276
31
0.0
0
LINE
8
0
6
CONTINUOUS
10
-18.767793
20
780.844037
30
0.0
11
-7.890698
21
778.932096
31
0.0
0
LINE
8
0
6
CONTINUOUS
10
-5.661541
20
791.534657
30
0.0
11
-16.538636
21
793.446668
31
0.0
0
LINE
8
0
6
CONTINUOUS
10
-33.405897
20
783.417080
30
0.0
11
-18.767793
21
780.844037
31
0.0
0
LINE
8
0
6
CONTINUOUS
10
-16.538636
20
793.446668
30
0.0
11
-31.176739
21
796.019722
31
0.0
0
LINE
8
0
6
CONTINUOUS
10
-51.242479
20
786.552388
30
0.0
11
-33.405897
21
783.417080
31
0.0
0
LINE
8
0
6
CONTINUOUS
10
-31.176739
20
796.019722
30
0.0
11
-49.013321
21
799.155029
31
0.0
0
LINE
8
0
6
CONTINUOUS
10
-71.592076
20
790.129457
30
0.0
11
-51.242479
21
786.552388
31
0.0
0
LINE
8
0
6
CONTINUOUS
10
-49.013321
20
799.155029
30
0.0
11
-69.362938
21
802.732019
31
0.0
0
LINE
8
0
6
CONTINUOUS
10
-71.592076
20
790.129457
30
0.0
11
-93.672682
21
794.010761
31
0.0
0
LINE
8
0
6
CONTINUOUS
10
-69.362938
20
802.732019
30
0.0
11
-91.443524
21
806.613322
31
0.0
0
LINE
8
0
6
CONTINUOUS
10
-93.672682
20
794.010761
30
0.0
11
-116.635746
21
798.047126
31
0.0
0
LINE
8
0
6
CONTINUOUS
10
-91.443524
20
806.613322
30
0.0
11
-114.406588
21
810.649758
31
0.0
0
LINE
8
0
6
CONTINUOUS
10
-139.598809
20
802.083572
30
0.0
11
-116.635746
21
798.047126
31
0.0
0
LINE
8
0
6
CONTINUOUS
10
-137.369652
20
814.686123
30
0.0
11
-114.406588
21
810.649758
31
0.0
0
LINE
8
0
6
CONTINUOUS
10
-161.679376
20
805.964876
30
0.0
11
-139.598809
21
802.083572
31
0.0
0
LINE
8
0
6
CONTINUOUS
10
-159.450218
20
818.567427
30
0.0
11
-137.369652
21
814.686123
31
0.0
0
LINE
8
0
6
CONTINUOUS
10
-182.028983
20
809.541865
30
0.0
11
-161.679376
21
805.964876
31
0.0
0
LINE
8
0
6
CONTINUOUS
10
-159.450218
20
818.567427
30
0.0
11
-179.799815
21
822.144496
31
0.0
0
LINE
8
0
6
CONTINUOUS
10
-199.865535
20
812.677172
30
0.0
11
-182.028983
21
809.541865
31
0.0
0
LINE
8
0
6
CONTINUOUS
10
-179.799815
20
822.144496
30
0.0
11
-197.636377
21
825.279804
31
0.0
0
LINE
8
0
6
CONTINUOUS
10
-214.503608
20
815.250216
30
0.0
11
-199.865535
21
812.677172
31
0.0
0
LINE
8
0
6
CONTINUOUS
10
-197.636377
20
825.279804
30
0.0
11
-212.274450
21
827.852857
31
0.0
0
LINE
8
0
6
CONTINUOUS
10
-225.380663
20
817.162157
30
0.0
11
-214.522101
21
815.253467
31
0.0
0
LINE
8
0
6
CONTINUOUS
10
-212.274450
20
827.852857
30
0.0
11
-223.151505
21
829.764788
31
0.0
0
LINE
8
0
6
CONTINUOUS
10
-232.078696
20
818.339538
30
0.0
11
-225.380663
21
817.162157
31
0.0
0
LINE
8
0
6
CONTINUOUS
10
-229.849528
20
830.942170
30
0.0
11
-223.151505
21
829.764788
31
0.0
0
LINE
8
0
6
CONTINUOUS
10
-234.340285
20
818.737134
30
0.0
11
-232.078696
21
818.339538
31
0.0
0
LINE
8
0
6
CONTINUOUS
10
-234.167039
20
819.716747
30
0.0
11
-234.340285
21
818.737134
31
0.0
0
LINE
8
0
6
CONTINUOUS
10
-232.111127
20
831.339695
30
0.0
11
-232.284424
21
830.360082
31
0.0
0
LINE
8
0
6
CONTINUOUS
10
-229.849528
20
830.942170
30
0.0
11
-232.111127
21
831.339695
31
0.0
0
LINE
8
0
6
CONTINUOUS
10
-125.827429
20
838.482917
30
0.0
11
-126.000716
21
837.503304
31
0.0
0
LINE
8
0
6
CONTINUOUS
10
-124.620842
20
838.270803
30
0.0
11
-125.827429
21
838.482917
31
0.0
0
LINE
8
0
6
CONTINUOUS
10
-124.620842
20
838.270803
30
0.0
11
-124.794099
21
837.291190
31
0.0
0
LINE
8
0
6
CONTINUOUS
10
-121.184686
20
837.666822
30
0.0
11
-124.620842
21
838.270803
31
0.0
0
LINE
8
0
6
CONTINUOUS
10
-116.042190
20
836.762876
30
0.0
11
-121.184686
21
837.666822
31
0.0
0
LINE
8
0
6
CONTINUOUS
10
-109.976161
20
835.696620
30
0.0
11
-116.042190
21
836.762876
31
0.0
0
LINE
8
0
6
CONTINUOUS
10
-103.910162
20
834.630284
30
0.0
11
-109.976161
21
835.696620
31
0.0
0
LINE
8
0
6
CONTINUOUS
10
-98.767625
20
833.726407
30
0.0
11
-103.910162
21
834.630284
31
0.0
0
LINE
8
0
6
CONTINUOUS
10
-95.331509
20
833.122346
30
0.0
11
-98.767625
21
833.726407
31
0.0
0
LINE
8
0
6
CONTINUOUS
10
-95.331509
20
833.122346
30
0.0
11
-95.504765
21
832.142733
31
0.0
0
LINE
8
0
6
CONTINUOUS
10
-94.124892
20
832.910323
30
0.0
11
-95.331509
21
833.122346
31
0.0
0
LINE
8
0
6
CONTINUOUS
10
-94.298178
20
831.930710
30
0.0
11
-94.124892
21
832.910323
31
0.0
0
LINE
8
0
6
CONTINUOUS
10
-94.066438
20
814.488125
30
0.0
11
-94.298178
21
831.930710
31
0.0
0
LINE
8
0
6
CONTINUOUS
10
-126.000716
20
837.503304
30
0.0
11
-132.202897
21
821.191655
31
0.0
0
LINE
8
0
6
CONTINUOUS
10
-100.793312
20
841.285689
30
0.0
11
-98.357002
21
840.857433
31
0.0
0
LINE
8
0
6
CONTINUOUS
10
-96.161900
20
853.267484
30
0.0
11
-98.357002
21
840.857433
31
0.0
0
LINE
8
0
6
CONTINUOUS
10
-97.501491
20
840.707100
30
0.0
11
-95.306378
21
853.117081
31
0.0
0
LINE
8
0
6
CONTINUOUS
10
-98.357002
20
840.857433
30
0.0
11
-97.501491
21
840.707100
31
0.0
0
LINE
8
0
6
CONTINUOUS
10
-113.041446
20
843.438634
30
0.0
11
-108.740462
21
842.682651
31
0.0
0
LINE
8
0
6
CONTINUOUS
10
-108.740462
20
842.682651
30
0.0
11
-104.439488
21
841.926658
31
0.0
0
LINE
8
0
6
CONTINUOUS
10
-117.784330
20
857.068243
30
0.0
11
-119.979442
21
844.658192
31
0.0
0
LINE
8
0
6
CONTINUOUS
10
-119.979442
20
844.658192
30
0.0
11
-119.123921
21
844.507869
31
0.0
0
LINE
8
0
6
CONTINUOUS
10
-116.928849
20
856.917921
30
0.0
11
-119.123921
21
844.507869
31
0.0
0
LINE
8
0
6
CONTINUOUS
10
-119.123921
20
844.507869
30
0.0
11
-116.687621
21
844.079613
31
0.0
0
LINE
8
0
6
CONTINUOUS
10
-104.439488
20
841.926658
30
0.0
11
-100.793312
21
841.285689
31
0.0
0
LINE
8
0
6
CONTINUOUS
10
-116.687621
20
844.079613
30
0.0
11
-113.041446
21
843.438634
31
0.0
0
LINE
8
0
6
CONTINUOUS
10
-95.306378
20
853.117081
30
0.0
11
-95.219765
21
853.606888
31
0.0
0
LINE
8
0
6
CONTINUOUS
10
-96.075287
20
853.757291
30
0.0
11
-95.219765
21
853.606888
31
0.0
0
LINE
8
0
6
CONTINUOUS
10
-96.161900
20
853.267484
30
0.0
11
-96.075287
21
853.757291
31
0.0
0
LINE
8
0
6
CONTINUOUS
10
-98.511596
20
854.185547
30
0.0
11
-96.075287
21
853.757291
31
0.0
0
LINE
8
0
6
CONTINUOUS
10
-117.697727
20
857.558050
30
0.0
11
-117.784330
21
857.068243
31
0.0
0
LINE
8
0
6
CONTINUOUS
10
-116.842205
20
857.407647
30
0.0
11
-117.697727
21
857.558050
31
0.0
0
LINE
8
0
6
CONTINUOUS
10
-102.157772
20
854.826446
30
0.0
11
-106.458746
21
855.582509
31
0.0
0
LINE
8
0
6
CONTINUOUS
10
-110.759720
20
856.338492
30
0.0
11
-106.458746
21
855.582509
31
0.0
0
LINE
8
0
6
CONTINUOUS
10
-116.842205
20
857.407647
30
0.0
11
-116.928849
21
856.917921
31
0.0
0
LINE
8
0
6
CONTINUOUS
10
-114.405896
20
856.979471
30
0.0
11
-116.842205
21
857.407647
31
0.0
0
LINE
8
0
6
CONTINUOUS
10
-102.157772
20
854.826446
30
0.0
11
-98.511596
21
854.185547
31
0.0
0
LINE
8
0
6
CONTINUOUS
10
-114.405896
20
856.979471
30
0.0
11
-114.492549
21
856.489665
31
0.0
0
LINE
8
0
6
CONTINUOUS
10
-110.759720
20
856.338492
30
0.0
11
-114.405896
21
856.979471
31
0.0
0
LINE
8
0
6
CONTINUOUS
10
-113.041446
20
843.438634
30
0.0
11
-116.687621
21
844.079613
31
0.0
0
LINE
8
0
6
CONTINUOUS
10
-115.389146
20
842.207410
30
0.0
11
-112.468086
21
841.693961
31
0.0
0
LINE
8
0
6
CONTINUOUS
10
-100.793312
20
841.285689
30
0.0
11
-104.439488
21
841.926658
31
0.0
0
LINE
8
0
6
CONTINUOUS
10
-105.576870
20
840.482560
30
0.0
11
-102.655800
21
839.969111
31
0.0
0
LINE
8
0
6
CONTINUOUS
10
-116.687621
20
844.079613
30
0.0
11
-119.123921
21
844.507869
31
0.0
0
LINE
8
0
6
CONTINUOUS
10
-117.340966
20
842.550472
30
0.0
11
-115.389146
21
842.207410
31
0.0
0
LINE
8
0
6
CONTINUOUS
10
-119.979442
20
844.658192
30
0.0
11
-118.026330
21
842.670975
31
0.0
0
LINE
8
0
6
CONTINUOUS
10
-119.123921
20
844.507869
30
0.0
11
-119.979442
21
844.658192
31
0.0
0
LINE
8
0
6
CONTINUOUS
10
-118.026330
20
842.670975
30
0.0
11
-117.340966
21
842.550472
31
0.0
0
LINE
8
0
6
CONTINUOUS
10
-104.439488
20
841.926658
30
0.0
11
-108.740462
21
842.682651
31
0.0
0
LINE
8
0
6
CONTINUOUS
10
-109.022473
20
841.088220
30
0.0
11
-105.576870
21
840.482560
31
0.0
0
LINE
8
0
6
CONTINUOUS
10
-108.740462
20
842.682651
30
0.0
11
-113.041446
21
843.438634
31
0.0
0
LINE
8
0
6
CONTINUOUS
10
-112.468086
20
841.693961
30
0.0
11
-109.022473
21
841.088220
31
0.0
0
LINE
8
0
6
CONTINUOUS
10
-97.501491
20
840.707100
30
0.0
11
-98.357002
21
840.857433
31
0.0
0
LINE
8
0
6
CONTINUOUS
10
-100.018627
20
839.505546
30
0.0
11
-97.501491
21
840.707100
31
0.0
0
LINE
8
0
6
CONTINUOUS
10
-100.704031
20
839.626049
30
0.0
11
-100.018627
21
839.505546
31
0.0
0
LINE
8
0
6
CONTINUOUS
10
-98.357002
20
840.857433
30
0.0
11
-100.793312
21
841.285689
31
0.0
0
LINE
8
0
6
CONTINUOUS
10
-102.655800
20
839.969111
30
0.0
11
-100.704031
21
839.626049
31
0.0
0
LINE
8
0
6
CONTINUOUS
10
-101.322868
20
836.127315
30
0.0
11
-103.200700
21
836.888646
31
0.0
0
LINE
8
0
6
CONTINUOUS
10
-100.637504
20
836.006803
30
0.0
11
-101.322868
21
836.127315
31
0.0
0
LINE
8
0
6
CONTINUOUS
10
-98.737180
20
833.720989
30
0.0
11
-100.637504
21
836.006803
31
0.0
0
LINE
8
0
6
CONTINUOUS
10
-109.641361
20
837.589487
30
0.0
11
-113.086963
21
838.195147
31
0.0
0
LINE
8
0
6
CONTINUOUS
10
-106.195708
20
836.983826
30
0.0
11
-109.641361
21
837.589487
31
0.0
0
LINE
8
0
6
CONTINUOUS
10
-118.645167
20
839.172171
30
0.0
11
-121.215141
21
837.672161
31
0.0
0
LINE
8
0
6
CONTINUOUS
10
-117.959803
20
839.051739
30
0.0
11
-118.645167
21
839.172171
31
0.0
0
LINE
8
0
6
CONTINUOUS
10
-116.008034
20
838.708596
30
0.0
11
-117.959803
21
839.051739
31
0.0
0
LINE
8
0
6
CONTINUOUS
10
-103.200700
20
836.888646
30
0.0
11
-106.195708
21
836.983826
31
0.0
0
LINE
8
0
6
CONTINUOUS
10
-113.086963
20
838.195147
30
0.0
11
-116.008034
21
838.708596
31
0.0
0
LINE
8
0
6
CONTINUOUS
10
-100.704031
20
839.626049
30
0.0
11
-102.655800
21
839.969111
31
0.0
0
LINE
8
0
6
CONTINUOUS
10
-101.322868
20
836.127315
30
0.0
11
-100.637504
21
836.006803
31
0.0
0
LINE
8
0
6
CONTINUOUS
10
-100.704031
20
839.626049
30
0.0
11
-101.322868
21
836.127315
31
0.0
0
LINE
8
0
6
CONTINUOUS
10
-100.018627
20
839.505546
30
0.0
11
-100.704031
21
839.626049
31
0.0
0
LINE
8
0
6
CONTINUOUS
10
-100.637504
20
836.006803
30
0.0
11
-100.018627
21
839.505546
31
0.0
0
LINE
8
0
6
CONTINUOUS
10
-113.086963
20
838.195147
30
0.0
11
-109.641361
21
837.589487
31
0.0
0
LINE
8
0
6
CONTINUOUS
10
-109.022473
20
841.088220
30
0.0
11
-112.468086
21
841.693961
31
0.0
0
LINE
8
0
6
CONTINUOUS
10
-109.641361
20
837.589487
30
0.0
11
-106.195708
21
836.983826
31
0.0
0
LINE
8
0
6
CONTINUOUS
10
-105.576870
20
840.482560
30
0.0
11
-109.022473
21
841.088220
31
0.0
0
LINE
8
0
6
CONTINUOUS
10
-118.645167
20
839.172171
30
0.0
11
-117.959803
21
839.051739
31
0.0
0
LINE
8
0
6
CONTINUOUS
10
-118.026330
20
842.670975
30
0.0
11
-118.645167
21
839.172171
31
0.0
0
LINE
8
0
6
CONTINUOUS
10
-117.340966
20
842.550472
30
0.0
11
-118.026330
21
842.670975
31
0.0
0
LINE
8
0
6
CONTINUOUS
10
-117.959803
20
839.051739
30
0.0
11
-116.008034
21
838.708596
31
0.0
0
LINE
8
0
6
CONTINUOUS
10
-117.340966
20
842.550472
30
0.0
11
-117.959803
21
839.051739
31
0.0
0
LINE
8
0
6
CONTINUOUS
10
-115.389146
20
842.207410
30
0.0
11
-117.340966
21
842.550472
31
0.0
0
LINE
8
0
6
CONTINUOUS
10
-102.655800
20
839.969111
30
0.0
11
-105.576870
21
840.482560
31
0.0
0
LINE
8
0
6
CONTINUOUS
10
-116.008034
20
838.708596
30
0.0
11
-113.086963
21
838.195147
31
0.0
0
LINE
8
0
6
CONTINUOUS
10
-112.468086
20
841.693961
30
0.0
11
-115.389146
21
842.207410
31
0.0
0
LINE
8
0
6
CONTINUOUS
10
-132.202897
20
821.191655
30
0.0
11
-133.290320
21
819.296648
31
0.0
0
LINE
8
0
6
CONTINUOUS
10
-93.694754
20
812.336549
30
0.0
11
-94.066438
21
814.488125
31
0.0
0
LINE
8
0
6
CONTINUOUS
10
-99.493392
20
813.355820
30
0.0
11
-105.916263
21
814.484846
31
0.0
0
LINE
8
0
6
CONTINUOUS
10
-133.290320
20
819.296648
30
0.0
11
-135.894440
21
818.068243
31
0.0
0
LINE
8
0
6
CONTINUOUS
10
-131.783329
20
819.031761
30
0.0
11
-133.290320
21
819.296648
31
0.0
0
LINE
8
0
6
CONTINUOUS
10
-113.492542
20
815.816599
30
0.0
11
-121.068811
21
817.148352
31
0.0
0
LINE
8
0
6
CONTINUOUS
10
-95.201785
20
812.601516
30
0.0
11
-99.493392
21
813.355820
31
0.0
0
LINE
8
0
6
CONTINUOUS
10
-105.916263
20
814.484846
30
0.0
11
-113.492542
21
815.816599
31
0.0
0
LINE
8
0
6
CONTINUOUS
10
-121.068811
20
817.148352
30
0.0
11
-127.491681
21
818.277378
31
0.0
0
LINE
8
0
6
CONTINUOUS
10
-91.669148
20
810.294419
30
0.0
11
-93.694754
21
812.336549
31
0.0
0
LINE
8
0
6
CONTINUOUS
10
-93.694754
20
812.336549
30
0.0
11
-95.201785
21
812.601516
31
0.0
0
LINE
8
0
6
CONTINUOUS
10
-127.491681
20
818.277378
30
0.0
11
-131.783329
21
819.031761
31
0.0
0
LINE
8
0
6
CONTINUOUS
10
-82.172820
20
804.983761
30
0.0
11
-91.669148
21
810.294419
31
0.0
0
LINE
8
0
6
CONTINUOUS
10
-135.894440
20
818.068243
30
0.0
11
-146.640195
21
816.315760
31
0.0
0
LINE
8
0
6
CONTINUOUS
10
-73.879728
20
789.454319
30
0.0
11
-73.694932
21
790.499070
31
0.0
0
LINE
8
0
6
CONTINUOUS
10
-75.493679
20
789.737960
30
0.0
11
-73.879728
21
789.454319
31
0.0
0
LINE
8
0
6
CONTINUOUS
10
-62.867443
20
787.518585
30
0.0
11
-62.682646
21
788.563346
31
0.0
0
LINE
8
0
6
CONTINUOUS
10
-62.867443
20
787.518585
30
0.0
11
-64.481414
21
787.802306
31
0.0
0
LINE
8
0
6
CONTINUOUS
10
-52.954736
20
785.776121
30
0.0
11
-52.769945
21
786.820887
31
0.0
0
LINE
8
0
6
CONTINUOUS
10
-54.568706
20
786.059842
30
0.0
11
-52.954736
21
785.776121
31
0.0
0
LINE
8
0
6
CONTINUOUS
10
-52.899561
20
785.766434
30
0.0
11
-52.714769
21
786.811188
31
0.0
0
LINE
8
0
6
CONTINUOUS
10
-47.940357
20
785.971994
30
0.0
11
-48.168489
21
784.682254
31
0.0
0
LINE
8
0
6
CONTINUOUS
10
-48.168489
20
784.682254
30
0.0
11
-46.554518
21
784.398603
31
0.0
0
LINE
8
0
6
CONTINUOUS
10
-42.287951
20
783.648638
30
0.0
11
-42.059841
21
784.938268
31
0.0
0
LINE
8
0
6
CONTINUOUS
10
-43.901922
20
783.932289
30
0.0
11
-42.287951
21
783.648638
31
0.0
0
LINE
8
0
6
CONTINUOUS
10
-41.946573
20
783.588617
30
0.0
11
-41.718461
21
784.878260
31
0.0
0
LINE
8
0
6
CONTINUOUS
10
-34.597251
20
782.044221
30
0.0
11
-34.325829
21
783.578786
31
0.0
0
LINE
8
0
6
CONTINUOUS
10
-36.211202
20
782.327952
30
0.0
11
-34.597251
21
782.044221
31
0.0
0
LINE
8
0
6
CONTINUOUS
10
-37.553719
20
784.146255
30
0.0
11
-37.825163
21
782.611593
31
0.0
0
LINE
8
0
6
CONTINUOUS
10
-36.211202
20
782.327952
30
0.0
11
-35.939779
21
783.862485
31
0.0
0
LINE
8
0
6
CONTINUOUS
10
-37.825163
20
782.611593
30
0.0
11
-36.211202
21
782.327952
31
0.0
0
LINE
8
0
6
CONTINUOUS
10
-32.336404
20
781.646855
30
0.0
11
-32.064978
21
783.181378
31
0.0
0
LINE
8
0
6
CONTINUOUS
10
-33.950355
20
781.930506
30
0.0
11
-32.336404
21
781.646855
31
0.0
0
LINE
8
0
6
CONTINUOUS
10
-33.950355
20
781.930506
30
0.0
11
-33.678927
21
783.465074
31
0.0
0
LINE
8
0
6
CONTINUOUS
10
-131.174159
20
799.525473
30
0.0
11
-129.560208
21
799.241742
31
0.0
0
LINE
8
0
6
CONTINUOUS
10
-119.143285
20
797.410656
30
0.0
11
-118.958485
21
798.455417
31
0.0
0
LINE
8
0
6
CONTINUOUS
10
-108.127711
20
795.474383
30
0.0
11
-106.513751
21
795.190661
31
0.0
0
LINE
8
0
6
CONTINUOUS
10
-138.967878
20
800.895434
30
0.0
11
-137.353927
21
800.611713
31
0.0
0
LINE
8
0
6
CONTINUOUS
10
-123.049551
20
798.097311
30
0.0
11
-122.864762
21
799.142062
31
0.0
0
LINE
8
0
6
CONTINUOUS
10
-110.406500
20
796.952191
30
0.0
11
-110.591287
21
795.907447
31
0.0
0
LINE
8
0
6
CONTINUOUS
10
-94.673000
20
793.109334
30
0.0
11
-96.286951
21
793.393055
31
0.0
0
LINE
8
0
6
CONTINUOUS
10
-152.984241
20
804.436433
30
0.0
11
-153.169045
21
803.391672
31
0.0
0
LINE
8
0
6
CONTINUOUS
10
-142.261996
20
801.474473
30
0.0
11
-142.077200
21
802.519205
31
0.0
0
LINE
8
0
6
CONTINUOUS
10
-126.955857
20
798.783976
30
0.0
11
-126.771058
21
799.828711
31
0.0
0
LINE
8
0
6
CONTINUOUS
10
-165.003648
20
805.471940
30
0.0
11
-164.818863
21
806.516697
31
0.0
0
LINE
8
0
6
CONTINUOUS
10
-166.617599
20
805.755661
30
0.0
11
-165.003648
21
805.471940
31
0.0
0
LINE
8
0
6
CONTINUOUS
10
-157.807536
20
804.207006
30
0.0
11
-156.193545
21
803.923355
31
0.0
0
LINE
8
0
6
CONTINUOUS
10
-130.862163
20
799.470630
30
0.0
11
-130.677365
21
800.515360
31
0.0
0
LINE
8
0
6
CONTINUOUS
10
-102.593919
20
795.578922
30
0.0
11
-102.778715
21
794.534127
31
0.0
0
LINE
8
0
6
CONTINUOUS
10
-88.655508
20
792.051535
30
0.0
11
-87.041557
21
791.767894
31
0.0
0
LINE
8
0
6
CONTINUOUS
10
-181.553453
20
809.458329
30
0.0
11
-181.738247
21
808.413528
31
0.0
0
LINE
8
0
6
CONTINUOUS
10
-180.124296
20
808.129877
30
0.0
11
-179.939502
21
809.174578
31
0.0
0
LINE
8
0
6
CONTINUOUS
10
-180.124296
20
808.129877
30
0.0
11
-181.738247
21
808.413528
31
0.0
0
LINE
8
0
6
CONTINUOUS
10
-173.723196
20
808.081910
30
0.0
11
-173.907995
21
807.037160
31
0.0
0
LINE
8
0
6
CONTINUOUS
10
-164.396128
20
806.442429
30
0.0
11
-164.580931
21
805.397653
31
0.0
0
LINE
8
0
6
CONTINUOUS
10
-150.740347
20
802.964796
30
0.0
11
-149.126366
21
802.681065
31
0.0
0
LINE
8
0
6
CONTINUOUS
10
-152.169501
20
804.293242
30
0.0
11
-152.354308
21
803.248437
31
0.0
0
LINE
8
0
6
CONTINUOUS
10
-150.740347
20
802.964796
30
0.0
11
-150.555554
21
804.009516
31
0.0
0
LINE
8
0
6
CONTINUOUS
10
-152.354308
20
803.248437
30
0.0
11
-150.740347
21
802.964796
31
0.0
0
LINE
8
0
6
CONTINUOUS
10
-134.768429
20
800.157215
30
0.0
11
-134.583640
21
801.201999
31
0.0
0
LINE
8
0
6
CONTINUOUS
10
-136.382420
20
800.440936
30
0.0
11
-134.768429
21
800.157215
31
0.0
0
LINE
8
0
6
CONTINUOUS
10
-137.811564
20
801.769443
30
0.0
11
-137.996371
21
800.724668
31
0.0
0
LINE
8
0
6
CONTINUOUS
10
-136.382420
20
800.440936
30
0.0
11
-136.197620
21
801.485702
31
0.0
0
LINE
8
0
6
CONTINUOUS
10
-137.996371
20
800.724668
30
0.0
11
-136.382420
21
800.440936
31
0.0
0
LINE
8
0
6
CONTINUOUS
10
-119.181342
20
797.417364
30
0.0
11
-118.996554
21
798.462109
31
0.0
0
LINE
8
0
6
CONTINUOUS
10
-120.795333
20
797.701095
30
0.0
11
-119.181342
21
797.417364
31
0.0
0
LINE
8
0
6
CONTINUOUS
10
-122.224481
20
799.029538
30
0.0
11
-122.409284
21
797.984736
31
0.0
0
LINE
8
0
6
CONTINUOUS
10
-120.795333
20
797.701095
30
0.0
11
-120.610539
21
798.745815
31
0.0
0
LINE
8
0
6
CONTINUOUS
10
-122.409284
20
797.984736
30
0.0
11
-120.795333
21
797.701095
31
0.0
0
LINE
8
0
6
CONTINUOUS
10
-103.344534
20
794.633586
30
0.0
11
-103.159734
21
795.678340
31
0.0
0
LINE
8
0
6
CONTINUOUS
10
-104.958484
20
794.917307
30
0.0
11
-103.344534
21
794.633586
31
0.0
0
LINE
8
0
6
CONTINUOUS
10
-106.387631
20
796.245768
30
0.0
11
-106.572435
21
795.200958
31
0.0
0
LINE
8
0
6
CONTINUOUS
10
-104.958484
20
794.917307
30
0.0
11
-104.773689
21
795.962041
31
0.0
0
LINE
8
0
6
CONTINUOUS
10
-106.572435
20
795.200958
30
0.0
11
-104.958484
21
794.917307
31
0.0
0
LINE
8
0
6
CONTINUOUS
10
-88.252998
20
791.980837
30
0.0
11
-88.068210
21
793.025580
31
0.0
0
LINE
8
0
6
CONTINUOUS
10
-89.866988
20
792.264488
30
0.0
11
-88.252998
21
791.980837
31
0.0
0
LINE
8
0
6
CONTINUOUS
10
-91.296130
20
793.593026
30
0.0
11
-91.480939
21
792.548209
31
0.0
0
LINE
8
0
6
CONTINUOUS
10
-89.866988
20
792.264488
30
0.0
11
-89.682184
21
793.309278
31
0.0
0
LINE
8
0
6
CONTINUOUS
10
-91.480939
20
792.548209
30
0.0
11
-89.866988
21
792.264488
31
0.0
0
LINE
8
0
6
CONTINUOUS
10
-74.855076
20
789.625775
30
0.0
11
-74.670282
21
790.670516
31
0.0
0
LINE
8
0
6
CONTINUOUS
10
-76.469047
20
789.909416
30
0.0
11
-74.855076
21
789.625775
31
0.0
0
LINE
8
0
6
CONTINUOUS
10
-76.469047
20
789.909416
30
0.0
11
-76.284247
21
790.954217
31
0.0
0
LINE
8
0
6
CONTINUOUS
10
-78.082998
20
790.193147
30
0.0
11
-76.469047
21
789.909416
31
0.0
0
LINE
8
0
6
CONTINUOUS
10
-191.105744
20
810.060122
30
0.0
11
-189.491753
21
809.776471
31
0.0
0
LINE
8
0
6
CONTINUOUS
10
-191.105744
20
810.060122
30
0.0
11
-190.920944
21
811.104884
31
0.0
0
LINE
8
0
6
CONTINUOUS
10
-186.199541
20
809.197733
30
0.0
11
-184.585560
21
808.914012
31
0.0
0
LINE
8
0
6
CONTINUOUS
10
-186.199541
20
809.197733
30
0.0
11
-186.014747
21
810.242480
31
0.0
0
LINE
8
0
6
CONTINUOUS
10
-179.690299
20
809.130825
30
0.0
11
-179.875106
21
808.086021
31
0.0
0
LINE
8
0
6
CONTINUOUS
10
-178.261115
20
807.802370
30
0.0
11
-178.076335
21
808.847073
31
0.0
0
LINE
8
0
6
CONTINUOUS
10
-178.261115
20
807.802370
30
0.0
11
-179.875106
21
808.086021
31
0.0
0
LINE
8
0
6
CONTINUOUS
10
-166.023501
20
805.651254
30
0.0
11
-165.838709
21
806.695964
31
0.0
0
LINE
8
0
6
CONTINUOUS
10
-167.637462
20
805.934905
30
0.0
11
-166.023501
21
805.651254
31
0.0
0
LINE
8
0
6
CONTINUOUS
10
-169.066619
20
807.263404
30
0.0
11
-169.251413
21
806.218626
31
0.0
0
LINE
8
0
6
CONTINUOUS
10
-167.637462
20
805.934905
30
0.0
11
-167.452676
21
806.979664
31
0.0
0
LINE
8
0
6
CONTINUOUS
10
-169.251413
20
806.218626
30
0.0
11
-167.637462
21
805.934905
31
0.0
0
LINE
8
0
6
CONTINUOUS
10
-153.178913
20
803.393431
30
0.0
11
-152.994117
21
804.438162
31
0.0
0
LINE
8
0
6
CONTINUOUS
10
-154.792863
20
803.677082
30
0.0
11
-153.178913
21
803.393431
31
0.0
0
LINE
8
0
6
CONTINUOUS
10
-156.222027
20
805.005592
30
0.0
11
-156.406814
21
803.960804
31
0.0
0
LINE
8
0
6
CONTINUOUS
10
-154.792863
20
803.677082
30
0.0
11
-154.608064
21
804.721859
31
0.0
0
LINE
8
0
6
CONTINUOUS
10
-156.406814
20
803.960804
30
0.0
11
-154.792863
21
803.677082
31
0.0
0
LINE
8
0
6
CONTINUOUS
10
-138.674735
20
800.843870
30
0.0
11
-138.489934
21
801.888641
31
0.0
0
LINE
8
0
6
CONTINUOUS
10
-140.288686
20
801.127601
30
0.0
11
-138.674735
21
800.843870
31
0.0
0
LINE
8
0
6
CONTINUOUS
10
-141.717842
20
802.456058
30
0.0
11
-141.902637
21
801.411242
31
0.0
0
LINE
8
0
6
CONTINUOUS
10
-140.288686
20
801.127601
30
0.0
11
-140.103886
21
802.172339
31
0.0
0
LINE
8
0
6
CONTINUOUS
10
-141.902637
20
801.411242
30
0.0
11
-140.288686
21
801.127601
31
0.0
0
LINE
8
0
6
CONTINUOUS
10
-123.144879
20
798.114095
30
0.0
11
-122.960082
21
799.158818
31
0.0
0
LINE
8
0
6
CONTINUOUS
10
-124.758830
20
798.397737
30
0.0
11
-123.144879
21
798.114095
31
0.0
0
LINE
8
0
6
CONTINUOUS
10
-126.187987
20
799.726245
30
0.0
11
-126.372780
21
798.681468
31
0.0
0
LINE
8
0
6
CONTINUOUS
10
-124.758830
20
798.397737
30
0.0
11
-124.574027
21
799.442517
31
0.0
0
LINE
8
0
6
CONTINUOUS
10
-126.372780
20
798.681468
30
0.0
11
-124.758830
21
798.397737
31
0.0
0
LINE
8
0
6
CONTINUOUS
10
-107.268058
20
795.323300
30
0.0
11
-107.083275
21
796.368019
31
0.0
0
LINE
8
0
6
CONTINUOUS
10
-110.311195
20
796.935439
30
0.0
11
-110.496000
21
795.890672
31
0.0
0
LINE
8
0
6
CONTINUOUS
10
-108.882049
20
795.606941
30
0.0
11
-108.697246
21
796.651722
31
0.0
0
LINE
8
0
6
CONTINUOUS
10
-110.496000
20
795.890672
30
0.0
11
-108.882049
21
795.606941
31
0.0
0
LINE
8
0
6
CONTINUOUS
10
-107.268058
20
795.323300
30
0.0
11
-108.882049
21
795.606941
31
0.0
0
LINE
8
0
6
CONTINUOUS
10
-91.738242
20
792.593435
30
0.0
11
-91.553442
21
793.638199
31
0.0
0
LINE
8
0
6
CONTINUOUS
10
-93.352192
20
792.877166
30
0.0
11
-91.738242
21
792.593435
31
0.0
0
LINE
8
0
6
CONTINUOUS
10
-94.781343
20
794.205653
30
0.0
11
-94.966143
21
793.160807
31
0.0
0
LINE
8
0
6
CONTINUOUS
10
-93.352192
20
792.877166
30
0.0
11
-93.167394
21
793.921893
31
0.0
0
LINE
8
0
6
CONTINUOUS
10
-94.966143
20
793.160807
30
0.0
11
-93.352192
21
792.877166
31
0.0
0
LINE
8
0
6
CONTINUOUS
10
-77.234034
20
790.043884
30
0.0
11
-77.049238
21
791.088686
31
0.0
0
LINE
8
0
6
CONTINUOUS
10
-78.848005
20
790.327605
30
0.0
11
-77.234034
21
790.043884
31
0.0
0
LINE
8
0
6
CONTINUOUS
10
-78.848005
20
790.327605
30
0.0
11
-78.663212
21
791.372388
31
0.0
0
LINE
8
0
6
CONTINUOUS
10
-80.461956
20
790.611336
30
0.0
11
-78.848005
21
790.327605
31
0.0
0
LINE
8
0
6
CONTINUOUS
10
-64.389426
20
787.786142
30
0.0
11
-64.204636
21
788.830879
31
0.0
0
LINE
8
0
6
CONTINUOUS
10
-66.003397
20
788.069783
30
0.0
11
-64.389426
21
787.786142
31
0.0
0
LINE
8
0
6
CONTINUOUS
10
-66.003397
20
788.069783
30
0.0
11
-65.818601
21
789.114580
31
0.0
0
LINE
8
0
6
CONTINUOUS
10
-202.412084
20
811.795029
30
0.0
11
-202.183972
21
813.084681
31
0.0
0
LINE
8
0
6
CONTINUOUS
10
-204.026045
20
812.078760
30
0.0
11
-202.412084
21
811.795029
31
0.0
0
LINE
8
0
6
CONTINUOUS
10
-204.026045
20
812.078760
30
0.0
11
-203.797928
21
813.368380
31
0.0
0
LINE
8
0
6
CONTINUOUS
10
-205.639995
20
812.362401
30
0.0
11
-204.026045
21
812.078760
31
0.0
0
LINE
8
0
6
CONTINUOUS
10
-201.186786
20
812.909451
30
0.0
11
-201.414914
21
811.619764
31
0.0
0
LINE
8
0
6
CONTINUOUS
10
-201.414914
20
811.619764
30
0.0
11
-199.800964
21
811.336043
31
0.0
0
LINE
8
0
6
CONTINUOUS
10
-191.296248
20
809.841151
30
0.0
11
-191.068151
21
811.130759
31
0.0
0
LINE
8
0
6
CONTINUOUS
10
-192.910199
20
810.124792
30
0.0
11
-191.296248
21
809.841151
31
0.0
0
LINE
8
0
6
CONTINUOUS
10
-194.296069
20
811.698194
30
0.0
11
-194.524190
21
810.408523
31
0.0
0
LINE
8
0
6
CONTINUOUS
10
-192.910199
20
810.124792
30
0.0
11
-192.682102
21
811.414457
31
0.0
0
LINE
8
0
6
CONTINUOUS
10
-194.524190
20
810.408523
30
0.0
11
-192.910199
21
810.124792
31
0.0
0
LINE
8
0
6
CONTINUOUS
10
-181.961303
20
808.200195
30
0.0
11
-181.733187
21
809.489870
31
0.0
0
LINE
8
0
6
CONTINUOUS
10
-183.575254
20
808.483926
30
0.0
11
-181.961303
21
808.200195
31
0.0
0
LINE
8
0
6
CONTINUOUS
10
-184.961083
20
810.057319
30
0.0
11
-185.189204
21
808.767647
31
0.0
0
LINE
8
0
6
CONTINUOUS
10
-183.575254
20
808.483926
30
0.0
11
-183.347142
21
809.773571
31
0.0
0
LINE
8
0
6
CONTINUOUS
10
-185.189204
20
808.767647
30
0.0
11
-183.575254
21
808.483926
31
0.0
0
LINE
8
0
6
CONTINUOUS
10
-170.482208
20
806.182477
30
0.0
11
-170.254092
21
807.472092
31
0.0
0
LINE
8
0
6
CONTINUOUS
10
-172.096159
20
806.466119
30
0.0
11
-170.482208
21
806.182477
31
0.0
0
LINE
8
0
6
CONTINUOUS
10
-173.481998
20
808.039535
30
0.0
11
-173.710109
21
806.749850
31
0.0
0
LINE
8
0
6
CONTINUOUS
10
-172.096159
20
806.466119
30
0.0
11
-171.868039
21
807.755789
31
0.0
0
LINE
8
0
6
CONTINUOUS
10
-173.710109
20
806.749850
30
0.0
11
-172.096159
21
806.466119
31
0.0
0
LINE
8
0
6
CONTINUOUS
10
-157.227869
20
803.852647
30
0.0
11
-156.999757
21
805.142267
31
0.0
0
LINE
8
0
6
CONTINUOUS
10
-160.227649
20
805.709697
30
0.0
11
-160.455771
21
804.420020
31
0.0
0
LINE
8
0
6
CONTINUOUS
10
-158.841820
20
804.136299
30
0.0
11
-158.613706
21
805.425964
31
0.0
0
LINE
8
0
6
CONTINUOUS
10
-160.455771
20
804.420020
30
0.0
11
-158.841820
21
804.136299
31
0.0
0
LINE
8
0
6
CONTINUOUS
10
-157.227869
20
803.852647
30
0.0
11
-158.841820
21
804.136299
31
0.0
0
LINE
8
0
6
CONTINUOUS
10
-142.624343
20
801.285632
30
0.0
11
-142.396226
21
802.575282
31
0.0
0
LINE
8
0
6
CONTINUOUS
10
-145.624141
20
803.142704
30
0.0
11
-145.852245
21
801.853004
31
0.0
0
LINE
8
0
6
CONTINUOUS
10
-144.238294
20
801.569353
30
0.0
11
-144.010180
21
802.858981
31
0.0
0
LINE
8
0
6
CONTINUOUS
10
-142.624343
20
801.285632
30
0.0
11
-144.238294
21
801.569353
31
0.0
0
LINE
8
0
6
CONTINUOUS
10
-144.238294
20
801.569353
30
0.0
11
-145.852245
21
801.853004
31
0.0
0
LINE
8
0
6
CONTINUOUS
10
-127.140967
20
798.564015
30
0.0
11
-126.912867
21
799.853638
31
0.0
0
LINE
8
0
6
CONTINUOUS
10
-128.754958
20
798.847656
30
0.0
11
-127.140967
21
798.564015
31
0.0
0
LINE
8
0
6
CONTINUOUS
10
-130.140781
20
800.421069
30
0.0
11
-130.368909
21
799.131387
31
0.0
0
LINE
8
0
6
CONTINUOUS
10
-128.754958
20
798.847656
30
0.0
11
-128.526836
21
800.137341
31
0.0
0
LINE
8
0
6
CONTINUOUS
10
-130.368909
20
799.131387
30
0.0
11
-128.754958
21
798.847656
31
0.0
0
LINE
8
0
6
CONTINUOUS
10
-111.275388
20
795.775118
30
0.0
11
-111.047287
21
797.064806
31
0.0
0
LINE
8
0
6
CONTINUOUS
10
-112.889379
20
796.058839
30
0.0
11
-111.275388
21
795.775118
31
0.0
0
LINE
8
0
6
CONTINUOUS
10
-114.275212
20
797.632221
30
0.0
11
-114.503330
21
796.342571
31
0.0
0
LINE
8
0
6
CONTINUOUS
10
-112.889379
20
796.058839
30
0.0
11
-112.661259
21
797.348504
31
0.0
0
LINE
8
0
6
CONTINUOUS
10
-114.503330
20
796.342571
30
0.0
11
-112.889379
21
796.058839
31
0.0
0
LINE
8
0
6
CONTINUOUS
10
-95.537587
20
793.008805
30
0.0
11
-95.309471
21
794.298425
31
0.0
0
LINE
8
0
6
CONTINUOUS
10
-97.151538
20
793.292456
30
0.0
11
-95.537587
21
793.008805
31
0.0
0
LINE
8
0
6
CONTINUOUS
10
-98.537376
20
794.865876
30
0.0
11
-98.765489
21
793.576177
31
0.0
0
LINE
8
0
6
CONTINUOUS
10
-97.151538
20
793.292456
30
0.0
11
-96.923435
21
794.582127
31
0.0
0
LINE
8
0
6
CONTINUOUS
10
-98.765489
20
793.576177
30
0.0
11
-97.151538
21
793.292456
31
0.0
0
LINE
8
0
6
CONTINUOUS
10
-80.433326
20
790.353767
30
0.0
11
-80.205213
21
791.643438
31
0.0
0
LINE
8
0
6
CONTINUOUS
10
-82.047296
20
790.637488
30
0.0
11
-80.433326
21
790.353767
31
0.0
0
LINE
8
0
6
CONTINUOUS
10
-83.433130
20
792.210870
30
0.0
11
-83.661247
21
790.921139
31
0.0
0
LINE
8
0
6
CONTINUOUS
10
-82.047296
20
790.637488
30
0.0
11
-81.819183
21
791.927140
31
0.0
0
LINE
8
0
6
CONTINUOUS
10
-83.661247
20
790.921139
30
0.0
11
-82.047296
21
790.637488
31
0.0
0
LINE
8
0
6
CONTINUOUS
10
-66.448105
20
787.895427
30
0.0
11
-66.219988
21
789.185135
31
0.0
0
LINE
8
0
6
CONTINUOUS
10
-68.062076
20
788.179158
30
0.0
11
-66.448105
21
787.895427
31
0.0
0
LINE
8
0
6
CONTINUOUS
10
-68.062076
20
788.179158
30
0.0
11
-67.833950
21
789.468835
31
0.0
0
LINE
8
0
6
CONTINUOUS
10
-69.676027
20
788.462879
30
0.0
11
-68.062076
21
788.179158
31
0.0
0
LINE
8
0
6
CONTINUOUS
10
-54.031388
20
785.712891
30
0.0
11
-53.803281
21
787.002528
31
0.0
0
LINE
8
0
6
CONTINUOUS
10
-55.645359
20
785.996532
30
0.0
11
-54.031388
21
785.712891
31
0.0
0
LINE
8
0
6
CONTINUOUS
10
-55.645359
20
785.996532
30
0.0
11
-55.417239
21
787.286231
31
0.0
0
LINE
8
0
6
CONTINUOUS
10
-219.476468
20
816.124381
30
0.0
11
-219.747890
21
814.589793
31
0.0
0
LINE
8
0
6
CONTINUOUS
10
-219.747890
20
814.589793
30
0.0
11
-218.133939
21
814.306072
31
0.0
0
LINE
8
0
6
CONTINUOUS
10
-215.273740
20
813.803300
30
0.0
11
-215.002308
21
815.337868
31
0.0
0
LINE
8
0
6
CONTINUOUS
10
-216.887691
20
814.087021
30
0.0
11
-215.273740
21
813.803300
31
0.0
0
LINE
8
0
6
CONTINUOUS
10
-218.230223
20
815.905317
30
0.0
11
-218.501642
21
814.370752
31
0.0
0
LINE
8
0
6
CONTINUOUS
10
-216.887691
20
814.087021
30
0.0
11
-216.616277
21
815.621569
31
0.0
0
LINE
8
0
6
CONTINUOUS
10
-218.501642
20
814.370752
30
0.0
11
-216.887691
21
814.087021
31
0.0
0
LINE
8
0
6
CONTINUOUS
10
-211.565630
20
813.151494
30
0.0
11
-211.294198
21
814.686062
31
0.0
0
LINE
8
0
6
CONTINUOUS
10
-213.179581
20
813.435225
30
0.0
11
-211.565630
21
813.151494
31
0.0
0
LINE
8
0
6
CONTINUOUS
10
-214.522093
20
815.253514
30
0.0
11
-214.793532
21
813.718946
31
0.0
0
LINE
8
0
6
CONTINUOUS
10
-213.179581
20
813.435225
30
0.0
11
-212.908148
21
814.969760
31
0.0
0
LINE
8
0
6
CONTINUOUS
10
-214.793532
20
813.718946
30
0.0
11
-213.179581
21
813.435225
31
0.0
0
LINE
8
0
6
CONTINUOUS
10
-205.486936
20
812.083029
30
0.0
11
-205.215518
21
813.617561
31
0.0
0
LINE
8
0
6
CONTINUOUS
10
-208.443438
20
814.184982
30
0.0
11
-208.714877
21
812.650401
31
0.0
0
LINE
8
0
6
CONTINUOUS
10
-207.100927
20
812.366750
30
0.0
11
-206.829492
21
813.901263
31
0.0
0
LINE
8
0
6
CONTINUOUS
10
-205.486936
20
812.083029
30
0.0
11
-207.100927
21
812.366750
31
0.0
0
LINE
8
0
6
CONTINUOUS
10
-207.100927
20
812.366750
30
0.0
11
-208.714877
21
812.650401
31
0.0
0
LINE
8
0
6
CONTINUOUS
10
-197.187427
20
810.624136
30
0.0
11
-196.915993
21
812.158684
31
0.0
0
LINE
8
0
6
CONTINUOUS
10
-198.801377
20
810.907857
30
0.0
11
-197.187427
21
810.624136
31
0.0
0
LINE
8
0
6
CONTINUOUS
10
-200.143901
20
812.726134
30
0.0
11
-200.415328
21
811.191508
31
0.0
0
LINE
8
0
6
CONTINUOUS
10
-198.801377
20
810.907857
30
0.0
11
-198.529960
21
812.442385
31
0.0
0
LINE
8
0
6
CONTINUOUS
10
-200.415328
20
811.191508
30
0.0
11
-198.801377
21
810.907857
31
0.0
0
LINE
8
0
6
CONTINUOUS
10
-186.871367
20
808.810814
30
0.0
11
-186.599934
21
810.345343
31
0.0
0
LINE
8
0
6
CONTINUOUS
10
-188.485317
20
809.094465
30
0.0
11
-186.871367
21
808.810814
31
0.0
0
LINE
8
0
6
CONTINUOUS
10
-189.827842
20
810.912794
30
0.0
11
-190.099268
21
809.378186
31
0.0
0
LINE
8
0
6
CONTINUOUS
10
-188.485317
20
809.094465
30
0.0
11
-188.213903
21
810.629044
31
0.0
0
LINE
8
0
6
CONTINUOUS
10
-190.099268
20
809.378186
30
0.0
11
-188.485317
21
809.094465
31
0.0
0
LINE
8
0
6
CONTINUOUS
10
-174.792819
20
806.687609
30
0.0
11
-174.521399
21
808.222192
31
0.0
0
LINE
8
0
6
CONTINUOUS
10
-176.406810
20
806.971330
30
0.0
11
-174.792819
21
806.687609
31
0.0
0
LINE
8
0
6
CONTINUOUS
10
-177.749319
20
808.789641
30
0.0
11
-178.020761
21
807.255061
31
0.0
0
LINE
8
0
6
CONTINUOUS
10
-176.406810
20
806.971330
30
0.0
11
-176.135378
21
808.505895
31
0.0
0
LINE
8
0
6
CONTINUOUS
10
-178.020761
20
807.255061
30
0.0
11
-176.406810
21
806.971330
31
0.0
0
LINE
8
0
6
CONTINUOUS
10
-161.249168
20
804.306995
30
0.0
11
-160.977753
21
805.841513
31
0.0
0
LINE
8
0
6
CONTINUOUS
10
-162.863159
20
804.590636
30
0.0
11
-161.249168
21
804.306995
31
0.0
0
LINE
8
0
6
CONTINUOUS
10
-164.205668
20
806.408950
30
0.0
11
-164.477110
21
804.874367
31
0.0
0
LINE
8
0
6
CONTINUOUS
10
-162.863159
20
804.590636
30
0.0
11
-162.591725
21
806.125214
31
0.0
0
LINE
8
0
6
CONTINUOUS
10
-164.477110
20
804.874367
30
0.0
11
-162.863159
21
804.590636
31
0.0
0
LINE
8
0
6
CONTINUOUS
10
-146.573921
20
801.727383
30
0.0
11
-146.302502
21
803.261921
31
0.0
0
LINE
8
0
6
CONTINUOUS
10
-148.187901
20
802.011034
30
0.0
11
-146.573921
21
801.727383
31
0.0
0
LINE
8
0
6
CONTINUOUS
10
-149.530414
20
803.829345
30
0.0
11
-149.801862
21
802.294756
31
0.0
0
LINE
8
0
6
CONTINUOUS
10
-148.187901
20
802.011034
30
0.0
11
-147.916466
21
803.545621
31
0.0
0
LINE
8
0
6
CONTINUOUS
10
-149.801862
20
802.294756
30
0.0
11
-148.187901
21
802.011034
31
0.0
0
LINE
8
0
6
CONTINUOUS
10
-131.128491
20
799.012404
30
0.0
11
-130.857051
21
800.546945
31
0.0
0
LINE
8
0
6
CONTINUOUS
10
-132.742442
20
799.296045
30
0.0
11
-131.128491
21
799.012404
31
0.0
0
LINE
8
0
6
CONTINUOUS
10
-134.084962
20
801.114379
30
0.0
11
-134.356393
21
799.579776
31
0.0
0
LINE
8
0
6
CONTINUOUS
10
-132.742442
20
799.296045
30
0.0
11
-132.471019
21
800.830646
31
0.0
0
LINE
8
0
6
CONTINUOUS
10
-134.356393
20
799.579776
30
0.0
11
-132.742442
21
799.296045
31
0.0
0
LINE
8
0
6
CONTINUOUS
10
-115.293097
20
796.228846
30
0.0
11
-115.021680
21
797.763411
31
0.0
0
LINE
8
0
6
CONTINUOUS
10
-116.907088
20
796.512577
30
0.0
11
-115.293097
21
796.228846
31
0.0
0
LINE
8
0
6
CONTINUOUS
10
-118.249593
20
798.330830
30
0.0
11
-118.521038
21
796.796218
31
0.0
0
LINE
8
0
6
CONTINUOUS
10
-116.907088
20
796.512577
30
0.0
11
-116.635650
21
798.047110
31
0.0
0
LINE
8
0
6
CONTINUOUS
10
-118.521038
20
796.796218
30
0.0
11
-116.907088
21
796.512577
31
0.0
0
LINE
8
0
6
CONTINUOUS
10
-99.457742
20
793.445298
30
0.0
11
-99.186320
21
794.979895
31
0.0
0
LINE
8
0
6
CONTINUOUS
10
-101.071723
20
793.729019
30
0.0
11
-99.457742
21
793.445298
31
0.0
0
LINE
8
0
6
CONTINUOUS
10
-102.414237
20
795.547338
30
0.0
11
-102.685684
21
794.012751
31
0.0
0
LINE
8
0
6
CONTINUOUS
10
-101.071723
20
793.729019
30
0.0
11
-100.800289
21
795.263598
31
0.0
0
LINE
8
0
6
CONTINUOUS
10
-102.685684
20
794.012751
30
0.0
11
-101.071723
21
793.729019
31
0.0
0
LINE
8
0
6
CONTINUOUS
10
-84.012273
20
790.730309
30
0.0
11
-83.740837
21
792.264926
31
0.0
0
LINE
8
0
6
CONTINUOUS
10
-85.626223
20
791.014040
30
0.0
11
-84.012273
21
790.730309
31
0.0
0
LINE
8
0
6
CONTINUOUS
10
-86.968745
20
792.832359
30
0.0
11
-87.240174
21
791.297761
31
0.0
0
LINE
8
0
6
CONTINUOUS
10
-85.626223
20
791.014040
30
0.0
11
-85.354793
21
792.548625
31
0.0
0
LINE
8
0
6
CONTINUOUS
10
-87.240174
20
791.297761
30
0.0
11
-85.626223
21
791.014040
31
0.0
0
LINE
8
0
6
CONTINUOUS
10
-69.337035
20
788.150787
30
0.0
11
-69.065610
21
789.685334
31
0.0
0
LINE
8
0
6
CONTINUOUS
10
-70.951006
20
788.434428
30
0.0
11
-69.337035
21
788.150787
31
0.0
0
LINE
8
0
6
CONTINUOUS
10
-72.293520
20
790.252772
30
0.0
11
-72.564957
21
788.718160
31
0.0
0
LINE
8
0
6
CONTINUOUS
10
-70.951006
20
788.434428
30
0.0
11
-70.679577
21
789.969035
31
0.0
0
LINE
8
0
6
CONTINUOUS
10
-72.564957
20
788.718160
30
0.0
11
-70.951006
21
788.434428
31
0.0
0
LINE
8
0
6
CONTINUOUS
10
-55.793405
20
785.770093
30
0.0
11
-55.521974
21
787.304641
31
0.0
0
LINE
8
0
6
CONTINUOUS
10
-57.407375
20
786.053734
30
0.0
11
-55.793405
21
785.770093
31
0.0
0
LINE
8
0
6
CONTINUOUS
10
-58.749885
20
787.872073
30
0.0
11
-59.021326
21
786.337465
31
0.0
0
LINE
8
0
6
CONTINUOUS
10
-57.407375
20
786.053734
30
0.0
11
-57.135941
21
787.588346
31
0.0
0
LINE
8
0
6
CONTINUOUS
10
-59.021326
20
786.337465
30
0.0
11
-57.407375
21
786.053734
31
0.0
0
LINE
8
0
6
CONTINUOUS
10
-43.714857
20
783.646888
30
0.0
11
-43.443426
21
785.181474
31
0.0
0
LINE
8
0
6
CONTINUOUS
10
-45.328828
20
783.930610
30
0.0
11
-43.714857
21
783.646888
31
0.0
0
LINE
8
0
6
CONTINUOUS
10
-46.671349
20
785.748930
30
0.0
11
-46.942798
21
784.214331
31
0.0
0
LINE
8
0
6
CONTINUOUS
10
-45.328828
20
783.930610
30
0.0
11
-45.057401
21
785.465177
31
0.0
0
LINE
8
0
6
CONTINUOUS
10
-46.942798
20
784.214331
30
0.0
11
-45.328828
21
783.930610
31
0.0
0
LINE
8
0
6
CONTINUOUS
10
127.323811
20
303.482114
30
0.0
11
126.714952
21
302.760442
31
0.0
0
LINE
8
0
6
CONTINUOUS
10
123.281764
20
298.506780
30
0.0
11
123.487090
21
297.381376
31
0.0
0
LINE
8
0
6
CONTINUOUS
10
123.457377
20
299.582366
30
0.0
11
123.281764
21
298.506780
31
0.0
0
LINE
8
0
6
CONTINUOUS
10
127.425096
20
304.505073
30
0.0
11
127.315568
21
303.448995
31
0.0
0
LINE
8
0
6
CONTINUOUS
10
127.979328
20
304.018587
30
0.0
11
127.917778
21
303.106167
31
0.0
0
LINE
8
0
6
CONTINUOUS
10
127.207304
20
302.235609
30
0.0
11
127.917778
21
303.106167
31
0.0
0
LINE
8
0
6
CONTINUOUS
10
130.793822
20
283.535116
30
0.0
11
129.800935
21
282.980419
31
0.0
0
LINE
8
0
6
CONTINUOUS
10
127.668148
20
282.726512
30
0.0
11
128.734421
21
282.157962
31
0.0
0
LINE
8
0
6
CONTINUOUS
10
133.858325
20
287.154290
30
0.0
11
132.533396
21
285.187791
31
0.0
0
LINE
8
0
6
CONTINUOUS
10
124.064020
20
300.532376
30
0.0
11
123.457377
21
299.582366
31
0.0
0
LINE
8
0
6
CONTINUOUS
10
124.900739
20
301.334998
30
0.0
11
124.064020
21
300.532376
31
0.0
0
LINE
8
0
6
CONTINUOUS
10
126.883064
20
284.278281
30
0.0
11
126.990766
21
283.862733
31
0.0
0
LINE
8
0
6
CONTINUOUS
10
135.216006
20
291.693340
30
0.0
11
135.080496
21
294.074848
31
0.0
0
LINE
8
0
6
CONTINUOUS
10
126.990766
20
283.862733
30
0.0
11
127.668148
21
282.726512
31
0.0
0
LINE
8
0
6
CONTINUOUS
10
126.714440
20
302.760552
30
0.0
11
124.900739
21
301.334998
31
0.0
0
LINE
8
0
6
CONTINUOUS
10
127.207304
20
302.235609
30
0.0
11
125.396881
21
300.762043
31
0.0
0
LINE
8
0
6
CONTINUOUS
10
130.793822
20
283.535116
30
0.0
11
132.533396
21
285.187791
31
0.0
0
LINE
8
0
6
CONTINUOUS
10
133.858325
20
287.154290
30
0.0
11
134.848445
21
289.364198
31
0.0
0
LINE
8
0
6
CONTINUOUS
10
129.310849
20
284.150628
30
0.0
11
129.652127
21
284.316324
31
0.0
0
LINE
8
0
6
CONTINUOUS
10
135.216006
20
291.693340
30
0.0
11
134.848445
21
289.364198
31
0.0
0
LINE
8
0
6
CONTINUOUS
10
135.162867
20
294.910539
30
0.0
11
135.080496
21
294.074848
31
0.0
0
LINE
8
0
6
CONTINUOUS
10
126.373162
20
286.245699
30
0.0
11
126.883064
21
284.278281
31
0.0
0
LINE
8
0
6
CONTINUOUS
10
123.487090
20
297.381376
30
0.0
11
126.373162
21
286.245699
31
0.0
0
LINE
8
0
6
CONTINUOUS
10
98.490879
20
338.096799
30
0.0
11
102.204534
21
333.509978
31
0.0
0
LINE
8
0
6
CONTINUOUS
10
118.040320
20
313.959332
30
0.0
11
119.802266
21
311.786068
31
0.0
0
LINE
8
0
6
CONTINUOUS
10
119.263534
20
313.213332
30
0.0
11
118.667490
21
313.948526
31
0.0
0
LINE
8
0
6
CONTINUOUS
10
86.382788
20
353.057687
30
0.0
11
88.747898
21
350.134207
31
0.0
0
LINE
8
0
6
CONTINUOUS
10
88.907756
20
350.700489
30
0.0
11
88.130073
21
351.661769
31
0.0
0
LINE
8
0
6
CONTINUOUS
10
115.670417
20
316.883811
30
0.0
11
118.040320
21
313.959332
31
0.0
0
LINE
8
0
6
CONTINUOUS
10
118.667490
20
313.948526
30
0.0
11
116.259781
21
316.919637
31
0.0
0
LINE
8
0
6
CONTINUOUS
10
105.918781
20
328.923036
30
0.0
11
109.490909
21
324.512227
31
0.0
0
LINE
8
0
6
CONTINUOUS
10
102.204534
20
333.509978
30
0.0
11
105.918781
21
328.923036
31
0.0
0
LINE
8
0
6
CONTINUOUS
10
91.630751
20
346.571763
30
0.0
11
94.920546
21
342.507229
31
0.0
0
LINE
8
0
6
CONTINUOUS
10
119.802266
20
311.786068
30
0.0
11
120.888545
21
310.447507
31
0.0
0
LINE
8
0
6
CONTINUOUS
10
88.747898
20
350.134207
30
0.0
11
91.630751
21
346.571763
31
0.0
0
LINE
8
0
6
CONTINUOUS
10
83.545944
20
356.567135
30
0.0
11
84.626297
21
355.229812
31
0.0
0
LINE
8
0
6
CONTINUOUS
10
109.490909
20
324.512227
30
0.0
11
112.783633
21
320.447083
31
0.0
0
LINE
8
0
6
CONTINUOUS
10
83.183236
20
357.018260
30
0.0
11
83.545944
21
356.567135
31
0.0
0
LINE
8
0
6
CONTINUOUS
10
83.221877
20
357.385712
30
0.0
11
83.183236
21
357.018260
31
0.0
0
LINE
8
0
6
CONTINUOUS
10
94.920546
20
342.507229
30
0.0
11
98.490879
21
338.096799
31
0.0
0
LINE
8
0
6
CONTINUOUS
10
121.257431
20
309.995084
30
0.0
11
121.842985
21
309.931178
31
0.0
0
LINE
8
0
6
CONTINUOUS
10
120.888545
20
310.447507
30
0.0
11
121.257431
21
309.995084
31
0.0
0
LINE
8
0
6
CONTINUOUS
10
84.626297
20
355.229812
30
0.0
11
86.382788
21
353.057687
31
0.0
0
LINE
8
0
6
CONTINUOUS
10
112.783633
20
320.447083
30
0.0
11
115.670417
21
316.883811
31
0.0
0
LINE
8
0
6
CONTINUOUS
10
99.640797
20
334.717331
30
0.0
11
101.247788
21
332.732485
31
0.0
0
LINE
8
0
6
CONTINUOUS
10
101.409863
20
332.862775
30
0.0
11
99.777240
21
334.879272
31
0.0
0
LINE
8
0
6
CONTINUOUS
10
108.100345
20
324.272423
30
0.0
11
108.862776
21
323.332001
31
0.0
0
LINE
8
0
6
CONTINUOUS
10
102.855050
20
330.747609
30
0.0
11
104.400800
21
328.838930
31
0.0
0
LINE
8
0
6
CONTINUOUS
10
104.613166
20
328.907106
30
0.0
11
103.042757
21
330.846208
31
0.0
0
LINE
8
0
6
CONTINUOUS
10
101.247788
20
332.732485
30
0.0
11
102.855050
21
330.747609
31
0.0
0
LINE
8
0
6
CONTINUOUS
10
103.042757
20
330.846208
30
0.0
11
101.409863
21
332.862775
31
0.0
0
LINE
8
0
6
CONTINUOUS
10
96.672253
20
338.384645
30
0.0
11
98.095830
21
336.625821
31
0.0
0
LINE
8
0
6
CONTINUOUS
10
98.207624
20
336.818224
30
0.0
11
96.761313
21
338.605114
31
0.0
0
LINE
8
0
6
CONTINUOUS
10
108.862776
20
323.332001
30
0.0
11
109.332845
21
322.752764
31
0.0
0
LINE
8
0
6
CONTINUOUS
10
93.173752
20
342.709919
30
0.0
11
93.641245
21
342.131222
31
0.0
0
LINE
8
0
6
CONTINUOUS
10
104.400800
20
328.838930
30
0.0
11
105.825640
21
327.079836
31
0.0
0
LINE
8
0
6
CONTINUOUS
10
106.060740
20
327.119946
30
0.0
11
104.613166
21
328.907106
31
0.0
0
LINE
8
0
6
CONTINUOUS
10
98.095830
20
336.625821
30
0.0
11
99.640797
21
334.717331
31
0.0
0
LINE
8
0
6
CONTINUOUS
10
99.777240
20
334.879272
30
0.0
11
98.207624
21
336.818224
31
0.0
0
LINE
8
0
6
CONTINUOUS
10
93.641245
20
342.131222
30
0.0
11
94.401318
21
341.191289
31
0.0
0
LINE
8
0
6
CONTINUOUS
10
99.417310
20
332.866051
30
0.0
11
100.207789
21
331.889413
31
0.0
0
LINE
8
0
6
CONTINUOUS
10
100.207789
20
331.889413
30
0.0
11
100.998208
21
330.913595
31
0.0
0
LINE
8
0
6
CONTINUOUS
10
105.337790
20
325.749993
30
0.0
11
106.128269
21
324.773346
31
0.0
0
LINE
8
0
6
CONTINUOUS
10
106.128269
20
324.773346
30
0.0
11
106.918698
21
323.797528
31
0.0
0
LINE
8
0
6
CONTINUOUS
10
106.928484
20
325.416052
30
0.0
11
106.128269
21
324.773346
31
0.0
0
LINE
8
0
6
CONTINUOUS
10
106.918698
20
323.797528
30
0.0
11
107.739003
21
324.456374
31
0.0
0
LINE
8
0
6
CONTINUOUS
10
105.337790
20
325.749993
30
0.0
11
106.117526
21
326.376251
31
0.0
0
LINE
8
0
6
CONTINUOUS
10
103.628471
20
327.857558
30
0.0
11
104.418961
21
326.880901
31
0.0
0
LINE
8
0
6
CONTINUOUS
10
104.418961
20
326.880901
30
0.0
11
105.209370
21
325.905102
31
0.0
0
LINE
8
0
6
CONTINUOUS
10
105.177060
20
327.489790
30
0.0
11
104.418961
21
326.880901
31
0.0
0
LINE
8
0
6
CONTINUOUS
10
105.209370
20
325.905102
30
0.0
11
105.987568
21
326.530125
31
0.0
0
LINE
8
0
6
CONTINUOUS
10
103.628471
20
327.857558
30
0.0
11
104.611690
21
328.647253
31
0.0
0
LINE
8
0
6
CONTINUOUS
10
99.508656
20
332.944244
30
0.0
11
100.299135
21
331.967607
31
0.0
0
LINE
8
0
6
CONTINUOUS
10
100.299135
20
331.967607
30
0.0
11
101.089564
21
330.991789
31
0.0
0
LINE
8
0
6
CONTINUOUS
10
100.958770
20
332.497398
30
0.0
11
100.299135
21
331.967607
31
0.0
0
LINE
8
0
6
CONTINUOUS
10
101.089564
20
330.991789
30
0.0
11
101.762728
21
331.532459
31
0.0
0
LINE
8
0
6
CONTINUOUS
10
99.508656
20
332.944244
30
0.0
11
100.186823
21
333.488925
31
0.0
0
LINE
8
0
6
CONTINUOUS
10
95.391658
20
338.030371
30
0.0
11
96.182128
21
337.053724
31
0.0
0
LINE
8
0
6
CONTINUOUS
10
96.182128
20
337.053724
30
0.0
11
96.972546
21
336.077906
31
0.0
0
LINE
8
0
6
CONTINUOUS
10
96.938505
20
337.661221
30
0.0
11
96.182128
21
337.053724
31
0.0
0
LINE
8
0
6
CONTINUOUS
10
96.972546
20
336.077906
30
0.0
11
97.960000
21
336.871008
31
0.0
0
LINE
8
0
6
CONTINUOUS
10
95.391658
20
338.030371
30
0.0
11
96.166555
21
338.652752
31
0.0
0
LINE
8
0
6
CONTINUOUS
10
93.689179
20
340.136508
30
0.0
11
94.479658
21
339.159870
31
0.0
0
LINE
8
0
6
CONTINUOUS
10
94.479658
20
339.159870
30
0.0
11
95.270077
21
338.184052
31
0.0
0
LINE
8
0
6
CONTINUOUS
10
95.274635
20
339.798377
30
0.0
11
94.479658
21
339.159870
31
0.0
0
LINE
8
0
6
CONTINUOUS
10
95.270077
20
338.184052
30
0.0
11
96.046166
21
338.807385
31
0.0
0
LINE
8
0
6
CONTINUOUS
10
93.689179
20
340.136508
30
0.0
11
94.502692
21
340.789898
31
0.0
0
LINE
8
0
6
CONTINUOUS
10
111.236670
20
319.324376
30
0.0
11
112.027149
21
318.347718
31
0.0
0
LINE
8
0
6
CONTINUOUS
10
112.027149
20
318.347718
30
0.0
11
112.817578
21
317.371920
31
0.0
0
LINE
8
0
6
CONTINUOUS
10
112.832212
20
318.994323
30
0.0
11
112.027149
21
318.347718
31
0.0
0
LINE
8
0
6
CONTINUOUS
10
112.817578
20
317.371920
30
0.0
11
113.713328
21
318.091355
31
0.0
0
LINE
8
0
6
CONTINUOUS
10
109.717886
20
321.195312
30
0.0
11
110.508365
21
320.218664
31
0.0
0
LINE
8
0
6
CONTINUOUS
10
110.508365
20
320.218664
30
0.0
11
111.298794
21
319.242856
31
0.0
0
LINE
8
0
6
CONTINUOUS
10
111.141382
20
320.727086
30
0.0
11
110.508365
21
320.218664
31
0.0
0
LINE
8
0
6
CONTINUOUS
10
111.298794
20
319.242856
30
0.0
11
112.348587
21
320.086026
31
0.0
0
LINE
8
0
6
CONTINUOUS
10
109.717886
20
321.195312
30
0.0
11
110.619725
21
321.919639
31
0.0
0
LINE
8
0
6
CONTINUOUS
10
105.577864
20
326.304880
30
0.0
11
106.368343
21
325.328233
31
0.0
0
LINE
8
0
6
CONTINUOUS
10
106.368343
20
325.328233
30
0.0
11
107.158772
21
324.352424
31
0.0
0
LINE
8
0
6
CONTINUOUS
10
106.746282
20
325.631785
30
0.0
11
106.368343
21
325.328233
31
0.0
0
LINE
8
0
6
CONTINUOUS
10
107.158772
20
324.352424
30
0.0
11
107.556800
21
324.672108
31
0.0
0
LINE
8
0
6
CONTINUOUS
10
105.577864
20
326.304880
30
0.0
11
106.549014
21
327.084881
31
0.0
0
LINE
8
0
6
CONTINUOUS
10
99.925917
20
333.283986
30
0.0
11
100.716386
21
332.307329
31
0.0
0
LINE
8
0
6
CONTINUOUS
10
100.716386
20
332.307329
30
0.0
11
101.506815
21
331.331530
31
0.0
0
LINE
8
0
6
CONTINUOUS
10
100.956564
20
332.500231
30
0.0
11
100.716386
21
332.307329
31
0.0
0
LINE
8
0
6
CONTINUOUS
10
101.506815
20
331.331530
30
0.0
11
101.760407
21
331.535208
31
0.0
0
LINE
8
0
6
CONTINUOUS
10
99.925917
20
333.283986
30
0.0
11
100.184613
21
333.491763
31
0.0
0
LINE
8
0
6
CONTINUOUS
10
94.276478
20
340.262563
30
0.0
11
95.066957
21
339.285905
31
0.0
0
LINE
8
0
6
CONTINUOUS
10
95.066957
20
339.285905
30
0.0
11
95.857376
21
338.310107
31
0.0
0
LINE
8
0
6
CONTINUOUS
10
95.440215
20
339.585698
30
0.0
11
95.066957
21
339.285905
31
0.0
0
LINE
8
0
6
CONTINUOUS
10
95.857376
20
338.310107
30
0.0
11
96.806778
21
339.072635
31
0.0
0
LINE
8
0
6
CONTINUOUS
10
94.276478
20
340.262563
30
0.0
11
94.668262
21
340.577232
31
0.0
0
LINE
8
0
6
CONTINUOUS
10
90.143315
20
345.370712
30
0.0
11
90.933784
21
344.394075
31
0.0
0
LINE
8
0
6
CONTINUOUS
10
90.933784
20
344.394075
30
0.0
11
91.724213
21
343.418257
31
0.0
0
LINE
8
0
6
CONTINUOUS
10
91.525234
20
344.869111
30
0.0
11
90.933784
21
344.394075
31
0.0
0
LINE
8
0
6
CONTINUOUS
10
91.724213
20
343.418257
30
0.0
11
92.570128
21
344.097671
31
0.0
0
LINE
8
0
6
CONTINUOUS
10
90.143315
20
345.370712
30
0.0
11
91.108367
21
346.145820
31
0.0
0
LINE
8
0
6
CONTINUOUS
10
88.633908
20
347.239711
30
0.0
11
89.424377
21
346.263054
31
0.0
0
LINE
8
0
6
CONTINUOUS
10
89.424377
20
346.263054
30
0.0
11
90.214816
21
345.287255
31
0.0
0
LINE
8
0
6
CONTINUOUS
10
90.147596
20
346.843919
30
0.0
11
89.424377
21
346.263054
31
0.0
0
LINE
8
0
6
CONTINUOUS
10
88.633908
20
347.239711
30
0.0
11
89.427077
21
347.876762
31
0.0
0
LINE
8
0
6
CONTINUOUS
10
91.733599
20
343.416299
30
0.0
11
92.249607
21
343.830742
31
0.0
0
LINE
8
0
6
CONTINUOUS
10
113.742534
20
317.309097
30
0.0
11
114.154099
21
317.639652
31
0.0
0
LINE
8
0
6
CONTINUOUS
10
116.994865
20
313.282356
30
0.0
11
117.785344
21
312.305708
31
0.0
0
LINE
8
0
6
CONTINUOUS
10
117.785344
20
312.305708
30
0.0
11
118.575763
21
311.329890
31
0.0
0
LINE
8
0
6
CONTINUOUS
10
118.683867
20
313.027388
30
0.0
11
117.785344
21
312.305708
31
0.0
0
LINE
8
0
6
CONTINUOUS
10
118.575763
20
311.329890
30
0.0
11
119.587186
21
312.142243
31
0.0
0
LINE
8
0
6
CONTINUOUS
10
115.730977
20
314.837910
30
0.0
11
116.521456
21
313.861273
31
0.0
0
LINE
8
0
6
CONTINUOUS
10
116.521456
20
313.861273
30
0.0
11
117.311875
21
312.885455
31
0.0
0
LINE
8
0
6
CONTINUOUS
10
117.261247
20
314.455447
30
0.0
11
116.521456
21
313.861273
31
0.0
0
LINE
8
0
6
CONTINUOUS
10
117.311875
20
312.885455
30
0.0
11
118.309160
21
313.686446
31
0.0
0
LINE
8
0
6
CONTINUOUS
10
115.730977
20
314.837910
30
0.0
11
116.576775
21
315.517232
31
0.0
0
LINE
8
0
6
CONTINUOUS
10
112.142232
20
319.265588
30
0.0
11
112.932711
21
318.288941
31
0.0
0
LINE
8
0
6
CONTINUOUS
10
112.932711
20
318.288941
30
0.0
11
113.723130
21
317.313132
31
0.0
0
LINE
8
0
6
CONTINUOUS
10
114.406198
20
319.472403
30
0.0
11
112.932711
21
318.288941
31
0.0
0
LINE
8
0
6
CONTINUOUS
10
113.723130
20
317.313132
30
0.0
11
114.801000
21
318.178841
31
0.0
0
LINE
8
0
6
CONTINUOUS
10
112.142232
20
319.265588
30
0.0
11
113.049761
21
319.994490
31
0.0
0
LINE
8
0
6
CONTINUOUS
10
106.774985
20
325.891299
30
0.0
11
107.565464
21
324.914652
31
0.0
0
LINE
8
0
6
CONTINUOUS
10
107.565464
20
324.914652
30
0.0
11
108.355883
21
323.938843
31
0.0
0
LINE
8
0
6
CONTINUOUS
10
108.534614
20
325.693046
30
0.0
11
107.565464
21
324.914652
31
0.0
0
LINE
8
0
6
CONTINUOUS
10
108.355883
20
323.938843
30
0.0
11
109.234758
21
324.644732
31
0.0
0
LINE
8
0
6
CONTINUOUS
10
106.774985
20
325.891299
30
0.0
11
107.619285
21
326.569417
31
0.0
0
LINE
8
0
6
CONTINUOUS
10
100.446338
20
333.706366
30
0.0
11
101.236817
21
332.729708
31
0.0
0
LINE
8
0
6
CONTINUOUS
10
101.236817
20
332.729708
30
0.0
11
102.027246
21
331.753910
31
0.0
0
LINE
8
0
6
CONTINUOUS
10
102.206019
20
333.508144
30
0.0
11
101.236817
21
332.729708
31
0.0
0
LINE
8
0
6
CONTINUOUS
10
102.027246
20
331.753910
30
0.0
11
102.947035
21
332.492663
31
0.0
0
LINE
8
0
6
CONTINUOUS
10
100.446338
20
333.706366
30
0.0
11
101.362558
21
334.442242
31
0.0
0
LINE
8
0
6
CONTINUOUS
10
94.119778
20
341.520993
30
0.0
11
94.910267
21
340.544336
31
0.0
0
LINE
8
0
6
CONTINUOUS
10
94.910267
20
340.544336
30
0.0
11
95.700676
21
339.568537
31
0.0
0
LINE
8
0
6
CONTINUOUS
10
95.879411
20
341.322743
30
0.0
11
94.910267
21
340.544336
31
0.0
0
LINE
8
0
6
CONTINUOUS
10
95.700676
20
339.568537
30
0.0
11
96.547934
21
340.249027
31
0.0
0
LINE
8
0
6
CONTINUOUS
10
94.119778
20
341.520993
30
0.0
11
95.000398
21
342.228282
31
0.0
0
LINE
8
0
6
CONTINUOUS
10
88.758477
20
348.145486
30
0.0
11
89.548956
21
347.168828
31
0.0
0
LINE
8
0
6
CONTINUOUS
10
89.548956
20
347.168828
30
0.0
11
90.339375
21
346.193010
31
0.0
0
LINE
8
0
6
CONTINUOUS
10
91.022433
20
348.352291
30
0.0
11
89.548956
21
347.168828
31
0.0
0
LINE
8
0
6
CONTINUOUS
10
90.339375
20
346.193010
30
0.0
11
91.317158
21
346.978337
31
0.0
0
LINE
8
0
6
CONTINUOUS
10
88.758477
20
348.145486
30
0.0
11
89.886676
21
349.051623
31
0.0
0
LINE
8
0
6
CONTINUOUS
10
85.178648
20
352.571306
30
0.0
11
85.969117
21
351.594648
31
0.0
0
LINE
8
0
6
CONTINUOUS
10
85.969117
20
351.594648
30
0.0
11
86.759546
21
350.618830
31
0.0
0
LINE
8
0
6
CONTINUOUS
10
86.523074
20
352.039571
30
0.0
11
85.969117
21
351.594648
31
0.0
0
LINE
8
0
6
CONTINUOUS
10
86.759546
20
350.618830
30
0.0
11
87.532231
21
351.239448
31
0.0
0
LINE
8
0
6
CONTINUOUS
10
85.178648
20
352.571306
30
0.0
11
86.109184
21
353.318691
31
0.0
0
LINE
8
0
6
CONTINUOUS
10
83.925259
20
354.124663
30
0.0
11
84.715738
21
353.148026
31
0.0
0
LINE
8
0
6
CONTINUOUS
10
84.715738
20
353.148026
30
0.0
11
85.506157
21
352.172207
31
0.0
0
LINE
8
0
6
CONTINUOUS
10
85.432137
20
353.723416
30
0.0
11
84.715738
21
353.148026
31
0.0
0
LINE
8
0
6
CONTINUOUS
10
83.925259
20
354.124663
30
0.0
11
84.777077
21
354.808819
31
0.0
0
LINE
8
0
6
CONTINUOUS
10
86.770055
20
350.616633
30
0.0
11
87.247957
21
351.000472
31
0.0
0
LINE
8
0
6
CONTINUOUS
10
124.077417
20
306.577892
30
0.0
11
124.867846
21
305.602073
31
0.0
0
LINE
8
0
6
CONTINUOUS
10
124.730489
20
307.102417
30
0.0
11
124.077417
21
306.577892
31
0.0
0
LINE
8
0
6
CONTINUOUS
10
124.867846
20
305.602073
30
0.0
11
125.633808
21
306.217272
31
0.0
0
LINE
8
0
6
CONTINUOUS
10
122.213194
20
308.874913
30
0.0
11
123.003673
21
307.898266
31
0.0
0
LINE
8
0
6
CONTINUOUS
10
123.003673
20
307.898266
30
0.0
11
123.794092
21
306.922457
31
0.0
0
LINE
8
0
6
CONTINUOUS
10
123.506305
20
308.301972
30
0.0
11
123.003673
21
307.898266
31
0.0
0
LINE
8
0
6
CONTINUOUS
10
123.794092
20
306.922457
30
0.0
11
124.609417
21
307.577309
31
0.0
0
LINE
8
0
6
CONTINUOUS
10
122.213194
20
308.874913
30
0.0
11
122.790026
21
309.338219
31
0.0
0
LINE
8
0
6
CONTINUOUS
10
119.108207
20
312.704517
30
0.0
11
119.898676
21
311.727870
31
0.0
0
LINE
8
0
6
CONTINUOUS
10
119.898676
20
311.727870
30
0.0
11
120.689095
21
310.752052
31
0.0
0
LINE
8
0
6
CONTINUOUS
10
121.372163
20
312.911333
30
0.0
11
119.898676
21
311.727870
31
0.0
0
LINE
8
0
6
CONTINUOUS
10
120.689095
20
310.752052
30
0.0
11
121.566322
21
311.456617
31
0.0
0
LINE
8
0
6
CONTINUOUS
10
119.108207
20
312.704517
30
0.0
11
119.823282
21
313.278849
31
0.0
0
LINE
8
0
6
CONTINUOUS
10
114.275942
20
318.668443
30
0.0
11
115.066411
21
317.691796
31
0.0
0
LINE
8
0
6
CONTINUOUS
10
115.066411
20
317.691796
30
0.0
11
115.856840
21
316.715978
31
0.0
0
LINE
8
0
6
CONTINUOUS
10
116.539907
20
318.875259
30
0.0
11
115.066411
21
317.691796
31
0.0
0
LINE
8
0
6
CONTINUOUS
10
115.856840
20
316.715978
30
0.0
11
116.717262
21
317.407044
31
0.0
0
LINE
8
0
6
CONTINUOUS
10
114.275942
20
318.668443
30
0.0
11
115.049484
21
319.289726
31
0.0
0
LINE
8
0
6
CONTINUOUS
10
108.189405
20
326.182920
30
0.0
11
108.979884
21
325.206273
31
0.0
0
LINE
8
0
6
CONTINUOUS
10
108.979884
20
325.206273
30
0.0
11
109.770303
21
324.230454
31
0.0
0
LINE
8
0
6
CONTINUOUS
10
109.323606
20
325.482340
30
0.0
11
108.979884
21
325.206273
31
0.0
0
LINE
8
0
6
CONTINUOUS
10
109.770303
20
324.230454
30
0.0
11
110.559462
21
324.864284
31
0.0
0
LINE
8
0
6
CONTINUOUS
10
108.189405
20
326.182920
30
0.0
11
108.885069
21
326.741653
31
0.0
0
LINE
8
0
6
CONTINUOUS
10
101.444400
20
334.512373
30
0.0
11
102.234869
21
333.535716
31
0.0
0
LINE
8
0
6
CONTINUOUS
10
102.234869
20
333.535716
30
0.0
11
103.025288
21
332.559918
31
0.0
0
LINE
8
0
6
CONTINUOUS
10
102.578520
20
333.811731
30
0.0
11
102.234869
21
333.535716
31
0.0
0
LINE
8
0
6
CONTINUOUS
10
103.025288
20
332.559918
30
0.0
11
103.771782
21
333.159480
31
0.0
0
LINE
8
0
6
CONTINUOUS
10
101.444400
20
334.512373
30
0.0
11
102.188146
21
335.109733
31
0.0
0
LINE
8
0
6
CONTINUOUS
10
94.701140
20
342.841477
30
0.0
11
95.491619
21
341.864820
31
0.0
0
LINE
8
0
6
CONTINUOUS
10
95.491619
20
341.864820
30
0.0
11
96.282038
21
340.889001
31
0.0
0
LINE
8
0
6
CONTINUOUS
10
95.835345
20
342.140891
30
0.0
11
95.491619
21
341.864820
31
0.0
0
LINE
8
0
6
CONTINUOUS
10
96.282038
20
340.889001
30
0.0
11
96.977159
21
341.447309
31
0.0
0
LINE
8
0
6
CONTINUOUS
10
94.701140
20
342.841477
30
0.0
11
95.474679
21
343.462762
31
0.0
0
LINE
8
0
6
CONTINUOUS
10
88.619738
20
350.354885
30
0.0
11
89.410217
21
349.378248
31
0.0
0
LINE
8
0
6
CONTINUOUS
10
89.410217
20
349.378248
30
0.0
11
90.200636
21
348.402429
31
0.0
0
LINE
8
0
6
CONTINUOUS
10
90.883703
20
350.561710
30
0.0
11
89.410217
21
349.378248
31
0.0
0
LINE
8
0
6
CONTINUOUS
10
90.200636
20
348.402429
30
0.0
11
90.887111
21
348.953783
31
0.0
0
LINE
8
0
6
CONTINUOUS
10
88.619738
20
350.354885
30
0.0
11
89.472733
21
351.039986
31
0.0
0
LINE
8
0
6
CONTINUOUS
10
83.795485
20
356.317163
30
0.0
11
84.585954
21
355.340526
31
0.0
0
LINE
8
0
6
CONTINUOUS
10
84.585954
20
355.340526
30
0.0
11
85.376383
21
354.364707
31
0.0
0
LINE
8
0
6
CONTINUOUS
10
86.059450
20
356.523988
30
0.0
11
84.585954
21
355.340526
31
0.0
0
LINE
8
0
6
CONTINUOUS
10
85.376383
20
354.364707
30
0.0
11
86.036796
21
354.895132
31
0.0
0
LINE
8
0
6
CONTINUOUS
10
83.795485
20
356.317163
30
0.0
11
84.636941
21
356.992997
31
0.0
0
LINE
8
0
6
CONTINUOUS
10
80.700597
20
360.144660
30
0.0
11
81.491076
21
359.168023
31
0.0
0
LINE
8
0
6
CONTINUOUS
10
81.491076
20
359.168023
30
0.0
11
82.281495
21
358.192204
31
0.0
0
LINE
8
0
6
CONTINUOUS
10
81.932330
20
359.522428
30
0.0
11
81.491076
21
359.168023
31
0.0
0
LINE
8
0
6
CONTINUOUS
10
82.281495
20
358.192204
30
0.0
11
82.822473
21
358.626702
31
0.0
0
LINE
8
0
6
CONTINUOUS
10
80.700597
20
360.144660
30
0.0
11
81.484603
21
360.774347
31
0.0
0
LINE
8
0
6
CONTINUOUS
10
79.638024
20
361.462727
30
0.0
11
80.428503
21
360.486069
31
0.0
0
LINE
8
0
6
CONTINUOUS
10
81.049662
20
360.984968
30
0.0
11
80.428503
21
360.486069
31
0.0
0
LINE
8
0
6
CONTINUOUS
10
79.638024
20
361.462727
30
0.0
11
80.394596
21
362.070380
31
0.0
0
LINE
8
0
6
CONTINUOUS
10
82.292686
20
358.189877
30
0.0
11
82.591638
21
358.429987
31
0.0
0
LINE
8
0
6
CONTINUOUS
10
128.528533
20
302.730320
30
0.0
11
129.319022
21
301.753672
31
0.0
0
LINE
8
0
6
CONTINUOUS
10
129.319022
20
301.753672
30
0.0
11
130.109431
21
300.777864
31
0.0
0
LINE
8
0
6
CONTINUOUS
10
130.229562
20
302.484998
30
0.0
11
129.319022
21
301.753672
31
0.0
0
LINE
8
0
6
CONTINUOUS
10
130.109431
20
300.777864
30
0.0
11
130.962942
21
301.463375
31
0.0
0
LINE
8
0
6
CONTINUOUS
10
128.528533
20
302.730320
30
0.0
11
129.135382
21
303.217720
31
0.0
0
LINE
8
0
6
CONTINUOUS
10
125.807203
20
306.085698
30
0.0
11
126.597682
21
305.109050
31
0.0
0
LINE
8
0
6
CONTINUOUS
10
126.597682
20
305.109050
30
0.0
11
127.388101
21
304.133232
31
0.0
0
LINE
8
0
6
CONTINUOUS
10
128.071179
20
306.292513
30
0.0
11
126.597682
21
305.109050
31
0.0
0
LINE
8
0
6
CONTINUOUS
10
127.388101
20
304.133232
30
0.0
11
128.269311
21
304.840990
31
0.0
0
LINE
8
0
6
CONTINUOUS
10
125.807203
20
306.085698
30
0.0
11
126.453632
21
306.604895
31
0.0
0
LINE
8
0
6
CONTINUOUS
10
121.482162
20
311.422496
30
0.0
11
122.272641
21
310.445849
31
0.0
0
LINE
8
0
6
CONTINUOUS
10
122.272641
20
310.445849
30
0.0
11
123.063060
21
309.470040
31
0.0
0
LINE
8
0
6
CONTINUOUS
10
123.746127
20
311.629321
30
0.0
11
122.272641
21
310.445849
31
0.0
0
LINE
8
0
6
CONTINUOUS
10
123.063060
20
309.470040
30
0.0
11
123.926419
21
310.163466
31
0.0
0
LINE
8
0
6
CONTINUOUS
10
121.482162
20
311.422496
30
0.0
11
122.177813
21
311.981223
31
0.0
0
LINE
8
0
6
CONTINUOUS
10
115.848156
20
318.377042
30
0.0
11
116.638635
21
317.400385
31
0.0
0
LINE
8
0
6
CONTINUOUS
10
116.638635
20
317.400385
30
0.0
11
117.429054
21
316.424586
31
0.0
0
LINE
8
0
6
CONTINUOUS
10
118.112121
20
318.583858
30
0.0
11
116.638635
21
317.400385
31
0.0
0
LINE
8
0
6
CONTINUOUS
10
117.429054
20
316.424586
30
0.0
11
118.299573
21
317.123763
31
0.0
0
LINE
8
0
6
CONTINUOUS
10
115.848156
20
318.377042
30
0.0
11
116.543999
21
318.935924
31
0.0
0
LINE
8
0
6
CONTINUOUS
10
109.289143
20
326.475370
30
0.0
11
110.079622
21
325.498723
31
0.0
0
LINE
8
0
6
CONTINUOUS
10
110.079622
20
325.498723
30
0.0
11
110.870041
21
324.522904
31
0.0
0
LINE
8
0
6
CONTINUOUS
10
111.553118
20
326.682185
30
0.0
11
110.079622
21
325.498723
31
0.0
0
LINE
8
0
6
CONTINUOUS
10
110.870041
20
324.522904
30
0.0
11
111.692845
21
325.183758
31
0.0
0
LINE
8
0
6
CONTINUOUS
10
109.289143
20
326.475370
30
0.0
11
110.018854
21
327.061449
31
0.0
0
LINE
8
0
6
CONTINUOUS
10
102.252108
20
335.165609
30
0.0
11
103.042587
21
334.188962
31
0.0
0
LINE
8
0
6
CONTINUOUS
10
103.042587
20
334.188962
30
0.0
11
103.833006
21
333.213153
31
0.0
0
LINE
8
0
6
CONTINUOUS
10
104.516073
20
335.372424
30
0.0
11
103.042587
21
334.188962
31
0.0
0
LINE
8
0
6
CONTINUOUS
10
103.833006
20
333.213153
30
0.0
11
104.605456
21
333.833568
31
0.0
0
LINE
8
0
6
CONTINUOUS
10
102.252108
20
335.165609
30
0.0
11
103.019460
21
335.781926
31
0.0
0
LINE
8
0
6
CONTINUOUS
10
95.216597
20
343.855528
30
0.0
11
96.007076
21
342.878891
31
0.0
0
LINE
8
0
6
CONTINUOUS
10
96.007076
20
342.878891
30
0.0
11
96.797495
21
341.903072
31
0.0
0
LINE
8
0
6
CONTINUOUS
10
97.480563
20
344.062354
30
0.0
11
96.007076
21
342.878891
31
0.0
0
LINE
8
0
6
CONTINUOUS
10
96.797495
20
341.903072
30
0.0
11
97.530972
21
342.492176
31
0.0
0
LINE
8
0
6
CONTINUOUS
10
95.216597
20
343.855528
30
0.0
11
96.022689
21
344.502954
31
0.0
0
LINE
8
0
6
CONTINUOUS
10
88.662087
20
351.952937
30
0.0
11
89.452566
21
350.976300
31
0.0
0
LINE
8
0
6
CONTINUOUS
10
89.452566
20
350.976300
30
0.0
11
90.242975
21
350.000501
31
0.0
0
LINE
8
0
6
CONTINUOUS
10
90.926052
20
352.159762
30
0.0
11
89.452566
21
350.976300
31
0.0
0
LINE
8
0
6
CONTINUOUS
10
90.242975
20
350.000501
30
0.0
11
90.936188
21
350.557267
31
0.0
0
LINE
8
0
6
CONTINUOUS
10
88.662087
20
351.952937
30
0.0
11
89.475552
21
352.606305
31
0.0
0
LINE
8
0
6
CONTINUOUS
10
83.035241
20
358.906005
30
0.0
11
83.825720
21
357.929368
31
0.0
0
LINE
8
0
6
CONTINUOUS
10
83.825720
20
357.929368
30
0.0
11
84.616139
21
356.953549
31
0.0
0
LINE
8
0
6
CONTINUOUS
10
85.299216
20
359.112830
30
0.0
11
83.825720
21
357.929368
31
0.0
0
LINE
8
0
6
CONTINUOUS
10
84.616139
20
356.953549
30
0.0
11
85.274828
21
357.482587
31
0.0
0
LINE
8
0
6
CONTINUOUS
10
83.035241
20
358.906005
30
0.0
11
83.879996
21
359.584485
31
0.0
0
LINE
8
0
6
CONTINUOUS
10
78.719535
20
364.240876
30
0.0
11
79.510024
21
363.264238
31
0.0
0
LINE
8
0
6
CONTINUOUS
10
79.510024
20
363.264238
30
0.0
11
80.300433
21
362.288420
31
0.0
0
LINE
8
0
6
CONTINUOUS
10
79.620520
20
363.352988
30
0.0
11
79.510024
21
363.264238
31
0.0
0
LINE
8
0
6
CONTINUOUS
10
80.300433
20
362.288420
30
0.0
11
80.906371
21
362.775089
31
0.0
0
LINE
8
0
6
CONTINUOUS
10
78.719535
20
364.240876
30
0.0
11
79.552555
21
364.909929
31
0.0
0
LINE
8
0
6
CONTINUOUS
10
76.009096
20
367.593977
30
0.0
11
76.799565
21
366.617329
31
0.0
0
LINE
8
0
6
CONTINUOUS
10
76.799565
20
366.617329
30
0.0
11
77.589984
21
365.641541
31
0.0
0
LINE
8
0
6
CONTINUOUS
10
77.339060
20
367.050644
30
0.0
11
76.799565
21
366.617329
31
0.0
0
LINE
8
0
6
CONTINUOUS
10
77.589984
20
365.641541
30
0.0
11
78.177731
21
366.113603
31
0.0
0
LINE
8
0
6
CONTINUOUS
10
76.009096
20
367.593977
30
0.0
11
76.841944
21
368.262902
31
0.0
0
LINE
8
0
6
CONTINUOUS
10
75.088592
20
368.736830
30
0.0
11
75.879061
21
367.760192
31
0.0
0
LINE
8
0
6
CONTINUOUS
10
76.562060
20
368.308754
30
0.0
11
75.879061
21
367.760192
31
0.0
0
LINE
8
0
6
CONTINUOUS
10
75.088592
20
368.736830
30
0.0
11
75.896786
21
369.385959
31
0.0
0
LINE
8
0
6
CONTINUOUS
10
77.601687
20
365.639084
30
0.0
11
78.008856
21
365.966119
31
0.0
0
LINE
8
0
6
CONTINUOUS
10
140.062682
20
297.955679
30
0.0
11
139.559011
21
299.342576
31
0.0
0
LINE
8
0
6
CONTINUOUS
10
140.649911
20
295.237187
30
0.0
11
140.062682
21
297.955679
31
0.0
0
LINE
8
0
6
CONTINUOUS
10
140.652548
20
290.389196
30
0.0
11
140.775965
21
292.732800
31
0.0
0
LINE
8
0
6
CONTINUOUS
10
137.797784
20
281.271134
30
0.0
11
137.839070
21
281.343235
31
0.0
0
LINE
8
0
6
CONTINUOUS
10
139.369426
20
284.782271
30
0.0
11
140.401122
21
288.142663
31
0.0
0
LINE
8
0
6
CONTINUOUS
10
140.401373
20
288.142623
30
0.0
11
140.652548
21
290.389196
31
0.0
0
LINE
8
0
6
CONTINUOUS
10
137.839070
20
281.343235
30
0.0
11
139.369426
21
284.782271
31
0.0
0
LINE
8
0
6
CONTINUOUS
10
133.444794
20
275.057156
30
0.0
11
134.089965
21
276.029888
31
0.0
0
LINE
8
0
6
CONTINUOUS
10
132.111170
20
280.098888
30
0.0
11
132.163728
21
279.821579
31
0.0
0
LINE
8
0
6
CONTINUOUS
10
133.483944
20
299.459128
30
0.0
11
133.686603
21
299.139152
31
0.0
0
LINE
8
0
6
CONTINUOUS
10
133.743112
20
299.658842
30
0.0
11
133.483944
21
299.459128
31
0.0
0
LINE
8
0
6
CONTINUOUS
10
132.551867
20
277.773851
30
0.0
11
133.142195
21
275.487067
31
0.0
0
LINE
8
0
6
CONTINUOUS
10
137.772112
20
302.890632
30
0.0
11
135.656764
21
301.133456
31
0.0
0
LINE
8
0
6
CONTINUOUS
10
135.183836
20
295.171368
30
0.0
11
135.443224
21
293.526883
31
0.0
0
LINE
8
0
6
CONTINUOUS
10
134.754571
20
296.830614
30
0.0
11
135.183836
21
295.171368
31
0.0
0
LINE
8
0
6
CONTINUOUS
10
132.299890
20
281.429379
30
0.0
11
132.137414
21
280.283990
31
0.0
0
LINE
8
0
6
CONTINUOUS
10
135.443224
20
293.526883
30
0.0
11
135.562830
21
291.931297
31
0.0
0
LINE
8
0
6
CONTINUOUS
10
135.540648
20
290.410670
30
0.0
11
135.414614
21
288.956441
31
0.0
0
LINE
8
0
6
CONTINUOUS
10
132.582163
20
282.004221
30
0.0
11
132.299890
21
281.429379
31
0.0
0
LINE
8
0
6
CONTINUOUS
10
140.044311
20
297.959484
30
0.0
11
139.053048
21
300.685707
31
0.0
0
LINE
8
0
6
CONTINUOUS
10
133.142195
20
275.487067
30
0.0
11
133.302745
21
274.865103
31
0.0
0
LINE
8
0
6
CONTINUOUS
10
140.758486
20
292.736416
30
0.0
11
140.632141
21
295.240872
31
0.0
0
LINE
8
0
6
CONTINUOUS
10
140.632141
20
295.240872
30
0.0
11
140.044311
21
297.959484
31
0.0
0
LINE
8
0
6
CONTINUOUS
10
133.974441
20
275.882779
30
0.0
11
135.874655
21
278.419775
31
0.0
0
LINE
8
0
6
CONTINUOUS
10
135.874655
20
278.419775
30
0.0
11
137.783645
21
281.274061
31
0.0
0
LINE
8
0
6
CONTINUOUS
10
138.109720
20
303.171087
30
0.0
11
137.772112
21
302.890632
31
0.0
0
LINE
8
0
6
CONTINUOUS
10
138.286857
20
302.704391
30
0.0
11
138.109720
21
303.171087
31
0.0
0
LINE
8
0
6
CONTINUOUS
10
140.758486
20
292.736416
30
0.0
11
140.635300
21
290.392772
31
0.0
0
LINE
8
0
6
CONTINUOUS
10
133.974441
20
275.882779
30
0.0
11
133.302745
21
274.865103
31
0.0
0
LINE
8
0
6
CONTINUOUS
10
133.444794
20
275.057156
30
0.0
11
134.084289
21
276.031067
31
0.0
0
LINE
8
0
6
CONTINUOUS
10
139.336785
20
284.742220
30
0.0
11
137.783645
21
281.274061
31
0.0
0
LINE
8
0
6
CONTINUOUS
10
140.153868
20
297.611463
30
0.0
11
140.126471
21
297.697757
31
0.0
0
LINE
8
0
6
CONTINUOUS
10
140.126471
20
297.697757
30
0.0
11
140.099085
21
297.784060
31
0.0
0
LINE
8
0
6
CONTINUOUS
10
135.656764
20
301.133456
30
0.0
11
133.743112
21
299.658842
31
0.0
0
LINE
8
0
6
CONTINUOUS
10
132.163728
20
279.821579
30
0.0
11
132.551867
21
277.773851
31
0.0
0
LINE
8
0
6
CONTINUOUS
10
139.053048
20
300.685707
30
0.0
11
138.286857
21
302.704391
31
0.0
0
LINE
8
0
6
CONTINUOUS
10
133.770659
20
299.002280
30
0.0
11
134.754571
21
296.830614
31
0.0
0
LINE
8
0
6
CONTINUOUS
10
135.562830
20
291.931297
30
0.0
11
135.540648
21
290.410670
31
0.0
0
LINE
8
0
6
CONTINUOUS
10
135.172504
20
287.960087
30
0.0
11
134.606144
21
286.091419
31
0.0
0
LINE
8
0
6
CONTINUOUS
10
134.134470
20
284.936111
30
0.0
11
133.148743
21
283.036121
31
0.0
0
LINE
8
0
6
CONTINUOUS
10
132.812228
20
282.472775
30
0.0
11
132.582163
21
282.004221
31
0.0
0
LINE
8
0
6
CONTINUOUS
10
133.148743
20
283.036121
30
0.0
11
132.812228
21
282.472775
31
0.0
0
LINE
8
0
6
CONTINUOUS
10
135.497567
20
289.372808
30
0.0
11
135.172504
21
287.960087
31
0.0
0
LINE
8
0
6
CONTINUOUS
10
134.713345
20
286.417018
30
0.0
11
134.134470
21
284.936111
31
0.0
0
LINE
8
0
6
CONTINUOUS
10
140.099085
20
297.784060
30
0.0
11
140.072199
21
297.868816
31
0.0
0
LINE
8
0
6
CONTINUOUS
10
136.151563
20
290.107443
30
0.0
11
136.175390
21
291.911452
31
0.0
0
LINE
8
0
6
CONTINUOUS
10
133.686603
20
299.139152
30
0.0
11
134.589829
21
297.626494
31
0.0
0
LINE
8
0
6
CONTINUOUS
10
134.563204
20
297.755116
30
0.0
11
133.686603
21
299.139152
31
0.0
0
LINE
8
0
6
CONTINUOUS
10
136.175390
20
291.911452
30
0.0
11
135.962382
21
293.835183
31
0.0
0
LINE
8
0
6
CONTINUOUS
10
132.137414
20
280.283990
30
0.0
11
132.111170
21
280.098888
31
0.0
0
LINE
8
0
6
CONTINUOUS
10
135.466239
20
295.839385
30
0.0
11
134.563204
21
297.755116
31
0.0
0
LINE
8
0
6
CONTINUOUS
10
135.962382
20
293.835183
30
0.0
11
135.466239
21
295.839385
31
0.0
0
LINE
8
0
6
CONTINUOUS
10
140.384466
20
288.146128
30
0.0
11
139.336785
21
284.742220
31
0.0
0
LINE
8
0
6
CONTINUOUS
10
140.635300
20
290.392772
30
0.0
11
140.384466
21
288.146128
31
0.0
0
LINE
8
0
6
CONTINUOUS
10
87.243196
20
351.007296
30
0.0
11
89.066463
21
348.393694
31
0.0
0
LINE
8
0
6
CONTINUOUS
10
92.245362
20
343.836829
30
0.0
11
93.235175
21
342.417958
31
0.0
0
LINE
8
0
6
CONTINUOUS
10
82.587038
20
358.437608
30
0.0
11
84.776730
21
354.809395
31
0.0
0
LINE
8
0
6
CONTINUOUS
10
73.175110
20
373.792864
30
0.0
11
75.896435
21
369.386526
31
0.0
0
LINE
8
0
6
CONTINUOUS
10
78.003965
20
365.974039
30
0.0
11
78.956362
21
364.431928
31
0.0
0
LINE
8
0
6
CONTINUOUS
10
93.235175
20
342.417958
30
0.0
11
94.502280
21
340.790426
31
0.0
0
LINE
8
0
6
CONTINUOUS
10
97.710030
20
336.670237
30
0.0
11
100.184209
21
333.492282
31
0.0
0
LINE
8
0
6
CONTINUOUS
10
139.559011
20
299.342576
30
0.0
11
140.158409
21
299.823995
31
0.0
0
LINE
8
0
6
CONTINUOUS
10
77.538680
20
377.836404
30
0.0
11
73.124298
21
374.290890
31
0.0
0
LINE
8
0
6
CONTINUOUS
10
109.262147
20
322.652927
30
0.0
11
110.259324
21
321.631020
31
0.0
0
LINE
8
0
6
CONTINUOUS
10
114.143366
20
317.650652
30
0.0
11
116.379186
21
315.359383
31
0.0
0
LINE
8
0
6
CONTINUOUS
10
101.760407
20
331.535208
30
0.0
11
104.365668
21
328.450502
31
0.0
0
LINE
8
0
6
CONTINUOUS
10
126.694454
20
317.499912
30
0.0
11
121.255185
21
324.220097
31
0.0
0
LINE
8
0
6
CONTINUOUS
10
135.371282
20
306.776267
30
0.0
11
131.460875
21
311.609845
31
0.0
0
LINE
8
0
6
CONTINUOUS
10
80.116567
20
375.013451
30
0.0
11
78.320555
21
377.226575
31
0.0
0
LINE
8
0
6
CONTINUOUS
10
78.320555
20
377.226575
30
0.0
11
77.710683
21
377.974534
31
0.0
0
LINE
8
0
6
CONTINUOUS
10
115.352113
20
331.512158
30
0.0
11
109.212076
21
339.095859
31
0.0
0
LINE
8
0
6
CONTINUOUS
10
83.029715
20
371.420235
30
0.0
11
80.116567
21
375.013451
31
0.0
0
LINE
8
0
6
CONTINUOUS
10
86.948025
20
366.585039
30
0.0
11
83.029715
21
371.420235
31
0.0
0
LINE
8
0
6
CONTINUOUS
10
91.720934
20
360.693624
30
0.0
11
86.948025
21
366.585039
31
0.0
0
LINE
8
0
6
CONTINUOUS
10
97.165007
20
353.972450
30
0.0
11
91.720934
21
360.693624
31
0.0
0
LINE
8
0
6
CONTINUOUS
10
103.071047
20
346.679770
30
0.0
11
97.165007
21
353.972450
31
0.0
0
LINE
8
0
6
CONTINUOUS
10
109.212076
20
339.095859
30
0.0
11
103.071047
21
346.679770
31
0.0
0
LINE
8
0
6
CONTINUOUS
10
121.255185
20
324.220097
30
0.0
11
115.352113
21
331.512158
31
0.0
0
LINE
8
0
6
CONTINUOUS
10
131.460875
20
311.609845
30
0.0
11
126.694454
21
317.499912
31
0.0
0
LINE
8
0
6
CONTINUOUS
10
138.275405
20
303.184910
30
0.0
11
135.371282
21
306.776267
31
0.0
0
LINE
8
0
6
CONTINUOUS
10
140.061629
20
300.973812
30
0.0
11
138.275405
21
303.184910
31
0.0
0
LINE
8
0
6
CONTINUOUS
10
72.952305
20
374.152730
30
0.0
11
73.175110
21
373.792864
31
0.0
0
LINE
8
0
6
CONTINUOUS
10
82.152713
20
362.770876
30
0.0
11
86.919134
21
356.880819
31
0.0
0
LINE
8
0
6
CONTINUOUS
10
73.551988
20
373.406869
30
0.0
11
75.338193
21
371.195792
31
0.0
0
LINE
8
0
6
CONTINUOUS
10
72.952305
20
374.152730
30
0.0
11
73.551988
21
373.406869
31
0.0
0
LINE
8
0
6
CONTINUOUS
10
73.124298
20
374.290890
30
0.0
11
72.952305
21
374.152730
31
0.0
0
LINE
8
0
6
CONTINUOUS
10
121.206949
20
324.230095
30
0.0
11
115.300899
21
331.522775
31
0.0
0
LINE
8
0
6
CONTINUOUS
10
110.542521
20
327.700961
30
0.0
11
116.448551
21
320.408301
31
0.0
0
LINE
8
0
6
CONTINUOUS
10
103.019833
20
346.690387
30
0.0
11
97.116771
21
353.982448
31
0.0
0
LINE
8
0
6
CONTINUOUS
10
109.159860
20
339.106686
30
0.0
11
103.019833
21
346.690387
31
0.0
0
LINE
8
0
6
CONTINUOUS
10
135.342271
20
306.782280
30
0.0
11
131.423951
21
311.617496
31
0.0
0
LINE
8
0
6
CONTINUOUS
10
77.710683
20
377.974534
30
0.0
11
77.538680
21
377.836404
31
0.0
0
LINE
8
0
6
CONTINUOUS
10
78.310367
20
377.228663
30
0.0
11
77.710683
21
377.974534
31
0.0
0
LINE
8
0
6
CONTINUOUS
10
130.583883
20
302.960476
30
0.0
11
133.497031
21
299.367261
31
0.0
0
LINE
8
0
6
CONTINUOUS
10
126.665553
20
307.795692
30
0.0
11
130.583883
21
302.960476
31
0.0
0
LINE
8
0
6
CONTINUOUS
10
121.892644
20
313.687107
30
0.0
11
126.665553
21
307.795692
31
0.0
0
LINE
8
0
6
CONTINUOUS
10
116.448551
20
320.408301
30
0.0
11
121.892644
21
313.687107
31
0.0
0
LINE
8
0
6
CONTINUOUS
10
104.401482
20
335.284882
30
0.0
11
110.542521
21
327.700961
31
0.0
0
LINE
8
0
6
CONTINUOUS
10
98.261445
20
342.868584
30
0.0
11
104.401482
21
335.284882
31
0.0
0
LINE
8
0
6
CONTINUOUS
10
92.358373
20
350.160654
30
0.0
11
98.261445
21
342.868584
31
0.0
0
LINE
8
0
6
CONTINUOUS
10
86.919134
20
356.880819
30
0.0
11
92.358373
21
350.160654
31
0.0
0
LINE
8
0
6
CONTINUOUS
10
78.242316
20
367.604444
30
0.0
11
82.152713
21
362.770876
31
0.0
0
LINE
8
0
6
CONTINUOUS
10
75.338193
20
371.195792
30
0.0
11
78.242316
21
367.604444
31
0.0
0
LINE
8
0
6
CONTINUOUS
10
80.096591
20
375.017585
30
0.0
11
78.310367
21
377.228663
31
0.0
0
LINE
8
0
6
CONTINUOUS
10
83.000694
20
371.426238
30
0.0
11
80.096591
21
375.017585
31
0.0
0
LINE
8
0
6
CONTINUOUS
10
86.911101
20
366.592670
30
0.0
11
83.000694
21
371.426238
31
0.0
0
LINE
8
0
6
CONTINUOUS
10
91.677512
20
360.702633
30
0.0
11
86.911101
21
366.592670
31
0.0
0
LINE
8
0
6
CONTINUOUS
10
97.116771
20
353.982448
30
0.0
11
91.677512
21
360.702633
31
0.0
0
LINE
8
0
6
CONTINUOUS
10
115.300899
20
331.522775
30
0.0
11
109.159860
21
339.106686
31
0.0
0
LINE
8
0
6
CONTINUOUS
10
126.651032
20
317.508901
30
0.0
11
121.206949
21
324.230095
31
0.0
0
LINE
8
0
6
CONTINUOUS
10
131.423951
20
311.617496
30
0.0
11
126.651032
21
317.508901
31
0.0
0
LINE
8
0
6
CONTINUOUS
10
138.255419
20
303.189055
30
0.0
11
135.342271
21
306.782280
31
0.0
0
LINE
8
0
6
CONTINUOUS
10
140.051441
20
300.975930
30
0.0
11
138.255419
21
303.189055
31
0.0
0
LINE
8
0
6
CONTINUOUS
10
136.133101
20
305.830003
30
0.0
11
137.787776
21
303.781735
31
0.0
0
LINE
8
0
6
CONTINUOUS
10
133.442849
20
309.156856
30
0.0
11
136.133101
21
305.830003
31
0.0
0
LINE
8
0
6
CONTINUOUS
10
125.405024
20
319.090753
30
0.0
11
129.820420
21
313.634472
31
0.0
0
LINE
8
0
6
CONTINUOUS
10
114.898008
20
332.071070
30
0.0
11
120.366349
21
325.316028
31
0.0
0
LINE
8
0
6
CONTINUOUS
10
103.521391
20
346.121648
30
0.0
11
109.210161
21
339.096259
31
0.0
0
LINE
8
0
6
CONTINUOUS
10
98.050302
20
352.877259
30
0.0
11
103.521391
21
346.121648
31
0.0
0
LINE
8
0
6
CONTINUOUS
10
93.007155
20
359.103442
30
0.0
11
98.050302
21
352.877259
31
0.0
0
LINE
8
0
6
CONTINUOUS
10
88.585762
20
364.560972
30
0.0
11
93.007155
21
359.103442
31
0.0
0
LINE
8
0
6
CONTINUOUS
10
84.956013
20
369.040066
30
0.0
11
88.585762
21
364.560972
31
0.0
0
LINE
8
0
6
CONTINUOUS
10
82.257417
20
372.368657
30
0.0
11
84.956013
21
369.040066
31
0.0
0
LINE
8
0
6
CONTINUOUS
10
137.787776
20
303.781735
30
0.0
11
138.343316
21
303.090776
31
0.0
0
LINE
8
0
6
CONTINUOUS
10
138.343316
20
303.090776
30
0.0
11
137.778340
21
303.783692
31
0.0
0
LINE
8
0
6
CONTINUOUS
10
109.210161
20
339.096259
30
0.0
11
114.898008
21
332.071070
31
0.0
0
LINE
8
0
6
CONTINUOUS
10
80.028700
20
375.111690
30
0.0
11
80.593656
21
374.418803
31
0.0
0
LINE
8
0
6
CONTINUOUS
10
80.593656
20
374.418803
30
0.0
11
82.257417
21
372.368657
31
0.0
0
LINE
8
0
6
CONTINUOUS
10
80.584220
20
374.420750
30
0.0
11
80.028700
21
375.111690
31
0.0
0
LINE
8
0
6
CONTINUOUS
10
129.820420
20
313.634472
30
0.0
11
133.442849
21
309.156856
31
0.0
0
LINE
8
0
6
CONTINUOUS
10
120.366349
20
325.316028
30
0.0
11
125.405024
21
319.090753
31
0.0
0
LINE
8
0
6
CONTINUOUS
10
157.088077
20
190.343342
30
0.0
11
157.181926
21
189.964865
31
0.0
0
LINE
8
0
6
CONTINUOUS
10
162.677910
20
191.695108
30
0.0
11
167.338202
21
192.837061
31
0.0
0
LINE
8
0
6
CONTINUOUS
10
156.085914
20
190.093989
30
0.0
11
158.716158
21
190.731244
31
0.0
0
LINE
8
0
6
CONTINUOUS
10
167.338202
20
192.837061
30
0.0
11
171.079174
21
193.762741
31
0.0
0
LINE
8
0
6
CONTINUOUS
10
174.692899
20
194.660576
30
0.0
11
177.953914
21
195.478818
31
0.0
0
LINE
8
0
6
CONTINUOUS
10
171.079174
20
193.762741
30
0.0
11
174.692899
21
194.660576
31
0.0
0
LINE
8
0
6
CONTINUOUS
10
158.528431
20
191.441560
30
0.0
11
158.716158
21
190.731244
31
0.0
0
LINE
8
0
6
CONTINUOUS
10
158.716158
20
190.731244
30
0.0
11
162.677910
21
191.695108
31
0.0
0
LINE
8
0
6
CONTINUOUS
10
155.169642
20
189.871443
30
0.0
11
156.085914
21
190.093989
31
0.0
0
LINE
8
0
6
CONTINUOUS
10
154.986728
20
190.583107
30
0.0
11
155.169642
21
189.871443
31
0.0
0
LINE
8
0
6
CONTINUOUS
10
179.520963
20
195.844588
30
0.0
11
179.350324
21
196.559178
31
0.0
0
LINE
8
0
6
CONTINUOUS
10
177.953914
20
195.478818
30
0.0
11
179.520963
21
195.844588
31
0.0
0
LINE
8
0
6
CONTINUOUS
10
177.784919
20
196.193788
30
0.0
11
177.953914
21
195.478818
31
0.0
0
LINE
8
0
6
CONTINUOUS
10
178.317474
20
195.548572
30
0.0
11
178.781687
21
195.662752
31
0.0
0
LINE
8
0
6
CONTINUOUS
10
172.874424
20
216.969435
30
0.0
11
177.784919
21
196.193788
31
0.0
0
LINE
8
0
6
CONTINUOUS
10
179.350324
20
196.559178
30
0.0
11
174.391463
21
217.326575
31
0.0
0
LINE
8
0
6
CONTINUOUS
10
139.343082
20
301.858963
30
0.0
11
140.158409
21
299.823995
31
0.0
0
LINE
8
0
6
CONTINUOUS
10
136.934731
20
305.592585
30
0.0
11
138.438934
21
303.506314
31
0.0
0
LINE
8
0
6
CONTINUOUS
10
138.086775
20
304.067183
30
0.0
11
139.535512
21
301.464269
31
0.0
0
LINE
8
0
6
CONTINUOUS
10
133.693392
20
274.904874
30
0.0
11
133.389218
21
274.516312
31
0.0
0
LINE
8
0
6
CONTINUOUS
10
140.947105
20
288.286326
30
0.0
11
140.048864
21
285.009601
31
0.0
0
LINE
8
0
6
CONTINUOUS
10
136.183192
20
278.036907
30
0.0
11
133.693392
21
274.904874
31
0.0
0
LINE
8
0
6
CONTINUOUS
10
138.605582
20
281.818151
30
0.0
11
136.028568
21
277.841467
31
0.0
0
LINE
8
0
6
CONTINUOUS
10
78.088454
20
378.277961
30
0.0
11
78.688137
21
377.532079
31
0.0
0
LINE
8
0
6
CONTINUOUS
10
78.416494
20
378.541426
30
0.0
11
78.088454
21
378.277961
31
0.0
0
LINE
8
0
6
CONTINUOUS
10
139.535512
20
301.464269
30
0.0
11
140.452126
21
299.090911
31
0.0
0
LINE
8
0
6
CONTINUOUS
10
97.494532
20
354.285864
30
0.0
11
103.397603
21
346.993814
31
0.0
0
LINE
8
0
6
CONTINUOUS
10
153.129444
20
311.469498
30
0.0
11
151.343220
21
313.680605
31
0.0
0
LINE
8
0
6
CONTINUOUS
10
134.323000
20
334.715783
30
0.0
11
128.419928
21
342.007853
31
0.0
0
LINE
8
0
6
CONTINUOUS
10
153.729148
20
310.723607
30
0.0
11
153.129444
21
311.469498
31
0.0
0
LINE
8
0
6
CONTINUOUS
10
116.138852
20
357.175466
30
0.0
11
110.232822
21
364.468136
31
0.0
0
LINE
8
0
6
CONTINUOUS
10
148.439097
20
317.271953
30
0.0
11
144.528690
21
322.105531
31
0.0
0
LINE
8
0
6
CONTINUOUS
10
122.279891
20
349.591555
30
0.0
11
116.138852
21
357.175466
31
0.0
0
LINE
8
0
6
CONTINUOUS
10
104.788739
20
371.189310
30
0.0
11
100.015840
21
377.080725
31
0.0
0
LINE
8
0
6
CONTINUOUS
10
93.184382
20
385.509146
30
0.0
11
91.388370
21
387.722261
31
0.0
0
LINE
8
0
6
CONTINUOUS
10
151.343220
20
313.680605
30
0.0
11
148.439097
21
317.271953
31
0.0
0
LINE
8
0
6
CONTINUOUS
10
139.762259
20
327.995598
30
0.0
11
134.323000
21
334.715783
31
0.0
0
LINE
8
0
6
CONTINUOUS
10
110.232822
20
364.468136
30
0.0
11
104.788739
21
371.189310
31
0.0
0
LINE
8
0
6
CONTINUOUS
10
144.528690
20
322.105531
30
0.0
11
139.762259
21
327.995598
31
0.0
0
LINE
8
0
6
CONTINUOUS
10
96.097530
20
381.915931
30
0.0
11
93.184382
21
385.509146
31
0.0
0
LINE
8
0
6
CONTINUOUS
10
100.015840
20
377.080725
30
0.0
11
96.097530
21
381.915931
31
0.0
0
LINE
8
0
6
CONTINUOUS
10
91.388370
20
387.722261
30
0.0
11
90.778498
21
388.470220
31
0.0
0
LINE
8
0
6
CONTINUOUS
10
153.074631
20
212.077389
30
0.0
11
158.528431
21
191.441560
31
0.0
0
LINE
8
0
6
CONTINUOUS
10
162.489019
20
192.404854
30
0.0
11
157.002989
21
213.017611
31
0.0
0
LINE
8
0
6
CONTINUOUS
10
103.397603
20
346.993814
30
0.0
11
109.537630
21
339.410092
31
0.0
0
LINE
8
0
6
CONTINUOUS
10
140.048864
20
285.009601
30
0.0
11
138.605582
21
281.818151
31
0.0
0
LINE
8
0
6
CONTINUOUS
10
141.072497
20
290.728089
30
0.0
11
140.947105
21
288.286326
31
0.0
0
LINE
8
0
6
CONTINUOUS
10
87.288872
20
366.896086
30
0.0
11
92.055282
21
361.006039
31
0.0
0
LINE
8
0
6
CONTINUOUS
10
133.551654
20
273.887007
30
0.0
11
133.775904
21
273.018237
31
0.0
0
LINE
8
0
6
CONTINUOUS
10
83.378474
20
371.729664
30
0.0
11
87.288872
21
366.896086
31
0.0
0
LINE
8
0
6
CONTINUOUS
10
141.317906
20
293.786763
30
0.0
11
141.072497
21
290.728089
31
0.0
0
LINE
8
0
6
CONTINUOUS
10
80.474351
20
375.321002
30
0.0
11
83.378474
21
371.729664
31
0.0
0
LINE
8
0
6
CONTINUOUS
10
140.452126
20
299.090911
30
0.0
11
141.162019
21
296.495347
31
0.0
0
LINE
8
0
6
CONTINUOUS
10
153.096713
20
310.215672
30
0.0
11
153.729148
21
310.723607
31
0.0
0
LINE
8
0
6
CONTINUOUS
10
84.787249
20
383.658245
30
0.0
11
79.425517
21
379.351848
31
0.0
0
LINE
8
0
6
CONTINUOUS
10
90.778498
20
388.470220
30
0.0
11
90.148981
21
387.964613
31
0.0
0
LINE
8
0
6
CONTINUOUS
10
152.781959
20
309.962863
30
0.0
11
153.096713
21
310.215672
31
0.0
0
LINE
8
0
6
CONTINUOUS
10
137.378497
20
305.001862
30
0.0
11
138.438934
21
303.506314
31
0.0
0
LINE
8
0
6
CONTINUOUS
10
135.720031
20
307.085686
30
0.0
11
137.378497
21
305.001862
31
0.0
0
LINE
8
0
6
CONTINUOUS
10
131.801712
20
311.920912
30
0.0
11
135.720031
21
307.085686
31
0.0
0
LINE
8
0
6
CONTINUOUS
10
127.028803
20
317.812318
30
0.0
11
131.801712
21
311.920912
31
0.0
0
LINE
8
0
6
CONTINUOUS
10
121.584710
20
324.533511
30
0.0
11
127.028803
21
317.812318
31
0.0
0
LINE
8
0
6
CONTINUOUS
10
115.678680
20
331.826181
30
0.0
11
121.584710
21
324.533511
31
0.0
0
LINE
8
0
6
CONTINUOUS
10
109.537630
20
339.410092
30
0.0
11
115.678680
21
331.826181
31
0.0
0
LINE
8
0
6
CONTINUOUS
10
138.438934
20
303.506314
30
0.0
11
139.535512
21
301.464269
31
0.0
0
LINE
8
0
6
CONTINUOUS
10
151.323244
20
313.684740
30
0.0
11
153.119266
21
311.471606
31
0.0
0
LINE
8
0
6
CONTINUOUS
10
128.368714
20
342.018460
30
0.0
11
134.274754
21
334.725791
31
0.0
0
LINE
8
0
6
CONTINUOUS
10
153.119266
20
311.471606
30
0.0
11
153.729148
21
310.723607
31
0.0
0
LINE
8
0
6
CONTINUOUS
10
110.184576
20
364.478144
30
0.0
11
116.087638
21
357.186073
31
0.0
0
LINE
8
0
6
CONTINUOUS
10
144.491766
20
322.113182
30
0.0
11
148.410086
21
317.277966
31
0.0
0
LINE
8
0
6
CONTINUOUS
10
116.087638
20
357.186073
30
0.0
11
122.227675
21
349.602372
31
0.0
0
LINE
8
0
6
CONTINUOUS
10
99.978916
20
377.088366
30
0.0
11
104.745327
21
371.198319
31
0.0
0
LINE
8
0
6
CONTINUOUS
10
91.378182
20
387.724358
30
0.0
11
93.164396
21
385.513281
31
0.0
0
LINE
8
0
6
CONTINUOUS
10
148.410086
20
317.277966
30
0.0
11
151.323244
21
313.684740
31
0.0
0
LINE
8
0
6
CONTINUOUS
10
134.274754
20
334.725791
30
0.0
11
139.718847
21
328.004597
31
0.0
0
LINE
8
0
6
CONTINUOUS
10
104.745327
20
371.198319
30
0.0
11
110.184576
21
364.478144
31
0.0
0
LINE
8
0
6
CONTINUOUS
10
139.718847
20
328.004597
30
0.0
11
144.491766
21
322.113182
31
0.0
0
LINE
8
0
6
CONTINUOUS
10
122.227675
20
349.602372
30
0.0
11
128.368714
21
342.018460
31
0.0
0
LINE
8
0
6
CONTINUOUS
10
93.164396
20
385.513281
30
0.0
11
96.068509
21
381.921924
31
0.0
0
LINE
8
0
6
CONTINUOUS
10
96.068509
20
381.921924
30
0.0
11
99.978916
21
377.088366
31
0.0
0
LINE
8
0
6
CONTINUOUS
10
90.778498
20
388.470220
30
0.0
11
91.378182
21
387.724358
31
0.0
0
LINE
8
0
6
CONTINUOUS
10
141.162019
20
296.495347
30
0.0
11
141.317906
21
293.786763
31
0.0
0
LINE
8
0
6
CONTINUOUS
10
156.539347
20
292.073372
30
0.0
11
155.897194
21
294.758915
31
0.0
0
LINE
8
0
6
CONTINUOUS
10
90.148981
20
387.964613
30
0.0
11
84.787249
21
383.658245
31
0.0
0
LINE
8
0
6
CONTINUOUS
10
136.028568
20
277.841467
30
0.0
11
134.010001
21
275.245564
31
0.0
0
LINE
8
0
6
CONTINUOUS
10
151.968997
20
290.876127
30
0.0
11
151.248314
21
293.691680
31
0.0
0
LINE
8
0
6
CONTINUOUS
10
152.781959
20
309.962863
30
0.0
11
152.182265
21
310.710193
31
0.0
0
LINE
8
0
6
CONTINUOUS
10
153.392633
20
305.515849
30
0.0
11
152.781959
21
309.962863
31
0.0
0
LINE
8
0
6
CONTINUOUS
10
152.182265
20
310.710193
30
0.0
11
149.066037
21
310.718513
31
0.0
0
LINE
8
0
6
CONTINUOUS
10
92.055282
20
361.006039
30
0.0
11
97.494532
21
354.285864
31
0.0
0
LINE
8
0
6
CONTINUOUS
10
154.609188
20
300.129133
30
0.0
11
153.992196
21
302.820538
31
0.0
0
LINE
8
0
6
CONTINUOUS
10
155.258571
20
297.445307
30
0.0
11
154.609188
21
300.129133
31
0.0
0
LINE
8
0
6
CONTINUOUS
10
150.530769
20
296.508980
30
0.0
11
151.248314
21
293.691680
31
0.0
0
LINE
8
0
6
CONTINUOUS
10
155.897194
20
294.758915
30
0.0
11
155.258571
21
297.445307
31
0.0
0
LINE
8
0
6
CONTINUOUS
10
78.688137
20
377.532079
30
0.0
11
80.474351
21
375.321002
31
0.0
0
LINE
8
0
6
CONTINUOUS
10
134.010001
20
275.245564
30
0.0
11
133.389218
21
274.516312
31
0.0
0
LINE
8
0
6
CONTINUOUS
10
133.389218
20
274.516312
30
0.0
11
133.551654
21
273.887007
31
0.0
0
LINE
8
0
6
CONTINUOUS
10
146.082522
20
254.060132
30
0.0
11
140.560680
21
274.566750
31
0.0
0
LINE
8
0
6
CONTINUOUS
10
133.775904
20
273.018237
30
0.0
11
139.074568
21
252.433095
31
0.0
0
LINE
8
0
6
CONTINUOUS
10
146.962482
20
276.090803
30
0.0
11
152.006913
21
255.478935
31
0.0
0
LINE
8
0
6
CONTINUOUS
10
139.074568
20
252.433095
30
0.0
11
144.373243
21
231.847934
31
0.0
0
LINE
8
0
6
CONTINUOUS
10
157.051013
20
234.867056
30
0.0
11
152.006913
21
255.478935
31
0.0
0
LINE
8
0
6
CONTINUOUS
10
163.085063
20
258.331182
30
0.0
11
167.985951
21
237.651767
31
0.0
0
LINE
8
0
6
CONTINUOUS
10
169.453781
20
238.000677
30
0.0
11
164.516100
21
258.674779
31
0.0
0
LINE
8
0
6
CONTINUOUS
10
167.985951
20
237.651767
30
0.0
11
172.874424
21
216.969435
31
0.0
0
LINE
8
0
6
CONTINUOUS
10
174.391463
20
217.326575
30
0.0
11
169.453781
21
238.000677
31
0.0
0
LINE
8
0
6
CONTINUOUS
10
153.074631
20
212.077389
30
0.0
11
147.656310
21
232.623389
31
0.0
0
LINE
8
0
6
CONTINUOUS
10
151.542269
20
233.538682
30
0.0
11
157.002989
21
213.017611
31
0.0
0
LINE
8
0
6
CONTINUOUS
10
162.095093
20
214.255117
30
0.0
11
157.051013
21
234.867056
31
0.0
0
LINE
8
0
6
CONTINUOUS
10
142.270912
20
253.178058
30
0.0
11
147.656310
21
232.623389
31
0.0
0
LINE
8
0
6
CONTINUOUS
10
151.542269
20
233.538682
30
0.0
11
146.082522
21
254.060132
31
0.0
0
LINE
8
0
6
CONTINUOUS
10
149.671918
20
211.262792
30
0.0
11
154.986728
21
190.583107
31
0.0
0
LINE
8
0
6
CONTINUOUS
10
155.901938
20
190.805363
30
0.0
11
150.556140
21
211.475830
31
0.0
0
LINE
8
0
6
CONTINUOUS
10
79.425517
20
379.351848
30
0.0
11
78.416494
21
378.541426
31
0.0
0
LINE
8
0
6
CONTINUOUS
10
144.373243
20
231.847934
30
0.0
11
149.671918
21
211.262792
31
0.0
0
LINE
8
0
6
CONTINUOUS
10
159.578408
20
279.348871
30
0.0
11
156.539347
21
292.073372
31
0.0
0
LINE
8
0
6
CONTINUOUS
10
164.516100
20
258.674779
30
0.0
11
159.578408
21
279.348871
31
0.0
0
LINE
8
0
6
CONTINUOUS
10
128.419928
20
342.007853
30
0.0
11
122.279891
21
349.591555
31
0.0
0
LINE
8
0
6
CONTINUOUS
10
153.992196
20
302.820538
30
0.0
11
153.392633
21
305.515849
31
0.0
0
LINE
8
0
6
CONTINUOUS
10
182.269135
20
162.400660
30
0.0
11
181.650125
21
164.842954
31
0.0
0
LINE
8
0
6
CONTINUOUS
10
180.171045
20
161.932820
30
0.0
11
179.574448
21
164.286769
31
0.0
0
LINE
8
0
6
CONTINUOUS
10
175.335015
20
160.747210
30
0.0
11
174.764593
21
162.997971
31
0.0
0
LINE
8
0
6
CONTINUOUS
10
170.593915
20
159.538260
30
0.0
11
170.038083
21
161.731514
31
0.0
0
LINE
8
0
6
CONTINUOUS
10
168.163669
20
161.229297
30
0.0
11
168.725015
21
159.014270
31
0.0
0
LINE
8
0
6
CONTINUOUS
10
183.636505
20
156.845240
30
0.0
11
182.269135
21
162.400660
31
0.0
0
LINE
8
0
6
CONTINUOUS
10
181.535725
20
156.388310
30
0.0
11
180.171045
21
161.932820
31
0.0
0
LINE
8
0
6
CONTINUOUS
10
176.693625
20
155.227190
30
0.0
11
175.335015
21
160.747210
31
0.0
0
LINE
8
0
6
CONTINUOUS
10
171.946655
20
154.042040
30
0.0
11
170.593915
21
159.538260
31
0.0
0
LINE
8
0
6
CONTINUOUS
10
168.725015
20
159.014270
30
0.0
11
170.075515
21
153.527140
31
0.0
0
LINE
8
0
6
CONTINUOUS
10
185.055795
20
150.998220
30
0.0
11
183.636505
21
156.845240
31
0.0
0
LINE
8
0
6
CONTINUOUS
10
182.955645
20
150.538700
30
0.0
11
181.535725
21
156.388310
31
0.0
0
LINE
8
0
6
CONTINUOUS
10
178.112185
20
149.383150
30
0.0
11
176.693625
21
155.227190
31
0.0
0
LINE
8
0
6
CONTINUOUS
10
173.362655
20
148.208530
30
0.0
11
171.946655
21
154.042040
31
0.0
0
LINE
8
0
6
CONTINUOUS
10
170.075515
20
153.527140
30
0.0
11
171.489255
21
147.702860
31
0.0
0
LINE
8
0
6
CONTINUOUS
10
186.540035
20
144.880590
30
0.0
11
185.055795
21
150.998220
31
0.0
0
LINE
8
0
6
CONTINUOUS
10
184.443325
20
144.407030
30
0.0
11
182.955645
21
150.538700
31
0.0
0
LINE
8
0
6
CONTINUOUS
10
179.602425
20
143.240960
30
0.0
11
178.112185
21
149.383150
31
0.0
0
LINE
8
0
6
CONTINUOUS
10
174.853075
20
142.065570
30
0.0
11
173.362655
21
148.208530
31
0.0
0
LINE
8
0
6
CONTINUOUS
10
171.489255
20
147.702860
30
0.0
11
172.977365
21
141.569430
31
0.0
0
LINE
8
0
6
CONTINUOUS
10
188.101815
20
138.514620
30
0.0
11
186.540035
21
144.880590
31
0.0
0
LINE
8
0
6
CONTINUOUS
10
186.011095
20
138.016650
30
0.0
11
184.443325
21
144.407030
31
0.0
0
LINE
8
0
6
CONTINUOUS
10
181.176255
20
136.825930
30
0.0
11
179.602425
21
143.240960
31
0.0
0
LINE
8
0
6
CONTINUOUS
10
176.429485
20
135.640020
30
0.0
11
174.853075
21
142.065570
31
0.0
0
LINE
8
0
6
CONTINUOUS
10
172.977365
20
141.569430
30
0.0
11
174.551375
21
135.153650
31
0.0
0
LINE
8
0
6
CONTINUOUS
10
189.753455
20
131.922830
30
0.0
11
188.101815
21
138.514620
31
0.0
0
LINE
8
0
6
CONTINUOUS
10
187.671155
20
131.391210
30
0.0
11
186.011095
21
138.016650
31
0.0
0
LINE
8
0
6
CONTINUOUS
10
182.845695
20
130.163260
30
0.0
11
181.176255
21
136.825930
31
0.0
0
LINE
8
0
6
CONTINUOUS
10
178.103765
20
128.958050
30
0.0
11
176.429485
21
135.640020
31
0.0
0
LINE
8
0
6
CONTINUOUS
10
174.551375
20
135.153650
30
0.0
11
176.223115
21
128.481740
31
0.0
0
LINE
8
0
6
CONTINUOUS
10
191.507065
20
125.128390
30
0.0
11
189.753455
21
131.922830
31
0.0
0
LINE
8
0
6
CONTINUOUS
10
189.435645
20
124.554820
30
0.0
11
187.671155
21
131.391210
31
0.0
0
LINE
8
0
6
CONTINUOUS
10
184.622855
20
123.277810
30
0.0
11
182.845695
21
130.163260
31
0.0
0
LINE
8
0
6
CONTINUOUS
10
179.887955
20
122.045430
30
0.0
11
178.103765
21
128.958050
31
0.0
0
LINE
8
0
6
CONTINUOUS
10
176.223115
20
128.481740
30
0.0
11
178.004595
21
121.579580
31
0.0
0
LINE
8
0
6
CONTINUOUS
10
193.407005
20
118.032290
30
0.0
11
191.507065
21
125.128390
31
0.0
0
LINE
8
0
6
CONTINUOUS
10
191.308465
20
117.563620
30
0.0
11
189.435645
21
124.554820
31
0.0
0
LINE
8
0
6
CONTINUOUS
10
186.475975
20
116.362910
30
0.0
11
184.622855
21
123.277810
31
0.0
0
LINE
8
0
6
CONTINUOUS
10
181.740335
20
115.133430
30
0.0
11
179.887955
21
122.045430
31
0.0
0
LINE
8
0
6
CONTINUOUS
10
178.004595
20
121.579580
30
0.0
11
179.875625
21
114.595480
31
0.0
0
LINE
8
0
6
CONTINUOUS
10
208.675165
20
54.318000
30
0.0
11
193.407005
21
118.032290
31
0.0
0
LINE
8
0
6
CONTINUOUS
10
206.483505
20
54.254830
30
0.0
11
191.308465
21
117.563620
31
0.0
0
LINE
8
0
6
CONTINUOUS
10
201.572275
20
53.396830
30
0.0
11
186.475975
21
116.362910
31
0.0
0
LINE
8
0
6
CONTINUOUS
10
196.818425
20
52.246620
30
0.0
11
181.740335
21
115.133430
31
0.0
0
LINE
8
0
6
CONTINUOUS
10
179.875625
20
114.595480
30
0.0
11
195.006685
21
51.478030
31
0.0
0
LINE
8
0
6
CONTINUOUS
10
218.985835
20
-5.518200
30
0.0
11
208.675165
21
54.318000
31
0.0
0
LINE
8
0
6
CONTINUOUS
10
216.703435
20
-5.057150
30
0.0
11
206.483505
21
54.254830
31
0.0
0
LINE
8
0
6
CONTINUOUS
10
211.712395
20
-5.453880
30
0.0
11
201.572275
21
53.396830
31
0.0
0
LINE
8
0
6
CONTINUOUS
10
206.936395
20
-6.476140
30
0.0
11
196.818425
21
52.246620
31
0.0
0
LINE
8
0
6
CONTINUOUS
10
195.006685
20
51.478030
30
0.0
11
205.173155
21
-7.524960
31
0.0
0
LINE
8
0
6
CONTINUOUS
10
225.097425
20
-62.017600
30
0.0
11
218.985835
21
-5.518200
31
0.0
0
LINE
8
0
6
CONTINUOUS
10
222.766535
20
-61.115430
30
0.0
11
216.703435
21
-5.057150
31
0.0
0
LINE
8
0
6
CONTINUOUS
10
217.730585
20
-61.103600
30
0.0
11
211.712395
21
-5.453880
31
0.0
0
LINE
8
0
6
CONTINUOUS
10
212.939545
20
-61.989030
30
0.0
11
206.936395
21
-6.476140
31
0.0
0
LINE
8
0
6
CONTINUOUS
10
205.173155
20
-7.524960
30
0.0
11
211.199955
21
-63.253110
31
0.0
0
LINE
8
0
6
CONTINUOUS
10
227.806435
20
-115.847100
30
0.0
11
225.097425
21
-62.017600
31
0.0
0
LINE
8
0
6
CONTINUOUS
10
225.458375
20
-114.620480
30
0.0
11
222.766535
21
-61.115430
31
0.0
0
LINE
8
0
6
CONTINUOUS
10
220.405025
20
-114.280140
30
0.0
11
217.730585
21
-61.103600
31
0.0
0
LINE
8
0
6
CONTINUOUS
10
215.606575
20
-115.025450
30
0.0
11
212.939545
21
-61.989030
31
0.0
0
LINE
8
0
6
CONTINUOUS
10
211.199955
20
-63.253110
30
0.0
11
213.873895
21
-116.419880
31
0.0
0
LINE
8
0
6
CONTINUOUS
10
227.913235
20
-167.681550
30
0.0
11
227.806435
21
-115.847100
31
0.0
0
LINE
8
0
6
CONTINUOUS
10
225.564185
20
-166.268320
30
0.0
11
225.458375
21
-114.620480
31
0.0
0
LINE
8
0
6
CONTINUOUS
10
220.509605
20
-165.697450
30
0.0
11
220.405025
21
-114.280140
31
0.0
0
LINE
8
0
6
CONTINUOUS
10
215.710415
20
-166.303300
30
0.0
11
215.606575
21
-115.025450
31
0.0
0
LINE
8
0
6
CONTINUOUS
10
213.873895
20
-116.419880
30
0.0
11
213.977905
21
-167.731100
31
0.0
0
LINE
8
0
6
CONTINUOUS
10
226.218815
20
-218.201610
30
0.0
11
227.913235
21
-167.681550
31
0.0
0
LINE
8
0
6
CONTINUOUS
10
223.870825
20
-216.752590
30
0.0
11
225.564185
21
-166.268320
31
0.0
0
LINE
8
0
6
CONTINUOUS
10
218.819865
20
-216.060110
30
0.0
11
220.509605
21
-165.697450
31
0.0
0
LINE
8
0
6
CONTINUOUS
10
214.024735
20
-216.529820
30
0.0
11
215.710415
21
-166.303300
31
0.0
0
LINE
8
0
6
CONTINUOUS
10
213.977905
20
-167.731100
30
0.0
11
212.294335
21
-217.886590
31
0.0
0
LINE
8
0
6
CONTINUOUS
10
223.522265
20
-268.090790
30
0.0
11
226.218815
21
-218.201610
31
0.0
0
LINE
8
0
6
CONTINUOUS
10
221.168055
20
-266.766180
30
0.0
11
223.870825
21
-216.752590
31
0.0
0
LINE
8
0
6
CONTINUOUS
10
216.117335
20
-266.068960
30
0.0
11
218.819865
21
-216.060110
31
0.0
0
LINE
8
0
6
CONTINUOUS
10
211.328755
20
-266.407480
30
0.0
11
214.024735
21
-216.529820
31
0.0
0
LINE
8
0
6
CONTINUOUS
10
212.294335
20
-217.886590
30
0.0
11
209.607405
21
-267.583440
31
0.0
0
LINE
8
0
6
CONTINUOUS
10
220.619215
20
-318.033530
30
0.0
11
223.522265
21
-268.090790
31
0.0
0
LINE
8
0
6
CONTINUOUS
10
218.249295
20
-317.000020
30
0.0
11
221.168055
21
-266.766180
31
0.0
0
LINE
8
0
6
CONTINUOUS
10
213.192205
20
-316.420870
30
0.0
11
216.117335
21
-266.068960
31
0.0
0
LINE
8
0
6
CONTINUOUS
10
208.410325
20
-316.635290
30
0.0
11
211.328755
21
-266.407480
31
0.0
0
LINE
8
0
6
CONTINUOUS
10
209.607405
20
-267.583440
30
0.0
11
206.704815
21
-317.517750
31
0.0
0
LINE
8
0
6
CONTINUOUS
10
218.300755
20
-368.717260
30
0.0
11
220.619215
21
-318.033530
31
0.0
0
LINE
8
0
6
CONTINUOUS
10
215.911805
20
-368.138890
30
0.0
11
218.249295
21
-317.000020
31
0.0
0
LINE
8
0
6
CONTINUOUS
10
210.844615
20
-367.801350
30
0.0
11
213.192205
21
-316.420870
31
0.0
0
LINE
8
0
6
CONTINUOUS
10
206.067485
20
-367.902340
30
0.0
11
208.410325
21
-316.635290
31
0.0
0
LINE
8
0
6
CONTINUOUS
10
206.704815
20
-317.517750
30
0.0
11
204.378775
21
-368.382730
31
0.0
0
LINE
8
0
6
CONTINUOUS
10
217.353185
20
-420.899380
30
0.0
11
218.300755
21
-368.717260
31
0.0
0
LINE
8
0
6
CONTINUOUS
10
214.955585
20
-420.744160
30
0.0
11
215.911805
21
-368.138890
31
0.0
0
LINE
8
0
6
CONTINUOUS
10
209.883405
20
-420.651160
30
0.0
11
210.844615
21
-367.801350
31
0.0
0
LINE
8
0
6
CONTINUOUS
10
205.107845
20
-420.674890
30
0.0
11
206.067485
21
-367.902340
31
0.0
0
LINE
8
0
6
CONTINUOUS
10
204.378775
20
-368.382730
30
0.0
11
203.426375
21
-420.801420
31
0.0
0
LINE
8
0
6
CONTINUOUS
10
217.353415
20
-518.358770
30
0.0
11
217.353185
21
-420.899380
31
0.0
0
LINE
8
0
6
CONTINUOUS
10
214.955105
20
-518.358770
30
0.0
11
214.955585
21
-420.744160
31
0.0
0
LINE
8
0
6
CONTINUOUS
10
209.882495
20
-518.358770
30
0.0
11
209.883405
21
-420.651160
31
0.0
0
LINE
8
0
6
CONTINUOUS
10
205.107045
20
-518.358770
30
0.0
11
205.107845
21
-420.674890
31
0.0
0
LINE
8
0
6
CONTINUOUS
10
203.426375
20
-420.801420
30
0.0
11
203.426145
21
-518.358770
31
0.0
0
LINE
8
0
6
CONTINUOUS
10
217.353415
20
-596.087660
30
0.0
11
217.353415
21
-518.358770
31
0.0
0
LINE
8
0
6
CONTINUOUS
10
214.955105
20
-596.087660
30
0.0
11
214.955105
21
-518.358770
31
0.0
0
LINE
8
0
6
CONTINUOUS
10
209.882495
20
-596.087660
30
0.0
11
209.882495
21
-518.358770
31
0.0
0
LINE
8
0
6
CONTINUOUS
10
205.107045
20
-596.087660
30
0.0
11
205.107045
21
-518.358770
31
0.0
0
LINE
8
0
6
CONTINUOUS
10
203.426145
20
-518.358770
30
0.0
11
203.426145
21
-596.087660
31
0.0
0
LINE
8
0
6
CONTINUOUS
10
217.353415
20
-656.494490
30
0.0
11
217.353415
21
-596.087660
31
0.0
0
LINE
8
0
6
CONTINUOUS
10
214.955105
20
-656.494490
30
0.0
11
214.955105
21
-596.087660
31
0.0
0
LINE
8
0
6
CONTINUOUS
10
209.882495
20
-656.494490
30
0.0
11
209.882495
21
-596.087660
31
0.0
0
LINE
8
0
6
CONTINUOUS
10
205.107045
20
-656.494490
30
0.0
11
205.107045
21
-596.087660
31
0.0
0
LINE
8
0
6
CONTINUOUS
10
203.426145
20
-596.087660
30
0.0
11
203.426145
21
-656.494490
31
0.0
0
LINE
8
0
6
CONTINUOUS
10
217.353415
20
-702.036730
30
0.0
11
217.353415
21
-656.494490
31
0.0
0
LINE
8
0
6
CONTINUOUS
10
214.955105
20
-702.036730
30
0.0
11
214.955105
21
-656.494490
31
0.0
0
LINE
8
0
6
CONTINUOUS
10
209.882495
20
-702.036730
30
0.0
11
209.882495
21
-656.494490
31
0.0
0
LINE
8
0
6
CONTINUOUS
10
205.107045
20
-702.036730
30
0.0
11
205.107045
21
-656.494490
31
0.0
0
LINE
8
0
6
CONTINUOUS
10
203.426145
20
-656.494490
30
0.0
11
203.426145
21
-702.036730
31
0.0
0
LINE
8
0
6
CONTINUOUS
10
217.353415
20
-735.171800
30
0.0
11
217.353415
21
-702.036730
31
0.0
0
LINE
8
0
6
CONTINUOUS
10
214.955105
20
-735.171800
30
0.0
11
214.955105
21
-702.036730
31
0.0
0
LINE
8
0
6
CONTINUOUS
10
209.882495
20
-735.171800
30
0.0
11
209.882495
21
-702.036730
31
0.0
0
LINE
8
0
6
CONTINUOUS
10
205.107045
20
-735.171800
30
0.0
11
205.107045
21
-702.036730
31
0.0
0
LINE
8
0
6
CONTINUOUS
10
203.426145
20
-702.036730
30
0.0
11
203.426145
21
-735.171800
31
0.0
0
LINE
8
0
6
CONTINUOUS
10
217.353415
20
-758.357160
30
0.0
11
217.353415
21
-735.171800
31
0.0
0
LINE
8
0
6
CONTINUOUS
10
214.955105
20
-758.357160
30
0.0
11
214.955105
21
-735.171800
31
0.0
0
LINE
8
0
6
CONTINUOUS
10
209.882495
20
-758.357160
30
0.0
11
209.882495
21
-735.171800
31
0.0
0
LINE
8
0
6
CONTINUOUS
10
205.107045
20
-758.357160
30
0.0
11
205.107045
21
-735.171800
31
0.0
0
LINE
8
0
6
CONTINUOUS
10
203.426145
20
-735.171800
30
0.0
11
203.426145
21
-758.357160
31
0.0
0
LINE
8
0
6
CONTINUOUS
10
217.353415
20
-774.050260
30
0.0
11
217.353415
21
-758.357160
31
0.0
0
LINE
8
0
6
CONTINUOUS
10
214.955105
20
-774.050260
30
0.0
11
214.955105
21
-758.357160
31
0.0
0
LINE
8
0
6
CONTINUOUS
10
209.882495
20
-774.050260
30
0.0
11
209.882495
21
-758.357160
31
0.0
0
LINE
8
0
6
CONTINUOUS
10
205.107045
20
-774.050260
30
0.0
11
205.107045
21
-758.357160
31
0.0
0
LINE
8
0
6
CONTINUOUS
10
203.426145
20
-758.357160
30
0.0
11
203.426145
21
-774.050260
31
0.0
0
LINE
8
0
6
CONTINUOUS
10
217.353415
20
-784.708550
30
0.0
11
217.353415
21
-774.050260
31
0.0
0
LINE
8
0
6
CONTINUOUS
10
214.955105
20
-784.708550
30
0.0
11
214.955105
21
-774.050260
31
0.0
0
LINE
8
0
6
CONTINUOUS
10
209.882495
20
-784.708550
30
0.0
11
209.882495
21
-774.050260
31
0.0
0
LINE
8
0
6
CONTINUOUS
10
205.107045
20
-784.708550
30
0.0
11
205.107045
21
-774.050260
31
0.0
0
LINE
8
0
6
CONTINUOUS
10
203.426145
20
-774.050260
30
0.0
11
203.426145
21
-784.708550
31
0.0
0
LINE
8
0
6
CONTINUOUS
10
217.353415
20
-792.789470
30
0.0
11
217.353415
21
-784.708550
31
0.0
0
LINE
8
0
6
CONTINUOUS
10
214.955105
20
-792.789470
30
0.0
11
214.955105
21
-784.708550
31
0.0
0
LINE
8
0
6
CONTINUOUS
10
209.882495
20
-792.789470
30
0.0
11
209.882495
21
-784.708550
31
0.0
0
LINE
8
0
6
CONTINUOUS
10
205.107045
20
-792.789470
30
0.0
11
205.107045
21
-784.708550
31
0.0
0
LINE
8
0
6
CONTINUOUS
10
203.426145
20
-784.708550
30
0.0
11
203.426145
21
-792.789470
31
0.0
0
LINE
8
0
6
CONTINUOUS
10
217.348965
20
-801.010720
30
0.0
11
217.353415
21
-792.789470
31
0.0
0
LINE
8
0
6
CONTINUOUS
10
214.948525
20
-801.134910
30
0.0
11
214.955105
21
-792.789470
31
0.0
0
LINE
8
0
6
CONTINUOUS
10
209.877645
20
-801.033920
30
0.0
11
209.882495
21
-792.789470
31
0.0
0
LINE
8
0
6
CONTINUOUS
10
205.106765
20
-800.766900
30
0.0
11
205.107045
21
-792.789470
31
0.0
0
LINE
8
0
6
CONTINUOUS
10
203.426145
20
-792.789470
30
0.0
11
203.430605
21
-800.490260
31
0.0
0
LINE
8
0
6
CONTINUOUS
10
215.975565
20
-820.734040
30
0.0
11
217.348965
21
-801.010720
31
0.0
0
LINE
8
0
6
CONTINUOUS
10
213.539835
20
-821.251910
30
0.0
11
214.948525
21
-801.134910
31
0.0
0
LINE
8
0
6
CONTINUOUS
10
208.497605
20
-820.831370
30
0.0
11
209.877645
21
-801.033920
31
0.0
0
LINE
8
0
6
CONTINUOUS
10
203.802535
20
-819.718770
30
0.0
11
205.106765
21
-800.766900
31
0.0
0
LINE
8
0
6
CONTINUOUS
10
203.430605
20
-800.490260
30
0.0
11
202.204945
21
-818.565850
31
0.0
0
LINE
8
0
6
CONTINUOUS
10
212.145235
20
-837.471690
30
0.0
11
215.975565
21
-820.734040
31
0.0
0
LINE
8
0
6
CONTINUOUS
10
209.590795
20
-838.506970
30
0.0
11
213.539835
21
-821.251910
31
0.0
0
LINE
8
0
6
CONTINUOUS
10
204.644575
20
-837.667920
30
0.0
11
208.497605
21
-820.831370
31
0.0
0
LINE
8
0
6
CONTINUOUS
10
200.204005
20
-835.446050
30
0.0
11
203.802535
21
-819.718770
31
0.0
0
LINE
8
0
6
CONTINUOUS
10
202.204945
20
-818.565850
30
0.0
11
198.870315
21
-833.142910
31
0.0
0
LINE
8
0
6
CONTINUOUS
10
206.370005
20
-851.095190
30
0.0
11
212.145235
21
-837.471690
31
0.0
0
LINE
8
0
6
CONTINUOUS
10
203.630945
20
-852.571100
30
0.0
11
209.590795
21
-838.506970
31
0.0
0
LINE
8
0
6
CONTINUOUS
10
198.833165
20
-851.377760
30
0.0
11
204.644575
21
-837.667920
31
0.0
0
LINE
8
0
6
CONTINUOUS
10
194.787165
20
-848.214290
30
0.0
11
200.204005
21
-835.446050
31
0.0
0
LINE
8
0
6
CONTINUOUS
10
198.870315
20
-833.142910
30
0.0
11
193.863015
21
-844.933760
31
0.0
0
LINE
8
0
6
CONTINUOUS
10
199.209525
20
-861.805680
30
0.0
11
206.370005
21
-851.095190
31
0.0
0
LINE
8
0
6
CONTINUOUS
10
196.260275
20
-863.601500
30
0.0
11
203.630945
21
-852.571100
31
0.0
0
LINE
8
0
6
CONTINUOUS
10
191.630025
20
-862.153200
30
0.0
11
198.833165
21
-851.377760
31
0.0
0
LINE
8
0
6
CONTINUOUS
10
188.031115
20
-858.309120
30
0.0
11
194.787165
21
-848.214290
31
0.0
0
LINE
8
0
6
CONTINUOUS
10
193.863015
20
-844.933760
30
0.0
11
187.571725
21
-854.321130
31
0.0
0
LINE
8
0
6
CONTINUOUS
10
191.212225
20
-869.913150
30
0.0
11
199.209525
21
-861.805680
31
0.0
0
LINE
8
0
6
CONTINUOUS
10
188.062415
20
-871.916340
30
0.0
11
196.260275
21
-863.601500
31
0.0
0
LINE
8
0
6
CONTINUOUS
10
183.589825
20
-870.305010
30
0.0
11
191.630025
21
-862.153200
31
0.0
0
LINE
8
0
6
CONTINUOUS
10
180.414435
20
-866.023070
30
0.0
11
188.031115
21
-858.309120
31
0.0
0
LINE
8
0
6
CONTINUOUS
10
187.571725
20
-854.321130
30
0.0
11
180.396355
21
-861.578820
31
0.0
0
LINE
8
0
6
CONTINUOUS
10
182.885475
20
-875.775690
30
0.0
11
191.212225
21
-869.913150
31
0.0
0
LINE
8
0
6
CONTINUOUS
10
179.560175
20
-877.904920
30
0.0
11
182.885475
21
-875.775690
31
0.0
0
LINE
8
0
6
CONTINUOUS
10
179.560175
20
-877.904920
30
0.0
11
188.062415
21
-871.916340
31
0.0
0
LINE
8
0
6
CONTINUOUS
10
175.222335
20
-876.196810
30
0.0
11
183.589825
21
-870.305010
31
0.0
0
LINE
8
0
6
CONTINUOUS
10
172.413005
20
-871.651960
30
0.0
11
180.414435
21
-866.023070
31
0.0
0
LINE
8
0
6
CONTINUOUS
10
180.396355
20
-861.578820
30
0.0
11
172.777855
21
-866.932650
31
0.0
0
LINE
8
0
6
CONTINUOUS
10
171.230635
20
-881.950860
30
0.0
11
179.560175
21
-877.904920
31
0.0
0
LINE
8
0
6
CONTINUOUS
10
167.003245
20
-880.188070
30
0.0
11
175.222335
21
-876.196810
31
0.0
0
LINE
8
0
6
CONTINUOUS
10
164.500215
20
-875.491550
30
0.0
11
172.413005
21
-871.651960
31
0.0
0
LINE
8
0
6
CONTINUOUS
10
165.187795
20
-870.612440
30
0.0
11
172.777855
21
-866.932650
31
0.0
0
LINE
8
0
6
CONTINUOUS
10
175.151469
20
-865.264615
30
0.0
11
168.663205
21
-868.408880
31
0.0
0
LINE
8
0
6
CONTINUOUS
10
163.528845
20
-884.409150
30
0.0
11
171.230635
21
-881.950860
31
0.0
0
LINE
8
0
6
CONTINUOUS
10
159.391115
20
-882.617230
30
0.0
11
167.003245
21
-880.188070
31
0.0
0
LINE
8
0
6
CONTINUOUS
10
157.147295
20
-877.836500
30
0.0
11
164.500215
21
-875.491550
31
0.0
0
LINE
8
0
6
CONTINUOUS
10
158.111785
20
-872.867440
30
0.0
11
165.187795
21
-870.612440
31
0.0
0
LINE
8
0
6
CONTINUOUS
10
168.663205
20
-868.408880
30
0.0
11
161.719595
21
-870.620870
31
0.0
0
LINE
8
0
6
CONTINUOUS
10
156.894895
20
-885.608910
30
0.0
11
163.528845
21
-884.409150
31
0.0
0
LINE
8
0
6
CONTINUOUS
10
152.830895
20
-883.803570
30
0.0
11
159.391115
21
-882.617230
31
0.0
0
LINE
8
0
6
CONTINUOUS
10
150.821135
20
-878.980240
30
0.0
11
157.147295
21
-877.836500
31
0.0
0
LINE
8
0
6
CONTINUOUS
10
152.042925
20
-873.964360
30
0.0
11
158.111785
21
-872.867440
31
0.0
0
LINE
8
0
6
CONTINUOUS
10
161.719595
20
-870.620870
30
0.0
11
155.780555
21
-871.694130
31
0.0
0
LINE
8
0
6
CONTINUOUS
10
151.701625
20
-885.852730
30
0.0
11
156.894895
21
-885.608910
31
0.0
0
LINE
8
0
6
CONTINUOUS
10
147.737815
20
-884.044010
30
0.0
11
152.830895
21
-883.803570
31
0.0
0
LINE
8
0
6
CONTINUOUS
10
146.013925
20
-879.211070
30
0.0
11
150.821135
21
-878.980240
31
0.0
0
LINE
8
0
6
CONTINUOUS
10
147.539805
20
-874.184980
30
0.0
11
152.042925
21
-873.964360
31
0.0
0
LINE
8
0
6
CONTINUOUS
10
155.780555
20
-871.694130
30
0.0
11
151.421605
21
-871.909930
31
0.0
0
LINE
8
0
6
CONTINUOUS
10
146.767545
20
-885.145920
30
0.0
11
151.701625
21
-885.852730
31
0.0
0
LINE
8
0
6
CONTINUOUS
10
142.951025
20
-883.358320
30
0.0
11
147.737815
21
-884.044010
31
0.0
0
LINE
8
0
6
CONTINUOUS
10
141.577765
20
-878.575580
30
0.0
11
146.013925
21
-879.211070
31
0.0
0
LINE
8
0
6
CONTINUOUS
10
143.452205
20
-873.599420
30
0.0
11
147.539805
21
-874.184980
31
0.0
0
LINE
8
0
6
CONTINUOUS
10
151.421605
20
-871.909930
30
0.0
11
147.476305
21
-871.344750
31
0.0
0
LINE
8
0
6
CONTINUOUS
10
140.902775
20
-883.179860
30
0.0
11
146.767545
21
-885.145920
31
0.0
0
LINE
8
0
6
CONTINUOUS
10
137.238885
20
-881.443450
30
0.0
11
140.902775
21
-883.179860
31
0.0
0
LINE
8
0
6
CONTINUOUS
10
137.238885
20
-881.443450
30
0.0
11
142.951025
21
-883.358320
31
0.0
0
LINE
8
0
6
CONTINUOUS
10
136.216725
20
-876.778500
30
0.0
11
141.577765
21
-878.575580
31
0.0
0
LINE
8
0
6
CONTINUOUS
10
138.435055
20
-871.917660
30
0.0
11
143.452205
21
-873.599420
31
0.0
0
LINE
8
0
6
CONTINUOUS
10
147.476305
20
-871.344750
30
0.0
11
142.594425
21
-869.708360
31
0.0
0
LINE
8
0
6
CONTINUOUS
10
130.906055
20
-878.066890
30
0.0
11
137.238885
21
-881.443450
31
0.0
0
LINE
8
0
6
CONTINUOUS
10
130.235925
20
-873.591360
30
0.0
11
136.216725
21
-876.778500
31
0.0
0
LINE
8
0
6
CONTINUOUS
10
132.808525
20
-868.921120
30
0.0
11
138.435055
21
-871.917660
31
0.0
0
LINE
8
0
6
CONTINUOUS
10
137.116865
20
-866.791980
30
0.0
11
142.594425
21
-869.708360
31
0.0
0
LINE
8
0
6
CONTINUOUS
10
146.258315
20
-871.444770
30
0.0
11
140.637175
21
-868.451130
31
0.0
0
LINE
8
0
6
CONTINUOUS
10
124.270565
20
-872.981210
30
0.0
11
130.906055
21
-878.066890
31
0.0
0
LINE
8
0
6
CONTINUOUS
10
123.970885
20
-868.792620
30
0.0
11
130.235925
21
-873.591360
31
0.0
0
LINE
8
0
6
CONTINUOUS
10
126.922355
20
-864.415880
30
0.0
11
132.808525
21
-868.921120
31
0.0
0
LINE
8
0
6
CONTINUOUS
10
131.396055
20
-862.414830
30
0.0
11
137.116865
21
-866.791980
31
0.0
0
LINE
8
0
6
CONTINUOUS
10
140.637175
20
-868.451130
30
0.0
11
134.771335
21
-863.961650
31
0.0
0
LINE
8
0
6
CONTINUOUS
10
117.668515
20
-865.932740
30
0.0
11
124.270565
21
-872.981210
31
0.0
0
LINE
8
0
6
CONTINUOUS
10
117.754875
20
-862.160560
30
0.0
11
123.970885
21
-868.792620
31
0.0
0
LINE
8
0
6
CONTINUOUS
10
121.105085
20
-858.213910
30
0.0
11
126.922355
21
-864.415880
31
0.0
0
LINE
8
0
6
CONTINUOUS
10
125.756615
20
-856.404690
30
0.0
11
131.396055
21
-862.414830
31
0.0
0
LINE
8
0
6
CONTINUOUS
10
134.771335
20
-863.961650
30
0.0
11
128.984675
21
-857.792710
31
0.0
0
LINE
8
0
6
CONTINUOUS
10
111.455465
20
-856.675650
30
0.0
11
117.668515
21
-865.932740
31
0.0
0
LINE
8
0
6
CONTINUOUS
10
111.921365
20
-853.473860
30
0.0
11
117.754875
21
-862.160560
31
0.0
0
LINE
8
0
6
CONTINUOUS
10
115.665995
20
-850.119980
30
0.0
11
121.105085
21
-858.213910
31
0.0
0
LINE
8
0
6
CONTINUOUS
10
120.495825
20
-848.578710
30
0.0
11
125.756615
21
-856.404690
31
0.0
0
LINE
8
0
6
CONTINUOUS
10
128.984675
20
-857.792710
30
0.0
11
123.581575
21
-849.752870
31
0.0
0
LINE
8
0
6
CONTINUOUS
10
106.004045
20
-844.994070
30
0.0
11
111.455465
21
-856.675650
31
0.0
0
LINE
8
0
6
CONTINUOUS
10
106.804665
20
-842.513380
30
0.0
11
111.921365
21
-853.473860
31
0.0
0
LINE
8
0
6
CONTINUOUS
10
110.898605
20
-839.912040
30
0.0
11
115.665995
21
-850.119980
31
0.0
0
LINE
8
0
6
CONTINUOUS
10
115.887695
20
-838.713880
30
0.0
11
120.495825
21
-848.578710
31
0.0
0
LINE
8
0
6
CONTINUOUS
10
123.581575
20
-849.752870
30
0.0
11
118.849395
21
-839.620790
31
0.0
0
LINE
8
0
6
CONTINUOUS
10
101.688975
20
-830.718970
30
0.0
11
106.004045
21
-844.994070
31
0.0
0
LINE
8
0
6
CONTINUOUS
10
102.739245
20
-829.063850
30
0.0
11
106.804665
21
-842.513380
31
0.0
0
LINE
8
0
6
CONTINUOUS
10
107.094485
20
-827.326570
30
0.0
11
110.898605
21
-839.912040
31
0.0
0
LINE
8
0
6
CONTINUOUS
10
112.203455
20
-826.524790
30
0.0
11
115.887695
21
-838.713880
31
0.0
0
LINE
8
0
6
CONTINUOUS
10
118.849395
20
-839.620790
30
0.0
11
115.073375
21
-827.128200
31
0.0
0
LINE
8
0
6
CONTINUOUS
10
98.864775
20
-813.718160
30
0.0
11
101.688975
21
-830.718970
31
0.0
0
LINE
8
0
6
CONTINUOUS
10
100.057995
20
-812.913430
30
0.0
11
102.739245
21
-829.063850
31
0.0
0
LINE
8
0
6
CONTINUOUS
10
104.563195
20
-812.068100
30
0.0
11
107.094485
21
-827.326570
31
0.0
0
LINE
8
0
6
CONTINUOUS
10
109.741245
20
-811.677350
30
0.0
11
112.203455
21
-826.524790
31
0.0
0
LINE
8
0
6
CONTINUOUS
10
115.073375
20
-827.128200
30
0.0
11
112.558945
21
-811.970080
31
0.0
0
LINE
8
0
6
CONTINUOUS
10
97.857675
20
-794.058970
30
0.0
11
98.864775
21
-813.718160
31
0.0
0
LINE
8
0
6
CONTINUOUS
10
99.091425
20
-793.866990
30
0.0
11
100.057995
21
-812.913430
31
0.0
0
LINE
8
0
6
CONTINUOUS
10
103.639175
20
-793.665270
30
0.0
11
104.563195
21
-812.068100
31
0.0
0
LINE
8
0
6
CONTINUOUS
10
108.836895
20
-793.572000
30
0.0
11
109.741245
21
-811.677350
31
0.0
0
LINE
8
0
6
CONTINUOUS
10
112.558945
20
-811.970080
30
0.0
11
111.639845
21
-793.641800
31
0.0
0
LINE
8
0
6
CONTINUOUS
10
97.855035
20
-784.690500
30
0.0
11
97.857675
21
-794.058970
31
0.0
0
LINE
8
0
6
CONTINUOUS
10
99.091215
20
-784.689820
30
0.0
11
99.091425
21
-793.866990
31
0.0
0
LINE
8
0
6
CONTINUOUS
10
103.641495
20
-784.689440
30
0.0
11
103.639175
21
-793.665270
31
0.0
0
LINE
8
0
6
CONTINUOUS
10
108.840415
20
-784.689610
30
0.0
11
108.836895
21
-793.572000
31
0.0
0
LINE
8
0
6
CONTINUOUS
10
111.639845
20
-793.641800
30
0.0
11
111.642495
21
-784.690220
31
0.0
0
LINE
8
0
6
CONTINUOUS
10
97.855035
20
-777.880090
30
0.0
11
97.855035
21
-784.690500
31
0.0
0
LINE
8
0
6
CONTINUOUS
10
99.091215
20
-777.878490
30
0.0
11
99.091215
21
-784.689820
31
0.0
0
LINE
8
0
6
CONTINUOUS
10
103.641495
20
-777.877630
30
0.0
11
103.641495
21
-784.689440
31
0.0
0
LINE
8
0
6
CONTINUOUS
10
108.840415
20
-777.878010
30
0.0
11
108.840415
21
-784.689610
31
0.0
0
LINE
8
0
6
CONTINUOUS
10
111.642495
20
-784.690220
30
0.0
11
111.642495
21
-777.879410
31
0.0
0
LINE
8
0
6
CONTINUOUS
10
97.855035
20
-772.734430
30
0.0
11
97.855035
21
-777.880090
31
0.0
0
LINE
8
0
6
CONTINUOUS
10
99.091215
20
-772.731790
30
0.0
11
99.091215
21
-777.878490
31
0.0
0
LINE
8
0
6
CONTINUOUS
10
103.641495
20
-772.730360
30
0.0
11
103.641495
21
-777.877630
31
0.0
0
LINE
8
0
6
CONTINUOUS
10
108.840415
20
-772.730990
30
0.0
11
108.840415
21
-777.878010
31
0.0
0
LINE
8
0
6
CONTINUOUS
10
111.642495
20
-777.879410
30
0.0
11
111.642495
21
-772.733310
31
0.0
0
LINE
8
0
6
CONTINUOUS
10
97.855035
20
-768.568770
30
0.0
11
97.855035
21
-772.734430
31
0.0
0
LINE
8
0
6
CONTINUOUS
10
99.091215
20
-768.565330
30
0.0
11
99.091215
21
-772.731790
31
0.0
0
LINE
8
0
6
CONTINUOUS
10
103.641495
20
-768.563470
30
0.0
11
103.641495
21
-772.730360
31
0.0
0
LINE
8
0
6
CONTINUOUS
10
108.840415
20
-768.564290
30
0.0
11
108.840415
21
-772.730990
31
0.0
0
LINE
8
0
6
CONTINUOUS
10
111.642495
20
-772.733310
30
0.0
11
111.642495
21
-768.567300
31
0.0
0
LINE
8
0
6
CONTINUOUS
10
97.855035
20
-764.698320
30
0.0
11
97.855035
21
-768.568770
31
0.0
0
LINE
8
0
6
CONTINUOUS
10
99.091215
20
-764.694780
30
0.0
11
99.091215
21
-768.565330
31
0.0
0
LINE
8
0
6
CONTINUOUS
10
103.641495
20
-764.692860
30
0.0
11
103.641495
21
-768.563470
31
0.0
0
LINE
8
0
6
CONTINUOUS
10
108.840415
20
-764.693710
30
0.0
11
108.840415
21
-768.564290
31
0.0
0
LINE
8
0
6
CONTINUOUS
10
111.642495
20
-768.567300
30
0.0
11
111.642495
21
-764.696810
31
0.0
0
LINE
8
0
6
CONTINUOUS
10
97.855035
20
-760.438390
30
0.0
11
97.855035
21
-764.698320
31
0.0
0
LINE
8
0
6
CONTINUOUS
10
99.091215
20
-760.435470
30
0.0
11
99.091215
21
-764.694780
31
0.0
0
LINE
8
0
6
CONTINUOUS
10
103.641495
20
-760.433890
30
0.0
11
103.641495
21
-764.692860
31
0.0
0
LINE
8
0
6
CONTINUOUS
10
108.840415
20
-760.434580
30
0.0
11
108.840415
21
-764.693710
31
0.0
0
LINE
8
0
6
CONTINUOUS
10
111.642495
20
-764.696810
30
0.0
11
111.642495
21
-760.437150
31
0.0
0
LINE
8
0
6
CONTINUOUS
10
97.855035
20
-755.104390
30
0.0
11
97.855035
21
-760.438390
31
0.0
0
LINE
8
0
6
CONTINUOUS
10
99.091215
20
-755.102390
30
0.0
11
99.091215
21
-760.435470
31
0.0
0
LINE
8
0
6
CONTINUOUS
10
103.641495
20
-755.101310
30
0.0
11
103.641495
21
-760.433890
31
0.0
0
LINE
8
0
6
CONTINUOUS
10
108.840415
20
-755.101780
30
0.0
11
108.840415
21
-760.434580
31
0.0
0
LINE
8
0
6
CONTINUOUS
10
111.642495
20
-760.437150
30
0.0
11
111.642495
21
-755.103540
31
0.0
0
LINE
8
0
6
CONTINUOUS
10
97.855035
20
-748.011720
30
0.0
11
97.855035
21
-755.104390
31
0.0
0
LINE
8
0
6
CONTINUOUS
10
99.091215
20
-748.010560
30
0.0
11
99.091215
21
-755.102390
31
0.0
0
LINE
8
0
6
CONTINUOUS
10
103.641495
20
-748.009940
30
0.0
11
103.641495
21
-755.101310
31
0.0
0
LINE
8
0
6
CONTINUOUS
10
108.840415
20
-748.010210
30
0.0
11
108.840415
21
-755.101780
31
0.0
0
LINE
8
0
6
CONTINUOUS
10
111.642495
20
-755.103540
30
0.0
11
111.642495
21
-748.011230
31
0.0
0
LINE
8
0
6
CONTINUOUS
10
97.855035
20
-738.475710
30
0.0
11
97.855035
21
-748.011720
31
0.0
0
LINE
8
0
6
CONTINUOUS
10
99.091215
20
-738.475210
30
0.0
11
99.091215
21
-748.010560
31
0.0
0
LINE
8
0
6
CONTINUOUS
10
103.641495
20
-738.474950
30
0.0
11
103.641495
21
-748.009940
31
0.0
0
LINE
8
0
6
CONTINUOUS
10
108.840415
20
-738.475060
30
0.0
11
108.840415
21
-748.010210
31
0.0
0
LINE
8
0
6
CONTINUOUS
10
111.642495
20
-748.011230
30
0.0
11
111.642495
21
-738.475500
31
0.0
0
LINE
8
0
6
CONTINUOUS
10
97.855035
20
-725.811670
30
0.0
11
97.855035
21
-738.475710
31
0.0
0
LINE
8
0
6
CONTINUOUS
10
99.091215
20
-725.811670
30
0.0
11
99.091215
21
-738.475210
31
0.0
0
LINE
8
0
6
CONTINUOUS
10
103.641495
20
-725.811670
30
0.0
11
103.641495
21
-738.474950
31
0.0
0
LINE
8
0
6
CONTINUOUS
10
108.840415
20
-725.811670
30
0.0
11
108.840415
21
-738.475060
31
0.0
0
LINE
8
0
6
CONTINUOUS
10
111.642495
20
-738.475500
30
0.0
11
111.642495
21
-725.811670
31
0.0
0
LINE
8
0
6
CONTINUOUS
10
115.455285
20
-725.068940
30
0.0
11
116.475609
21
-707.150436
31
0.0
0
LINE
8
0
6
CONTINUOUS
10
114.538045
20
-725.811660
30
0.0
11
115.412985
21
-725.811660
31
0.0
0
LINE
8
0
6
CONTINUOUS
10
115.412985
20
-725.811660
30
0.0
11
115.455285
21
-725.068940
31
0.0
0
LINE
8
0
6
CONTINUOUS
10
94.762365
20
-725.811660
30
0.0
11
95.549285
21
-725.811660
31
0.0
0
LINE
8
0
6
CONTINUOUS
10
94.720175
20
-725.068940
30
0.0
11
94.762365
21
-725.811660
31
0.0
0
LINE
8
0
6
CONTINUOUS
10
95.549285
20
-725.811660
30
0.0
11
97.786795
21
-725.811660
31
0.0
0
LINE
8
0
6
CONTINUOUS
10
97.786795
20
-725.811660
30
0.0
11
101.131925
21
-725.811660
31
0.0
0
LINE
8
0
6
CONTINUOUS
10
101.131925
20
-725.811660
30
0.0
11
105.083235
21
-725.811660
31
0.0
0
LINE
8
0
6
CONTINUOUS
10
105.083235
20
-725.811660
30
0.0
11
109.015385
21
-725.811660
31
0.0
0
LINE
8
0
6
CONTINUOUS
10
109.015385
20
-725.811660
30
0.0
11
112.398555
21
-725.811660
31
0.0
0
LINE
8
0
6
CONTINUOUS
10
112.398555
20
-725.811660
30
0.0
11
114.538045
21
-725.811660
31
0.0
0
LINE
8
0
6
CONTINUOUS
10
93.702435
20
-707.150430
30
0.0
11
94.720175
21
-725.068940
31
0.0
0
LINE
8
0
6
CONTINUOUS
10
178.927665
20
193.619680
30
0.0
11
178.408795
21
195.556100
31
0.0
0
LINE
8
0
6
CONTINUOUS
10
155.790865
20
189.495610
30
0.0
11
156.309735
21
187.559200
31
0.0
0
LINE
8
0
6
CONTINUOUS
10
158.702635
20
190.372380
30
0.0
11
157.015675
21
189.920340
31
0.0
0
LINE
8
0
6
CONTINUOUS
10
169.488485
20
193.262400
30
0.0
11
166.543355
21
192.473290
31
0.0
0
LINE
8
0
6
CONTINUOUS
10
157.015675
20
189.920340
30
0.0
11
156.014305
21
189.652010
31
0.0
0
LINE
8
0
6
CONTINUOUS
10
166.543355
20
192.473290
30
0.0
11
163.634545
21
191.693870
31
0.0
0
LINE
8
0
6
CONTINUOUS
10
155.766745
20
189.585720
30
0.0
11
155.790865
21
189.495610
31
0.0
0
LINE
8
0
6
CONTINUOUS
10
156.014305
20
189.652010
30
0.0
11
155.766745
21
189.585720
31
0.0
0
LINE
8
0
6
CONTINUOUS
10
163.634545
20
191.693870
30
0.0
11
160.960205
21
190.977320
31
0.0
0
LINE
8
0
6
CONTINUOUS
10
174.695935
20
194.657740
30
0.0
11
172.269165
21
194.007560
31
0.0
0
LINE
8
0
6
CONTINUOUS
10
160.960205
20
190.977320
30
0.0
11
158.702635
21
190.372380
31
0.0
0
LINE
8
0
6
CONTINUOUS
10
172.269165
20
194.007560
30
0.0
11
169.488485
21
193.262400
31
0.0
0
LINE
8
0
6
CONTINUOUS
10
156.309735
20
187.559200
30
0.0
11
157.222382
21
184.767251
31
0.0
0
LINE
8
0
6
CONTINUOUS
10
179.523206
20
190.793244
30
0.0
11
178.927665
21
193.619680
31
0.0
0
LINE
8
0
6
CONTINUOUS
10
177.089805
20
163.621050
30
0.0
11
174.533175
21
162.936010
31
0.0
0
LINE
8
0
6
CONTINUOUS
10
174.533175
20
162.936010
30
0.0
11
172.008045
21
162.259440
31
0.0
0
LINE
8
0
6
CONTINUOUS
10
183.266175
20
165.276020
30
0.0
11
181.610335
21
164.832370
31
0.0
0
LINE
8
0
6
CONTINUOUS
10
172.008045
20
162.259440
30
0.0
11
169.686495
21
161.637340
31
0.0
0
LINE
8
0
6
CONTINUOUS
10
181.610335
20
164.832370
30
0.0
11
179.503685
21
164.267870
31
0.0
0
LINE
8
0
6
CONTINUOUS
10
169.686495
20
161.637340
30
0.0
11
167.726735
21
161.112280
31
0.0
0
LINE
8
0
6
CONTINUOUS
10
179.503685
20
164.267870
30
0.0
11
177.089805
21
163.621050
31
0.0
0
LINE
8
0
6
CONTINUOUS
10
193.446585
20
-671.046730
30
0.0
11
193.084835
21
-671.046730
31
0.0
0
LINE
8
0
6
CONTINUOUS
10
192.340055
20
-677.412840
30
0.0
11
192.340055
21
-679.810070
31
0.0
0
LINE
8
0
6
CONTINUOUS
10
193.084835
20
-671.046730
30
0.0
11
193.012815
21
-671.046730
31
0.0
0
LINE
8
0
6
CONTINUOUS
10
193.162005
20
-673.714260
30
0.0
11
193.084835
21
-671.046730
31
0.0
0
LINE
8
0
6
CONTINUOUS
10
193.162005
20
-673.714260
30
0.0
11
193.082545
21
-674.071780
31
0.0
0
LINE
8
0
6
CONTINUOUS
10
192.340065
20
-671.046730
30
0.0
11
192.340055
21
-677.412840
31
0.0
0
LINE
8
0
6
CONTINUOUS
10
193.012815
20
-671.046730
30
0.0
11
192.340065
21
-671.046730
31
0.0
0
LINE
8
0
6
CONTINUOUS
10
192.340055
20
-677.412840
30
0.0
11
193.082545
21
-674.071780
31
0.0
0
LINE
8
0
6
CONTINUOUS
10
199.879655
20
-671.046730
30
0.0
11
193.446585
21
-671.046730
31
0.0
0
LINE
8
0
6
CONTINUOUS
10
193.162005
20
-701.314290
30
0.0
11
193.516125
21
-701.314290
31
0.0
0
LINE
8
0
6
CONTINUOUS
10
193.162005
20
-701.314290
30
0.0
11
193.084835
21
-698.476610
31
0.0
0
LINE
8
0
6
CONTINUOUS
10
193.082555
20
-701.314290
30
0.0
11
193.162005
21
-701.314290
31
0.0
0
LINE
8
0
6
CONTINUOUS
10
193.012815
20
-698.135500
30
0.0
11
193.084835
21
-698.476610
31
0.0
0
LINE
8
0
6
CONTINUOUS
10
192.340055
20
-694.948090
30
0.0
11
192.340065
21
-701.314290
31
0.0
0
LINE
8
0
6
CONTINUOUS
10
193.012815
20
-698.135500
30
0.0
11
192.340055
21
-694.948090
31
0.0
0
LINE
8
0
6
CONTINUOUS
10
192.340065
20
-701.314290
30
0.0
11
193.082555
21
-701.314290
31
0.0
0
LINE
8
0
6
CONTINUOUS
10
193.516125
20
-701.314290
30
0.0
11
199.879655
21
-701.314290
31
0.0
0
LINE
8
0
6
CONTINUOUS
10
193.162005
20
-688.849450
30
0.0
11
193.084835
21
-683.344230
31
0.0
0
LINE
8
0
6
CONTINUOUS
10
193.012815
20
-683.003120
30
0.0
11
193.084835
21
-683.344230
31
0.0
0
LINE
8
0
6
CONTINUOUS
10
193.162005
20
-688.849450
30
0.0
11
193.082545
21
-689.206960
31
0.0
0
LINE
8
0
6
CONTINUOUS
10
192.775475
20
-671.043870
30
0.0
11
192.340065
21
-671.043870
31
0.0
0
LINE
8
0
6
CONTINUOUS
10
192.340065
20
-671.046730
30
0.0
11
192.775475
21
-671.046730
31
0.0
0
LINE
8
0
6
CONTINUOUS
10
199.879655
20
-671.043870
30
0.0
11
192.775475
21
-671.043870
31
0.0
0
LINE
8
0
6
CONTINUOUS
10
192.775475
20
-671.046730
30
0.0
11
199.879655
21
-671.046730
31
0.0
0
LINE
8
0
6
CONTINUOUS
10
192.340055
20
-692.548030
30
0.0
11
192.340055
21
-694.948090
31
0.0
0
LINE
8
0
6
CONTINUOUS
10
192.340055
20
-679.810070
30
0.0
11
192.340055
21
-692.548030
31
0.0
0
LINE
8
0
6
CONTINUOUS
10
193.012815
20
-683.003120
30
0.0
11
192.340055
21
-679.810070
31
0.0
0
LINE
8
0
6
CONTINUOUS
10
192.340055
20
-692.548030
30
0.0
11
193.082545
21
-689.206960
31
0.0
0
LINE
8
0
6
CONTINUOUS
10
203.426145
20
-671.046730
30
0.0
11
199.879655
21
-671.046730
31
0.0
0
LINE
8
0
6
CONTINUOUS
10
199.879655
20
-701.314290
30
0.0
11
203.426145
21
-701.314290
31
0.0
0
LINE
8
0
6
CONTINUOUS
10
199.879655
20
-671.046730
30
0.0
11
203.426145
21
-671.046730
31
0.0
0
LINE
8
0
6
CONTINUOUS
10
203.426145
20
-671.043870
30
0.0
11
199.879655
21
-671.043870
31
0.0
0
LINE
8
0
6
CONTINUOUS
10
189.840285
20
-681.350680
30
0.0
11
189.840285
21
-686.355180
31
0.0
0
LINE
8
0
6
CONTINUOUS
10
189.840285
20
-691.359680
30
0.0
11
189.840285
21
-695.602310
31
0.0
0
LINE
8
0
6
CONTINUOUS
10
189.840255
20
-699.432580
30
0.0
11
192.340062
21
-699.466975
31
0.0
0
LINE
8
0
6
CONTINUOUS
10
189.840255
20
-698.437090
30
0.0
11
189.840255
21
-699.432580
31
0.0
0
LINE
8
0
6
CONTINUOUS
10
192.340075
20
-673.196004
30
0.0
11
189.840255
21
-673.277830
31
0.0
0
LINE
8
0
6
CONTINUOUS
10
189.840285
20
-686.355180
30
0.0
11
189.840285
21
-691.359680
31
0.0
0
LINE
8
0
6
CONTINUOUS
10
189.840285
20
-695.602310
30
0.0
11
189.840255
21
-698.437090
31
0.0
0
LINE
8
0
6
CONTINUOUS
10
217.353415
20
-720.100475
30
0.0
11
233.273335
21
-720.100530
31
0.0
0
LINE
8
0
6
CONTINUOUS
10
233.273255
20
-652.195790
30
0.0
11
217.353415
21
-652.195790
31
0.0
0
LINE
8
0
6
CONTINUOUS
10
233.273335
20
-720.100530
30
0.0
11
234.340255
21
-720.100530
31
0.0
0
LINE
8
0
6
CONTINUOUS
10
234.340255
20
-720.100530
30
0.0
11
234.340255
21
-719.440970
31
0.0
0
LINE
8
0
6
CONTINUOUS
10
234.340255
20
-719.440970
30
0.0
11
234.340255
21
-717.579460
31
0.0
0
LINE
8
0
6
CONTINUOUS
10
234.340255
20
-717.579460
30
0.0
11
234.340255
21
-714.404560
31
0.0
0
LINE
8
0
6
CONTINUOUS
10
234.340255
20
-714.404560
30
0.0
11
234.340255
21
-710.231660
31
0.0
0
LINE
8
0
6
CONTINUOUS
10
234.340215
20
-705.180240
30
0.0
11
234.340215
21
-699.269050
31
0.0
0
LINE
8
0
6
CONTINUOUS
10
234.340215
20
-699.269050
30
0.0
11
234.340215
21
-692.957640
31
0.0
0
LINE
8
0
6
CONTINUOUS
10
234.340215
20
-692.957640
30
0.0
11
234.340215
21
-686.385670
31
0.0
0
LINE
8
0
6
CONTINUOUS
10
234.340215
20
-686.385670
30
0.0
11
234.340215
21
-679.691800
31
0.0
0
LINE
8
0
6
CONTINUOUS
10
234.340215
20
-679.691800
30
0.0
11
234.340215
21
-673.346200
31
0.0
0
LINE
8
0
6
CONTINUOUS
10
234.340215
20
-673.346200
30
0.0
11
234.340215
21
-667.463790
31
0.0
0
LINE
8
0
6
CONTINUOUS
10
234.340215
20
-667.463790
30
0.0
11
234.340215
21
-662.220260
31
0.0
0
LINE
8
0
6
CONTINUOUS
10
234.340215
20
-662.220260
30
0.0
11
234.340175
21
-658.003650
31
0.0
0
LINE
8
0
6
CONTINUOUS
10
234.340185
20
-652.195790
30
0.0
11
233.273255
21
-652.195790
31
0.0
0
LINE
8
0
6
CONTINUOUS
10
234.340185
20
-652.811790
30
0.0
11
234.340185
21
-652.195790
31
0.0
0
LINE
8
0
6
CONTINUOUS
10
234.340215
20
-654.832960
30
0.0
11
234.340185
21
-652.811790
31
0.0
0
LINE
8
0
6
CONTINUOUS
10
234.340215
20
-705.180240
30
0.0
11
234.340255
21
-710.231660
31
0.0
0
LINE
8
0
6
CONTINUOUS
10
234.340215
20
-654.832960
30
0.0
11
234.340175
21
-658.003650
31
0.0
0
LINE
8
0
6
CONTINUOUS
10
98.261736
20
-658.650543
30
0.0
11
98.261746
21
-664.826986
31
0.0
0
LINE
8
0
6
CONTINUOUS
10
110.379046
20
-658.650607
30
0.0
11
110.379056
21
-664.659857
31
0.0
0
LINE
8
0
6
CONTINUOUS
10
99.309896
20
-658.650571
30
0.0
11
99.309906
21
-664.812529
31
0.0
0
LINE
8
0
6
CONTINUOUS
10
112.064876
20
-658.650572
30
0.0
11
112.064886
21
-664.636606
31
0.0
0
LINE
8
0
6
CONTINUOUS
10
112.418596
20
-664.631727
30
0.0
11
112.418586
21
-658.650561
31
0.0
0
LINE
8
0
6
CONTINUOUS
10
101.552446
20
-658.650606
30
0.0
11
101.552456
21
-664.781598
31
0.0
0
LINE
8
0
6
CONTINUOUS
10
104.545136
20
-658.650630
30
0.0
11
104.545146
21
-664.740322
31
0.0
0
LINE
8
0
6
CONTINUOUS
10
107.695446
20
-664.696871
30
0.0
11
107.695436
21
-658.650628
31
0.0
0
LINE
8
0
6
CONTINUOUS
10
99.631985
20
-658.127430
30
0.0
11
99.632002
21
-650.361004
31
0.0
0
LINE
8
0
6
CONTINUOUS
10
113.731054
20
-650.360953
30
0.0
11
113.731045
21
-658.127360
31
0.0
0
LINE
8
0
6
CONTINUOUS
10
114.609295
20
-658.127280
30
0.0
11
114.609315
21
-649.161070
31
0.0
0
LINE
8
0
6
CONTINUOUS
10
111.190785
20
-658.127440
30
0.0
11
111.190802
21
-650.361013
31
0.0
0
LINE
8
0
6
CONTINUOUS
10
103.365532
20
-650.361050
30
0.0
11
103.365515
21
-658.127470
31
0.0
0
LINE
8
0
6
CONTINUOUS
10
107.490785
20
-658.127480
30
0.0
11
107.490802
21
-650.361050
31
0.0
0
LINE
8
0
6
CONTINUOUS
10
96.070965
20
-649.161060
30
0.0
11
96.070945
21
-658.127260
31
0.0
0
LINE
8
0
6
CONTINUOUS
10
97.027805
20
-658.127350
30
0.0
11
97.027822
21
-650.360934
31
0.0
0
LINE
8
0
6
CONTINUOUS
10
115.143835
20
-643.421490
30
0.0
11
115.143835
21
-642.650440
31
0.0
0
LINE
8
0
6
CONTINUOUS
10
107.614905
20
-643.421690
30
0.0
11
107.614905
21
-642.650650
31
0.0
0
LINE
8
0
6
CONTINUOUS
10
95.536455
20
-642.650420
30
0.0
11
95.536455
21
-643.421460
31
0.0
0
LINE
8
0
6
CONTINUOUS
10
111.528105
20
-642.650610
30
0.0
11
111.528105
21
-643.421650
31
0.0
0
LINE
8
0
6
CONTINUOUS
10
114.214995
20
-643.421570
30
0.0
11
114.214995
21
-642.650530
31
0.0
0
LINE
8
0
6
CONTINUOUS
10
103.251645
20
-643.421680
30
0.0
11
103.251645
21
-642.650640
31
0.0
0
LINE
8
0
6
CONTINUOUS
10
96.548505
20
-642.650530
30
0.0
11
96.548505
21
-643.421570
31
0.0
0
LINE
8
0
6
CONTINUOUS
10
99.302825
20
-643.421640
30
0.0
11
99.302825
21
-642.650590
31
0.0
0
LINE
8
0
6
CONTINUOUS
10
115.143825
20
-650.013870
30
0.0
11
115.143835
21
-643.421490
31
0.0
0
LINE
8
0
6
CONTINUOUS
10
107.614905
20
-650.014080
30
0.0
11
107.614905
21
-643.421690
31
0.0
0
LINE
8
0
6
CONTINUOUS
10
95.536455
20
-643.421460
30
0.0
11
95.536445
21
-650.013860
31
0.0
0
LINE
8
0
6
CONTINUOUS
10
111.528105
20
-643.421650
30
0.0
11
111.528105
21
-650.014040
31
0.0
0
LINE
8
0
6
CONTINUOUS
10
114.214995
20
-650.013970
30
0.0
11
114.214995
21
-643.421570
31
0.0
0
LINE
8
0
6
CONTINUOUS
10
103.251625
20
-650.014070
30
0.0
11
103.251645
21
-643.421680
31
0.0
0
LINE
8
0
6
CONTINUOUS
10
96.548505
20
-643.421570
30
0.0
11
96.548505
21
-650.013950
31
0.0
0
LINE
8
0
6
CONTINUOUS
10
99.302825
20
-650.014030
30
0.0
11
99.302825
21
-643.421640
31
0.0
0
LINE
8
0
6
CONTINUOUS
10
111.190785
20
-658.650600
30
0.0
11
113.731045
21
-658.650520
31
0.0
0
LINE
8
0
6
CONTINUOUS
10
99.631985
20
-658.650580
30
0.0
11
103.365515
21
-658.650630
31
0.0
0
LINE
8
0
6
CONTINUOUS
10
99.631985
20
-658.650580
30
0.0
11
99.631985
21
-658.127430
31
0.0
0
LINE
8
0
6
CONTINUOUS
10
97.027805
20
-658.650510
30
0.0
11
99.631985
21
-658.650580
31
0.0
0
LINE
8
0
6
CONTINUOUS
10
113.731045
20
-658.127360
30
0.0
11
113.731045
21
-658.650520
31
0.0
0
LINE
8
0
6
CONTINUOUS
10
114.609295
20
-658.650440
30
0.0
11
114.609295
21
-658.127280
31
0.0
0
LINE
8
0
6
CONTINUOUS
10
113.731045
20
-658.650520
30
0.0
11
114.609295
21
-658.650440
31
0.0
0
LINE
8
0
6
CONTINUOUS
10
111.190785
20
-658.650600
30
0.0
11
111.190785
21
-658.127440
31
0.0
0
LINE
8
0
6
CONTINUOUS
10
107.490785
20
-658.650630
30
0.0
11
111.190785
21
-658.650600
31
0.0
0
LINE
8
0
6
CONTINUOUS
10
103.365515
20
-658.127470
30
0.0
11
103.365515
21
-658.650630
31
0.0
0
LINE
8
0
6
CONTINUOUS
10
107.490785
20
-658.650630
30
0.0
11
107.490785
21
-658.127480
31
0.0
0
LINE
8
0
6
CONTINUOUS
10
103.365515
20
-658.650630
30
0.0
11
107.490785
21
-658.650630
31
0.0
0
LINE
8
0
6
CONTINUOUS
10
96.070945
20
-658.127260
30
0.0
11
96.070945
21
-658.650420
31
0.0
0
LINE
8
0
6
CONTINUOUS
10
97.027805
20
-658.650510
30
0.0
11
97.027805
21
-658.127350
31
0.0
0
LINE
8
0
6
CONTINUOUS
10
96.070945
20
-658.650420
30
0.0
11
97.027805
21
-658.650510
31
0.0
0
LINE
8
0
6
CONTINUOUS
10
115.143825
20
-650.360840
30
0.0
11
115.143825
21
-650.013870
31
0.0
0
LINE
8
0
6
CONTINUOUS
10
114.214995
20
-650.360940
30
0.0
11
115.143825
21
-650.360840
31
0.0
0
LINE
8
0
6
CONTINUOUS
10
107.614905
20
-650.361050
30
0.0
11
111.528105
21
-650.361010
31
0.0
0
LINE
8
0
6
CONTINUOUS
10
107.614905
20
-650.361050
30
0.0
11
107.614905
21
-650.014080
31
0.0
0
LINE
8
0
6
CONTINUOUS
10
103.251625
20
-650.361050
30
0.0
11
107.614905
21
-650.361050
31
0.0
0
LINE
8
0
6
CONTINUOUS
10
95.536445
20
-650.013860
30
0.0
11
95.536445
21
-650.360830
31
0.0
0
LINE
8
0
6
CONTINUOUS
10
95.536445
20
-650.360830
30
0.0
11
96.548505
21
-650.360920
31
0.0
0
LINE
8
0
6
CONTINUOUS
10
111.528105
20
-650.014040
30
0.0
11
111.528105
21
-650.361010
31
0.0
0
LINE
8
0
6
CONTINUOUS
10
114.214995
20
-650.360940
30
0.0
11
114.214995
21
-650.013970
31
0.0
0
LINE
8
0
6
CONTINUOUS
10
111.528105
20
-650.361010
30
0.0
11
114.214995
21
-650.360940
31
0.0
0
LINE
8
0
6
CONTINUOUS
10
103.251625
20
-650.361050
30
0.0
11
103.251625
21
-650.014070
31
0.0
0
LINE
8
0
6
CONTINUOUS
10
99.302825
20
-650.361000
30
0.0
11
103.251625
21
-650.361050
31
0.0
0
LINE
8
0
6
CONTINUOUS
10
96.548505
20
-650.013950
30
0.0
11
96.548505
21
-650.360920
31
0.0
0
LINE
8
0
6
CONTINUOUS
10
99.302825
20
-650.361000
30
0.0
11
99.302825
21
-650.014030
31
0.0
0
LINE
8
0
6
CONTINUOUS
10
96.548505
20
-650.360920
30
0.0
11
99.302825
21
-650.361000
31
0.0
0
LINE
8
0
6
CONTINUOUS
10
103.251645
20
-642.650640
30
0.0
11
107.614905
21
-642.650650
31
0.0
0
LINE
8
0
6
CONTINUOUS
10
96.465235
20
-642.650330
30
0.0
11
95.536455
21
-642.650420
31
0.0
0
LINE
8
0
6
CONTINUOUS
10
96.548505
20
-642.650530
30
0.0
11
99.302825
21
-642.650590
31
0.0
0
LINE
8
0
6
CONTINUOUS
10
111.377435
20
-642.650260
30
0.0
11
107.428625
21
-642.650230
31
0.0
0
LINE
8
0
6
CONTINUOUS
10
103.065345
20
-642.650220
30
0.0
11
99.152175
21
-642.650250
31
0.0
0
LINE
8
0
6
CONTINUOUS
10
107.614905
20
-642.650650
30
0.0
11
111.528105
21
-642.650610
31
0.0
0
LINE
8
0
6
CONTINUOUS
10
114.131775
20
-642.650340
30
0.0
11
111.377435
21
-642.650260
31
0.0
0
LINE
8
0
6
CONTINUOUS
10
99.302825
20
-642.650590
30
0.0
11
103.251645
21
-642.650640
31
0.0
0
LINE
8
0
6
CONTINUOUS
10
95.536455
20
-642.650420
30
0.0
11
96.548505
21
-642.650530
31
0.0
0
LINE
8
0
6
CONTINUOUS
10
115.143835
20
-642.650440
30
0.0
11
114.131775
21
-642.650340
31
0.0
0
LINE
8
0
6
CONTINUOUS
10
114.214995
20
-642.650530
30
0.0
11
115.143835
21
-642.650440
31
0.0
0
LINE
8
0
6
CONTINUOUS
10
107.428625
20
-642.650230
30
0.0
11
103.065345
21
-642.650220
31
0.0
0
LINE
8
0
6
CONTINUOUS
10
111.528105
20
-642.650610
30
0.0
11
114.214995
21
-642.650530
31
0.0
0
LINE
8
0
6
CONTINUOUS
10
99.152175
20
-642.650250
30
0.0
11
96.465235
21
-642.650330
31
0.0
0
LINE
8
0
6
CONTINUOUS
10
91.051865
20
-701.118307
30
0.0
11
91.051865
21
-706.276020
31
0.0
0
LINE
8
0
6
CONTINUOUS
10
92.001735
20
-706.276020
30
0.0
11
92.001735
21
-701.115885
31
0.0
0
LINE
8
0
6
CONTINUOUS
10
119.389705
20
-706.276020
30
0.0
11
119.389705
21
-701.046026
31
0.0
0
LINE
8
0
6
CONTINUOUS
10
99.729575
20
-691.029110
30
0.0
11
99.729575
21
-706.276010
31
0.0
0
LINE
8
0
6
CONTINUOUS
10
105.175825
20
-706.276010
30
0.0
11
105.175825
21
-691.029110
31
0.0
0
LINE
8
0
6
CONTINUOUS
10
99.729575
20
-707.150420
30
0.0
11
105.175825
21
-707.150420
31
0.0
0
LINE
8
0
6
CONTINUOUS
10
91.051865
20
-706.276020
30
0.0
11
91.051865
21
-707.150430
31
0.0
0
LINE
8
0
6
CONTINUOUS
10
91.051865
20
-707.150430
30
0.0
11
92.001735
21
-707.150430
31
0.0
0
LINE
8
0
6
CONTINUOUS
10
110.613555
20
-707.150420
30
0.0
11
115.225835
21
-707.150420
31
0.0
0
LINE
8
0
6
CONTINUOUS
10
119.389705
20
-707.150430
30
0.0
11
119.389705
21
-706.276020
31
0.0
0
LINE
8
0
6
CONTINUOUS
10
118.307265
20
-707.150430
30
0.0
11
119.389705
21
-707.150430
31
0.0
0
LINE
8
0
6
CONTINUOUS
10
115.225835
20
-706.276010
30
0.0
11
115.225835
21
-707.150420
31
0.0
0
LINE
8
0
6
CONTINUOUS
10
115.225835
20
-707.150420
30
0.0
11
118.307265
21
-707.150430
31
0.0
0
LINE
8
0
6
CONTINUOUS
10
105.175825
20
-706.276010
30
0.0
11
105.175825
21
-707.150420
31
0.0
0
LINE
8
0
6
CONTINUOUS
10
105.175825
20
-707.150420
30
0.0
11
110.613555
21
-707.150420
31
0.0
0
LINE
8
0
6
CONTINUOUS
10
99.729575
20
-707.150420
30
0.0
11
99.729575
21
-706.276010
31
0.0
0
LINE
8
0
6
CONTINUOUS
10
95.137255
20
-707.150420
30
0.0
11
99.729575
21
-707.150420
31
0.0
0
LINE
8
0
6
CONTINUOUS
10
92.001735
20
-706.276020
30
0.0
11
92.001735
21
-707.150430
31
0.0
0
LINE
8
0
6
CONTINUOUS
10
92.001735
20
-707.150430
30
0.0
11
95.137255
21
-707.150420
31
0.0
0
LINE
8
0
6
CONTINUOUS
10
115.225835
20
-701.056647
30
0.0
11
115.225835
21
-706.276010
31
0.0
0
LINE
8
0
6
CONTINUOUS
10
67.410885
20
-704.992250
30
0.0
11
68.829262
21
-700.471421
31
0.0
0
LINE
8
0
6
CONTINUOUS
10
66.896035
20
-704.849830
30
0.0
11
67.410885
21
-704.992250
31
0.0
0
LINE
8
0
6
CONTINUOUS
10
65.523525
20
-704.470000
30
0.0
11
66.896035
21
-704.849830
31
0.0
0
LINE
8
0
6
CONTINUOUS
10
53.005065
20
-701.359970
30
0.0
11
56.609955
21
-702.356920
31
0.0
0
LINE
8
0
6
CONTINUOUS
10
56.769255
20
-702.048960
30
0.0
11
53.106705
21
-701.036260
31
0.0
0
LINE
8
0
6
CONTINUOUS
10
63.234555
20
-703.837070
30
0.0
11
65.523525
21
-704.470000
31
0.0
0
LINE
8
0
6
CONTINUOUS
10
60.202195
20
-702.998380
30
0.0
11
63.234555
21
-703.837070
31
0.0
0
LINE
8
0
6
CONTINUOUS
10
56.769255
20
-702.048960
30
0.0
11
60.202195
21
-702.998380
31
0.0
0
LINE
8
0
6
CONTINUOUS
10
53.106705
20
-701.036260
30
0.0
11
56.769255
21
-702.048960
31
0.0
0
LINE
8
0
6
CONTINUOUS
10
40.224605
20
-692.547740
30
0.0
11
38.802525
21
-697.080270
31
0.0
0
LINE
8
0
6
CONTINUOUS
10
39.317375
20
-697.222680
30
0.0
11
40.690955
21
-697.602450
31
0.0
0
LINE
8
0
6
CONTINUOUS
10
40.690955
20
-697.602450
30
0.0
11
42.979925
21
-698.235380
31
0.0
0
LINE
8
0
6
CONTINUOUS
10
42.979925
20
-698.235380
30
0.0
11
46.012325
21
-699.074060
31
0.0
0
LINE
8
0
6
CONTINUOUS
10
46.012325
20
-699.074060
30
0.0
11
49.445225
21
-700.023490
31
0.0
0
LINE
8
0
6
CONTINUOUS
10
49.445225
20
-700.023490
30
0.0
11
53.106705
21
-701.036260
31
0.0
0
LINE
8
0
6
CONTINUOUS
10
40.933265
20
-698.021100
30
0.0
11
39.559645
21
-697.641440
31
0.0
0
LINE
8
0
6
CONTINUOUS
10
46.082605
20
-699.445300
30
0.0
11
43.164515
21
-698.638280
31
0.0
0
LINE
8
0
6
CONTINUOUS
10
49.401245
20
-700.363060
30
0.0
11
46.082605
21
-699.445300
31
0.0
0
LINE
8
0
6
CONTINUOUS
10
66.966355
20
-705.220960
30
0.0
11
66.451505
21
-705.078540
31
0.0
0
LINE
8
0
6
CONTINUOUS
10
49.445225
20
-700.023490
30
0.0
11
46.012325
21
-699.074060
31
0.0
0
LINE
8
0
6
CONTINUOUS
10
46.082605
20
-699.445300
30
0.0
11
49.401245
21
-700.363060
31
0.0
0
LINE
8
0
6
CONTINUOUS
10
53.106705
20
-701.036260
30
0.0
11
49.445225
21
-700.023490
31
0.0
0
LINE
8
0
6
CONTINUOUS
10
49.401245
20
-700.363060
30
0.0
11
53.005065
21
-701.359970
31
0.0
0
LINE
8
0
6
CONTINUOUS
10
66.966355
20
-705.220960
30
0.0
11
67.410885
21
-704.992250
31
0.0
0
LINE
8
0
6
CONTINUOUS
10
66.451505
20
-705.078540
30
0.0
11
66.966355
21
-705.220960
31
0.0
0
LINE
8
0
6
CONTINUOUS
10
67.410885
20
-704.992250
30
0.0
11
66.896035
21
-704.849830
31
0.0
0
LINE
8
0
6
CONTINUOUS
10
65.077935
20
-704.698780
30
0.0
11
66.451505
21
-705.078540
31
0.0
0
LINE
8
0
6
CONTINUOUS
10
66.896035
20
-704.849830
30
0.0
11
65.523525
21
-704.470000
31
0.0
0
LINE
8
0
6
CONTINUOUS
10
62.846635
20
-704.081700
30
0.0
11
65.077935
21
-704.698780
31
0.0
0
LINE
8
0
6
CONTINUOUS
10
65.523525
20
-704.470000
30
0.0
11
63.234555
21
-703.837070
31
0.0
0
LINE
8
0
6
CONTINUOUS
10
59.928545
20
-703.274680
30
0.0
11
62.846635
21
-704.081700
31
0.0
0
LINE
8
0
6
CONTINUOUS
10
63.234555
20
-703.837070
30
0.0
11
60.202195
21
-702.998380
31
0.0
0
LINE
8
0
6
CONTINUOUS
10
56.609955
20
-702.356920
30
0.0
11
59.928545
21
-703.274680
31
0.0
0
LINE
8
0
6
CONTINUOUS
10
60.202195
20
-702.998380
30
0.0
11
56.769255
21
-702.048960
31
0.0
0
LINE
8
0
6
CONTINUOUS
10
38.802525
20
-697.080270
30
0.0
11
39.044835
21
-697.498910
31
0.0
0
LINE
8
0
6
CONTINUOUS
10
39.317375
20
-697.222680
30
0.0
11
38.802525
21
-697.080270
31
0.0
0
LINE
8
0
6
CONTINUOUS
10
39.044835
20
-697.498910
30
0.0
11
39.559645
21
-697.641440
31
0.0
0
LINE
8
0
6
CONTINUOUS
10
40.690955
20
-697.602450
30
0.0
11
39.317375
21
-697.222680
31
0.0
0
LINE
8
0
6
CONTINUOUS
10
39.559645
20
-697.641440
30
0.0
11
40.933265
21
-698.021100
31
0.0
0
LINE
8
0
6
CONTINUOUS
10
42.979925
20
-698.235380
30
0.0
11
40.690955
21
-697.602450
31
0.0
0
LINE
8
0
6
CONTINUOUS
10
40.933265
20
-698.021100
30
0.0
11
43.164515
21
-698.638280
31
0.0
0
LINE
8
0
6
CONTINUOUS
10
46.012325
20
-699.074060
30
0.0
11
42.979925
21
-698.235380
31
0.0
0
LINE
8
0
6
CONTINUOUS
10
43.164515
20
-698.638280
30
0.0
11
46.082605
21
-699.445300
31
0.0
0
LINE
8
0
6
CONTINUOUS
10
189.295605
20
-670.391040
30
0.0
11
186.822165
21
-670.362907
31
0.0
0
LINE
8
0
6
CONTINUOUS
10
164.977205
20
-702.354720
30
0.0
11
160.468615
21
-702.373490
31
0.0
0
LINE
8
0
6
CONTINUOUS
10
160.468615
20
-702.373490
30
0.0
11
164.977205
21
-702.354730
31
0.0
0
LINE
8
0
6
CONTINUOUS
10
164.977205
20
-702.354710
30
0.0
11
160.468615
21
-702.373480
31
0.0
0
LINE
8
0
6
CONTINUOUS
10
160.468615
20
-702.373490
30
0.0
11
164.977205
21
-702.354720
31
0.0
0
LINE
8
0
6
CONTINUOUS
10
160.468615
20
-702.373490
30
0.0
11
155.631205
21
-702.392790
31
0.0
0
LINE
8
0
6
CONTINUOUS
10
155.631205
20
-702.392800
30
0.0
11
160.468615
21
-702.373490
31
0.0
0
LINE
8
0
6
CONTINUOUS
10
160.468615
20
-702.373480
30
0.0
11
155.631205
21
-702.392780
31
0.0
0
LINE
8
0
6
CONTINUOUS
10
155.631205
20
-702.392790
30
0.0
11
160.468615
21
-702.373490
31
0.0
0
LINE
8
0
6
CONTINUOUS
10
164.977205
20
-702.354690
30
0.0
11
171.425685
21
-702.312730
31
0.0
0
LINE
8
0
6
CONTINUOUS
10
160.468615
20
-702.373460
30
0.0
11
164.977205
21
-702.354690
31
0.0
0
LINE
8
0
6
CONTINUOUS
10
155.631195
20
-702.392760
30
0.0
11
160.468615
21
-702.373460
31
0.0
0
LINE
8
0
6
CONTINUOUS
10
150.598005
20
-701.782790
30
0.0
11
155.631195
21
-702.392760
31
0.0
0
LINE
8
0
6
CONTINUOUS
10
165.258725
20
-666.229200
30
0.0
11
160.630715
21
-664.268520
31
0.0
0
LINE
8
0
6
CONTINUOUS
10
139.745345
20
-674.562860
30
0.0
11
142.742915
21
-670.527750
31
0.0
0
LINE
8
0
6
CONTINUOUS
10
168.688665
20
-696.086390
30
0.0
11
171.590355
21
-692.288780
31
0.0
0
LINE
8
0
6
CONTINUOUS
10
160.562105
20
-701.276900
30
0.0
11
164.877935
21
-699.371000
31
0.0
0
LINE
8
0
6
CONTINUOUS
10
175.460025
20
-702.009710
30
0.0
11
189.291585
21
-701.903590
31
0.0
0
LINE
8
0
6
CONTINUOUS
10
167.470335
20
-668.025910
30
0.0
11
165.078595
21
-666.507050
31
0.0
0
LINE
8
0
6
CONTINUOUS
10
189.295585
20
-670.390790
30
0.0
11
172.667135
21
-670.201660
31
0.0
0
LINE
8
0
6
CONTINUOUS
10
177.358405
20
-686.397900
30
0.0
11
177.553415
21
-682.259710
31
0.0
0
LINE
8
0
6
CONTINUOUS
10
176.173975
20
-690.506560
30
0.0
11
177.358405
21
-686.397900
31
0.0
0
LINE
8
0
6
CONTINUOUS
10
174.119345
20
-694.234580
30
0.0
11
176.173975
21
-690.506560
31
0.0
0
LINE
8
0
6
CONTINUOUS
10
172.469255
20
-674.639020
30
0.0
11
171.786355
21
-673.443410
31
0.0
0
LINE
8
0
6
CONTINUOUS
10
171.786355
20
-673.443410
30
0.0
11
170.550965
21
-671.442530
31
0.0
0
LINE
8
0
6
CONTINUOUS
10
170.550965
20
-671.442530
30
0.0
11
168.827745
21
-669.549910
31
0.0
0
LINE
8
0
6
CONTINUOUS
10
168.827745
20
-669.549910
30
0.0
11
167.886665
21
-668.535890
31
0.0
0
LINE
8
0
6
CONTINUOUS
10
177.870035
20
-702.060690
30
0.0
11
178.542915
21
-702.031080
31
0.0
0
LINE
8
0
6
CONTINUOUS
10
172.667135
20
-670.201660
30
0.0
11
169.951035
21
-669.394240
31
0.0
0
LINE
8
0
6
CONTINUOUS
10
169.951035
20
-669.394240
30
0.0
11
167.470335
21
-668.025910
31
0.0
0
LINE
8
0
6
CONTINUOUS
10
175.069205
20
-686.546290
30
0.0
11
175.301525
21
-682.679560
31
0.0
0
LINE
8
0
6
CONTINUOUS
10
171.590355
20
-692.288780
30
0.0
11
172.413295
21
-691.193960
31
0.0
0
LINE
8
0
6
CONTINUOUS
10
173.532305
20
-690.365940
30
0.0
11
175.069205
21
-686.546290
31
0.0
0
LINE
8
0
6
CONTINUOUS
10
171.604545
20
-693.904990
30
0.0
11
173.532305
21
-690.365940
31
0.0
0
LINE
8
0
6
CONTINUOUS
10
164.877935
20
-699.371000
30
0.0
11
166.879055
21
-698.036460
31
0.0
0
LINE
8
0
6
CONTINUOUS
10
168.887565
20
-696.924940
30
0.0
11
171.604545
21
-693.904990
31
0.0
0
LINE
8
0
6
CONTINUOUS
10
168.887565
20
-696.924940
30
0.0
11
163.372125
21
-700.260060
31
0.0
0
LINE
8
0
6
CONTINUOUS
10
177.553415
20
-682.259710
30
0.0
11
177.158705
21
-678.364300
31
0.0
0
LINE
8
0
6
CONTINUOUS
10
175.301525
20
-682.679560
30
0.0
11
174.865005
21
-678.858530
31
0.0
0
LINE
8
0
6
CONTINUOUS
10
174.865005
20
-678.858530
30
0.0
11
173.907935
21
-675.527160
31
0.0
0
LINE
8
0
6
CONTINUOUS
10
173.907935
20
-675.527160
30
0.0
11
172.855765
21
-672.837040
31
0.0
0
LINE
8
0
6
CONTINUOUS
10
172.855765
20
-672.837040
30
0.0
11
170.799265
21
-670.370070
31
0.0
0
LINE
8
0
6
CONTINUOUS
10
167.766585
20
-668.270820
30
0.0
11
165.105985
21
-666.457540
31
0.0
0
LINE
8
0
6
CONTINUOUS
10
174.438185
20
-702.035350
30
0.0
11
175.460025
21
-702.009710
31
0.0
0
LINE
8
0
6
CONTINUOUS
10
163.372125
20
-700.260060
30
0.0
11
160.472845
21
-702.108970
31
0.0
0
LINE
8
0
6
CONTINUOUS
10
189.291585
20
-701.903590
30
0.0
11
189.828575
21
-701.899240
31
0.0
0
LINE
8
0
6
CONTINUOUS
10
189.828075
20
-697.328610
30
0.0
11
189.828875
21
-694.141890
31
0.0
0
LINE
8
0
6
CONTINUOUS
10
189.830295
20
-682.276650
30
0.0
11
189.830405
21
-678.472640
31
0.0
0
LINE
8
0
6
CONTINUOUS
10
189.831125
20
-675.157130
30
0.0
11
189.830905
21
-672.611890
31
0.0
0
LINE
8
0
6
CONTINUOUS
10
189.832585
20
-670.395680
30
0.0
11
189.295585
21
-670.390790
31
0.0
0
LINE
8
0
6
CONTINUOUS
10
153.083245
20
-663.641180
30
0.0
11
150.599615
21
-664.105120
31
0.0
0
LINE
8
0
6
CONTINUOUS
10
177.872065
20
-702.306110
30
0.0
11
178.728081
21
-701.984927
31
0.0
0
LINE
8
0
6
CONTINUOUS
10
186.822165
20
-670.362907
30
0.0
11
186.822675
21
-668.533300
31
0.0
0
LINE
8
0
6
CONTINUOUS
10
172.320345
20
-669.161490
30
0.0
11
172.811688
21
-670.203304
31
0.0
0
LINE
8
0
6
CONTINUOUS
10
186.809895
20
-664.907500
30
0.0
11
186.792615
21
-664.391830
31
0.0
0
LINE
8
0
6
CONTINUOUS
10
184.232075
20
-664.334150
30
0.0
11
186.114365
21
-664.316300
31
0.0
0
LINE
8
0
6
CONTINUOUS
10
185.202915
20
-663.447010
30
0.0
11
183.400055
21
-663.447010
31
0.0
0
LINE
8
0
6
CONTINUOUS
10
160.630715
20
-664.268520
30
0.0
11
160.307155
21
-664.166370
31
0.0
0
LINE
8
0
6
CONTINUOUS
10
181.308685
20
-664.424170
30
0.0
11
184.232075
21
-664.334150
31
0.0
0
LINE
8
0
6
CONTINUOUS
10
183.400055
20
-663.447010
30
0.0
11
180.810485
21
-663.447010
31
0.0
0
LINE
8
0
6
CONTINUOUS
10
177.529235
20
-664.452400
30
0.0
11
181.308685
21
-664.424170
31
0.0
0
LINE
8
0
6
CONTINUOUS
10
180.810485
20
-663.447010
30
0.0
11
177.207275
21
-663.447010
31
0.0
0
LINE
8
0
6
CONTINUOUS
10
172.503945
20
-663.447010
30
0.0
11
166.480995
21
-663.447010
31
0.0
0
LINE
8
0
6
CONTINUOUS
10
186.114365
20
-664.316300
30
0.0
11
186.792615
21
-664.391830
31
0.0
0
LINE
8
0
6
CONTINUOUS
10
186.008395
20
-663.447010
30
0.0
11
185.202915
21
-663.447010
31
0.0
0
LINE
8
0
6
CONTINUOUS
10
186.792615
20
-664.391830
30
0.0
11
186.008395
21
-663.447010
31
0.0
0
LINE
8
0
6
CONTINUOUS
10
172.557235
20
-664.330320
30
0.0
11
177.529235
21
-664.452400
31
0.0
0
LINE
8
0
6
CONTINUOUS
10
177.207275
20
-663.447010
30
0.0
11
172.503945
21
-663.447010
31
0.0
0
LINE
8
0
6
CONTINUOUS
10
159.942055
20
-663.447010
30
0.0
11
155.590075
21
-663.447000
31
0.0
0
LINE
8
0
6
CONTINUOUS
10
186.822675
20
-668.533300
30
0.0
11
186.809895
21
-664.907500
31
0.0
0
LINE
8
0
6
CONTINUOUS
10
172.557235
20
-664.330320
30
0.0
11
166.529175
21
-664.071000
31
0.0
0
LINE
8
0
6
CONTINUOUS
10
172.487465
20
-664.886200
30
0.0
11
166.529175
21
-664.071000
31
0.0
0
LINE
8
0
6
CONTINUOUS
10
159.968645
20
-663.607290
30
0.0
11
166.530355
21
-664.414780
31
0.0
0
LINE
8
0
6
CONTINUOUS
10
155.590075
20
-663.447010
30
0.0
11
153.083245
21
-663.641180
31
0.0
0
LINE
8
0
6
CONTINUOUS
10
172.487465
20
-664.886200
30
0.0
11
166.530355
21
-664.414780
31
0.0
0
LINE
8
0
6
CONTINUOUS
10
172.320345
20
-669.161490
30
0.0
11
166.530355
21
-664.414780
31
0.0
0
LINE
8
0
6
CONTINUOUS
10
160.064355
20
-663.766210
30
0.0
11
166.566905
21
-665.798450
31
0.0
0
LINE
8
0
6
CONTINUOUS
10
166.530355
20
-664.414780
30
0.0
11
160.064355
21
-663.766210
31
0.0
0
LINE
8
0
6
CONTINUOUS
10
166.566905
20
-665.798450
30
0.0
11
166.530355
21
-664.414780
31
0.0
0
LINE
8
0
6
CONTINUOUS
10
165.282995
20
-666.125210
30
0.0
11
166.566905
21
-665.798450
31
0.0
0
LINE
8
0
6
CONTINUOUS
10
159.968645
20
-663.607290
30
0.0
11
166.529175
21
-664.071000
31
0.0
0
LINE
8
0
6
CONTINUOUS
10
159.942055
20
-663.447010
30
0.0
11
166.529175
21
-664.071000
31
0.0
0
LINE
8
0
6
CONTINUOUS
10
166.480995
20
-663.447010
30
0.0
11
159.942055
21
-663.447010
31
0.0
0
LINE
8
0
6
CONTINUOUS
10
164.977205
20
-702.354700
30
0.0
11
160.468615
21
-702.373470
31
0.0
0
LINE
8
0
6
CONTINUOUS
10
160.468615
20
-702.373480
30
0.0
11
164.977205
21
-702.354710
31
0.0
0
LINE
8
0
6
CONTINUOUS
10
160.468615
20
-702.373470
30
0.0
11
155.631205
21
-702.392770
31
0.0
0
LINE
8
0
6
CONTINUOUS
10
155.631205
20
-702.392780
30
0.0
11
160.468615
21
-702.373480
31
0.0
0
LINE
8
0
6
CONTINUOUS
10
164.977205
20
-702.354690
30
0.0
11
160.468615
21
-702.373460
31
0.0
0
LINE
8
0
6
CONTINUOUS
10
160.468615
20
-702.373470
30
0.0
11
164.977205
21
-702.354700
31
0.0
0
LINE
8
0
6
CONTINUOUS
10
160.468615
20
-702.373460
30
0.0
11
155.631195
21
-702.392760
31
0.0
0
LINE
8
0
6
CONTINUOUS
10
155.631205
20
-702.392770
30
0.0
11
160.468615
21
-702.373470
31
0.0
0
LINE
8
0
6
CONTINUOUS
10
145.828705
20
-699.862020
30
0.0
11
150.598005
21
-701.782790
31
0.0
0
LINE
8
0
6
CONTINUOUS
10
145.806555
20
-699.900630
30
0.0
11
150.598005
21
-701.782800
31
0.0
0
LINE
8
0
6
CONTINUOUS
10
145.795475
20
-699.919930
30
0.0
11
150.598005
21
-701.782800
31
0.0
0
LINE
8
0
6
CONTINUOUS
10
148.483044
20
-700.971818
30
0.0
11
150.598005
21
-701.782810
31
0.0
0
LINE
8
0
6
CONTINUOUS
10
171.425685
20
-702.312750
30
0.0
11
177.872065
21
-702.306110
31
0.0
0
LINE
8
0
6
CONTINUOUS
10
171.528515
20
-692.197140
30
0.0
11
173.370215
21
-687.688700
31
0.0
0
LINE
8
0
6
CONTINUOUS
10
171.529285
20
-692.198280
30
0.0
11
173.371395
21
-687.689240
31
0.0
0
LINE
8
0
6
CONTINUOUS
10
168.643115
20
-696.004820
30
0.0
11
171.528515
21
-692.197140
31
0.0
0
LINE
8
0
6
CONTINUOUS
10
168.643695
20
-696.005810
30
0.0
11
171.529285
21
-692.198280
31
0.0
0
LINE
8
0
6
CONTINUOUS
10
164.859895
20
-699.173080
30
0.0
11
168.643115
21
-696.004820
31
0.0
0
LINE
8
0
6
CONTINUOUS
10
164.860125
20
-699.175590
30
0.0
11
168.643695
21
-696.005810
31
0.0
0
LINE
8
0
6
CONTINUOUS
10
160.505725
20
-701.067300
30
0.0
11
164.859895
21
-699.173080
31
0.0
0
LINE
8
0
6
CONTINUOUS
10
160.506425
20
-701.069970
30
0.0
11
164.860125
21
-699.175590
31
0.0
0
LINE
8
0
6
CONTINUOUS
10
155.656365
20
-701.788280
30
0.0
11
160.505725
21
-701.067300
31
0.0
0
LINE
8
0
6
CONTINUOUS
10
155.656555
20
-701.791260
30
0.0
11
160.506425
21
-701.069970
31
0.0
0
LINE
8
0
6
CONTINUOUS
10
150.739045
20
-701.198530
30
0.0
11
155.656365
21
-701.788280
31
0.0
0
LINE
8
0
6
CONTINUOUS
10
150.738375
20
-701.201580
30
0.0
11
155.656555
21
-701.791260
31
0.0
0
LINE
8
0
6
CONTINUOUS
10
146.130435
20
-699.343670
30
0.0
11
150.157929
21
-700.967546
31
0.0
0
LINE
8
0
6
CONTINUOUS
10
142.153005
20
-696.349210
30
0.0
11
146.130435
21
-699.343670
31
0.0
0
LINE
8
0
6
CONTINUOUS
10
139.087895
20
-692.411830
30
0.0
11
142.155295
21
-696.346920
31
0.0
0
LINE
8
0
6
CONTINUOUS
10
139.084865
20
-692.413360
30
0.0
11
142.153005
21
-696.349210
31
0.0
0
LINE
8
0
6
CONTINUOUS
10
137.177815
20
-687.854790
30
0.0
11
139.084865
21
-692.413360
31
0.0
0
LINE
8
0
6
CONTINUOUS
10
136.549595
20
-682.891260
30
0.0
11
137.181175
21
-687.853800
31
0.0
0
LINE
8
0
6
CONTINUOUS
10
136.546175
20
-682.891340
30
0.0
11
137.177815
21
-687.854790
31
0.0
0
LINE
8
0
6
CONTINUOUS
10
137.227485
20
-677.945660
30
0.0
11
136.549595
21
-682.891260
31
0.0
0
LINE
8
0
6
CONTINUOUS
10
137.224315
20
-677.944740
30
0.0
11
136.546175
21
-682.891340
31
0.0
0
LINE
8
0
6
CONTINUOUS
10
138.755772
20
-674.204148
30
0.0
11
137.227485
21
-677.945660
31
0.0
0
LINE
8
0
6
CONTINUOUS
10
138.753570
20
-674.202576
30
0.0
11
137.224315
21
-677.944740
31
0.0
0
LINE
8
0
6
CONTINUOUS
10
142.176925
20
-669.460860
30
0.0
11
142.070838
21
-669.594761
31
0.0
0
LINE
8
0
6
CONTINUOUS
10
142.175075
20
-669.458800
30
0.0
11
142.068620
21
-669.593178
31
0.0
0
LINE
8
0
6
CONTINUOUS
10
150.759365
20
-664.700800
30
0.0
11
146.165115
21
-666.512020
31
0.0
0
LINE
8
0
6
CONTINUOUS
10
150.758715
20
-664.698210
30
0.0
11
146.163645
21
-666.509500
31
0.0
0
LINE
8
0
6
CONTINUOUS
10
155.640645
20
-664.099150
30
0.0
11
150.759365
21
-664.700800
31
0.0
0
LINE
8
0
6
CONTINUOUS
10
155.640705
20
-664.096550
30
0.0
11
150.758715
21
-664.698210
31
0.0
0
LINE
8
0
6
CONTINUOUS
10
160.487715
20
-664.797690
30
0.0
11
155.640645
21
-664.099150
31
0.0
0
LINE
8
0
6
CONTINUOUS
10
160.488405
20
-664.795180
30
0.0
11
155.640705
21
-664.096550
31
0.0
0
LINE
8
0
6
CONTINUOUS
10
164.940075
20
-666.732430
30
0.0
11
160.487715
21
-664.797690
31
0.0
0
LINE
8
0
6
CONTINUOUS
10
164.941375
20
-666.730450
30
0.0
11
160.488405
21
-664.795180
31
0.0
0
LINE
8
0
6
CONTINUOUS
10
168.711215
20
-669.701260
30
0.0
11
164.940075
21
-666.732430
31
0.0
0
LINE
8
0
6
CONTINUOUS
10
168.712665
20
-669.699350
30
0.0
11
164.941375
21
-666.730450
31
0.0
0
LINE
8
0
6
CONTINUOUS
10
171.640135
20
-673.559600
30
0.0
11
169.376164
21
-670.574260
31
0.0
0
LINE
8
0
6
CONTINUOUS
10
173.326955
20
-678.034080
30
0.0
11
171.638305
21
-673.561050
31
0.0
0
LINE
8
0
6
CONTINUOUS
10
173.328065
20
-678.033090
30
0.0
11
171.640135
21
-673.559600
31
0.0
0
LINE
8
0
6
CONTINUOUS
10
189.830295
20
-682.276650
30
0.0
11
189.829485
21
-686.355100
31
0.0
0
LINE
8
0
6
CONTINUOUS
10
189.829065
20
-690.390360
30
0.0
11
189.828875
21
-694.141890
31
0.0
0
LINE
8
0
6
CONTINUOUS
10
189.828075
20
-697.328610
30
0.0
11
189.828075
21
-699.808170
31
0.0
0
LINE
8
0
6
CONTINUOUS
10
189.827965
20
-701.315050
30
0.0
11
189.828575
21
-701.899240
31
0.0
0
LINE
8
0
6
CONTINUOUS
10
189.828075
20
-699.808170
30
0.0
11
189.827965
21
-701.315050
31
0.0
0
LINE
8
0
6
CONTINUOUS
10
189.829485
20
-686.355100
30
0.0
11
189.829065
21
-690.390360
31
0.0
0
LINE
8
0
6
CONTINUOUS
10
189.831125
20
-675.157130
30
0.0
11
189.830405
21
-678.472640
31
0.0
0
LINE
8
0
6
CONTINUOUS
10
189.831815
20
-671.003700
30
0.0
11
189.830905
21
-672.611890
31
0.0
0
LINE
8
0
6
CONTINUOUS
10
189.832585
20
-670.395680
30
0.0
11
189.831815
21
-671.003700
31
0.0
0
LINE
8
0
6
CONTINUOUS
10
173.187675
20
-687.604010
30
0.0
11
173.781325
21
-682.889120
31
0.0
0
LINE
8
0
6
CONTINUOUS
10
171.409035
20
-692.020130
30
0.0
11
173.187675
21
-687.604010
31
0.0
0
LINE
8
0
6
CONTINUOUS
10
168.555105
20
-695.847150
30
0.0
11
171.409035
21
-692.020130
31
0.0
0
LINE
8
0
6
CONTINUOUS
10
164.824985
20
-698.790650
30
0.0
11
168.555105
21
-695.847150
31
0.0
0
LINE
8
0
6
CONTINUOUS
10
160.396785
20
-700.662450
30
0.0
11
164.824985
21
-698.790650
31
0.0
0
LINE
8
0
6
CONTINUOUS
10
155.627555
20
-701.325520
30
0.0
11
160.396785
21
-700.662450
31
0.0
0
LINE
8
0
6
CONTINUOUS
10
150.841465
20
-700.730800
30
0.0
11
155.627555
21
-701.325520
31
0.0
0
LINE
8
0
6
CONTINUOUS
10
146.365425
20
-698.913250
30
0.0
11
150.841465
21
-700.730800
31
0.0
0
LINE
8
0
6
CONTINUOUS
10
142.507795
20
-695.992340
30
0.0
11
146.365425
21
-698.913250
31
0.0
0
LINE
8
0
6
CONTINUOUS
10
139.554765
20
-692.170510
30
0.0
11
142.507795
21
-695.992340
31
0.0
0
LINE
8
0
6
CONTINUOUS
10
137.699355
20
-687.691440
30
0.0
11
139.554765
21
-692.170510
31
0.0
0
LINE
8
0
6
CONTINUOUS
10
137.072735
20
-682.885080
30
0.0
11
137.699355
21
-687.691440
31
0.0
0
LINE
8
0
6
CONTINUOUS
10
137.716555
20
-678.082910
30
0.0
11
137.072735
21
-682.885080
31
0.0
0
LINE
8
0
6
CONTINUOUS
10
139.094578
20
-674.445980
30
0.0
11
137.716555
21
-678.082910
31
0.0
0
LINE
8
0
6
CONTINUOUS
10
142.459375
20
-669.784720
30
0.0
11
142.365827
21
-669.900926
31
0.0
0
LINE
8
0
6
CONTINUOUS
10
146.391465
20
-666.900120
30
0.0
11
142.459375
21
-669.784720
31
0.0
0
LINE
8
0
6
CONTINUOUS
10
150.860875
20
-665.095090
30
0.0
11
146.391465
21
-666.900120
31
0.0
0
LINE
8
0
6
CONTINUOUS
10
155.633295
20
-664.501520
30
0.0
11
150.860875
21
-665.095090
31
0.0
0
LINE
8
0
6
CONTINUOUS
10
160.384175
20
-665.184270
30
0.0
11
155.633295
21
-664.501520
31
0.0
0
LINE
8
0
6
CONTINUOUS
10
164.739115
20
-667.047290
30
0.0
11
160.384175
21
-665.184270
31
0.0
0
LINE
8
0
6
CONTINUOUS
10
168.486065
20
-669.993460
30
0.0
11
164.739115
21
-667.047290
31
0.0
0
LINE
8
0
6
CONTINUOUS
10
171.352275
20
-673.788320
30
0.0
11
168.486065
21
-669.993460
31
0.0
0
LINE
8
0
6
CONTINUOUS
10
173.155595
20
-678.182170
30
0.0
11
171.352275
21
-673.788320
31
0.0
0
LINE
8
0
6
CONTINUOUS
10
173.781325
20
-682.889120
30
0.0
11
173.155595
21
-678.182170
31
0.0
0
LINE
8
0
6
CONTINUOUS
10
131.316875
20
-668.938950
30
0.0
11
138.741689
21
-674.238627
31
0.0
0
LINE
8
0
6
CONTINUOUS
10
130.425655
20
-667.822310
30
0.0
11
131.316875
21
-668.938950
31
0.0
0
LINE
8
0
6
CONTINUOUS
10
130.209965
20
-666.408890
30
0.0
11
130.425655
21
-667.822310
31
0.0
0
LINE
8
0
6
CONTINUOUS
10
130.727605
20
-665.077400
30
0.0
11
130.209965
21
-666.408890
31
0.0
0
LINE
8
0
6
CONTINUOUS
10
133.366415
20
-663.809020
30
0.0
11
131.957535
21
-664.023940
31
0.0
0
LINE
8
0
6
CONTINUOUS
10
134.694415
20
-664.329650
30
0.0
11
133.366415
21
-663.809020
31
0.0
0
LINE
8
0
6
CONTINUOUS
10
131.957535
20
-664.023940
30
0.0
11
130.727605
21
-665.077400
31
0.0
0
LINE
8
0
6
CONTINUOUS
10
130.434505
20
-667.827570
30
0.0
11
130.749205
21
-668.008830
31
0.0
0
LINE
8
0
6
CONTINUOUS
10
130.218955
20
-666.414300
30
0.0
11
130.538595
21
-666.599140
31
0.0
0
LINE
8
0
6
CONTINUOUS
10
133.374145
20
-663.817260
30
0.0
11
133.650495
21
-664.100970
31
0.0
0
LINE
8
0
6
CONTINUOUS
10
130.736775
20
-665.082900
30
0.0
11
131.063195
21
-665.272770
31
0.0
0
LINE
8
0
6
CONTINUOUS
10
132.236515
20
-664.312160
30
0.0
11
131.965125
21
-664.032100
31
0.0
0
LINE
8
0
6
CONTINUOUS
10
142.257714
20
-669.728148
30
0.0
11
134.694415
21
-664.329650
31
0.0
0
LINE
8
0
6
CONTINUOUS
10
130.753345
20
-668.016990
30
0.0
11
131.642605
21
-669.132180
31
0.0
0
LINE
8
0
6
CONTINUOUS
10
130.542965
20
-666.607540
30
0.0
11
130.753345
21
-668.016990
31
0.0
0
LINE
8
0
6
CONTINUOUS
10
131.067865
20
-665.281320
30
0.0
11
130.542965
21
-666.607540
31
0.0
0
LINE
8
0
6
CONTINUOUS
10
133.652875
20
-664.113870
30
0.0
11
132.238695
21
-664.324820
31
0.0
0
LINE
8
0
6
CONTINUOUS
10
134.982795
20
-664.635870
30
0.0
11
133.652875
21
-664.113870
31
0.0
0
LINE
8
0
6
CONTINUOUS
10
139.574065
20
-674.793420
30
0.0
11
139.745345
21
-674.562860
31
0.0
0
LINE
8
0
6
CONTINUOUS
10
131.642605
20
-669.132180
30
0.0
11
139.574065
21
-674.793420
31
0.0
0
LINE
8
0
6
CONTINUOUS
10
142.914215
20
-670.297110
30
0.0
11
134.982795
21
-664.635870
31
0.0
0
LINE
8
0
6
CONTINUOUS
10
142.742915
20
-670.527750
30
0.0
11
142.914215
21
-670.297110
31
0.0
0
LINE
8
0
6
CONTINUOUS
10
132.238695
20
-664.324820
30
0.0
11
131.067865
21
-665.281320
31
0.0
0
LINE
8
0
6
CONTINUOUS
10
87.632175
20
-701.127030
30
0.0
11
91.051865
21
-701.118307
31
0.0
0
LINE
8
0
6
CONTINUOUS
10
119.389705
20
-701.046026
30
0.0
11
148.483044
21
-700.971818
31
0.0
0
LINE
8
0
6
CONTINUOUS
10
150.599225
20
-664.105120
30
0.0
11
134.681694
21
-664.324663
31
0.0
0
LINE
8
0
6
CONTINUOUS
10
131.556733
20
-664.367764
30
0.0
11
112.418596
21
-664.631727
31
0.0
0
LINE
8
0
6
CONTINUOUS
10
98.261746
20
-664.826986
30
0.0
11
87.633205
21
-664.973580
31
0.0
0
LINE
8
0
6
CONTINUOUS
10
70.936735
20
-700.966420
30
0.0
11
70.976765
21
-700.963800
31
0.0
0
LINE
8
0
6
CONTINUOUS
10
70.366575
20
-700.791280
30
0.0
11
70.976765
21
-700.963800
31
0.0
0
LINE
8
0
6
CONTINUOUS
10
50.684415
20
-675.886440
30
0.0
11
47.492525
21
-678.697010
31
0.0
0
LINE
8
0
6
CONTINUOUS
10
70.414135
20
-700.761930
30
0.0
11
70.976765
21
-700.963800
31
0.0
0
LINE
8
0
6
CONTINUOUS
10
41.886725
20
-685.034360
30
0.0
11
39.446865
21
-688.580330
31
0.0
0
LINE
8
0
6
CONTINUOUS
10
44.572155
20
-681.752890
30
0.0
11
41.886725
21
-685.034360
31
0.0
0
LINE
8
0
6
CONTINUOUS
10
47.492525
20
-678.697010
30
0.0
11
44.572155
21
-681.752890
31
0.0
0
LINE
8
0
6
CONTINUOUS
10
71.119385
20
-699.178310
30
0.0
11
70.933815
21
-700.690460
31
0.0
0
LINE
8
0
6
CONTINUOUS
10
70.933815
20
-700.690460
30
0.0
11
71.016745
21
-700.663900
31
0.0
0
LINE
8
0
6
CONTINUOUS
10
70.837535
20
-699.345340
30
0.0
11
71.119385
21
-699.178310
31
0.0
0
LINE
8
0
6
CONTINUOUS
10
70.975915
20
-666.289320
30
0.0
11
66.340715
21
-667.494680
31
0.0
0
LINE
8
0
6
CONTINUOUS
10
70.837535
20
-699.345340
30
0.0
11
70.854665
21
-700.715610
31
0.0
0
LINE
8
0
6
CONTINUOUS
10
70.933815
20
-700.690460
30
0.0
11
70.837535
21
-699.345340
31
0.0
0
LINE
8
0
6
CONTINUOUS
10
70.521775
20
-699.527090
30
0.0
11
70.837535
21
-699.345340
31
0.0
0
LINE
8
0
6
CONTINUOUS
10
69.879125
20
-696.821690
30
0.0
11
70.436225
21
-696.485200
31
0.0
0
LINE
8
0
6
CONTINUOUS
10
66.340715
20
-667.494680
30
0.0
11
61.979085
21
-669.103550
31
0.0
0
LINE
8
0
6
CONTINUOUS
10
54.153495
20
-673.332220
30
0.0
11
50.684415
21
-675.886440
31
0.0
0
LINE
8
0
6
CONTINUOUS
10
70.038425
20
-699.823490
30
0.0
11
70.689255
21
-700.746010
31
0.0
0
LINE
8
0
6
CONTINUOUS
10
70.337025
20
-699.647340
30
0.0
11
70.689255
21
-700.746010
31
0.0
0
LINE
8
0
6
CONTINUOUS
10
57.916585
20
-671.065160
30
0.0
11
54.153495
21
-673.332220
31
0.0
0
LINE
8
0
6
CONTINUOUS
10
70.337025
20
-699.647340
30
0.0
11
70.759445
21
-700.735800
31
0.0
0
LINE
8
0
6
CONTINUOUS
10
70.521775
20
-699.527090
30
0.0
11
70.759445
21
-700.735800
31
0.0
0
LINE
8
0
6
CONTINUOUS
10
70.854665
20
-700.715610
30
0.0
11
70.521775
21
-699.527090
31
0.0
0
LINE
8
0
6
CONTINUOUS
10
70.337025
20
-699.647340
30
0.0
11
70.521775
21
-699.527090
31
0.0
0
LINE
8
0
6
CONTINUOUS
10
61.979085
20
-669.103550
30
0.0
11
57.916585
21
-671.065160
31
0.0
0
LINE
8
0
6
CONTINUOUS
10
70.414135
20
-700.761930
30
0.0
11
68.916545
21
-700.217890
31
0.0
0
LINE
8
0
6
CONTINUOUS
10
39.446865
20
-688.580330
30
0.0
11
38.010975
21
-691.164850
31
0.0
0
LINE
8
0
6
CONTINUOUS
10
40.519945
20
-692.642140
30
0.0
11
43.064385
21
-693.345880
31
0.0
0
LINE
8
0
6
CONTINUOUS
10
68.204055
20
-700.298700
30
0.0
11
69.731745
21
-700.721150
31
0.0
0
LINE
8
0
6
CONTINUOUS
10
38.126785
20
-691.652610
30
0.0
11
38.420175
21
-692.061630
31
0.0
0
LINE
8
0
6
CONTINUOUS
10
70.303795
20
-700.879210
30
0.0
11
70.701715
21
-700.951290
31
0.0
0
LINE
8
0
6
CONTINUOUS
10
69.731745
20
-700.721150
30
0.0
11
70.303795
21
-700.879210
31
0.0
0
LINE
8
0
6
CONTINUOUS
10
54.362525
20
-696.470380
30
0.0
11
58.450215
21
-697.600880
31
0.0
0
LINE
8
0
6
CONTINUOUS
10
46.440865
20
-694.279740
30
0.0
11
50.273735
21
-695.339950
31
0.0
0
LINE
8
0
6
CONTINUOUS
10
65.659595
20
-699.594960
30
0.0
11
68.204055
21
-700.298700
31
0.0
0
LINE
8
0
6
CONTINUOUS
10
43.064385
20
-693.345880
30
0.0
11
46.440865
21
-694.279740
31
0.0
0
LINE
8
0
6
CONTINUOUS
10
87.633205
20
-664.973580
30
0.0
11
82.082645
21
-665.120150
31
0.0
0
LINE
8
0
6
CONTINUOUS
10
82.080655
20
-701.068840
30
0.0
11
87.632175
21
-701.127030
31
0.0
0
LINE
8
0
6
CONTINUOUS
10
70.976765
20
-700.963800
30
0.0
11
76.528715
21
-701.017650
31
0.0
0
LINE
8
0
6
CONTINUOUS
10
76.528715
20
-701.017650
30
0.0
11
82.080655
21
-701.068840
31
0.0
0
LINE
8
0
6
CONTINUOUS
10
76.530735
20
-665.459160
30
0.0
11
70.975915
21
-666.289320
31
0.0
0
LINE
8
0
6
CONTINUOUS
10
82.082645
20
-665.120150
30
0.0
11
76.530735
21
-665.459160
31
0.0
0
LINE
8
0
6
CONTINUOUS
10
62.656625
20
-698.497360
30
0.0
11
58.703475
21
-697.321030
31
0.0
0
LINE
8
0
6
CONTINUOUS
10
50.267465
20
-694.811510
30
0.0
11
46.314315
21
-693.635170
31
0.0
0
LINE
8
0
6
CONTINUOUS
10
66.149095
20
-699.536500
30
0.0
11
62.656625
21
-698.497360
31
0.0
0
LINE
8
0
6
CONTINUOUS
10
40.186055
20
-691.811790
30
0.0
11
38.604375
21
-691.341250
31
0.0
0
LINE
8
0
6
CONTINUOUS
10
38.010975
20
-691.164850
30
0.0
11
38.126785
21
-691.652610
31
0.0
0
LINE
8
0
6
CONTINUOUS
10
38.604375
20
-691.341250
30
0.0
11
38.010975
21
-691.164850
31
0.0
0
LINE
8
0
6
CONTINUOUS
10
46.314315
20
-693.635170
30
0.0
11
42.821845
21
-692.596030
31
0.0
0
LINE
8
0
6
CONTINUOUS
10
70.366575
20
-700.791280
30
0.0
11
68.784905
21
-700.320750
31
0.0
0
LINE
8
0
6
CONTINUOUS
10
54.486005
20
-696.066240
30
0.0
11
50.267465
21
-694.811510
31
0.0
0
LINE
8
0
6
CONTINUOUS
10
42.821845
20
-692.596030
30
0.0
11
40.186055
21
-691.811790
31
0.0
0
LINE
8
0
6
CONTINUOUS
10
58.703475
20
-697.321030
30
0.0
11
54.486005
21
-696.066240
31
0.0
0
LINE
8
0
6
CONTINUOUS
10
70.701715
20
-700.951290
30
0.0
11
70.936735
21
-700.966420
31
0.0
0
LINE
8
0
6
CONTINUOUS
10
68.784905
20
-700.320750
30
0.0
11
66.149095
21
-699.536500
31
0.0
0
LINE
8
0
6
CONTINUOUS
10
38.992245
20
-692.219690
30
0.0
11
38.420175
21
-692.061630
31
0.0
0
LINE
8
0
6
CONTINUOUS
10
54.362525
20
-696.470380
30
0.0
11
50.273735
21
-695.339950
31
0.0
0
LINE
8
0
6
CONTINUOUS
10
40.519945
20
-692.642140
30
0.0
11
38.992245
21
-692.219690
31
0.0
0
LINE
8
0
6
CONTINUOUS
10
183.353302
20
707.095560
30
0.0
11
222.008855
21
707.095560
31
0.0
0
LINE
8
0
6
CONTINUOUS
10
222.008835
20
728.056560
30
0.0
11
183.353305
21
728.056560
31
0.0
0
LINE
8
0
6
CONTINUOUS
10
222.008835
20
748.051980
30
0.0
11
222.008835
21
747.305820
31
0.0
0
LINE
8
0
6
CONTINUOUS
10
222.485925
20
748.083110
30
0.0
11
222.008835
21
748.051980
31
0.0
0
LINE
8
0
6
CONTINUOUS
10
222.008835
20
747.305820
30
0.0
11
222.008835
21
745.104590
31
0.0
0
LINE
8
0
6
CONTINUOUS
10
222.008835
20
745.104590
30
0.0
11
222.008835
21
741.558750
31
0.0
0
LINE
8
0
6
CONTINUOUS
10
222.008835
20
741.558750
30
0.0
11
222.008835
21
736.845920
31
0.0
0
LINE
8
0
6
CONTINUOUS
10
222.008835
20
736.845920
30
0.0
11
222.008835
21
731.202610
31
0.0
0
LINE
8
0
6
CONTINUOUS
10
222.008835
20
731.202610
30
0.0
11
222.008835
21
724.911720
31
0.0
0
LINE
8
0
6
CONTINUOUS
10
222.008835
20
724.911720
30
0.0
11
222.008835
21
718.288790
31
0.0
0
LINE
8
0
6
CONTINUOUS
10
222.008835
20
718.288790
30
0.0
11
222.008855
21
711.665560
31
0.0
0
LINE
8
0
6
CONTINUOUS
10
222.008855
20
711.665560
30
0.0
11
222.008855
21
705.374670
31
0.0
0
LINE
8
0
6
CONTINUOUS
10
222.008855
20
705.374670
30
0.0
11
222.008855
21
699.731360
31
0.0
0
LINE
8
0
6
CONTINUOUS
10
222.008855
20
699.731360
30
0.0
11
222.008855
21
695.018530
31
0.0
0
LINE
8
0
6
CONTINUOUS
10
222.008855
20
695.018530
30
0.0
11
222.008855
21
691.472690
31
0.0
0
LINE
8
0
6
CONTINUOUS
10
222.008855
20
691.472690
30
0.0
11
222.008855
21
689.271460
31
0.0
0
LINE
8
0
6
CONTINUOUS
10
222.008855
20
688.525310
30
0.0
11
222.485955
21
688.494180
31
0.0
0
LINE
8
0
6
CONTINUOUS
10
222.008855
20
689.271460
30
0.0
11
222.008855
21
688.525310
31
0.0
0
LINE
8
0
6
CONTINUOUS
10
234.340265
20
711.579510
30
0.0
11
234.340265
21
718.288790
31
0.0
0
LINE
8
0
6
CONTINUOUS
10
234.340265
20
718.288790
30
0.0
11
234.340245
21
724.998080
31
0.0
0
LINE
8
0
6
CONTINUOUS
10
234.340245
20
737.087930
30
0.0
11
234.340245
21
741.862100
31
0.0
0
LINE
8
0
6
CONTINUOUS
10
234.340245
20
741.862100
30
0.0
11
234.340245
21
745.454320
31
0.0
0
LINE
8
0
6
CONTINUOUS
10
234.340245
20
745.454320
30
0.0
11
234.340245
21
747.684240
31
0.0
0
LINE
8
0
6
CONTINUOUS
10
227.738815
20
748.426120
30
0.0
11
222.485925
21
748.083110
31
0.0
0
LINE
8
0
6
CONTINUOUS
10
222.485955
20
688.494180
30
0.0
11
227.738835
21
688.151470
31
0.0
0
LINE
8
0
6
CONTINUOUS
10
234.340285
20
688.137120
30
0.0
11
234.340285
21
688.893040
31
0.0
0
LINE
8
0
6
CONTINUOUS
10
227.738835
20
688.151470
30
0.0
11
234.340285
21
688.137120
31
0.0
0
LINE
8
0
6
CONTINUOUS
10
234.340285
20
688.893040
30
0.0
11
234.340285
21
691.122960
31
0.0
0
LINE
8
0
6
CONTINUOUS
10
234.340285
20
691.122960
30
0.0
11
234.340285
21
694.715190
31
0.0
0
LINE
8
0
6
CONTINUOUS
10
234.340285
20
694.715190
30
0.0
11
234.340285
21
699.489660
31
0.0
0
LINE
8
0
6
CONTINUOUS
10
234.340285
20
699.489660
30
0.0
11
234.340265
21
705.206520
31
0.0
0
LINE
8
0
6
CONTINUOUS
10
234.340265
20
705.206520
30
0.0
11
234.340265
21
711.579510
31
0.0
0
LINE
8
0
6
CONTINUOUS
10
234.340245
20
724.998080
30
0.0
11
234.340245
21
731.371070
31
0.0
0
LINE
8
0
6
CONTINUOUS
10
234.340245
20
731.371070
30
0.0
11
234.340245
21
737.087930
31
0.0
0
LINE
8
0
6
CONTINUOUS
10
234.340245
20
747.684240
30
0.0
11
234.340245
21
748.440160
31
0.0
0
LINE
8
0
6
CONTINUOUS
10
234.340245
20
748.440160
30
0.0
11
227.738815
21
748.426120
31
0.0
0
LINE
8
0
6
CONTINUOUS
10
-110.694125
20
884.971530
30
0.0
11
-114.938435
21
885.719820
31
0.0
0
LINE
8
0
6
CONTINUOUS
10
-104.095805
20
883.807900
30
0.0
11
-110.694125
21
884.971530
31
0.0
0
LINE
8
0
6
CONTINUOUS
10
-88.265345
20
880.200110
30
0.0
11
-88.125685
21
880.992350
31
0.0
0
LINE
8
0
6
CONTINUOUS
10
-96.911125
20
882.541420
30
0.0
11
-104.095805
21
883.807900
31
0.0
0
LINE
8
0
6
CONTINUOUS
10
-91.065905
20
881.510540
30
0.0
11
-96.911125
21
882.541420
31
0.0
0
LINE
8
0
6
CONTINUOUS
10
-115.691685
20
885.852730
30
0.0
11
-115.831345
21
885.060490
31
0.0
0
LINE
8
0
6
CONTINUOUS
10
-114.938435
20
885.719820
30
0.0
11
-115.691685
21
885.852730
31
0.0
0
LINE
8
0
6
CONTINUOUS
10
-115.388915
20
858.345860
30
0.0
11
-108.790595
21
857.182230
31
0.0
0
LINE
8
0
6
CONTINUOUS
10
-92.820515
20
854.366680
30
0.0
11
-92.670295
21
855.218730
31
0.0
0
LINE
8
0
6
CONTINUOUS
10
-108.790595
20
857.182230
30
0.0
11
-101.605955
21
855.915750
31
0.0
0
LINE
8
0
6
CONTINUOUS
10
-120.236245
20
860.079110
30
0.0
11
-120.386505
21
859.227060
31
0.0
0
LINE
8
0
6
CONTINUOUS
10
-91.065905
20
881.510540
30
0.0
11
-88.125685
21
880.992350
31
0.0
0
LINE
8
0
6
CONTINUOUS
10
-115.388915
20
858.345860
30
0.0
11
-119.633295
21
859.094460
31
0.0
0
LINE
8
0
6
CONTINUOUS
10
-92.820515
20
854.366680
30
0.0
11
-95.760765
21
854.884860
31
0.0
0
LINE
8
0
6
CONTINUOUS
10
-95.760765
20
854.884860
30
0.0
11
-101.605955
21
855.915750
31
0.0
0
LINE
8
0
6
CONTINUOUS
10
-119.633295
20
859.094460
30
0.0
11
-120.386505
21
859.227060
31
0.0
0
LINE
8
0
6
CONTINUOUS
10
-92.670295
20
855.218730
30
0.0
11
-92.217700
21
857.785491
31
0.0
0
LINE
8
0
6
CONTINUOUS
10
-88.656354
20
877.982616
30
0.0
11
-88.265345
21
880.200110
31
0.0
0
LINE
8
0
6
CONTINUOUS
10
-115.831345
20
885.060490
30
0.0
11
-120.236245
21
860.079110
31
0.0
0
LINE
8
0
6
CONTINUOUS
10
-96.961300
20
853.913028
30
0.0
11
-96.766527
21
855.062094
31
0.0
0
LINE
8
0
6
CONTINUOUS
10
-116.523398
20
858.545855
30
0.0
11
-116.719964
21
857.386206
31
0.0
0
LINE
8
0
6
CONTINUOUS
10
183.353305
20
-663.447010
30
0.0
11
183.353305
21
100.088744
31
0.0
0
LINE
8
0
6
CONTINUOUS
10
183.353305
20
188.620060
30
0.0
11
183.353305
21
707.095558
31
0.0
0
LINE
8
0
6
CONTINUOUS
10
183.353305
20
728.056561
30
0.0
11
183.353305
21
758.492350
31
0.0
0
LINE
8
0
6
CONTINUOUS
10
161.654525
20
758.492350
30
0.0
11
161.654525
21
270.656181
31
0.0
0
LINE
8
0
6
CONTINUOUS
10
161.654525
20
157.765881
30
0.0
11
161.654525
21
-663.447010
31
0.0
0
LINE
8
0
6
CONTINUOUS
10
161.464445
20
764.384380
30
0.0
11
161.654525
21
758.492350
31
0.0
0
LINE
8
0
6
CONTINUOUS
10
183.353305
20
758.492350
30
0.0
11
183.090585
21
766.158060
31
0.0
0
LINE
8
0
6
CONTINUOUS
10
161.102695
20
770.316080
30
0.0
11
161.464445
21
764.384380
31
0.0
0
LINE
8
0
6
CONTINUOUS
10
183.090585
20
766.158060
30
0.0
11
182.661855
21
772.773350
31
0.0
0
LINE
8
0
6
CONTINUOUS
10
158.066915
20
783.395000
30
0.0
11
160.010895
21
776.905430
31
0.0
0
LINE
8
0
6
CONTINUOUS
10
181.013955
20
781.955790
30
0.0
11
178.485675
21
790.737530
31
0.0
0
LINE
8
0
6
CONTINUOUS
10
151.924935
20
795.336220
30
0.0
11
155.382535
21
789.599520
31
0.0
0
LINE
8
0
6
CONTINUOUS
10
174.682865
20
799.192110
30
0.0
11
170.106825
21
807.179180
31
0.0
0
LINE
8
0
6
CONTINUOUS
10
143.145575
20
805.732030
30
0.0
11
148.023925
21
800.808330
31
0.0
0
LINE
8
0
6
CONTINUOUS
10
164.393655
20
814.846720
30
0.0
11
157.948625
21
821.597510
31
0.0
0
LINE
8
0
6
CONTINUOUS
10
129.519065
20
815.302040
30
0.0
11
136.332315
21
811.381750
31
0.0
0
LINE
8
0
6
CONTINUOUS
10
148.627355
20
828.997720
30
0.0
11
139.306105
21
834.668190
31
0.0
0
LINE
8
0
6
CONTINUOUS
10
113.644545
20
820.678020
30
0.0
11
121.581805
21
818.702310
31
0.0
0
LINE
8
0
6
CONTINUOUS
10
128.254835
20
839.087740
30
0.0
11
117.203555
21
842.082740
31
0.0
0
LINE
8
0
6
CONTINUOUS
10
-92.320973
20
857.199806
30
0.0
11
113.644545
21
820.678020
31
0.0
0
LINE
8
0
6
CONTINUOUS
10
117.203555
20
842.082740
30
0.0
11
-88.553059
21
878.568426
31
0.0
0
LINE
8
0
6
CONTINUOUS
10
121.581805
20
818.702310
30
0.0
11
129.519065
21
815.302040
31
0.0
0
LINE
8
0
6
CONTINUOUS
10
139.306105
20
834.668190
30
0.0
11
128.254835
21
839.087740
31
0.0
0
LINE
8
0
6
CONTINUOUS
10
136.332315
20
811.381750
30
0.0
11
143.145575
21
805.732030
31
0.0
0
LINE
8
0
6
CONTINUOUS
10
157.948625
20
821.597510
30
0.0
11
148.627355
21
828.997720
31
0.0
0
LINE
8
0
6
CONTINUOUS
10
148.023925
20
800.808330
30
0.0
11
151.924935
21
795.336220
31
0.0
0
LINE
8
0
6
CONTINUOUS
10
170.106825
20
807.179180
30
0.0
11
164.393655
21
814.846720
31
0.0
0
LINE
8
0
6
CONTINUOUS
10
155.382535
20
789.599520
30
0.0
11
158.066915
21
783.395000
31
0.0
0
LINE
8
0
6
CONTINUOUS
10
178.485675
20
790.737530
30
0.0
11
174.682865
21
799.192110
31
0.0
0
LINE
8
0
6
CONTINUOUS
10
160.010895
20
776.905430
30
0.0
11
161.102695
21
770.316080
31
0.0
0
LINE
8
0
6
CONTINUOUS
10
182.661855
20
772.773350
30
0.0
11
181.013955
21
781.955790
31
0.0
0
LINE
8
0
6
CONTINUOUS
10
154.277205
20
178.807585
30
0.0
11
153.544275
21
175.166345
31
0.0
0
LINE
8
0
6
CONTINUOUS
10
153.544275
20
175.166345
30
0.0
11
153.535775
21
171.452055
31
0.0
0
LINE
8
0
6
CONTINUOUS
10
153.535775
20
171.452055
30
0.0
11
154.252095
21
167.807415
31
0.0
0
LINE
8
0
6
CONTINUOUS
10
160.884945
20
183.836165
30
0.0
11
160.211055
21
186.075995
31
0.0
0
LINE
8
0
6
CONTINUOUS
10
159.472595
20
187.007015
30
0.0
11
159.909440
21
186.896895
31
0.0
0
LINE
8
0
6
CONTINUOUS
10
160.884945
20
183.836165
30
0.0
11
161.706035
21
181.106895
31
0.0
0
LINE
8
0
6
CONTINUOUS
10
162.642845
20
177.993185
30
0.0
11
163.659295
21
174.614515
31
0.0
0
LINE
8
0
6
CONTINUOUS
10
161.706035
20
181.106895
30
0.0
11
162.642845
21
177.993185
31
0.0
0
LINE
8
0
6
CONTINUOUS
10
163.659295
20
174.614515
30
0.0
11
164.756635
21
170.967165
31
0.0
0
LINE
8
0
6
CONTINUOUS
10
154.277205
20
178.807585
30
0.0
11
155.706475
21
182.235855
31
0.0
0
LINE
8
0
6
CONTINUOUS
10
155.706475
20
182.235855
30
0.0
11
157.777105
21
185.319355
31
0.0
0
LINE
8
0
6
CONTINUOUS
10
157.777105
20
185.319355
30
0.0
11
159.472595
21
187.007015
31
0.0
0
LINE
8
0
6
CONTINUOUS
10
181.366285
20
189.954365
30
0.0
11
177.937895
21
191.383765
31
0.0
0
LINE
8
0
6
CONTINUOUS
10
184.449975
20
187.883635
30
0.0
11
181.366285
21
189.954365
31
0.0
0
LINE
8
0
6
CONTINUOUS
10
187.070435
20
185.251035
30
0.0
11
184.449975
21
187.883635
31
0.0
0
LINE
8
0
6
CONTINUOUS
10
189.126965
20
182.157925
30
0.0
11
187.070435
21
185.251035
31
0.0
0
LINE
8
0
6
CONTINUOUS
10
190.540585
20
178.723055
30
0.0
11
189.126965
21
182.157925
31
0.0
0
LINE
8
0
6
CONTINUOUS
10
181.366285
20
189.954405
30
0.0
11
179.359637
21
190.867688
31
0.0
0
LINE
8
0
6
CONTINUOUS
10
178.938685
20
179.210615
30
0.0
11
177.922195
21
182.589215
31
0.0
0
LINE
8
0
6
CONTINUOUS
10
177.922195
20
182.589215
30
0.0
11
177.457596
21
184.133468
31
0.0
0
LINE
8
0
6
CONTINUOUS
10
180.036015
20
175.563225
30
0.0
11
178.938685
21
179.210615
31
0.0
0
LINE
8
0
6
CONTINUOUS
10
175.975265
20
191.778919
30
0.0
11
177.937895
21
191.383765
31
0.0
0
LINE
8
0
6
CONTINUOUS
10
169.537515
20
155.044425
30
0.0
11
169.302215
21
155.858335
31
0.0
0
LINE
8
0
6
CONTINUOUS
10
155.665685
20
164.372465
30
0.0
11
157.722225
21
161.279325
31
0.0
0
LINE
8
0
6
CONTINUOUS
10
154.252095
20
167.807415
30
0.0
11
155.665685
21
164.372465
31
0.0
0
LINE
8
0
6
CONTINUOUS
10
165.853985
20
167.319815
30
0.0
11
164.756635
21
170.967165
31
0.0
0
LINE
8
0
6
CONTINUOUS
10
169.217185
20
154.670965
30
0.0
11
169.537515
21
155.044425
31
0.0
0
LINE
8
0
6
CONTINUOUS
10
169.537515
20
155.044425
30
0.0
11
169.200005
21
154.674445
31
0.0
0
LINE
8
0
6
CONTINUOUS
10
163.426355
20
156.576025
30
0.0
11
166.197905
21
155.278845
31
0.0
0
LINE
8
0
6
CONTINUOUS
10
166.197905
20
155.278845
30
0.0
11
166.854745
21
155.146585
31
0.0
0
LINE
8
0
6
CONTINUOUS
10
167.807255
20
160.827435
30
0.0
11
168.628355
21
158.098175
31
0.0
0
LINE
8
0
6
CONTINUOUS
10
165.853985
20
167.319815
30
0.0
11
166.870455
21
163.941185
31
0.0
0
LINE
8
0
6
CONTINUOUS
10
166.870455
20
163.941185
30
0.0
11
167.807255
21
160.827435
31
0.0
0
LINE
8
0
6
CONTINUOUS
10
168.628355
20
158.098175
30
0.0
11
169.302215
21
155.858335
31
0.0
0
LINE
8
0
6
CONTINUOUS
10
163.426365
20
156.576025
30
0.0
11
160.342695
21
158.646805
31
0.0
0
LINE
8
0
6
CONTINUOUS
10
160.342695
20
158.646805
30
0.0
11
157.722225
21
161.279325
31
0.0
0
LINE
8
0
6
CONTINUOUS
10
166.854765
20
155.146665
30
0.0
11
163.426365
21
156.576025
31
0.0
0
LINE
8
0
6
CONTINUOUS
10
169.200005
20
154.674445
30
0.0
11
166.854765
21
155.146665
31
0.0
0
LINE
8
0
6
CONTINUOUS
10
183.353305
20
157.906170
30
0.0
11
184.383045
21
158.590765
31
0.0
0
LINE
8
0
6
CONTINUOUS
10
185.320085
20
159.523415
30
0.0
11
187.015545
21
161.211035
31
0.0
0
LINE
8
0
6
CONTINUOUS
10
184.581585
20
160.454435
30
0.0
11
184.834455
21
159.645755
31
0.0
0
LINE
8
0
6
CONTINUOUS
10
187.015545
20
161.211035
30
0.0
11
189.086205
21
164.294575
31
0.0
0
LINE
8
0
6
CONTINUOUS
10
189.086205
20
164.294575
30
0.0
11
190.515445
21
167.722845
31
0.0
0
LINE
8
0
6
CONTINUOUS
10
190.515445
20
167.722845
30
0.0
11
191.248435
21
171.364085
31
0.0
0
LINE
8
0
6
CONTINUOUS
10
191.248435
20
171.364085
30
0.0
11
191.256905
21
175.078375
31
0.0
0
LINE
8
0
6
CONTINUOUS
10
191.256905
20
175.078375
30
0.0
11
190.540585
21
178.723055
31
0.0
0
LINE
8
0
6
CONTINUOUS
10
184.834455
20
159.645755
30
0.0
11
185.320085
21
159.523415
31
0.0
0
LINE
8
0
6
CONTINUOUS
10
181.133335
20
171.915885
30
0.0
11
182.149825
21
168.537245
31
0.0
0
LINE
8
0
6
CONTINUOUS
10
182.149825
20
168.537245
30
0.0
11
183.086605
21
165.423495
31
0.0
0
LINE
8
0
6
CONTINUOUS
10
187.549785
20
161.742845
30
0.0
11
189.086195
21
164.294575
31
0.0
0
LINE
8
0
6
CONTINUOUS
10
187.459445
20
161.652895
30
0.0
11
187.549785
21
161.742845
31
0.0
0
LINE
8
0
6
CONTINUOUS
10
187.459445
20
161.652895
30
0.0
11
189.086205
21
164.294575
31
0.0
0
LINE
8
0
6
CONTINUOUS
10
187.015545
20
161.211035
30
0.0
11
187.459445
21
161.652895
31
0.0
0
LINE
8
0
6
CONTINUOUS
10
183.907725
20
162.694235
30
0.0
11
183.086605
21
165.423495
31
0.0
0
LINE
8
0
6
CONTINUOUS
10
183.258436
20
158.381278
30
0.0
11
184.248095
21
159.039215
31
0.0
0
LINE
8
0
6
CONTINUOUS
10
181.133335
20
171.915885
30
0.0
11
180.036015
21
175.563225
31
0.0
0
LINE
8
0
6
CONTINUOUS
10
184.581585
20
160.454435
30
0.0
11
183.907725
21
162.694235
31
0.0
0
LINE
8
0
6
CONTINUOUS
10
178.353772
20
191.272525
30
0.0
11
178.196954
21
191.331633
31
0.0
0
LINE
8
0
6
CONTINUOUS
10
110.216458
20
326.854458
30
0.0
11
110.018854
21
327.061449
31
0.0
0
LINE
8
0
6
CONTINUOUS
10
116.629419
20
318.848903
30
0.0
11
116.543999
21
318.935924
31
0.0
0
LINE
8
0
6
CONTINUOUS
10
85.411063
20
354.713764
30
0.0
11
86.489583
21
353.593675
31
0.0
0
LINE
8
0
6
CONTINUOUS
10
86.489583
20
353.593675
30
0.0
11
87.650585
21
352.204782
31
0.0
0
LINE
8
0
6
CONTINUOUS
10
95.093016
20
342.804049
30
0.0
11
93.925334
21
344.173744
31
0.0
0
LINE
8
0
6
CONTINUOUS
10
87.650585
20
352.204782
30
0.0
11
88.130073
21
351.661769
31
0.0
0
LINE
8
0
6
CONTINUOUS
10
103.012077
20
334.198786
30
0.0
11
102.188146
21
335.109733
31
0.0
0
LINE
8
0
6
CONTINUOUS
10
102.468124
20
333.783322
30
0.0
11
99.987759
21
336.886038
31
0.0
0
LINE
8
0
6
CONTINUOUS
10
98.766002
20
338.423367
30
0.0
11
95.451993
21
342.351888
31
0.0
0
LINE
8
0
6
CONTINUOUS
10
99.987759
20
336.886038
30
0.0
11
98.766002
21
338.423367
31
0.0
0
LINE
8
0
6
CONTINUOUS
10
109.620054
20
324.840083
30
0.0
11
107.125037
21
328.071693
31
0.0
0
LINE
8
0
6
CONTINUOUS
10
106.306906
20
329.126937
30
0.0
11
103.315845
21
332.756719
31
0.0
0
LINE
8
0
6
CONTINUOUS
10
107.125037
20
328.071693
30
0.0
11
106.306906
21
329.126937
31
0.0
0
LINE
8
0
6
CONTINUOUS
10
110.619725
20
321.919639
30
0.0
11
111.093883
21
321.459457
31
0.0
0
LINE
8
0
6
CONTINUOUS
10
121.842985
20
309.931178
30
0.0
11
121.561153
21
310.380669
31
0.0
0
LINE
8
0
6
CONTINUOUS
10
133.175258
20
299.084197
30
0.0
11
134.233282
21
298.062029
31
0.0
0
LINE
8
0
6
CONTINUOUS
10
130.807068
20
301.338182
30
0.0
11
133.175258
21
299.084197
31
0.0
0
LINE
8
0
6
CONTINUOUS
10
127.979328
20
304.018587
30
0.0
11
128.291835
21
303.725385
31
0.0
0
LINE
8
0
6
CONTINUOUS
10
93.657796
20
342.245116
30
0.0
11
94.444057
21
341.405783
31
0.0
0
LINE
8
0
6
CONTINUOUS
10
86.434675
20
352.819915
30
0.0
11
86.109184
21
353.318691
31
0.0
0
LINE
8
0
6
CONTINUOUS
10
177.928615
20
721.624349
30
0.0
11
178.248024
21
722.816380
31
0.0
0
LINE
8
0
6
CONTINUOUS
10
178.248034
20
712.336040
30
0.0
11
177.928615
21
713.528081
31
0.0
0
LINE
8
0
6
CONTINUOUS
10
181.899775
20
726.468332
30
0.0
11
181.949187
21
726.652750
31
0.0
0
LINE
8
0
6
CONTINUOUS
10
181.949187
20
708.499670
30
0.0
11
181.899775
21
708.684089
31
0.0
0
LINE
8
0
6
CONTINUOUS
10
-94.401266
20
862.594937
30
0.0
11
-94.963386
21
863.177479
31
0.0
0
LINE
8
0
6
CONTINUOUS
10
-93.079396
20
873.861937
30
0.0
11
-92.352152
21
874.215812
31
0.0
0
LINE
8
0
6
CONTINUOUS
10
-95.992343
20
868.869347
30
0.0
11
-93.079396
21
873.861937
31
0.0
0
LINE
8
0
6
CONTINUOUS
10
-94.963386
20
863.177479
30
0.0
11
-95.992343
21
868.869347
31
0.0
0
LINE
8
0
6
CONTINUOUS
10
-93.474589
20
858.880203
30
0.0
11
-94.401266
21
862.594937
31
0.0
0
LINE
8
0
6
CONTINUOUS
10
-88.656354
20
877.982616
30
0.0
11
-90.211395
21
877.386383
31
0.0
0
LINE
8
0
6
CONTINUOUS
10
-92.217700
20
857.785491
30
0.0
11
-93.474589
21
858.880203
31
0.0
0
LINE
8
0
6
CONTINUOUS
10
-90.211395
20
877.386383
30
0.0
11
-92.352152
21
874.215812
31
0.0
0
ENDSEC
0
EOF
