999
Erzeugt mit innoplus bad 
0
SECTION
2
HEADER
9
$ACADVER
1
AC1009
9
$DWGCODEPAGE
3
ISO8859-1
0
ENDSEC
0
SECTION
2
TABLES
0
TABLE
2
LAYER
70
1
0
LAYER
2
0
70
0
62
7
6
CONTINUOUS
0
ENDTAB
0
ENDSEC
0
SECTION
2
ENTITIES
0
LINE
8
0
6
CONTINUOUS
10
-119.000000
20
-115.239439
30
0.0
11
-119.000000
21
-117.122054
31
0.0
0
LINE
8
0
6
CONTINUOUS
10
119.000000
20
-117.122204
30
0.0
11
119.000000
21
-115.239589
31
0.0
0
LINE
8
0
6
CONTINUOUS
10
-23.215768
20
-232.738371
30
0.0
11
-0.000020
21
-235.000000
31
0.0
0
LINE
8
0
6
CONTINUOUS
10
-23.215768
20
-230.509213
30
0.0
11
-0.000010
21
-232.770842
31
0.0
0
LINE
8
0
6
CONTINUOUS
10
-45.539344
20
-226.040298
30
0.0
11
-23.215768
21
-232.738371
31
0.0
0
LINE
8
0
6
CONTINUOUS
10
-45.539344
20
-223.811140
30
0.0
11
-23.215768
21
-230.509213
31
0.0
0
LINE
8
0
6
CONTINUOUS
10
-66.112869
20
-215.163203
30
0.0
11
-45.539344
21
-226.040298
31
0.0
0
LINE
8
0
6
CONTINUOUS
10
-66.112869
20
-212.934045
30
0.0
11
-45.539344
21
-223.811140
31
0.0
0
LINE
8
0
6
CONTINUOUS
10
-84.145725
20
-200.525099
30
0.0
11
-66.112869
21
-215.163203
31
0.0
0
LINE
8
0
6
CONTINUOUS
10
-84.145725
20
-198.295972
30
0.0
11
-66.112869
21
-212.934045
31
0.0
0
LINE
8
0
6
CONTINUOUS
10
-98.944898
20
-182.688537
30
0.0
11
-84.145725
21
-200.525099
31
0.0
0
LINE
8
0
6
CONTINUOUS
10
-98.944898
20
-180.459379
30
0.0
11
-84.145725
21
-198.295972
31
0.0
0
LINE
8
0
6
CONTINUOUS
10
-109.941672
20
-162.338940
30
0.0
11
-98.944898
21
-182.688537
31
0.0
0
LINE
8
0
6
CONTINUOUS
10
-109.941672
20
-160.109823
30
0.0
11
-98.944898
21
-180.459379
31
0.0
0
LINE
8
0
6
CONTINUOUS
10
-116.713455
20
-140.258364
30
0.0
11
-109.941672
21
-162.338940
31
0.0
0
LINE
8
0
6
CONTINUOUS
10
-116.713455
20
-138.029206
30
0.0
11
-109.941672
21
-160.109823
31
0.0
0
LINE
8
0
6
CONTINUOUS
10
-118.999990
20
-117.295340
30
0.0
11
-116.713455
21
-140.258364
31
0.0
0
LINE
8
0
6
CONTINUOUS
10
-119.000000
20
-117.122054
30
0.0
11
-118.999990
21
-117.295340
31
0.0
0
LINE
8
0
6
CONTINUOUS
10
-118.999990
20
-115.066183
30
0.0
11
-116.713455
21
-138.029206
31
0.0
0
LINE
8
0
6
CONTINUOUS
10
-116.713455
20
-92.103129
30
0.0
11
-118.999990
21
-115.066183
31
0.0
0
LINE
8
0
6
CONTINUOUS
10
-109.941652
20
-70.022553
30
0.0
11
-116.713455
21
-92.103129
31
0.0
0
LINE
8
0
6
CONTINUOUS
10
-98.944878
20
-49.672936
30
0.0
11
-109.941652
21
-70.022553
31
0.0
0
LINE
8
0
6
CONTINUOUS
10
-84.145705
20
-31.836384
30
0.0
11
-98.944878
21
-49.672936
31
0.0
0
LINE
8
0
6
CONTINUOUS
10
-66.112850
20
-17.198290
30
0.0
11
-84.145705
21
-31.836384
31
0.0
0
LINE
8
0
6
CONTINUOUS
10
-45.539304
20
-6.321215
30
0.0
11
-66.112850
21
-17.198290
31
0.0
0
LINE
8
0
6
CONTINUOUS
10
-23.215708
20
0.376858
30
0.0
11
-45.539304
21
-6.321215
31
0.0
0
LINE
8
0
6
CONTINUOUS
10
-10.832031
20
1.583260
30
0.0
11
-23.215708
21
0.376858
31
0.0
0
LINE
8
0
6
CONTINUOUS
10
23.215808
20
0.376838
30
0.0
11
10.833073
21
1.583159
31
0.0
0
LINE
8
0
6
CONTINUOUS
10
45.539383
20
-6.321256
30
0.0
11
23.215808
21
0.376838
31
0.0
0
LINE
8
0
6
CONTINUOUS
10
66.112929
20
-17.198351
30
0.0
11
45.539383
21
-6.321256
31
0.0
0
LINE
8
0
6
CONTINUOUS
10
84.145775
20
-31.836454
30
0.0
11
66.112929
21
-17.198351
31
0.0
0
LINE
8
0
6
CONTINUOUS
10
98.944938
20
-49.673036
30
0.0
11
84.145775
21
-31.836454
31
0.0
0
LINE
8
0
6
CONTINUOUS
10
109.941712
20
-70.022653
30
0.0
11
98.944938
21
-49.673036
31
0.0
0
LINE
8
0
6
CONTINUOUS
10
116.713465
20
-92.103239
30
0.0
11
109.941712
21
-70.022653
31
0.0
0
LINE
8
0
6
CONTINUOUS
10
118.999990
20
-115.066303
30
0.0
11
116.713465
21
-92.103239
31
0.0
0
LINE
8
0
6
CONTINUOUS
10
118.999990
20
-117.295461
30
0.0
11
119.000000
21
-117.122204
31
0.0
0
LINE
8
0
6
CONTINUOUS
10
116.713405
20
-140.258524
30
0.0
11
118.999990
21
-117.295461
31
0.0
0
LINE
8
0
6
CONTINUOUS
10
116.713405
20
-138.029367
30
0.0
11
118.999990
21
-115.066303
31
0.0
0
LINE
8
0
6
CONTINUOUS
10
109.941592
20
-162.339091
30
0.0
11
116.713405
21
-140.258524
31
0.0
0
LINE
8
0
6
CONTINUOUS
10
109.941592
20
-160.109933
30
0.0
11
116.713405
21
-138.029367
31
0.0
0
LINE
8
0
6
CONTINUOUS
10
98.944778
20
-182.688698
30
0.0
11
109.941592
21
-162.339091
31
0.0
0
LINE
8
0
6
CONTINUOUS
10
98.944788
20
-180.459530
30
0.0
11
109.941592
21
-160.109933
31
0.0
0
LINE
8
0
6
CONTINUOUS
10
84.145585
20
-200.525250
30
0.0
11
98.944778
21
-182.688698
31
0.0
0
LINE
8
0
6
CONTINUOUS
10
84.145585
20
-198.296092
30
0.0
11
98.944788
21
-180.459530
31
0.0
0
LINE
8
0
6
CONTINUOUS
10
66.112710
20
-215.163323
30
0.0
11
84.145585
21
-200.525250
31
0.0
0
LINE
8
0
6
CONTINUOUS
10
66.112710
20
-212.934165
30
0.0
11
84.145585
21
-198.296092
31
0.0
0
LINE
8
0
6
CONTINUOUS
10
45.539164
20
-226.040378
30
0.0
11
66.112710
21
-215.163323
31
0.0
0
LINE
8
0
6
CONTINUOUS
10
45.539154
20
-223.811220
30
0.0
11
66.112710
21
-212.934165
31
0.0
0
LINE
8
0
6
CONTINUOUS
10
23.215549
20
-232.738411
30
0.0
11
45.539164
21
-226.040378
31
0.0
0
LINE
8
0
6
CONTINUOUS
10
23.215549
20
-230.509243
30
0.0
11
45.539154
21
-223.811220
31
0.0
0
LINE
8
0
6
CONTINUOUS
10
-0.000020
20
-235.000000
30
0.0
11
23.215549
21
-232.738411
31
0.0
0
LINE
8
0
6
CONTINUOUS
10
-0.000010
20
-232.770842
30
0.0
11
23.215549
21
-230.509243
31
0.0
0
LINE
8
0
6
CONTINUOUS
10
6.132756
20
-125.280557
30
0.0
11
0.000000
21
-126.487144
31
0.0
0
LINE
8
0
6
CONTINUOUS
10
6.132756
20
-125.280557
30
0.0
11
6.132756
21
-125.453814
31
0.0
0
LINE
8
0
6
CONTINUOUS
10
11.331883
20
-121.844401
30
0.0
11
6.132756
21
-125.280557
31
0.0
0
LINE
8
0
6
CONTINUOUS
10
14.805823
20
-116.701905
30
0.0
11
11.331883
21
-121.844401
31
0.0
0
LINE
8
0
6
CONTINUOUS
10
16.025706
20
-110.635876
30
0.0
11
14.805823
21
-116.701905
31
0.0
0
LINE
8
0
6
CONTINUOUS
10
16.025706
20
-110.809162
30
0.0
11
16.025706
21
-110.635876
31
0.0
0
LINE
8
0
6
CONTINUOUS
10
16.025706
20
-110.635876
30
0.0
11
14.805823
21
-104.569877
31
0.0
0
LINE
8
0
6
CONTINUOUS
10
14.805823
20
-104.569877
30
0.0
11
13.841647
21
-103.142590
31
0.0
0
LINE
8
0
6
CONTINUOUS
10
-13.973726
20
-103.338090
30
0.0
11
-14.805813
21
-104.569836
31
0.0
0
LINE
8
0
6
CONTINUOUS
10
-14.805813
20
-104.569836
30
0.0
11
-16.025706
21
-110.635876
31
0.0
0
LINE
8
0
6
CONTINUOUS
10
-16.025706
20
-110.635876
30
0.0
11
-16.025706
21
-110.809162
31
0.0
0
LINE
8
0
6
CONTINUOUS
10
-14.805823
20
-116.701905
30
0.0
11
-16.025706
21
-110.635876
31
0.0
0
LINE
8
0
6
CONTINUOUS
10
-11.331883
20
-121.844401
30
0.0
11
-14.805823
21
-116.701905
31
0.0
0
LINE
8
0
6
CONTINUOUS
10
-6.132776
20
-125.280527
30
0.0
11
-11.331883
21
-121.844401
31
0.0
0
LINE
8
0
6
CONTINUOUS
10
-6.132776
20
-125.280527
30
0.0
11
-6.132776
21
-125.453814
31
0.0
0
LINE
8
0
6
CONTINUOUS
10
0.000000
20
-126.487144
30
0.0
11
-6.132776
21
-125.280527
31
0.0
0
LINE
8
0
6
CONTINUOUS
10
0.000000
20
-126.660431
30
0.0
11
0.000000
21
-126.487144
31
0.0
0
LINE
8
0
6
CONTINUOUS
10
-8.034619
20
-118.583025
30
0.0
11
-8.440039
21
-117.982877
31
0.0
0
LINE
8
0
6
CONTINUOUS
10
4.348290
20
-121.019335
30
0.0
11
0.000000
21
-121.874856
31
0.0
0
LINE
8
0
6
CONTINUOUS
10
-4.348300
20
-121.019335
30
0.0
11
-8.034619
21
-118.583025
31
0.0
0
LINE
8
0
6
CONTINUOUS
10
8.034609
20
-118.583025
30
0.0
11
4.348290
21
-121.019335
31
0.0
0
LINE
8
0
6
CONTINUOUS
10
9.011558
20
-117.136841
30
0.0
11
8.034609
21
-118.583025
31
0.0
0
LINE
8
0
6
CONTINUOUS
10
0.000000
20
-121.874856
30
0.0
11
-4.348300
21
-121.019335
31
0.0
0
LINE
8
0
6
CONTINUOUS
10
0.000000
20
-120.495484
30
0.0
11
0.000000
21
-120.639157
31
0.0
0
LINE
8
0
6
CONTINUOUS
10
-8.034619
20
-118.583025
30
0.0
11
-4.348300
21
-121.019335
31
0.0
0
LINE
8
0
6
CONTINUOUS
10
-4.348300
20
-121.019335
30
0.0
11
0.000000
21
-121.874856
31
0.0
0
LINE
8
0
6
CONTINUOUS
10
0.000000
20
-121.874856
30
0.0
11
4.348290
21
-121.019335
31
0.0
0
LINE
8
0
6
CONTINUOUS
10
4.348290
20
-121.019335
30
0.0
11
8.034609
21
-118.583025
31
0.0
0
LINE
8
0
6
CONTINUOUS
10
-8.440039
20
-117.982877
30
0.0
11
-8.034619
21
-118.583025
31
0.0
0
LINE
8
0
6
CONTINUOUS
10
8.034609
20
-118.583025
30
0.0
11
9.011558
21
-117.136841
31
0.0
0
LINE
8
0
6
CONTINUOUS
10
14.153207
20
-100.153107
30
0.0
11
18.492052
21
-106.575978
31
0.0
0
LINE
8
0
6
CONTINUOUS
10
-20.015653
20
-114.152257
30
0.0
11
-18.492052
21
-106.575978
31
0.0
0
LINE
8
0
6
CONTINUOUS
10
7.659642
20
-132.443044
30
0.0
11
0.000000
21
-133.950035
31
0.0
0
LINE
8
0
6
CONTINUOUS
10
-14.153207
20
-128.151396
30
0.0
11
-18.492052
21
-121.728526
31
0.0
0
LINE
8
0
6
CONTINUOUS
10
0.000000
20
-133.950035
30
0.0
11
-7.659662
21
-132.443044
31
0.0
0
LINE
8
0
6
CONTINUOUS
10
20.015663
20
-114.152257
30
0.0
11
18.492052
21
-121.728526
31
0.0
0
LINE
8
0
6
CONTINUOUS
10
13.477612
20
-99.706604
30
0.0
11
14.153207
21
-100.153107
31
0.0
0
LINE
8
0
6
CONTINUOUS
10
18.492052
20
-106.575978
30
0.0
11
20.015663
21
-114.152257
31
0.0
0
LINE
8
0
6
CONTINUOUS
10
-7.659662
20
-132.443044
30
0.0
11
-14.153207
21
-128.151396
31
0.0
0
LINE
8
0
6
CONTINUOUS
10
18.492052
20
-121.728526
30
0.0
11
14.153207
21
-128.151396
31
0.0
0
LINE
8
0
6
CONTINUOUS
10
14.153207
20
-128.151396
30
0.0
11
7.659642
21
-132.443044
31
0.0
0
LINE
8
0
6
CONTINUOUS
10
-18.492052
20
-106.575978
30
0.0
11
-14.153207
21
-100.153107
31
0.0
0
LINE
8
0
6
CONTINUOUS
10
-18.492052
20
-121.728526
30
0.0
11
-20.015653
21
-114.152257
31
0.0
0
LINE
8
0
6
CONTINUOUS
10
81.843919
20
104.778853
30
0.0
11
81.845826
21
109.193236
31
0.0
0
LINE
8
0
6
CONTINUOUS
10
-17.998933
20
109.245452
30
0.0
11
-18.000831
21
104.831070
31
0.0
0
LINE
8
0
6
CONTINUOUS
10
-17.969266
20
109.606045
30
0.0
11
-17.998854
21
109.417445
31
0.0
0
LINE
8
0
6
CONTINUOUS
10
81.845906
20
109.365228
30
0.0
11
81.816479
21
109.554408
31
0.0
0
LINE
8
0
6
CONTINUOUS
10
-18.000900
20
104.659067
30
0.0
11
-17.045655
21
98.518027
31
0.0
0
LINE
8
0
6
CONTINUOUS
10
-18.000831
20
104.831070
30
0.0
11
-18.000900
21
104.659067
31
0.0
0
LINE
8
0
6
CONTINUOUS
10
-17.045655
20
98.518027
30
0.0
11
-14.208626
21
92.611987
31
0.0
0
LINE
8
0
6
CONTINUOUS
10
-14.208626
20
92.611987
30
0.0
11
-10.832023
21
88.624271
31
0.0
0
LINE
8
0
6
CONTINUOUS
10
22.162041
20
73.767536
30
0.0
11
31.900951
21
73.157674
31
0.0
0
LINE
8
0
6
CONTINUOUS
10
67.207363
20
82.358082
30
0.0
11
73.418976
21
87.124503
31
0.0
0
LINE
8
0
6
CONTINUOUS
10
41.640640
20
73.757357
30
0.0
11
51.006909
21
75.543562
31
0.0
0
LINE
8
0
6
CONTINUOUS
10
31.900951
20
73.157674
30
0.0
11
41.640640
21
73.757357
31
0.0
0
LINE
8
0
6
CONTINUOUS
10
80.882643
20
103.225202
30
0.0
11
78.037906
21
97.322140
31
0.0
0
LINE
8
0
6
CONTINUOUS
10
81.845906
20
109.365228
30
0.0
11
80.882643
21
103.225202
31
0.0
0
LINE
8
0
6
CONTINUOUS
10
81.845826
20
109.193236
30
0.0
11
81.845906
21
109.365228
31
0.0
0
LINE
8
0
6
CONTINUOUS
10
41.642696
20
78.515735
30
0.0
11
31.902998
21
77.916052
31
0.0
0
LINE
8
0
6
CONTINUOUS
10
22.164098
20
78.525924
30
0.0
11
12.800166
21
80.321936
31
0.0
0
LINE
8
0
6
CONTINUOUS
10
31.902998
20
77.916052
30
0.0
11
22.164098
21
78.525924
31
0.0
0
LINE
8
0
6
CONTINUOUS
10
81.843849
20
104.606850
30
0.0
11
81.843919
21
104.778853
31
0.0
0
LINE
8
0
6
CONTINUOUS
10
80.880586
20
98.466814
30
0.0
11
81.843849
21
104.606850
31
0.0
0
LINE
8
0
6
CONTINUOUS
10
78.035859
20
92.563742
30
0.0
11
80.880586
21
98.466814
31
0.0
0
LINE
8
0
6
CONTINUOUS
10
73.418976
20
87.124503
30
0.0
11
78.035859
21
92.563742
31
0.0
0
LINE
8
0
6
CONTINUOUS
10
59.639738
20
78.447684
30
0.0
11
67.207363
21
82.358082
31
0.0
0
LINE
8
0
6
CONTINUOUS
10
51.006909
20
75.543562
30
0.0
11
59.639738
21
78.447684
31
0.0
0
LINE
8
0
6
CONTINUOUS
10
51.008965
20
80.301960
30
0.0
11
41.642696
21
78.515735
31
0.0
0
LINE
8
0
6
CONTINUOUS
10
59.641795
20
83.206062
30
0.0
11
51.008965
21
80.301960
31
0.0
0
LINE
8
0
6
CONTINUOUS
10
67.209420
20
87.116470
30
0.0
11
59.641795
21
83.206062
31
0.0
0
LINE
8
0
6
CONTINUOUS
10
73.421023
20
91.882881
30
0.0
11
67.209420
21
87.116470
31
0.0
0
LINE
8
0
6
CONTINUOUS
10
78.037906
20
97.322140
30
0.0
11
73.421023
21
91.882881
31
0.0
0
LINE
8
0
6
CONTINUOUS
10
10.833083
20
76.226937
30
0.0
11
12.798109
21
75.563548
31
0.0
0
LINE
8
0
6
CONTINUOUS
10
12.798109
20
75.563548
30
0.0
11
22.162041
21
73.767536
31
0.0
0
LINE
8
0
6
CONTINUOUS
10
12.800166
20
80.321936
30
0.0
11
10.833084
21
80.986019
31
0.0
0
LINE
8
0
6
CONTINUOUS
10
-10.832022
20
93.385095
30
0.0
11
-14.206569
21
97.370376
31
0.0
0
LINE
8
0
6
CONTINUOUS
10
-14.206569
20
97.370376
30
0.0
11
-17.043599
21
103.276415
31
0.0
0
LINE
8
0
6
CONTINUOUS
10
-17.998854
20
109.417445
30
0.0
11
-17.998933
21
109.245452
31
0.0
0
LINE
8
0
6
CONTINUOUS
10
-17.043599
20
103.276415
30
0.0
11
-17.998854
21
109.417445
31
0.0
0
LINE
8
0
6
CONTINUOUS
10
19.471339
20
167.509459
30
0.0
11
19.449898
21
167.382098
31
0.0
0
LINE
8
0
6
CONTINUOUS
10
25.752560
20
178.165791
30
0.0
11
22.038004
21
174.908657
31
0.0
0
LINE
8
0
6
CONTINUOUS
10
44.488812
20
167.369001
30
0.0
11
44.459757
21
167.543571
31
0.0
0
LINE
8
0
6
CONTINUOUS
10
44.459757
20
167.543571
30
0.0
11
43.815079
21
171.284543
31
0.0
0
LINE
8
0
6
CONTINUOUS
10
41.908254
20
174.898268
30
0.0
11
38.196903
21
178.159282
31
0.0
0
LINE
8
0
6
CONTINUOUS
10
43.815079
20
171.284543
30
0.0
11
41.908254
21
174.898268
31
0.0
0
LINE
8
0
6
CONTINUOUS
10
25.752560
20
178.165791
30
0.0
11
25.744013
21
177.996806
31
0.0
0
LINE
8
0
6
CONTINUOUS
10
31.975505
20
179.726332
30
0.0
11
25.752560
21
178.165791
31
0.0
0
LINE
8
0
6
CONTINUOUS
10
22.038004
20
174.908657
30
0.0
11
20.127634
21
171.296938
31
0.0
0
LINE
8
0
6
CONTINUOUS
10
31.975505
20
179.726332
30
0.0
11
31.975335
21
179.555692
31
0.0
0
LINE
8
0
6
CONTINUOUS
10
38.196903
20
178.159282
30
0.0
11
31.975505
21
179.726332
31
0.0
0
LINE
8
0
6
CONTINUOUS
10
38.205120
20
177.990288
30
0.0
11
38.196903
21
178.159282
31
0.0
0
LINE
8
0
6
CONTINUOUS
10
45.332330
20
162.300462
30
0.0
11
44.488812
21
167.369001
31
0.0
0
LINE
8
0
6
CONTINUOUS
10
38.444059
20
173.079793
30
0.0
11
38.205120
21
177.990288
31
0.0
0
LINE
8
0
6
CONTINUOUS
10
-17.998694
20
109.795226
30
0.0
11
-17.043439
21
103.654186
31
0.0
0
LINE
8
0
6
CONTINUOUS
10
-17.998544
20
110.123266
30
0.0
11
-17.998694
21
109.795226
31
0.0
0
LINE
8
0
6
CONTINUOUS
10
-17.998115
20
111.132289
30
0.0
11
-17.998544
21
110.123266
31
0.0
0
LINE
8
0
6
CONTINUOUS
10
-17.993492
20
121.855753
30
0.0
11
-17.995798
21
116.494021
31
0.0
0
LINE
8
0
6
CONTINUOUS
10
-17.995798
20
116.494021
30
0.0
11
-17.998115
21
111.132289
31
0.0
0
LINE
8
0
6
CONTINUOUS
10
-17.993222
20
122.485260
30
0.0
11
-17.993492
21
121.855753
31
0.0
0
LINE
8
0
6
CONTINUOUS
10
31.903168
20
78.293822
30
0.0
11
41.642856
21
78.893506
31
0.0
0
LINE
8
0
6
CONTINUOUS
10
78.038065
20
97.699901
30
0.0
11
80.882803
21
103.602972
31
0.0
0
LINE
8
0
6
CONTINUOUS
10
-17.043439
20
103.654186
30
0.0
11
-14.206409
21
97.748146
31
0.0
0
LINE
8
0
6
CONTINUOUS
10
-14.206409
20
97.748146
30
0.0
11
-10.832022
21
93.763047
31
0.0
0
LINE
8
0
6
CONTINUOUS
10
10.833084
20
81.363844
30
0.0
11
12.800325
21
80.699706
31
0.0
0
LINE
8
0
6
CONTINUOUS
10
22.209907
20
153.334813
30
0.0
11
12.843638
21
151.548589
31
0.0
0
LINE
8
0
6
CONTINUOUS
10
-14.185272
20
134.528368
30
0.0
11
-17.029990
21
128.625297
31
0.0
0
LINE
8
0
6
CONTINUOUS
10
31.949685
20
153.934517
30
0.0
11
22.209907
21
153.334813
31
0.0
0
LINE
8
0
6
CONTINUOUS
10
-17.037977
20
116.344220
30
0.0
11
-14.200948
21
110.438191
31
0.0
0
LINE
8
0
6
CONTINUOUS
10
-17.993222
20
122.485260
30
0.0
11
-17.037977
21
116.344220
31
0.0
0
LINE
8
0
6
CONTINUOUS
10
12.805797
20
93.389751
30
0.0
11
22.169729
21
91.593739
31
0.0
0
LINE
8
0
6
CONTINUOUS
10
12.843638
20
151.548589
30
0.0
11
10.833089
21
150.872230
31
0.0
0
LINE
8
0
6
CONTINUOUS
10
-10.832010
20
138.478935
30
0.0
11
-14.185272
21
134.528368
31
0.0
0
LINE
8
0
6
CONTINUOUS
10
-14.200948
20
110.438191
30
0.0
11
-10.832021
21
106.459549
31
0.0
0
LINE
8
0
6
CONTINUOUS
10
10.833086
20
94.055735
30
0.0
11
12.805797
21
93.389751
31
0.0
0
LINE
8
0
6
CONTINUOUS
10
22.169729
20
91.593739
30
0.0
11
31.908639
21
90.983867
31
0.0
0
LINE
8
0
6
CONTINUOUS
10
12.800325
20
80.699706
30
0.0
11
22.164258
21
78.903694
31
0.0
0
LINE
8
0
6
CONTINUOUS
10
17.715294
20
157.271284
30
0.0
11
16.848685
21
152.312384
31
0.0
0
LINE
8
0
6
CONTINUOUS
10
25.241624
20
168.198349
30
0.0
11
24.998602
21
163.297712
31
0.0
0
LINE
8
0
6
CONTINUOUS
10
25.495489
20
173.086572
30
0.0
11
25.241624
21
168.198349
31
0.0
0
LINE
8
0
6
CONTINUOUS
10
18.596634
20
162.314442
30
0.0
11
17.715294
21
157.271284
31
0.0
0
LINE
8
0
6
CONTINUOUS
10
81.846065
20
109.742999
30
0.0
11
81.846205
21
110.071040
31
0.0
0
LINE
8
0
6
CONTINUOUS
10
80.882803
20
103.602972
30
0.0
11
81.846065
21
109.742999
31
0.0
0
LINE
8
0
6
CONTINUOUS
10
67.209580
20
87.494241
30
0.0
11
73.421193
21
92.260651
31
0.0
0
LINE
8
0
6
CONTINUOUS
10
59.641954
20
83.583843
30
0.0
11
67.209580
21
87.494241
31
0.0
0
LINE
8
0
6
CONTINUOUS
10
22.164258
20
78.903694
30
0.0
11
31.903168
21
78.293822
31
0.0
0
LINE
8
0
6
CONTINUOUS
10
81.846205
20
110.071040
30
0.0
11
81.846644
21
111.080072
31
0.0
0
LINE
8
0
6
CONTINUOUS
10
51.009125
20
80.679720
30
0.0
11
59.641954
21
83.583843
31
0.0
0
LINE
8
0
6
CONTINUOUS
10
81.848951
20
116.441804
30
0.0
11
81.851267
21
121.803536
31
0.0
0
LINE
8
0
6
CONTINUOUS
10
81.846644
20
111.080072
30
0.0
11
81.848951
21
116.441804
31
0.0
0
LINE
8
0
6
CONTINUOUS
10
81.851267
20
121.803536
30
0.0
11
81.851537
21
122.433043
31
0.0
0
LINE
8
0
6
CONTINUOUS
10
51.052617
20
151.528613
30
0.0
11
41.688685
21
153.324635
31
0.0
0
LINE
8
0
6
CONTINUOUS
10
80.896312
20
128.574083
30
0.0
11
78.059292
21
134.480123
31
0.0
0
LINE
8
0
6
CONTINUOUS
10
41.688685
20
153.324635
30
0.0
11
31.949685
21
153.934517
31
0.0
0
LINE
8
0
6
CONTINUOUS
10
78.043547
20
110.389945
30
0.0
11
80.888284
21
116.293007
31
0.0
0
LINE
8
0
6
CONTINUOUS
10
67.244156
20
144.697135
30
0.0
11
59.681643
21
148.615455
31
0.0
0
LINE
8
0
6
CONTINUOUS
10
80.888284
20
116.293007
30
0.0
11
81.851537
21
122.433043
31
0.0
0
LINE
8
0
6
CONTINUOUS
10
67.215051
20
100.184285
30
0.0
11
73.426664
21
104.950696
31
0.0
0
LINE
8
0
6
CONTINUOUS
10
41.648328
20
91.583550
30
0.0
11
51.014597
21
93.369765
31
0.0
0
LINE
8
0
6
CONTINUOUS
10
59.681643
20
148.615455
30
0.0
11
51.052617
21
151.528613
31
0.0
0
LINE
8
0
6
CONTINUOUS
10
78.059292
20
134.480123
30
0.0
11
73.449529
21
139.924216
31
0.0
0
LINE
8
0
6
CONTINUOUS
10
73.426664
20
104.950696
30
0.0
11
78.043547
21
110.389945
31
0.0
0
LINE
8
0
6
CONTINUOUS
10
73.449529
20
139.924216
30
0.0
11
67.244156
21
144.697135
31
0.0
0
LINE
8
0
6
CONTINUOUS
10
81.851537
20
122.433043
30
0.0
11
80.896312
21
128.574083
31
0.0
0
LINE
8
0
6
CONTINUOUS
10
51.014597
20
93.369765
30
0.0
11
59.647426
21
96.273877
31
0.0
0
LINE
8
0
6
CONTINUOUS
10
59.647426
20
96.273877
30
0.0
11
67.215051
21
100.184285
31
0.0
0
LINE
8
0
6
CONTINUOUS
10
31.908639
20
90.983867
30
0.0
11
41.648328
21
91.583550
31
0.0
0
LINE
8
0
6
CONTINUOUS
10
73.421193
20
92.260651
30
0.0
11
78.038065
21
97.699901
31
0.0
0
LINE
8
0
6
CONTINUOUS
10
41.642856
20
78.893506
30
0.0
11
51.009125
21
80.679720
31
0.0
0
LINE
8
0
6
CONTINUOUS
10
47.061478
20
152.294122
30
0.0
11
46.203975
21
157.256382
31
0.0
0
LINE
8
0
6
CONTINUOUS
10
38.921836
20
163.290431
30
0.0
11
38.688369
21
168.191320
31
0.0
0
LINE
8
0
6
CONTINUOUS
10
31.965720
20
169.659150
30
0.0
11
31.960918
21
164.721469
31
0.0
0
LINE
8
0
6
CONTINUOUS
10
38.688369
20
168.191320
30
0.0
11
38.444059
21
173.079793
31
0.0
0
LINE
8
0
6
CONTINUOUS
10
31.970523
20
174.596832
30
0.0
11
31.965720
21
169.659150
31
0.0
0
LINE
8
0
6
CONTINUOUS
10
46.203975
20
157.256382
30
0.0
11
45.332330
21
162.300462
31
0.0
0
LINE
8
0
6
CONTINUOUS
10
-17.029990
20
128.625297
30
0.0
11
-17.993222
21
122.485260
31
0.0
0
LINE
8
0
6
CONTINUOUS
10
19.449898
20
167.382098
30
0.0
11
18.596634
21
162.314442
31
0.0
0
LINE
8
0
6
CONTINUOUS
10
31.970523
20
174.596832
30
0.0
11
31.975335
21
179.555692
31
0.0
0
LINE
8
0
6
CONTINUOUS
10
25.744013
20
177.996806
30
0.0
11
25.495489
21
173.086572
31
0.0
0
LINE
8
0
6
CONTINUOUS
10
32.056601
20
194.093420
30
0.0
11
32.182180
21
192.259710
31
0.0
0
LINE
8
0
6
CONTINUOUS
10
26.245165
20
195.060840
30
0.0
11
25.665847
21
191.890776
31
0.0
0
LINE
8
0
6
CONTINUOUS
10
28.443344
20
199.818990
30
0.0
11
26.245165
21
195.060840
31
0.0
0
LINE
8
0
6
CONTINUOUS
10
28.443344
20
199.818990
30
0.0
11
27.060684
21
192.261100
31
0.0
0
LINE
8
0
6
CONTINUOUS
10
33.423832
20
201.591020
30
0.0
11
32.056601
21
194.093420
31
0.0
0
LINE
8
0
6
CONTINUOUS
10
38.269142
20
199.338900
30
0.0
11
36.928929
21
191.946830
31
0.0
0
LINE
8
0
6
CONTINUOUS
10
39.691574
20
191.890809
30
0.0
11
40.140950
21
194.381890
31
0.0
0
LINE
8
0
6
CONTINUOUS
10
33.596098
20
204.517310
30
0.0
11
28.443344
21
199.818990
31
0.0
0
LINE
8
0
6
CONTINUOUS
10
38.528190
20
206.242360
30
0.0
11
33.596098
21
204.517310
31
0.0
0
LINE
8
0
6
CONTINUOUS
10
38.528190
20
206.242360
30
0.0
11
33.423832
21
201.591020
31
0.0
0
LINE
8
0
6
CONTINUOUS
10
43.286107
20
203.905410
30
0.0
11
38.269142
21
199.338900
31
0.0
0
LINE
8
0
6
CONTINUOUS
10
45.082732
20
198.875410
30
0.0
11
40.140950
21
194.381890
31
0.0
0
LINE
8
0
6
CONTINUOUS
10
39.545425
20
191.080642
30
0.0
11
42.865614
21
194.098880
31
0.0
0
LINE
8
0
6
CONTINUOUS
10
46.441214
20
208.506040
30
0.0
11
38.528190
21
206.242360
31
0.0
0
LINE
8
0
6
CONTINUOUS
10
51.094170
20
206.136560
30
0.0
11
43.286107
21
203.905410
31
0.0
0
LINE
8
0
6
CONTINUOUS
10
52.796053
20
201.077200
30
0.0
11
45.082732
21
198.875410
31
0.0
0
LINE
8
0
6
CONTINUOUS
10
50.549918
20
196.291670
30
0.0
11
42.865614
21
194.098880
31
0.0
0
LINE
8
0
6
CONTINUOUS
10
42.357561
20
193.637031
30
0.0
11
45.671521
21
194.583270
31
0.0
0
LINE
8
0
6
CONTINUOUS
10
56.237034
20
208.880300
30
0.0
11
46.441214
21
208.506040
31
0.0
0
LINE
8
0
6
CONTINUOUS
10
60.802909
20
206.506300
30
0.0
11
51.094170
21
206.136560
31
0.0
0
LINE
8
0
6
CONTINUOUS
10
62.418808
20
201.442480
30
0.0
11
52.796053
21
201.077200
31
0.0
0
LINE
8
0
6
CONTINUOUS
10
60.138146
20
196.655160
30
0.0
11
50.549918
21
196.291670
31
0.0
0
LINE
8
0
6
CONTINUOUS
10
45.671521
20
194.583270
30
0.0
11
55.296926
21
194.948680
31
0.0
0
LINE
8
0
6
CONTINUOUS
10
66.998001
20
207.861070
30
0.0
11
56.237034
21
208.880300
31
0.0
0
LINE
8
0
6
CONTINUOUS
10
71.515890
20
205.491160
30
0.0
11
60.802909
21
206.506300
31
0.0
0
LINE
8
0
6
CONTINUOUS
10
73.072155
20
200.432430
30
0.0
11
62.418808
21
201.442480
31
0.0
0
LINE
8
0
6
CONTINUOUS
10
70.755146
20
195.648210
30
0.0
11
60.138146
21
196.655160
31
0.0
0
LINE
8
0
6
CONTINUOUS
10
55.296926
20
194.948680
30
0.0
11
65.922145
21
193.941030
31
0.0
0
LINE
8
0
6
CONTINUOUS
10
77.813914
20
205.940490
30
0.0
11
66.998001
21
207.861070
31
0.0
0
LINE
8
0
6
CONTINUOUS
10
82.331462
20
203.570640
30
0.0
11
71.515890
21
205.491160
31
0.0
0
LINE
8
0
6
CONTINUOUS
10
83.862419
20
198.516210
30
0.0
11
73.072155
21
200.432430
31
0.0
0
LINE
8
0
6
CONTINUOUS
10
81.509953
20
193.738020
30
0.0
11
70.755146
21
195.648210
31
0.0
0
LINE
8
0
6
CONTINUOUS
10
65.922145
20
193.941030
30
0.0
11
76.652124
21
192.035060
31
0.0
0
LINE
8
0
6
CONTINUOUS
10
87.780499
20
203.607110
30
0.0
11
77.813914
21
205.940490
31
0.0
0
LINE
8
0
6
CONTINUOUS
10
92.343124
20
201.227010
30
0.0
11
82.331462
21
203.570640
31
0.0
0
LINE
8
0
6
CONTINUOUS
10
93.883150
20
196.170520
30
0.0
11
83.862419
21
198.516210
31
0.0
0
LINE
8
0
6
CONTINUOUS
10
91.498447
20
191.399660
30
0.0
11
81.509953
21
193.738020
31
0.0
0
LINE
8
0
6
CONTINUOUS
10
76.652124
20
192.035060
30
0.0
11
86.585943
21
189.709140
31
0.0
0
LINE
8
0
6
CONTINUOUS
10
95.999017
20
201.346200
30
0.0
11
87.780499
21
203.607110
31
0.0
0
LINE
8
0
6
CONTINUOUS
10
100.638415
20
198.945530
30
0.0
11
92.343124
21
201.227010
31
0.0
0
LINE
8
0
6
CONTINUOUS
10
102.213918
20
193.879540
30
0.0
11
93.883150
21
196.170520
31
0.0
0
LINE
8
0
6
CONTINUOUS
10
99.802627
20
189.115800
30
0.0
11
91.498447
21
191.399660
31
0.0
0
LINE
8
0
6
CONTINUOUS
10
86.585943
20
189.709140
30
0.0
11
94.817039
21
187.444860
31
0.0
0
LINE
8
0
6
CONTINUOUS
10
101.577603
20
199.639520
30
0.0
11
95.999017
21
201.346200
31
0.0
0
LINE
8
0
6
CONTINUOUS
10
106.296744
20
197.215210
30
0.0
11
100.638415
21
198.945530
31
0.0
0
LINE
8
0
6
CONTINUOUS
10
107.915954
20
192.136260
30
0.0
11
102.213918
21
193.879540
31
0.0
0
LINE
8
0
6
CONTINUOUS
10
105.486724
20
187.377850
30
0.0
11
99.802627
21
189.115800
31
0.0
0
LINE
8
0
6
CONTINUOUS
10
94.817039
20
187.444860
30
0.0
11
100.432062
21
185.727380
31
0.0
0
LINE
8
0
6
CONTINUOUS
10
103.633855
20
198.964510
30
0.0
11
101.577603
21
199.639520
31
0.0
0
LINE
8
0
6
CONTINUOUS
10
108.387183
20
196.529520
30
0.0
11
106.296744
21
197.215210
31
0.0
0
LINE
8
0
6
CONTINUOUS
10
110.026381
20
191.444330
30
0.0
11
107.915954
21
192.136260
31
0.0
0
LINE
8
0
6
CONTINUOUS
10
107.591222
20
186.687760
30
0.0
11
110.026381
21
191.444330
31
0.0
0
LINE
8
0
6
CONTINUOUS
10
107.591222
20
186.687760
30
0.0
11
105.486724
21
187.377850
31
0.0
0
LINE
8
0
6
CONTINUOUS
10
102.508192
20
185.046160
30
0.0
11
107.591222
21
186.687760
31
0.0
0
LINE
8
0
6
CONTINUOUS
10
100.432062
20
185.727380
30
0.0
11
102.508192
21
185.046160
31
0.0
0
LINE
8
0
6
CONTINUOUS
10
103.632895
20
199.079740
30
0.0
11
103.632895
21
198.995720
31
0.0
0
LINE
8
0
6
CONTINUOUS
10
108.388963
20
196.644040
30
0.0
11
108.388963
21
196.560020
31
0.0
0
LINE
8
0
6
CONTINUOUS
10
110.029860
20
191.474380
30
0.0
11
110.029860
21
191.558420
31
0.0
0
LINE
8
0
6
CONTINUOUS
10
103.632895
20
199.203580
30
0.0
11
103.632895
21
199.079740
31
0.0
0
LINE
8
0
6
CONTINUOUS
10
108.388963
20
196.767880
30
0.0
11
108.388963
21
196.644040
31
0.0
0
LINE
8
0
6
CONTINUOUS
10
110.029860
20
191.558420
30
0.0
11
110.029860
21
191.682260
31
0.0
0
LINE
8
0
6
CONTINUOUS
10
103.632895
20
199.353950
30
0.0
11
103.632895
21
199.203580
31
0.0
0
LINE
8
0
6
CONTINUOUS
10
108.388963
20
196.918260
30
0.0
11
108.388963
21
196.767880
31
0.0
0
LINE
8
0
6
CONTINUOUS
10
110.029860
20
191.682260
30
0.0
11
110.029860
21
191.832650
31
0.0
0
LINE
8
0
6
CONTINUOUS
10
103.632895
20
199.517590
30
0.0
11
103.632895
21
199.353950
31
0.0
0
LINE
8
0
6
CONTINUOUS
10
108.388963
20
197.081910
30
0.0
11
108.388963
21
196.918260
31
0.0
0
LINE
8
0
6
CONTINUOUS
10
110.029860
20
191.832650
30
0.0
11
110.029860
21
191.996310
31
0.0
0
LINE
8
0
6
CONTINUOUS
10
103.632895
20
199.681240
30
0.0
11
103.632895
21
199.517590
31
0.0
0
LINE
8
0
6
CONTINUOUS
10
108.388963
20
197.245560
30
0.0
11
108.388963
21
197.081910
31
0.0
0
LINE
8
0
6
CONTINUOUS
10
110.029860
20
191.996310
30
0.0
11
110.029860
21
192.159960
31
0.0
0
LINE
8
0
6
CONTINUOUS
10
103.632895
20
199.831630
30
0.0
11
103.632895
21
199.681240
31
0.0
0
LINE
8
0
6
CONTINUOUS
10
108.388963
20
197.395950
30
0.0
11
108.388963
21
197.245560
31
0.0
0
LINE
8
0
6
CONTINUOUS
10
110.029860
20
192.159960
30
0.0
11
110.029860
21
192.310350
31
0.0
0
LINE
8
0
6
CONTINUOUS
10
103.632895
20
199.955480
30
0.0
11
103.632895
21
199.831630
31
0.0
0
LINE
8
0
6
CONTINUOUS
10
108.388963
20
197.519800
30
0.0
11
108.388963
21
197.395950
31
0.0
0
LINE
8
0
6
CONTINUOUS
10
110.029860
20
192.310350
30
0.0
11
110.029860
21
192.434190
31
0.0
0
LINE
8
0
6
CONTINUOUS
10
103.632895
20
200.039550
30
0.0
11
103.632895
21
199.955480
31
0.0
0
LINE
8
0
6
CONTINUOUS
10
108.388963
20
197.603860
30
0.0
11
108.388963
21
197.519800
31
0.0
0
LINE
8
0
6
CONTINUOUS
10
110.029860
20
192.434190
30
0.0
11
110.029860
21
192.518230
31
0.0
0
LINE
8
0
6
CONTINUOUS
10
108.384333
20
197.634510
30
0.0
11
103.631325
21
200.070410
31
0.0
0
LINE
8
0
6
CONTINUOUS
10
110.024881
20
192.548870
30
0.0
11
108.384333
21
197.634510
31
0.0
0
LINE
8
0
6
CONTINUOUS
10
103.631325
20
200.070410
30
0.0
11
102.170222
21
199.810510
31
0.0
0
LINE
8
0
6
CONTINUOUS
10
102.170222
20
199.810510
30
0.0
11
101.444210
21
199.680330
31
0.0
0
LINE
8
0
6
CONTINUOUS
10
97.199543
20
185.201370
30
0.0
11
100.321752
21
185.761121
31
0.0
0
LINE
8
0
6
CONTINUOUS
10
92.716571
20
187.685480
30
0.0
11
93.458753
21
187.818509
31
0.0
0
LINE
8
0
6
CONTINUOUS
10
93.207899
20
184.478794
30
0.0
11
97.199543
21
185.201370
31
0.0
0
LINE
8
0
6
CONTINUOUS
10
87.240366
20
186.694380
30
0.0
11
92.716571
21
187.685480
31
0.0
0
LINE
8
0
6
CONTINUOUS
10
54.252677
20
190.176470
30
0.0
11
61.977094
21
191.674024
31
0.0
0
LINE
8
0
6
CONTINUOUS
10
61.962426
20
192.355136
30
0.0
11
55.425685
21
191.087560
31
0.0
0
LINE
8
0
6
CONTINUOUS
10
62.069361
20
187.389705
30
0.0
11
60.058512
21
186.999920
31
0.0
0
LINE
8
0
6
CONTINUOUS
10
45.397664
20
188.403230
30
0.0
11
54.252677
21
190.176470
31
0.0
0
LINE
8
0
6
CONTINUOUS
10
55.425685
20
191.087560
30
0.0
11
45.989933
21
189.197500
31
0.0
0
LINE
8
0
6
CONTINUOUS
10
40.248128
20
187.323101
30
0.0
11
45.397664
21
188.403230
31
0.0
0
LINE
8
0
6
CONTINUOUS
10
45.989933
20
189.197500
30
0.0
11
40.248149
21
187.992641
31
0.0
0
LINE
8
0
6
CONTINUOUS
10
40.996566
20
180.009015
30
0.0
11
40.248169
21
181.053483
31
0.0
0
LINE
8
0
6
CONTINUOUS
10
41.921069
20
177.466538
30
0.0
11
41.895129
21
177.588340
31
0.0
0
LINE
8
0
6
CONTINUOUS
10
41.895129
20
177.588340
30
0.0
11
40.996566
21
180.009015
31
0.0
0
LINE
8
0
6
CONTINUOUS
10
42.507403
20
174.714847
30
0.0
11
41.921069
21
177.466538
31
0.0
0
LINE
8
0
6
CONTINUOUS
10
-21.097130
20
116.741930
30
0.0
11
-21.097130
21
115.881710
31
0.0
0
LINE
8
0
6
CONTINUOUS
10
-18.656022
20
118.204330
30
0.0
11
-17.995063
21
118.204330
31
0.0
0
LINE
8
0
6
CONTINUOUS
10
-20.679956
20
118.204330
30
0.0
11
-18.656022
21
118.204330
31
0.0
0
LINE
8
0
6
CONTINUOUS
10
-22.070826
20
118.452090
30
0.0
11
-21.438621
21
118.204330
31
0.0
0
LINE
8
0
6
CONTINUOUS
10
-21.438621
20
118.204330
30
0.0
11
-20.679956
21
118.204330
31
0.0
0
LINE
8
0
6
CONTINUOUS
10
-22.817441
20
115.881710
30
0.0
11
-22.817441
21
115.568460
31
0.0
0
LINE
8
0
6
CONTINUOUS
10
-22.817441
20
115.568460
30
0.0
11
-22.817441
21
89.164530
31
0.0
0
LINE
8
0
6
CONTINUOUS
10
-21.097130
20
116.741930
30
0.0
11
-21.183143
21
116.741930
31
0.0
0
LINE
8
0
6
CONTINUOUS
10
-18.863594
20
113.803780
30
0.0
11
-20.932534
21
115.186420
31
0.0
0
LINE
8
0
6
CONTINUOUS
10
-17.997094
20
113.495663
30
0.0
11
-18.863594
21
113.803780
31
0.0
0
LINE
8
0
6
CONTINUOUS
10
-20.932534
20
115.186420
30
0.0
11
-21.601876
21
116.526080
31
0.0
0
LINE
8
0
6
CONTINUOUS
10
-21.183143
20
116.741930
30
0.0
11
-21.957286
21
116.741930
31
0.0
0
LINE
8
0
6
CONTINUOUS
10
-21.601876
20
116.526080
30
0.0
11
-20.930135
21
116.526490
31
0.0
0
LINE
8
0
6
CONTINUOUS
10
-22.817441
20
80.564940
30
0.0
11
-22.817441
21
80.112330
31
0.0
0
LINE
8
0
6
CONTINUOUS
10
-22.817441
20
89.164530
30
0.0
11
-22.817441
21
80.564940
31
0.0
0
LINE
8
0
6
CONTINUOUS
10
-19.892915
20
82.825930
30
0.0
11
-22.043308
21
81.522570
31
0.0
0
LINE
8
0
6
CONTINUOUS
10
-22.043308
20
81.522570
30
0.0
11
-22.817441
21
80.112330
31
0.0
0
LINE
8
0
6
CONTINUOUS
10
-16.366290
20
83.958370
30
0.0
11
-19.892915
21
82.825930
31
0.0
0
LINE
8
0
6
CONTINUOUS
10
-11.807466
20
84.834430
30
0.0
11
-16.366290
21
83.958370
31
0.0
0
LINE
8
0
6
CONTINUOUS
10
-10.832023
20
84.933747
30
0.0
11
-11.807466
21
84.834430
31
0.0
0
LINE
8
0
6
CONTINUOUS
10
-19.018530
20
68.974080
30
0.0
11
-18.071063
21
66.196140
31
0.0
0
LINE
8
0
6
CONTINUOUS
10
-17.589904
20
64.785410
30
0.0
11
-16.146579
21
63.480940
31
0.0
0
LINE
8
0
6
CONTINUOUS
10
-18.071063
20
66.196140
30
0.0
11
-17.589904
21
64.785410
31
0.0
0
LINE
8
0
6
CONTINUOUS
10
-16.146579
20
63.480940
30
0.0
11
-13.474811
21
62.347530
31
0.0
0
LINE
8
0
6
CONTINUOUS
10
-13.474811
20
62.347530
30
0.0
11
-10.832025
21
61.731688
31
0.0
0
LINE
8
0
6
CONTINUOUS
10
-22.817441
20
80.112330
30
0.0
11
-22.337793
21
78.706000
31
0.0
0
LINE
8
0
6
CONTINUOUS
10
-21.858144
20
77.299700
30
0.0
11
-20.912016
21
74.525690
31
0.0
0
LINE
8
0
6
CONTINUOUS
10
-20.912016
20
74.525690
30
0.0
11
-19.965028
21
71.749180
31
0.0
0
LINE
8
0
6
CONTINUOUS
10
-19.965028
20
71.749180
30
0.0
11
-19.018530
21
68.974080
31
0.0
0
LINE
8
0
6
CONTINUOUS
10
16.304057
20
66.196140
30
0.0
11
17.251535
21
68.974080
31
0.0
0
LINE
8
0
6
CONTINUOUS
10
14.379574
20
63.480940
30
0.0
11
15.822899
21
64.785410
31
0.0
0
LINE
8
0
6
CONTINUOUS
10
15.822899
20
64.785410
30
0.0
11
16.304057
21
66.196140
31
0.0
0
LINE
8
0
6
CONTINUOUS
10
11.707815
20
62.347530
30
0.0
11
14.379574
21
63.480940
31
0.0
0
LINE
8
0
6
CONTINUOUS
10
10.833081
20
62.143693
30
0.0
11
11.707815
21
62.347530
31
0.0
0
LINE
8
0
6
CONTINUOUS
10
18.198033
20
71.749180
30
0.0
11
19.087562
21
74.357224
31
0.0
0
LINE
8
0
6
CONTINUOUS
10
17.251535
20
68.974080
30
0.0
11
18.198033
21
71.749180
31
0.0
0
LINE
8
0
6
CONTINUOUS
10
-22.337793
20
78.706000
30
0.0
11
-21.858144
21
77.299700
31
0.0
0
LINE
8
0
6
CONTINUOUS
10
-22.387368
20
119.203420
30
0.0
11
-22.387368
21
118.948420
31
0.0
0
LINE
8
0
6
CONTINUOUS
10
-17.994743
20
118.948420
30
0.0
11
-19.478321
21
118.948420
31
0.0
0
LINE
8
0
6
CONTINUOUS
10
-19.225433
20
118.452090
30
0.0
11
-17.994956
21
118.452090
31
0.0
0
LINE
8
0
6
CONTINUOUS
10
-19.478321
20
118.948420
30
0.0
11
-21.628704
21
118.948420
31
0.0
0
LINE
8
0
6
CONTINUOUS
10
-21.312172
20
118.452090
30
0.0
11
-19.225433
21
118.452090
31
0.0
0
LINE
8
0
6
CONTINUOUS
10
-22.387368
20
118.948420
30
0.0
11
-22.070826
21
118.452090
31
0.0
0
LINE
8
0
6
CONTINUOUS
10
-21.628704
20
118.948420
30
0.0
11
-22.387368
21
118.948420
31
0.0
0
LINE
8
0
6
CONTINUOUS
10
-22.070826
20
118.452090
30
0.0
11
-21.312172
21
118.452090
31
0.0
0
LINE
8
0
6
CONTINUOUS
10
-22.387368
20
143.523610
30
0.0
11
-22.387368
21
119.203420
31
0.0
0
LINE
8
0
6
CONTINUOUS
10
-21.957286
20
116.741930
30
0.0
11
-22.817441
21
115.881710
31
0.0
0
LINE
8
0
6
CONTINUOUS
10
-21.183143
20
115.193520
30
0.0
11
-21.957286
21
116.741930
31
0.0
0
LINE
8
0
6
CONTINUOUS
10
-22.817441
20
115.881710
30
0.0
11
-22.043308
21
114.333300
31
0.0
0
LINE
8
0
6
CONTINUOUS
10
-19.118782
20
113.817150
30
0.0
11
-21.183143
21
115.193520
31
0.0
0
LINE
8
0
6
CONTINUOUS
10
-22.043308
20
114.333300
30
0.0
11
-19.892915
21
112.870920
31
0.0
0
LINE
8
0
6
CONTINUOUS
10
-17.997129
20
113.414471
30
0.0
11
-19.118782
21
113.817150
31
0.0
0
LINE
8
0
6
CONTINUOUS
10
-19.892915
20
112.870920
30
0.0
11
-17.997663
21
112.177470
31
0.0
0
LINE
8
0
6
CONTINUOUS
10
-83.353292
20
143.523610
30
0.0
11
-79.224260
21
143.523610
31
0.0
0
LINE
8
0
6
CONTINUOUS
10
83.784716
20
143.523610
30
0.0
11
87.384414
21
143.523610
31
0.0
0
LINE
8
0
6
CONTINUOUS
10
87.384414
20
143.523610
30
0.0
11
90.084160
21
143.523610
31
0.0
0
LINE
8
0
6
CONTINUOUS
10
90.084160
20
143.523610
30
0.0
11
91.779023
21
143.523610
31
0.0
0
LINE
8
0
6
CONTINUOUS
10
91.779023
20
143.523610
30
0.0
11
92.413978
21
143.523610
31
0.0
0
LINE
8
0
6
CONTINUOUS
10
92.413978
20
143.523610
30
0.0
11
92.942912
21
143.908590
31
0.0
0
LINE
8
0
6
CONTINUOUS
10
79.656064
20
143.523610
30
0.0
11
83.784716
21
143.523610
31
0.0
0
LINE
8
0
6
CONTINUOUS
10
75.209459
20
143.523610
30
0.0
11
79.656064
21
143.523610
31
0.0
0
LINE
8
0
6
CONTINUOUS
10
68.769880
20
143.523610
30
0.0
11
75.209459
21
143.523610
31
0.0
0
LINE
8
0
6
CONTINUOUS
10
-74.777546
20
143.523610
30
0.0
11
-10.832010
21
143.523610
31
0.0
0
LINE
8
0
6
CONTINUOUS
10
-89.652746
20
143.523610
30
0.0
11
-86.952980
21
143.523610
31
0.0
0
LINE
8
0
6
CONTINUOUS
10
-91.346699
20
143.523610
30
0.0
11
-89.652746
21
143.523610
31
0.0
0
LINE
8
0
6
CONTINUOUS
10
-92.511298
20
143.908590
30
0.0
11
-91.981944
21
143.523610
31
0.0
0
LINE
8
0
6
CONTINUOUS
10
-91.981944
20
143.523610
30
0.0
11
-91.346699
21
143.523610
31
0.0
0
LINE
8
0
6
CONTINUOUS
10
-86.952980
20
143.523610
30
0.0
11
-83.353292
21
143.523610
31
0.0
0
LINE
8
0
6
CONTINUOUS
10
-79.224260
20
143.523610
30
0.0
11
-74.777546
21
143.523610
31
0.0
0
LINE
8
0
6
CONTINUOUS
10
-49.992645
20
152.812230
30
0.0
11
-47.762578
21
152.526310
31
0.0
0
LINE
8
0
6
CONTINUOUS
10
-52.051146
20
153.670000
30
0.0
11
-49.992645
21
152.812230
31
0.0
0
LINE
8
0
6
CONTINUOUS
10
-53.823763
20
155.042500
30
0.0
11
-52.051146
21
153.670000
31
0.0
0
LINE
8
0
6
CONTINUOUS
10
-55.196104
20
156.815230
30
0.0
11
-53.823763
21
155.042500
31
0.0
0
LINE
8
0
6
CONTINUOUS
10
-56.053829
20
158.873950
30
0.0
11
-55.196104
21
156.815230
31
0.0
0
LINE
8
0
6
CONTINUOUS
10
-56.339724
20
161.104180
30
0.0
11
-56.053829
21
158.873950
31
0.0
0
LINE
8
0
6
CONTINUOUS
10
-52.051146
20
168.538380
30
0.0
11
-53.823763
21
167.165910
31
0.0
0
LINE
8
0
6
CONTINUOUS
10
-56.053829
20
163.334440
30
0.0
11
-56.339724
21
161.104180
31
0.0
0
LINE
8
0
6
CONTINUOUS
10
-43.474000
20
168.538380
30
0.0
11
-45.532512
21
169.396170
31
0.0
0
LINE
8
0
6
CONTINUOUS
10
-41.701384
20
167.165910
30
0.0
11
-43.474000
21
168.538380
31
0.0
0
LINE
8
0
6
CONTINUOUS
10
-45.532512
20
169.396170
30
0.0
11
-47.762578
21
169.682100
31
0.0
0
LINE
8
0
6
CONTINUOUS
10
-43.474000
20
153.670000
30
0.0
11
-41.701384
21
155.042500
31
0.0
0
LINE
8
0
6
CONTINUOUS
10
-45.532512
20
152.812230
30
0.0
11
-43.474000
21
153.670000
31
0.0
0
LINE
8
0
6
CONTINUOUS
10
-47.762578
20
152.526310
30
0.0
11
-45.532512
21
152.812230
31
0.0
0
LINE
8
0
6
CONTINUOUS
10
-55.196104
20
165.393140
30
0.0
11
-56.053829
21
163.334440
31
0.0
0
LINE
8
0
6
CONTINUOUS
10
-53.823763
20
167.165910
30
0.0
11
-55.196104
21
165.393140
31
0.0
0
LINE
8
0
6
CONTINUOUS
10
-49.992645
20
169.396170
30
0.0
11
-52.051146
21
168.538380
31
0.0
0
LINE
8
0
6
CONTINUOUS
10
-47.762578
20
169.682100
30
0.0
11
-49.992645
21
169.396170
31
0.0
0
LINE
8
0
6
CONTINUOUS
10
-53.023232
20
166.365310
30
0.0
11
-54.224028
21
164.821260
31
0.0
0
LINE
8
0
6
CONTINUOUS
10
-49.706730
20
168.252430
30
0.0
11
-51.479336
21
167.566210
31
0.0
0
LINE
8
0
6
CONTINUOUS
10
-51.479336
20
167.566210
30
0.0
11
-53.023232
21
166.365310
31
0.0
0
LINE
8
0
6
CONTINUOUS
10
-47.762578
20
168.538380
30
0.0
11
-49.706730
21
168.252430
31
0.0
0
LINE
8
0
6
CONTINUOUS
10
-47.762578
20
153.670000
30
0.0
11
-45.818417
21
153.955920
31
0.0
0
LINE
8
0
6
CONTINUOUS
10
-44.045800
20
167.566210
30
0.0
11
-45.818417
21
168.252430
31
0.0
0
LINE
8
0
6
CONTINUOUS
10
-54.224028
20
164.821260
30
0.0
11
-54.910208
21
163.048530
31
0.0
0
LINE
8
0
6
CONTINUOUS
10
-42.501924
20
166.365310
30
0.0
11
-44.045800
21
167.566210
31
0.0
0
LINE
8
0
6
CONTINUOUS
10
-44.045800
20
154.642180
30
0.0
11
-42.501924
21
155.843090
31
0.0
0
LINE
8
0
6
CONTINUOUS
10
-45.818417
20
153.955920
30
0.0
11
-44.045800
21
154.642180
31
0.0
0
LINE
8
0
6
CONTINUOUS
10
-45.818417
20
168.252430
30
0.0
11
-47.762578
21
168.538380
31
0.0
0
LINE
8
0
6
CONTINUOUS
10
-55.196104
20
161.104180
30
0.0
11
-54.910208
21
159.159870
31
0.0
0
LINE
8
0
6
CONTINUOUS
10
-53.023232
20
155.843090
30
0.0
11
-51.479336
21
154.642180
31
0.0
0
LINE
8
0
6
CONTINUOUS
10
-54.224028
20
157.387100
30
0.0
11
-53.023232
21
155.843090
31
0.0
0
LINE
8
0
6
CONTINUOUS
10
-54.910208
20
159.159870
30
0.0
11
-54.224028
21
157.387100
31
0.0
0
LINE
8
0
6
CONTINUOUS
10
-51.479336
20
154.642180
30
0.0
11
-49.706730
21
153.955920
31
0.0
0
LINE
8
0
6
CONTINUOUS
10
-49.706730
20
153.955920
30
0.0
11
-47.762578
21
153.670000
31
0.0
0
LINE
8
0
6
CONTINUOUS
10
-54.910208
20
163.048530
30
0.0
11
-55.196104
21
161.104180
31
0.0
0
LINE
8
0
6
CONTINUOUS
10
-90.129105
20
143.908590
30
0.0
11
-87.323548
21
143.908590
31
0.0
0
LINE
8
0
6
CONTINUOUS
10
-74.777546
20
143.908590
30
0.0
11
-10.832010
21
143.908590
31
0.0
0
LINE
8
0
6
CONTINUOUS
10
90.561128
20
143.908590
30
0.0
11
92.307977
21
143.908590
31
0.0
0
LINE
8
0
6
CONTINUOUS
10
-90.340886
20
186.999920
30
0.0
11
-92.140730
21
186.999920
31
0.0
0
LINE
8
0
6
CONTINUOUS
10
87.755382
20
143.908590
30
0.0
11
90.561128
21
143.908590
31
0.0
0
LINE
8
0
6
CONTINUOUS
10
90.773110
20
186.999920
30
0.0
11
87.914358
21
186.999920
31
0.0
0
LINE
8
0
6
CONTINUOUS
10
92.572964
20
186.999920
30
0.0
11
90.773110
21
186.999920
31
0.0
0
LINE
8
0
6
CONTINUOUS
10
92.307977
20
143.908590
30
0.0
11
92.942912
21
143.908590
31
0.0
0
LINE
8
0
6
CONTINUOUS
10
92.942912
20
143.908590
30
0.0
11
93.207899
21
144.677600
31
0.0
0
LINE
8
0
6
CONTINUOUS
10
84.049703
20
143.908590
30
0.0
11
87.755382
21
143.908590
31
0.0
0
LINE
8
0
6
CONTINUOUS
10
79.762065
20
143.908590
30
0.0
11
84.049703
21
143.908590
31
0.0
0
LINE
8
0
6
CONTINUOUS
10
93.207899
20
186.999920
30
0.0
11
92.572964
21
186.999920
31
0.0
0
LINE
8
0
6
CONTINUOUS
10
93.207899
20
185.961540
30
0.0
11
93.207899
21
186.999920
31
0.0
0
LINE
8
0
6
CONTINUOUS
10
75.209459
20
143.908590
30
0.0
11
79.762065
21
143.908590
31
0.0
0
LINE
8
0
6
CONTINUOUS
10
68.269360
20
143.908590
30
0.0
11
75.209459
21
143.908590
31
0.0
0
LINE
8
0
6
CONTINUOUS
10
-91.876053
20
143.908590
30
0.0
11
-90.129105
21
143.908590
31
0.0
0
LINE
8
0
6
CONTINUOUS
10
-92.775975
20
144.677600
30
0.0
11
-92.511298
21
143.908590
31
0.0
0
LINE
8
0
6
CONTINUOUS
10
-92.511298
20
143.908590
30
0.0
11
-91.876053
21
143.908590
31
0.0
0
LINE
8
0
6
CONTINUOUS
10
-87.323548
20
143.908590
30
0.0
11
-83.617969
21
143.908590
31
0.0
0
LINE
8
0
6
CONTINUOUS
10
-83.617969
20
143.908590
30
0.0
11
-79.330051
21
143.908590
31
0.0
0
LINE
8
0
6
CONTINUOUS
10
-92.775975
20
185.961540
30
0.0
11
-92.775975
21
144.677600
31
0.0
0
LINE
8
0
6
CONTINUOUS
10
-83.723860
20
186.999920
30
0.0
11
-87.482334
21
186.999920
31
0.0
0
LINE
8
0
6
CONTINUOUS
10
-79.383046
20
186.999920
30
0.0
11
-83.723860
21
186.999920
31
0.0
0
LINE
8
0
6
CONTINUOUS
10
-79.330051
20
143.908590
30
0.0
11
-74.777546
21
143.908590
31
0.0
0
LINE
8
0
6
CONTINUOUS
10
-74.777546
20
186.999920
30
0.0
11
-79.383046
21
186.999920
31
0.0
0
LINE
8
0
6
CONTINUOUS
10
-92.140730
20
186.999920
30
0.0
11
-92.775975
21
186.999920
31
0.0
0
LINE
8
0
6
CONTINUOUS
10
-92.775975
20
186.999920
30
0.0
11
-92.775975
21
185.961540
31
0.0
0
LINE
8
0
6
CONTINUOUS
10
-87.482334
20
186.999920
30
0.0
11
-90.340886
21
186.999920
31
0.0
0
LINE
8
0
6
CONTINUOUS
10
79.815070
20
186.999920
30
0.0
11
75.209459
21
186.999920
31
0.0
0
LINE
8
0
6
CONTINUOUS
10
84.155684
20
186.999920
30
0.0
11
79.815070
21
186.999920
31
0.0
0
LINE
8
0
6
CONTINUOUS
10
87.914358
20
186.999920
30
0.0
11
84.155684
21
186.999920
31
0.0
0
LINE
8
0
6
CONTINUOUS
10
93.207899
20
144.677600
30
0.0
11
93.207899
21
185.961540
31
0.0
0
LINE
8
0
6
CONTINUOUS
10
75.209459
20
186.999920
30
0.0
11
40.248151
21
186.999920
31
0.0
0
LINE
8
0
6
CONTINUOUS
10
-42.404745
20
186.999920
30
0.0
11
-74.777546
21
186.999920
31
0.0
0
LINE
8
0
6
CONTINUOUS
10
-89.063780
20
192.881552
30
0.0
11
-87.681878
21
192.881552
31
0.0
0
LINE
8
0
6
CONTINUOUS
10
-80.740519
20
193.628429
30
0.0
11
-85.549822
21
193.705826
31
0.0
0
LINE
8
0
6
CONTINUOUS
10
-80.740519
20
193.991197
30
0.0
11
-80.740519
21
193.628429
31
0.0
0
LINE
8
0
6
CONTINUOUS
10
-80.740519
20
193.628429
30
0.0
11
-80.347290
21
193.556206
31
0.0
0
LINE
8
0
6
CONTINUOUS
10
-85.755922
20
193.626142
30
0.0
11
-85.549822
21
193.705826
31
0.0
0
LINE
8
0
6
CONTINUOUS
10
-85.549822
20
193.705826
30
0.0
11
-85.549822
21
194.060943
31
0.0
0
LINE
8
0
6
CONTINUOUS
10
-85.755922
20
193.626142
30
0.0
11
-87.681878
21
192.881552
31
0.0
0
LINE
8
0
6
CONTINUOUS
10
-76.672523
20
192.881552
30
0.0
11
-80.347290
21
193.556206
31
0.0
0
LINE
8
0
6
CONTINUOUS
10
-87.681878
20
192.881552
30
0.0
11
-76.672523
21
192.881552
31
0.0
0
LINE
8
0
6
CONTINUOUS
10
-80.740519
20
193.991197
30
0.0
11
-80.740519
21
200.442377
31
0.0
0
LINE
8
0
6
CONTINUOUS
10
-85.549822
20
200.442377
30
0.0
11
-85.549822
21
194.060943
31
0.0
0
LINE
8
0
6
CONTINUOUS
10
-64.928421
20
193.628429
30
0.0
11
-69.639647
21
193.705816
31
0.0
0
LINE
8
0
6
CONTINUOUS
10
-64.928411
20
193.991197
30
0.0
11
-64.928421
21
193.628429
31
0.0
0
LINE
8
0
6
CONTINUOUS
10
-64.928421
20
193.628429
30
0.0
11
-64.731787
21
193.556206
31
0.0
0
LINE
8
0
6
CONTINUOUS
10
-70.051846
20
193.626132
30
0.0
11
-69.639647
21
193.705816
31
0.0
0
LINE
8
0
6
CONTINUOUS
10
-69.639647
20
193.705816
30
0.0
11
-69.639647
21
194.060933
31
0.0
0
LINE
8
0
6
CONTINUOUS
10
-70.051846
20
193.626132
30
0.0
11
-73.903768
21
192.881552
31
0.0
0
LINE
8
0
6
CONTINUOUS
10
-62.894413
20
192.881552
30
0.0
11
-64.731787
21
193.556206
31
0.0
0
LINE
8
0
6
CONTINUOUS
10
-73.903768
20
192.881552
30
0.0
11
-62.894413
21
192.881552
31
0.0
0
LINE
8
0
6
CONTINUOUS
10
-64.928411
20
193.991197
30
0.0
11
-64.928411
21
200.442367
31
0.0
0
LINE
8
0
6
CONTINUOUS
10
-69.639637
20
200.442367
30
0.0
11
-69.639647
21
194.060933
31
0.0
0
LINE
8
0
6
CONTINUOUS
10
-59.473561
20
193.628429
30
0.0
11
-59.375504
21
193.705816
31
0.0
0
LINE
8
0
6
CONTINUOUS
10
-59.670175
20
193.556206
30
0.0
11
-59.473561
21
193.628429
31
0.0
0
LINE
8
0
6
CONTINUOUS
10
-59.581593
20
193.626132
30
0.0
11
-59.375504
21
193.705816
31
0.0
0
LINE
8
0
6
CONTINUOUS
10
-59.375504
20
193.705816
30
0.0
11
-59.375504
21
194.060933
31
0.0
0
LINE
8
0
6
CONTINUOUS
10
-59.375504
20
194.060933
30
0.0
11
-59.375494
21
200.442367
31
0.0
0
LINE
8
0
6
CONTINUOUS
10
-61.507549
20
192.881552
30
0.0
11
-59.670175
21
193.556206
31
0.0
0
LINE
8
0
6
CONTINUOUS
10
-59.581593
20
193.626132
30
0.0
11
-61.507549
21
192.881552
31
0.0
0
LINE
8
0
6
CONTINUOUS
10
-91.195845
20
193.705826
30
0.0
11
-91.097777
21
193.628439
31
0.0
0
LINE
8
0
6
CONTINUOUS
10
-91.195845
20
194.060943
30
0.0
11
-91.195845
21
193.705826
31
0.0
0
LINE
8
0
6
CONTINUOUS
10
-91.097777
20
193.991197
30
0.0
11
-91.097777
21
193.628439
31
0.0
0
LINE
8
0
6
CONTINUOUS
10
-91.097777
20
193.628439
30
0.0
11
-90.901143
21
193.556206
31
0.0
0
LINE
8
0
6
CONTINUOUS
10
-91.097777
20
193.991197
30
0.0
11
-91.097777
21
200.442377
31
0.0
0
LINE
8
0
6
CONTINUOUS
10
-91.195845
20
200.442377
30
0.0
11
-91.195845
21
194.060943
31
0.0
0
LINE
8
0
6
CONTINUOUS
10
-76.672523
20
192.881552
30
0.0
11
-73.903768
21
192.881552
31
0.0
0
LINE
8
0
6
CONTINUOUS
10
-62.894413
20
192.881552
30
0.0
11
-61.507549
21
192.881552
31
0.0
0
LINE
8
0
6
CONTINUOUS
10
-90.901143
20
193.556206
30
0.0
11
-89.063780
21
192.881552
31
0.0
0
LINE
8
0
6
CONTINUOUS
10
-87.681878
20
208.003203
30
0.0
11
-89.063780
21
208.003203
31
0.0
0
LINE
8
0
6
CONTINUOUS
10
-85.549822
20
207.178929
30
0.0
11
-80.740519
21
207.256326
31
0.0
0
LINE
8
0
6
CONTINUOUS
10
-80.347290
20
207.328549
30
0.0
11
-80.740519
21
207.256326
31
0.0
0
LINE
8
0
6
CONTINUOUS
10
-80.740519
20
207.256326
30
0.0
11
-80.740519
21
206.893557
31
0.0
0
LINE
8
0
6
CONTINUOUS
10
-85.549822
20
206.823822
30
0.0
11
-85.549822
21
207.178929
31
0.0
0
LINE
8
0
6
CONTINUOUS
10
-85.549822
20
207.178929
30
0.0
11
-85.755922
21
207.258612
31
0.0
0
LINE
8
0
6
CONTINUOUS
10
-76.672523
20
208.003203
30
0.0
11
-87.681878
21
208.003203
31
0.0
0
LINE
8
0
6
CONTINUOUS
10
-80.347290
20
207.328549
30
0.0
11
-76.672523
21
208.003203
31
0.0
0
LINE
8
0
6
CONTINUOUS
10
-87.681878
20
208.003203
30
0.0
11
-85.755922
21
207.258612
31
0.0
0
LINE
8
0
6
CONTINUOUS
10
-85.549822
20
206.823822
30
0.0
11
-85.549822
21
200.442377
31
0.0
0
LINE
8
0
6
CONTINUOUS
10
-80.740519
20
200.442377
30
0.0
11
-80.740519
21
206.893557
31
0.0
0
LINE
8
0
6
CONTINUOUS
10
-69.639647
20
207.178929
30
0.0
11
-64.928421
21
207.256316
31
0.0
0
LINE
8
0
6
CONTINUOUS
10
-64.731787
20
207.328539
30
0.0
11
-64.928421
21
207.256316
31
0.0
0
LINE
8
0
6
CONTINUOUS
10
-64.928421
20
207.256316
30
0.0
11
-64.928411
21
206.893547
31
0.0
0
LINE
8
0
6
CONTINUOUS
10
-69.639647
20
206.823812
30
0.0
11
-69.639647
21
207.178929
31
0.0
0
LINE
8
0
6
CONTINUOUS
10
-69.639647
20
207.178929
30
0.0
11
-70.051846
21
207.258612
31
0.0
0
LINE
8
0
6
CONTINUOUS
10
-62.894413
20
208.003192
30
0.0
11
-73.903768
21
208.003192
31
0.0
0
LINE
8
0
6
CONTINUOUS
10
-64.731787
20
207.328539
30
0.0
11
-62.894413
21
208.003192
31
0.0
0
LINE
8
0
6
CONTINUOUS
10
-73.903768
20
208.003192
30
0.0
11
-70.051846
21
207.258612
31
0.0
0
LINE
8
0
6
CONTINUOUS
10
-69.639647
20
206.823812
30
0.0
11
-69.639637
21
200.442367
31
0.0
0
LINE
8
0
6
CONTINUOUS
10
-64.928411
20
200.442367
30
0.0
11
-64.928411
21
206.893547
31
0.0
0
LINE
8
0
6
CONTINUOUS
10
-59.473561
20
207.256316
30
0.0
11
-59.670175
21
207.328539
31
0.0
0
LINE
8
0
6
CONTINUOUS
10
-59.375494
20
207.178929
30
0.0
11
-59.473561
21
207.256316
31
0.0
0
LINE
8
0
6
CONTINUOUS
10
-59.375494
20
206.823812
30
0.0
11
-59.375494
21
207.178929
31
0.0
0
LINE
8
0
6
CONTINUOUS
10
-59.375494
20
207.178929
30
0.0
11
-59.581593
21
207.258612
31
0.0
0
LINE
8
0
6
CONTINUOUS
10
-59.375494
20
200.442367
30
0.0
11
-59.375494
21
206.823812
31
0.0
0
LINE
8
0
6
CONTINUOUS
10
-59.670175
20
207.328539
30
0.0
11
-61.507549
21
208.003192
31
0.0
0
LINE
8
0
6
CONTINUOUS
10
-61.507549
20
208.003192
30
0.0
11
-59.581593
21
207.258612
31
0.0
0
LINE
8
0
6
CONTINUOUS
10
-91.195845
20
207.178939
30
0.0
11
-91.195845
21
206.823822
31
0.0
0
LINE
8
0
6
CONTINUOUS
10
-91.097777
20
207.256326
30
0.0
11
-91.195845
21
207.178939
31
0.0
0
LINE
8
0
6
CONTINUOUS
10
-90.901143
20
207.328549
30
0.0
11
-91.097777
21
207.256326
31
0.0
0
LINE
8
0
6
CONTINUOUS
10
-91.097777
20
207.256326
30
0.0
11
-91.097777
21
206.893557
31
0.0
0
LINE
8
0
6
CONTINUOUS
10
-91.195845
20
206.823822
30
0.0
11
-91.195845
21
200.442377
31
0.0
0
LINE
8
0
6
CONTINUOUS
10
-91.097777
20
200.442377
30
0.0
11
-91.097777
21
206.893557
31
0.0
0
LINE
8
0
6
CONTINUOUS
10
-73.903768
20
208.003192
30
0.0
11
-76.672523
21
208.003203
31
0.0
0
LINE
8
0
6
CONTINUOUS
10
-61.507549
20
208.003192
30
0.0
11
-62.894413
21
208.003192
31
0.0
0
LINE
8
0
6
CONTINUOUS
10
-89.063780
20
208.003203
30
0.0
11
-90.901143
21
207.328549
31
0.0
0
LINE
8
0
6
CONTINUOUS
10
69.640765
20
193.705786
30
0.0
11
64.929529
21
193.628398
31
0.0
0
LINE
8
0
6
CONTINUOUS
10
64.732915
20
193.556176
30
0.0
11
64.929529
21
193.628398
31
0.0
0
LINE
8
0
6
CONTINUOUS
10
64.929529
20
193.628398
30
0.0
11
64.929529
21
193.991167
31
0.0
0
LINE
8
0
6
CONTINUOUS
10
62.895531
20
192.881522
30
0.0
11
71.886825
21
192.881522
31
0.0
0
LINE
8
0
6
CONTINUOUS
10
64.732915
20
193.556176
30
0.0
11
62.895531
21
192.881522
31
0.0
0
LINE
8
0
6
CONTINUOUS
10
64.929529
20
194.035165
30
0.0
11
64.929529
21
193.991167
31
0.0
0
LINE
8
0
6
CONTINUOUS
10
59.474679
20
193.628398
30
0.0
11
59.671304
21
193.556176
31
0.0
0
LINE
8
0
6
CONTINUOUS
10
59.376612
20
193.705786
30
0.0
11
59.474679
21
193.628398
31
0.0
0
LINE
8
0
6
CONTINUOUS
10
59.376612
20
194.060903
30
0.0
11
59.376612
21
193.705786
31
0.0
0
LINE
8
0
6
CONTINUOUS
10
59.376612
20
193.705786
30
0.0
11
59.582701
21
193.626102
31
0.0
0
LINE
8
0
6
CONTINUOUS
10
59.376612
20
194.561780
30
0.0
11
59.376612
21
194.060903
31
0.0
0
LINE
8
0
6
CONTINUOUS
10
59.671304
20
193.556176
30
0.0
11
61.508677
21
192.881522
31
0.0
0
LINE
8
0
6
CONTINUOUS
10
61.508677
20
192.881522
30
0.0
11
59.582701
21
193.626102
31
0.0
0
LINE
8
0
6
CONTINUOUS
10
61.508677
20
192.881522
30
0.0
11
62.895531
21
192.881522
31
0.0
0
LINE
8
0
6
CONTINUOUS
10
89.064878
20
208.003162
30
0.0
11
87.682996
21
208.003162
31
0.0
0
LINE
8
0
6
CONTINUOUS
10
80.741627
20
207.256286
30
0.0
11
85.550921
21
207.178898
31
0.0
0
LINE
8
0
6
CONTINUOUS
10
80.741627
20
206.893517
30
0.0
11
80.741627
21
207.256286
31
0.0
0
LINE
8
0
6
CONTINUOUS
10
80.741627
20
207.256286
30
0.0
11
80.348389
21
207.328508
31
0.0
0
LINE
8
0
6
CONTINUOUS
10
85.757020
20
207.258582
30
0.0
11
85.550921
21
207.178898
31
0.0
0
LINE
8
0
6
CONTINUOUS
10
85.550921
20
207.178898
30
0.0
11
85.550921
21
206.823782
31
0.0
0
LINE
8
0
6
CONTINUOUS
10
85.757020
20
207.258582
30
0.0
11
87.682996
21
208.003162
31
0.0
0
LINE
8
0
6
CONTINUOUS
10
76.673641
20
208.003162
30
0.0
11
80.348389
21
207.328508
31
0.0
0
LINE
8
0
6
CONTINUOUS
10
87.682996
20
208.003162
30
0.0
11
76.673641
21
208.003162
31
0.0
0
LINE
8
0
6
CONTINUOUS
10
80.741627
20
206.893517
30
0.0
11
80.741627
21
205.255053
31
0.0
0
LINE
8
0
6
CONTINUOUS
10
85.550921
20
204.129100
30
0.0
11
85.550921
21
206.823782
31
0.0
0
LINE
8
0
6
CONTINUOUS
10
70.214791
20
207.289865
30
0.0
11
73.904886
21
208.003162
31
0.0
0
LINE
8
0
6
CONTINUOUS
10
73.904886
20
208.003162
30
0.0
11
65.497799
21
208.003162
31
0.0
0
LINE
8
0
6
CONTINUOUS
10
91.196943
20
207.178888
30
0.0
11
91.098866
21
207.256276
31
0.0
0
LINE
8
0
6
CONTINUOUS
10
91.196943
20
206.823772
30
0.0
11
91.196943
21
207.178888
31
0.0
0
LINE
8
0
6
CONTINUOUS
10
91.098866
20
206.893507
30
0.0
11
91.098866
21
207.256276
31
0.0
0
LINE
8
0
6
CONTINUOUS
10
91.098866
20
207.256276
30
0.0
11
90.902241
21
207.328498
31
0.0
0
LINE
8
0
6
CONTINUOUS
10
91.098866
20
206.893507
30
0.0
11
91.098866
21
202.694229
31
0.0
0
LINE
8
0
6
CONTINUOUS
10
91.196943
20
202.667248
30
0.0
11
91.196943
21
206.823772
31
0.0
0
LINE
8
0
6
CONTINUOUS
10
76.673641
20
208.003162
30
0.0
11
73.904886
21
208.003162
31
0.0
0
LINE
8
0
6
CONTINUOUS
10
90.902241
20
207.328498
30
0.0
11
89.064878
21
208.003162
31
0.0
0
LINE
8
0
6
CONTINUOUS
10
-41.179661
20
212.957631
30
0.0
11
-41.179661
21
213.601368
31
0.0
0
LINE
8
0
6
CONTINUOUS
10
-109.001833
20
213.601388
30
0.0
11
-109.001833
21
212.957641
31
0.0
0
LINE
8
0
6
CONTINUOUS
10
-68.487897
20
212.957591
30
0.0
11
-75.118319
21
212.957591
31
0.0
0
LINE
8
0
6
CONTINUOUS
10
-62.095854
20
212.957591
30
0.0
11
-68.487897
21
212.957591
31
0.0
0
LINE
8
0
6
CONTINUOUS
10
-56.166592
20
212.957591
30
0.0
11
-62.095854
21
212.957591
31
0.0
0
LINE
8
0
6
CONTINUOUS
10
-51.043606
20
212.957631
30
0.0
11
-56.166592
21
212.957591
31
0.0
0
LINE
8
0
6
CONTINUOUS
10
-46.819823
20
212.957631
30
0.0
11
-51.043606
21
212.957631
31
0.0
0
LINE
8
0
6
CONTINUOUS
10
-43.667104
20
212.957631
30
0.0
11
-46.819823
21
212.957631
31
0.0
0
LINE
8
0
6
CONTINUOUS
10
-41.806357
20
212.957631
30
0.0
11
-43.667104
21
212.957631
31
0.0
0
LINE
8
0
6
CONTINUOUS
10
-41.179661
20
212.957631
30
0.0
11
-41.806357
21
212.957631
31
0.0
0
LINE
8
0
6
CONTINUOUS
10
-41.672395
20
211.829013
30
0.0
11
-41.179661
21
212.957631
31
0.0
0
LINE
8
0
6
CONTINUOUS
10
-109.001833
20
212.957641
30
0.0
11
-108.615374
21
211.908055
31
0.0
0
LINE
8
0
6
CONTINUOUS
10
-99.177616
20
212.957641
30
0.0
11
-103.400681
21
212.957641
31
0.0
0
LINE
8
0
6
CONTINUOUS
10
-94.033793
20
212.957601
30
0.0
11
-99.177616
21
212.957641
31
0.0
0
LINE
8
0
6
CONTINUOUS
10
-88.185106
20
212.957601
30
0.0
11
-94.033793
21
212.957601
31
0.0
0
LINE
8
0
6
CONTINUOUS
10
-81.765206
20
212.957601
30
0.0
11
-88.185106
21
212.957601
31
0.0
0
LINE
8
0
6
CONTINUOUS
10
-75.118319
20
212.957591
30
0.0
11
-81.765206
21
212.957601
31
0.0
0
LINE
8
0
6
CONTINUOUS
10
-88.190767
20
187.004745
30
0.0
11
-87.196822
21
187.004745
31
0.0
0
LINE
8
0
6
CONTINUOUS
10
-88.625131
20
210.270643
30
0.0
11
-88.582799
21
208.003203
31
0.0
0
LINE
8
0
6
CONTINUOUS
10
-88.300484
20
192.881552
30
0.0
11
-88.190767
21
187.004745
31
0.0
0
LINE
8
0
6
CONTINUOUS
10
-75.133646
20
187.004704
30
0.0
11
-70.136904
21
187.004704
31
0.0
0
LINE
8
0
6
CONTINUOUS
10
-65.900879
20
187.004704
30
0.0
11
-63.070449
21
187.004704
31
0.0
0
LINE
8
0
6
CONTINUOUS
10
-75.133646
20
187.004704
30
0.0
11
-75.123045
21
192.881552
31
0.0
0
LINE
8
0
6
CONTINUOUS
10
-75.095770
20
208.003197
30
0.0
11
-75.091777
21
210.217288
31
0.0
0
LINE
8
0
6
CONTINUOUS
10
-80.130378
20
187.004745
30
0.0
11
-75.133646
21
187.004704
31
0.0
0
LINE
8
0
6
CONTINUOUS
10
-87.196822
20
187.004745
30
0.0
11
-84.366412
21
187.004745
31
0.0
0
LINE
8
0
6
CONTINUOUS
10
-62.076534
20
187.004704
30
0.0
11
-61.949971
21
192.881552
31
0.0
0
LINE
8
0
6
CONTINUOUS
10
-61.624312
20
208.003192
30
0.0
11
-61.575566
21
210.266679
31
0.0
0
LINE
8
0
6
CONTINUOUS
10
-63.070449
20
187.004704
30
0.0
11
-62.076534
21
187.004704
31
0.0
0
LINE
8
0
6
CONTINUOUS
10
-62.537563
20
210.223077
30
0.0
11
-62.588512
21
208.003192
31
0.0
0
LINE
8
0
6
CONTINUOUS
10
-62.935569
20
192.881552
30
0.0
11
-63.070449
21
187.004704
31
0.0
0
LINE
8
0
6
CONTINUOUS
10
-65.900879
20
187.004704
30
0.0
11
-65.793511
21
192.881552
31
0.0
0
LINE
8
0
6
CONTINUOUS
10
-65.517244
20
208.003192
30
0.0
11
-65.476757
21
210.219249
31
0.0
0
LINE
8
0
6
CONTINUOUS
10
-70.136904
20
187.004704
30
0.0
11
-65.900879
21
187.004704
31
0.0
0
LINE
8
0
6
CONTINUOUS
10
-69.881540
20
210.217350
30
0.0
11
-69.905898
21
208.003192
31
0.0
0
LINE
8
0
6
CONTINUOUS
10
-70.072252
20
192.881552
30
0.0
11
-70.136904
21
187.004704
31
0.0
0
LINE
8
0
6
CONTINUOUS
10
-68.601061
20
211.777709
30
0.0
11
-75.135403
21
211.777789
31
0.0
0
LINE
8
0
6
CONTINUOUS
10
-62.316302
20
211.766808
30
0.0
11
-68.601061
21
211.777709
31
0.0
0
LINE
8
0
6
CONTINUOUS
10
-56.534710
20
211.776906
30
0.0
11
-62.316302
21
211.766808
31
0.0
0
LINE
8
0
6
CONTINUOUS
10
-51.462246
20
211.788960
30
0.0
11
-56.534710
21
211.776906
31
0.0
0
LINE
8
0
6
CONTINUOUS
10
-47.297999
20
211.789833
30
0.0
11
-51.462246
21
211.788960
31
0.0
0
LINE
8
0
6
CONTINUOUS
10
-44.209761
20
211.797675
30
0.0
11
-47.297999
21
211.789833
31
0.0
0
LINE
8
0
6
CONTINUOUS
10
-42.311991
20
211.819717
30
0.0
11
-44.209761
21
211.797675
31
0.0
0
LINE
8
0
6
CONTINUOUS
10
-41.672395
20
211.829013
30
0.0
11
-42.311991
21
211.819717
31
0.0
0
LINE
8
0
6
CONTINUOUS
10
-43.254326
20
211.704834
30
0.0
11
-41.672395
21
211.829013
31
0.0
0
LINE
8
0
6
CONTINUOUS
10
-108.615374
20
211.908055
30
0.0
11
-107.031816
21
211.778330
31
0.0
0
LINE
8
0
6
CONTINUOUS
10
-107.994529
20
211.888279
30
0.0
11
-108.615374
21
211.908055
31
0.0
0
LINE
8
0
6
CONTINUOUS
10
-106.096650
20
211.879705
30
0.0
11
-107.994529
21
211.888279
31
0.0
0
LINE
8
0
6
CONTINUOUS
10
-102.957780
20
211.819496
30
0.0
11
-106.096650
21
211.879705
31
0.0
0
LINE
8
0
6
CONTINUOUS
10
-98.804147
20
211.800823
30
0.0
11
-102.957780
21
211.819496
31
0.0
0
LINE
8
0
6
CONTINUOUS
10
-93.730405
20
211.801024
30
0.0
11
-98.804147
21
211.800823
31
0.0
0
LINE
8
0
6
CONTINUOUS
10
-87.943102
20
211.789231
30
0.0
11
-93.730405
21
211.801024
31
0.0
0
LINE
8
0
6
CONTINUOUS
10
-81.670563
20
211.767319
30
0.0
11
-87.943102
21
211.789231
31
0.0
0
LINE
8
0
6
CONTINUOUS
10
-75.135403
20
211.777789
30
0.0
11
-81.670563
21
211.767319
31
0.0
0
LINE
8
0
6
CONTINUOUS
10
-84.366412
20
187.004745
30
0.0
11
-80.130378
21
187.004745
31
0.0
0
LINE
8
0
6
CONTINUOUS
10
-41.179661
20
213.601368
30
0.0
11
-41.179641
21
233.930016
31
0.0
0
LINE
8
0
6
CONTINUOUS
10
-109.001813
20
233.930026
30
0.0
11
-109.001833
21
213.601388
31
0.0
0
LINE
8
0
6
CONTINUOUS
10
-61.575566
20
210.266679
30
0.0
11
-43.254326
21
211.704834
31
0.0
0
LINE
8
0
6
CONTINUOUS
10
-107.031816
20
211.778330
30
0.0
11
-88.625131
21
210.270643
31
0.0
0
LINE
8
0
6
CONTINUOUS
10
41.180779
20
213.601358
30
0.0
11
41.180779
21
212.957611
31
0.0
0
LINE
8
0
6
CONTINUOUS
10
109.002942
20
212.957591
30
0.0
11
109.002942
21
213.601338
31
0.0
0
LINE
8
0
6
CONTINUOUS
10
75.119438
20
212.957561
30
0.0
11
68.489015
21
212.957561
31
0.0
0
LINE
8
0
6
CONTINUOUS
10
68.489015
20
212.957561
30
0.0
11
62.096973
21
212.957561
31
0.0
0
LINE
8
0
6
CONTINUOUS
10
62.096973
20
212.957561
30
0.0
11
56.167710
21
212.957561
31
0.0
0
LINE
8
0
6
CONTINUOUS
10
56.167710
20
212.957561
30
0.0
11
51.044735
21
212.957601
31
0.0
0
LINE
8
0
6
CONTINUOUS
10
51.044735
20
212.957601
30
0.0
11
46.820941
21
212.957611
31
0.0
0
LINE
8
0
6
CONTINUOUS
10
46.820941
20
212.957611
30
0.0
11
43.668222
21
212.957611
31
0.0
0
LINE
8
0
6
CONTINUOUS
10
43.668222
20
212.957611
30
0.0
11
41.807475
21
212.957611
31
0.0
0
LINE
8
0
6
CONTINUOUS
10
41.180779
20
212.957611
30
0.0
11
41.673513
21
211.828993
31
0.0
0
LINE
8
0
6
CONTINUOUS
10
41.807475
20
212.957611
30
0.0
11
41.180779
21
212.957611
31
0.0
0
LINE
8
0
6
CONTINUOUS
10
108.616482
20
211.908004
30
0.0
11
109.002942
21
212.957591
31
0.0
0
LINE
8
0
6
CONTINUOUS
10
103.401789
20
212.957591
30
0.0
11
99.178715
21
212.957591
31
0.0
0
LINE
8
0
6
CONTINUOUS
10
99.178715
20
212.957591
30
0.0
11
94.034891
21
212.957551
31
0.0
0
LINE
8
0
6
CONTINUOUS
10
94.034891
20
212.957551
30
0.0
11
88.186224
21
212.957561
31
0.0
0
LINE
8
0
6
CONTINUOUS
10
88.186224
20
212.957561
30
0.0
11
81.766314
21
212.957561
31
0.0
0
LINE
8
0
6
CONTINUOUS
10
81.766314
20
212.957561
30
0.0
11
75.119438
21
212.957561
31
0.0
0
LINE
8
0
6
CONTINUOUS
10
88.191855
20
187.004704
30
0.0
11
88.233885
21
189.255810
31
0.0
0
LINE
8
0
6
CONTINUOUS
10
88.583912
20
208.003162
30
0.0
11
88.626247
21
210.270614
31
0.0
0
LINE
8
0
6
CONTINUOUS
10
87.197940
20
187.004704
30
0.0
11
88.191855
21
187.004704
31
0.0
0
LINE
8
0
6
CONTINUOUS
10
70.138022
20
187.004674
30
0.0
11
75.134764
21
187.004674
31
0.0
0
LINE
8
0
6
CONTINUOUS
10
63.071558
20
187.004674
30
0.0
11
65.901997
21
187.004674
31
0.0
0
LINE
8
0
6
CONTINUOUS
10
75.134764
20
187.004674
30
0.0
11
80.131476
21
187.004704
31
0.0
0
LINE
8
0
6
CONTINUOUS
10
75.092801
20
210.269158
30
0.0
11
75.096889
21
208.003162
31
0.0
0
LINE
8
0
6
CONTINUOUS
10
75.125201
20
192.306288
30
0.0
11
75.134764
21
187.004674
31
0.0
0
LINE
8
0
6
CONTINUOUS
10
84.367510
20
187.004704
30
0.0
11
87.197940
21
187.004704
31
0.0
0
LINE
8
0
6
CONTINUOUS
10
63.071558
20
187.004674
30
0.0
11
62.936678
21
192.881522
31
0.0
0
LINE
8
0
6
CONTINUOUS
10
62.583284
20
208.279212
30
0.0
11
62.538671
21
210.223049
31
0.0
0
LINE
8
0
6
CONTINUOUS
10
62.077653
20
187.004674
30
0.0
11
63.071558
21
187.004674
31
0.0
0
LINE
8
0
6
CONTINUOUS
10
61.576684
20
210.266659
30
0.0
11
61.617516
21
208.370685
31
0.0
0
LINE
8
0
6
CONTINUOUS
10
61.951089
20
192.881522
30
0.0
11
62.077653
21
187.004674
31
0.0
0
LINE
8
0
6
CONTINUOUS
10
70.138022
20
187.004674
30
0.0
11
70.073370
21
192.881522
31
0.0
0
LINE
8
0
6
CONTINUOUS
10
69.907017
20
208.003162
30
0.0
11
69.882659
21
210.217320
31
0.0
0
LINE
8
0
6
CONTINUOUS
10
65.901997
20
187.004674
30
0.0
11
70.138022
21
187.004674
31
0.0
0
LINE
8
0
6
CONTINUOUS
10
65.477885
20
210.219219
30
0.0
11
65.518370
21
208.003162
31
0.0
0
LINE
8
0
6
CONTINUOUS
10
65.794632
20
192.881522
30
0.0
11
65.901997
21
187.004674
31
0.0
0
LINE
8
0
6
CONTINUOUS
10
75.136531
20
211.777759
30
0.0
11
68.602170
21
211.777689
31
0.0
0
LINE
8
0
6
CONTINUOUS
10
68.602170
20
211.777689
30
0.0
11
62.317430
21
211.766778
31
0.0
0
LINE
8
0
6
CONTINUOUS
10
62.317430
20
211.766778
30
0.0
11
56.535828
21
211.776876
31
0.0
0
LINE
8
0
6
CONTINUOUS
10
56.535828
20
211.776876
30
0.0
11
51.463364
21
211.788930
31
0.0
0
LINE
8
0
6
CONTINUOUS
10
51.463364
20
211.788930
30
0.0
11
47.299108
21
211.789823
31
0.0
0
LINE
8
0
6
CONTINUOUS
10
47.299108
20
211.789823
30
0.0
11
44.210879
21
211.797665
31
0.0
0
LINE
8
0
6
CONTINUOUS
10
44.210879
20
211.797665
30
0.0
11
42.313109
21
211.819696
31
0.0
0
LINE
8
0
6
CONTINUOUS
10
41.673513
20
211.828993
30
0.0
11
43.255444
21
211.704814
31
0.0
0
LINE
8
0
6
CONTINUOUS
10
42.313109
20
211.819696
30
0.0
11
41.673513
21
211.828993
31
0.0
0
LINE
8
0
6
CONTINUOUS
10
108.616482
20
211.908004
30
0.0
11
107.995648
21
211.888229
31
0.0
0
LINE
8
0
6
CONTINUOUS
10
107.032924
20
211.778290
30
0.0
11
108.616482
21
211.908004
31
0.0
0
LINE
8
0
6
CONTINUOUS
10
107.995648
20
211.888229
30
0.0
11
106.097748
21
211.879665
31
0.0
0
LINE
8
0
6
CONTINUOUS
10
106.097748
20
211.879665
30
0.0
11
102.958888
21
211.819446
31
0.0
0
LINE
8
0
6
CONTINUOUS
10
102.958888
20
211.819446
30
0.0
11
98.805245
21
211.800783
31
0.0
0
LINE
8
0
6
CONTINUOUS
10
98.805245
20
211.800783
30
0.0
11
93.731523
21
211.800974
31
0.0
0
LINE
8
0
6
CONTINUOUS
10
93.731523
20
211.800974
30
0.0
11
87.944210
21
211.789191
31
0.0
0
LINE
8
0
6
CONTINUOUS
10
87.944210
20
211.789191
30
0.0
11
81.671671
21
211.767279
31
0.0
0
LINE
8
0
6
CONTINUOUS
10
81.671671
20
211.767279
30
0.0
11
75.136531
21
211.777759
31
0.0
0
LINE
8
0
6
CONTINUOUS
10
80.131476
20
187.004704
30
0.0
11
84.367510
21
187.004704
31
0.0
0
LINE
8
0
6
CONTINUOUS
10
41.180769
20
233.929996
30
0.0
11
41.180779
21
213.601358
31
0.0
0
LINE
8
0
6
CONTINUOUS
10
109.002942
20
213.601338
30
0.0
11
109.002922
21
233.929976
31
0.0
0
LINE
8
0
6
CONTINUOUS
10
43.255444
20
211.704814
30
0.0
11
61.576684
21
210.266659
31
0.0
0
LINE
8
0
6
CONTINUOUS
10
88.626247
20
210.270614
30
0.0
11
107.032924
21
211.778290
31
0.0
0
LINE
8
0
6
CONTINUOUS
10
75.119448
20
234.999880
30
0.0
11
68.489005
21
234.999920
31
0.0
0
LINE
8
0
6
CONTINUOUS
10
68.489005
20
234.999920
30
0.0
11
62.096993
21
234.999880
31
0.0
0
LINE
8
0
6
CONTINUOUS
10
62.096993
20
234.999880
30
0.0
11
56.167740
21
234.999880
31
0.0
0
LINE
8
0
6
CONTINUOUS
10
46.820941
20
234.999930
30
0.0
11
43.668242
21
234.999930
31
0.0
0
LINE
8
0
6
CONTINUOUS
10
43.668242
20
234.999930
30
0.0
11
41.807485
21
234.999930
31
0.0
0
LINE
8
0
6
CONTINUOUS
10
41.180769
20
234.999930
30
0.0
11
41.180769
21
233.929996
31
0.0
0
LINE
8
0
6
CONTINUOUS
10
41.807485
20
234.999930
30
0.0
11
41.180769
21
234.999930
31
0.0
0
LINE
8
0
6
CONTINUOUS
10
109.002922
20
233.929976
30
0.0
11
109.002922
21
234.999910
31
0.0
0
LINE
8
0
6
CONTINUOUS
10
109.002922
20
234.999910
30
0.0
11
108.383864
21
234.999910
31
0.0
0
LINE
8
0
6
CONTINUOUS
10
108.383864
20
234.999910
30
0.0
11
106.472176
21
234.999910
31
0.0
0
LINE
8
0
6
CONTINUOUS
10
106.472176
20
234.999910
30
0.0
11
103.401759
21
234.999910
31
0.0
0
LINE
8
0
6
CONTINUOUS
10
103.401759
20
234.999910
30
0.0
11
99.178685
21
234.999910
31
0.0
0
LINE
8
0
6
CONTINUOUS
10
94.034871
20
234.999870
30
0.0
11
88.186164
21
234.999910
31
0.0
0
LINE
8
0
6
CONTINUOUS
10
81.766304
20
234.999880
30
0.0
11
75.119448
21
234.999880
31
0.0
0
LINE
8
0
6
CONTINUOUS
10
-68.487887
20
234.999950
30
0.0
11
-75.118319
21
234.999910
31
0.0
0
LINE
8
0
6
CONTINUOUS
10
-62.095864
20
234.999910
30
0.0
11
-68.487887
21
234.999950
31
0.0
0
LINE
8
0
6
CONTINUOUS
10
-56.166602
20
234.999910
30
0.0
11
-62.095864
21
234.999910
31
0.0
0
LINE
8
0
6
CONTINUOUS
10
-46.819813
20
234.999950
30
0.0
11
-51.043636
21
234.999950
31
0.0
0
LINE
8
0
6
CONTINUOUS
10
-43.667124
20
234.999950
30
0.0
11
-46.819813
21
234.999950
31
0.0
0
LINE
8
0
6
CONTINUOUS
10
-41.806357
20
234.999950
30
0.0
11
-43.667124
21
234.999950
31
0.0
0
LINE
8
0
6
CONTINUOUS
10
-41.179641
20
234.999950
30
0.0
11
-41.806357
21
234.999950
31
0.0
0
LINE
8
0
6
CONTINUOUS
10
-41.179641
20
233.930016
30
0.0
11
-41.179641
21
234.999950
31
0.0
0
LINE
8
0
6
CONTINUOUS
10
-108.382746
20
234.999960
30
0.0
11
-109.001813
21
234.999960
31
0.0
0
LINE
8
0
6
CONTINUOUS
10
-109.001813
20
234.999960
30
0.0
11
-109.001813
21
233.930026
31
0.0
0
LINE
8
0
6
CONTINUOUS
10
-106.471058
20
234.999960
30
0.0
11
-108.382746
21
234.999960
31
0.0
0
LINE
8
0
6
CONTINUOUS
10
-103.400641
20
234.999960
30
0.0
11
-106.471058
21
234.999960
31
0.0
0
LINE
8
0
6
CONTINUOUS
10
-99.177566
20
234.999960
30
0.0
11
-103.400641
21
234.999960
31
0.0
0
LINE
8
0
6
CONTINUOUS
10
-88.185056
20
234.999960
30
0.0
11
-94.033753
21
234.999920
31
0.0
0
LINE
8
0
6
CONTINUOUS
10
-75.118319
20
234.999910
30
0.0
11
-81.765186
21
234.999920
31
0.0
0
LINE
8
0
6
CONTINUOUS
10
51.044755
20
234.999920
30
0.0
11
56.167740
21
234.999880
31
0.0
0
LINE
8
0
6
CONTINUOUS
10
46.820941
20
234.999930
30
0.0
11
51.044755
21
234.999920
31
0.0
0
LINE
8
0
6
CONTINUOUS
10
47.672118
20
234.999930
30
0.0
11
46.820941
21
234.999930
31
0.0
0
LINE
8
0
6
CONTINUOUS
10
41.180769
20
234.999930
30
0.0
11
42.203110
21
234.999930
31
0.0
0
LINE
8
0
6
CONTINUOUS
10
41.849450
20
234.999960
30
0.0
11
41.180769
21
234.999930
31
0.0
0
LINE
8
0
6
CONTINUOUS
10
42.851342
20
234.999960
30
0.0
11
41.849450
21
234.999960
31
0.0
0
LINE
8
0
6
CONTINUOUS
10
42.203110
20
234.999930
30
0.0
11
42.851342
21
234.999960
31
0.0
0
LINE
8
0
6
CONTINUOUS
10
46.997147
20
234.999960
30
0.0
11
43.855401
21
234.999930
31
0.0
0
LINE
8
0
6
CONTINUOUS
10
47.846097
20
234.999960
30
0.0
11
46.997147
21
234.999960
31
0.0
0
LINE
8
0
6
CONTINUOUS
10
68.495076
20
234.999960
30
0.0
11
68.693428
21
234.999960
31
0.0
0
LINE
8
0
6
CONTINUOUS
10
75.159875
20
234.999960
30
0.0
11
68.495076
21
234.999960
31
0.0
0
LINE
8
0
6
CONTINUOUS
10
81.691690
20
234.999950
30
0.0
11
75.159875
21
234.999960
31
0.0
0
LINE
8
0
6
CONTINUOUS
10
81.495036
20
234.999950
30
0.0
11
81.691690
21
234.999950
31
0.0
0
LINE
8
0
6
CONTINUOUS
10
75.154763
20
234.999950
30
0.0
11
81.495036
21
234.999950
31
0.0
0
LINE
8
0
6
CONTINUOUS
10
98.966175
20
234.999950
30
0.0
11
98.247253
21
234.999950
31
0.0
0
LINE
8
0
6
CONTINUOUS
10
103.190658
20
234.999910
30
0.0
11
98.966175
21
234.999950
31
0.0
0
LINE
8
0
6
CONTINUOUS
10
94.034871
20
234.999870
30
0.0
11
99.178685
21
234.999910
31
0.0
0
LINE
8
0
6
CONTINUOUS
10
81.766304
20
234.999880
30
0.0
11
88.186164
21
234.999910
31
0.0
0
LINE
8
0
6
CONTINUOUS
10
-56.166602
20
234.999910
30
0.0
11
-51.043636
21
234.999950
31
0.0
0
LINE
8
0
6
CONTINUOUS
10
-41.848332
20
234.999980
30
0.0
11
-42.850224
21
234.999980
31
0.0
0
LINE
8
0
6
CONTINUOUS
10
-41.179641
20
234.999950
30
0.0
11
-41.848332
21
234.999980
31
0.0
0
LINE
8
0
6
CONTINUOUS
10
-42.850224
20
234.999980
30
0.0
11
-42.201982
21
234.999950
31
0.0
0
LINE
8
0
6
CONTINUOUS
10
-46.996029
20
234.999980
30
0.0
11
-47.844979
21
234.999980
31
0.0
0
LINE
8
0
6
CONTINUOUS
10
-43.854273
20
234.999950
30
0.0
11
-46.996029
21
234.999980
31
0.0
0
LINE
8
0
6
CONTINUOUS
10
-51.211256
20
234.999980
30
0.0
11
-56.395636
21
234.999990
31
0.0
0
LINE
8
0
6
CONTINUOUS
10
-51.930907
20
234.999980
30
0.0
11
-51.211256
21
234.999980
31
0.0
0
LINE
8
0
6
CONTINUOUS
10
-56.956045
20
234.999980
30
0.0
11
-51.930907
21
234.999980
31
0.0
0
LINE
8
0
6
CONTINUOUS
10
-62.209857
20
234.999990
30
0.0
11
-62.601209
21
234.999990
31
0.0
0
LINE
8
0
6
CONTINUOUS
10
-56.395636
20
234.999990
30
0.0
11
-62.209857
21
234.999990
31
0.0
0
LINE
8
0
6
CONTINUOUS
10
-62.601209
20
234.999990
30
0.0
11
-56.956045
21
234.999980
31
0.0
0
LINE
8
0
6
CONTINUOUS
10
-93.885743
20
234.999990
30
0.0
11
-98.965057
21
235.000000
31
0.0
0
LINE
8
0
6
CONTINUOUS
10
-93.316768
20
234.999990
30
0.0
11
-93.885743
21
234.999990
31
0.0
0
LINE
8
0
6
CONTINUOUS
10
-98.246134
20
234.999990
30
0.0
11
-93.316768
21
234.999990
31
0.0
0
LINE
8
0
6
CONTINUOUS
10
-103.189539
20
234.999960
30
0.0
11
-102.342496
21
234.999960
31
0.0
0
LINE
8
0
6
CONTINUOUS
10
-98.965057
20
235.000000
30
0.0
11
-103.189539
21
234.999960
31
0.0
0
LINE
8
0
6
CONTINUOUS
10
-99.177566
20
234.999960
30
0.0
11
-94.033753
21
234.999920
31
0.0
0
LINE
8
0
6
CONTINUOUS
10
-98.451655
20
234.999960
30
0.0
11
-99.177566
21
234.999960
31
0.0
0
LINE
8
0
6
CONTINUOUS
10
-88.185056
20
234.999960
30
0.0
11
-81.765186
21
234.999920
31
0.0
0
LINE
8
0
6
CONTINUOUS
10
-87.786655
20
234.999960
30
0.0
11
-88.185056
21
234.999960
31
0.0
0
LINE
8
0
6
CONTINUOUS
10
-75.095555
20
234.999960
30
0.0
11
-98.451655
21
234.999960
31
0.0
0
LINE
8
0
6
CONTINUOUS
10
-75.095555
20
234.999960
30
0.0
11
-98.246134
21
234.999990
31
0.0
0
LINE
8
0
6
CONTINUOUS
10
-105.415708
20
234.999960
30
0.0
11
-75.095555
21
234.999960
31
0.0
0
LINE
8
0
6
CONTINUOUS
10
-102.342496
20
234.999960
30
0.0
11
-105.415708
21
234.999960
31
0.0
0
LINE
8
0
6
CONTINUOUS
10
-75.095555
20
234.999960
30
0.0
11
-44.794841
21
234.999950
31
0.0
0
LINE
8
0
6
CONTINUOUS
10
-51.930907
20
234.999980
30
0.0
11
-75.095555
21
234.999960
31
0.0
0
LINE
8
0
6
CONTINUOUS
10
-47.844979
20
234.999980
30
0.0
11
-51.930907
21
234.999980
31
0.0
0
LINE
8
0
6
CONTINUOUS
10
-51.768360
20
234.999950
30
0.0
11
-75.095555
21
234.999960
31
0.0
0
LINE
8
0
6
CONTINUOUS
10
44.795969
20
234.999920
30
0.0
11
75.096673
21
234.999920
31
0.0
0
LINE
8
0
6
CONTINUOUS
10
51.932025
20
234.999960
30
0.0
11
47.846097
21
234.999960
31
0.0
0
LINE
8
0
6
CONTINUOUS
10
56.957163
20
234.999960
30
0.0
11
51.932025
21
234.999960
31
0.0
0
LINE
8
0
6
CONTINUOUS
10
62.602327
20
234.999960
30
0.0
11
56.957163
21
234.999960
31
0.0
0
LINE
8
0
6
CONTINUOUS
10
68.693428
20
234.999960
30
0.0
11
62.602327
21
234.999960
31
0.0
0
LINE
8
0
6
CONTINUOUS
10
75.096673
20
234.999920
30
0.0
11
75.154763
21
234.999950
31
0.0
0
LINE
8
0
6
CONTINUOUS
10
98.247253
20
234.999950
30
0.0
11
75.096673
21
234.999920
31
0.0
0
LINE
8
0
6
CONTINUOUS
10
75.096673
20
234.999920
30
0.0
11
105.416817
21
234.999910
31
0.0
0
LINE
8
0
6
CONTINUOUS
10
98.452773
20
234.999910
30
0.0
11
75.096673
21
234.999920
31
0.0
0
LINE
8
0
6
CONTINUOUS
10
-5.231608
20
222.633825
30
0.0
11
-5.231615
21
182.461402
31
0.0
0
LINE
8
0
6
CONTINUOUS
10
0.000548
20
222.633825
30
0.0
11
0.000541
21
183.869482
31
0.0
0
LINE
8
0
6
CONTINUOUS
10
5.232697
20
182.461402
30
0.0
11
5.232704
21
222.633825
31
0.0
0
LINE
8
0
6
CONTINUOUS
10
9.062909
20
222.633825
30
0.0
11
9.062902
21
178.749828
31
0.0
0
LINE
8
0
6
CONTINUOUS
10
10.464841
20
174.369892
30
0.0
11
10.464850
21
222.633825
31
0.0
0
LINE
8
0
6
CONTINUOUS
10
-10.463763
20
222.633825
30
0.0
11
-10.463763
21
174.369874
31
0.0
0
LINE
8
0
6
CONTINUOUS
10
-9.061811
20
178.749822
30
0.0
11
-9.061803
21
222.633825
31
0.0
0
LINE
8
0
6
CONTINUOUS
10
-13.061345
20
234.999950
30
0.0
11
-18.769401
21
234.999950
31
0.0
0
LINE
8
0
6
CONTINUOUS
10
0.000559
20
222.633825
30
0.0
11
6.613269
21
222.633825
31
0.0
0
LINE
8
0
6
CONTINUOUS
10
-18.769401
20
234.999950
30
0.0
11
-23.536240
21
234.999950
31
0.0
0
LINE
8
0
6
CONTINUOUS
10
6.613269
20
222.633825
30
0.0
11
12.894384
21
222.633825
31
0.0
0
LINE
8
0
6
CONTINUOUS
10
12.894384
20
222.633825
30
0.0
11
18.528954
21
222.633825
31
0.0
0
LINE
8
0
6
CONTINUOUS
10
18.528954
20
222.633825
30
0.0
11
23.234419
21
222.633825
31
0.0
0
LINE
8
0
6
CONTINUOUS
10
-29.349363
20
234.999960
30
0.0
11
-30.104159
21
234.999970
31
0.0
0
LINE
8
0
6
CONTINUOUS
10
-30.104159
20
234.999970
30
0.0
11
-30.089942
21
228.379966
31
0.0
0
LINE
8
0
6
CONTINUOUS
10
23.234419
20
222.633825
30
0.0
11
26.774855
21
222.633825
31
0.0
0
LINE
8
0
6
CONTINUOUS
10
26.774855
20
222.633825
30
0.0
11
28.972708
21
222.633835
31
0.0
0
LINE
8
0
6
CONTINUOUS
10
29.717790
20
222.633835
30
0.0
11
29.748872
21
223.112278
31
0.0
0
LINE
8
0
6
CONTINUOUS
10
28.972708
20
222.633835
30
0.0
11
29.717790
21
222.633835
31
0.0
0
LINE
8
0
6
CONTINUOUS
10
30.105278
20
234.999970
30
0.0
11
29.350481
21
234.999960
31
0.0
0
LINE
8
0
6
CONTINUOUS
10
30.091060
20
228.379956
30
0.0
11
30.105278
21
234.999970
31
0.0
0
LINE
8
0
6
CONTINUOUS
10
-29.716682
20
222.633835
30
0.0
11
-28.971600
21
222.633835
31
0.0
0
LINE
8
0
6
CONTINUOUS
10
-29.747763
20
223.112278
30
0.0
11
-29.716682
21
222.633835
31
0.0
0
LINE
8
0
6
CONTINUOUS
10
23.537368
20
234.999940
30
0.0
11
18.770549
21
234.999940
31
0.0
0
LINE
8
0
6
CONTINUOUS
10
-28.971600
20
222.633835
30
0.0
11
-26.773737
21
222.633835
31
0.0
0
LINE
8
0
6
CONTINUOUS
10
18.770549
20
234.999940
30
0.0
11
13.062503
21
234.999940
31
0.0
0
LINE
8
0
6
CONTINUOUS
10
-26.773737
20
222.633835
30
0.0
11
-23.233291
21
222.633825
31
0.0
0
LINE
8
0
6
CONTINUOUS
10
13.062503
20
234.999940
30
0.0
11
6.699485
21
234.999940
31
0.0
0
LINE
8
0
6
CONTINUOUS
10
-23.233291
20
222.633825
30
0.0
11
-18.527806
21
222.633825
31
0.0
0
LINE
8
0
6
CONTINUOUS
10
-6.698327
20
234.999950
30
0.0
11
-13.061345
21
234.999950
31
0.0
0
LINE
8
0
6
CONTINUOUS
10
-18.527806
20
222.633825
30
0.0
11
-12.893226
21
222.633825
31
0.0
0
LINE
8
0
6
CONTINUOUS
10
-6.612111
20
222.633825
30
0.0
11
0.000559
21
222.633825
31
0.0
0
LINE
8
0
6
CONTINUOUS
10
-12.893226
20
222.633825
30
0.0
11
-6.612111
21
222.633825
31
0.0
0
LINE
8
0
6
CONTINUOUS
10
29.748872
20
223.112278
30
0.0
11
30.091060
21
228.379956
31
0.0
0
LINE
8
0
6
CONTINUOUS
10
-30.089942
20
228.379966
30
0.0
11
-29.747763
21
223.112278
31
0.0
0
LINE
8
0
6
CONTINUOUS
10
-23.536240
20
234.999950
30
0.0
11
-27.122844
21
234.999960
31
0.0
0
LINE
8
0
6
CONTINUOUS
10
-27.122844
20
234.999960
30
0.0
11
-29.349363
21
234.999960
31
0.0
0
LINE
8
0
6
CONTINUOUS
10
29.350481
20
234.999960
30
0.0
11
27.123972
21
234.999960
31
0.0
0
LINE
8
0
6
CONTINUOUS
10
27.123972
20
234.999960
30
0.0
11
23.537368
21
234.999940
31
0.0
0
LINE
8
0
6
CONTINUOUS
10
6.699485
20
234.999940
30
0.0
11
0.000559
21
234.999950
31
0.0
0
LINE
8
0
6
CONTINUOUS
10
0.000559
20
234.999950
30
0.0
11
-6.698327
21
234.999950
31
0.0
0
LINE
8
0
6
CONTINUOUS
10
13.973686
20
-104.528871
30
0.0
11
13.973686
21
-104.388858
31
0.0
0
LINE
8
0
6
CONTINUOUS
10
10.992990
20
-111.005754
30
0.0
11
10.992990
21
-111.145767
31
0.0
0
LINE
8
0
6
CONTINUOUS
10
-13.210383
20
-107.207210
30
0.0
11
-13.210383
21
-107.347263
31
0.0
0
LINE
8
0
6
CONTINUOUS
10
-8.907153
20
-113.069006
30
0.0
11
-8.907153
21
-113.209019
31
0.0
0
LINE
8
0
6
CONTINUOUS
10
5.066673
20
-115.402055
30
0.0
11
5.066673
21
-115.262012
31
0.0
0
LINE
8
0
6
CONTINUOUS
10
-2.217403
20
-116.017383
30
0.0
11
-2.217403
21
-116.157436
31
0.0
0
LINE
8
0
6
CONTINUOUS
10
5.066673
20
-119.970089
30
0.0
11
10.992990
21
-115.713761
31
0.0
0
LINE
8
0
6
CONTINUOUS
10
-13.973726
20
-104.710461
30
0.0
11
-13.210393
21
-111.915247
31
0.0
0
LINE
8
0
6
CONTINUOUS
10
-13.973726
20
-104.559778
30
0.0
11
-13.973726
21
-104.710461
31
0.0
0
LINE
8
0
6
CONTINUOUS
10
13.973686
20
-109.096865
30
0.0
11
13.973686
21
-108.946212
31
0.0
0
LINE
8
0
6
CONTINUOUS
10
10.992990
20
-115.713761
30
0.0
11
13.973686
21
-109.096865
31
0.0
0
LINE
8
0
6
CONTINUOUS
10
10.992990
20
-115.563108
30
0.0
11
10.992990
21
-115.713761
31
0.0
0
LINE
8
0
6
CONTINUOUS
10
-13.210393
20
-111.915247
30
0.0
11
-8.907153
21
-117.777003
31
0.0
0
LINE
8
0
6
CONTINUOUS
10
-13.210393
20
-111.764564
30
0.0
11
-13.210393
21
-111.915247
31
0.0
0
LINE
8
0
6
CONTINUOUS
10
-8.907153
20
-117.777003
30
0.0
11
-2.217403
21
-120.725420
31
0.0
0
LINE
8
0
6
CONTINUOUS
10
-8.907153
20
-117.626360
30
0.0
11
-8.907153
21
-117.777003
31
0.0
0
LINE
8
0
6
CONTINUOUS
10
5.066673
20
-119.970089
30
0.0
11
5.066673
21
-119.819446
31
0.0
0
LINE
8
0
6
CONTINUOUS
10
-2.217403
20
-120.725420
30
0.0
11
5.066673
21
-119.970089
31
0.0
0
LINE
8
0
6
CONTINUOUS
10
-2.217403
20
-120.574737
30
0.0
11
-2.217403
21
-120.725420
31
0.0
0
LINE
8
0
6
CONTINUOUS
10
13.210343
20
-97.183952
30
0.0
11
8.907063
21
-91.322277
31
0.0
0
LINE
8
0
6
CONTINUOUS
10
13.973686
20
-104.388858
30
0.0
11
13.210343
21
-97.183952
31
0.0
0
LINE
8
0
6
CONTINUOUS
10
10.992990
20
-111.005754
30
0.0
11
13.973686
21
-104.388858
31
0.0
0
LINE
8
0
6
CONTINUOUS
10
5.066673
20
-115.262012
30
0.0
11
10.992990
21
-111.005754
31
0.0
0
LINE
8
0
6
CONTINUOUS
10
-2.217403
20
-116.017383
30
0.0
11
5.066673
21
-115.262012
31
0.0
0
LINE
8
0
6
CONTINUOUS
10
-8.907153
20
-113.069006
30
0.0
11
-2.217403
21
-116.017383
31
0.0
0
LINE
8
0
6
CONTINUOUS
10
-13.210383
20
-107.207210
30
0.0
11
-8.907153
21
-113.069006
31
0.0
0
LINE
8
0
6
CONTINUOUS
10
-13.973726
20
-100.002384
30
0.0
11
-13.210383
21
-107.207210
31
0.0
0
LINE
8
0
6
CONTINUOUS
10
-10.992980
20
-93.385449
30
0.0
11
-13.973726
21
-100.002384
31
0.0
0
LINE
8
0
6
CONTINUOUS
10
-5.066733
20
-89.129190
30
0.0
11
-10.992980
21
-93.385449
31
0.0
0
LINE
8
0
6
CONTINUOUS
10
2.217343
20
-88.373780
30
0.0
11
-5.066733
21
-89.129190
31
0.0
0
LINE
8
0
6
CONTINUOUS
10
8.907063
20
-91.322277
30
0.0
11
2.217343
21
-88.373780
31
0.0
0
LINE
8
0
6
CONTINUOUS
10
-13.973726
20
-100.142397
30
0.0
11
-13.973726
21
-104.559778
31
0.0
0
LINE
8
0
6
CONTINUOUS
10
13.973686
20
-108.946212
30
0.0
11
13.973686
21
-104.528871
31
0.0
0
LINE
8
0
6
CONTINUOUS
10
10.992990
20
-111.145767
30
0.0
11
10.992990
21
-115.563108
31
0.0
0
LINE
8
0
6
CONTINUOUS
10
-13.210383
20
-107.347263
30
0.0
11
-13.210393
21
-111.764564
31
0.0
0
LINE
8
0
6
CONTINUOUS
10
-8.907153
20
-113.209019
30
0.0
11
-8.907153
21
-117.626360
31
0.0
0
LINE
8
0
6
CONTINUOUS
10
5.066673
20
-119.819446
30
0.0
11
5.066673
21
-115.402055
31
0.0
0
LINE
8
0
6
CONTINUOUS
10
-2.217403
20
-116.157436
30
0.0
11
-2.217403
21
-120.574737
31
0.0
0
LINE
8
0
6
CONTINUOUS
10
10.833089
20
172.762502
30
0.0
11
10.833089
21
172.989550
31
0.0
0
LINE
8
0
6
CONTINUOUS
10
10.833089
20
172.989550
30
0.0
11
9.381815
21
178.429521
31
0.0
0
LINE
8
0
6
CONTINUOUS
10
-5.415741
20
182.411851
30
0.0
11
-9.380717
21
178.429521
31
0.0
0
LINE
8
0
6
CONTINUOUS
10
5.416819
20
182.411851
30
0.0
11
0.000539
21
183.869482
31
0.0
0
LINE
8
0
6
CONTINUOUS
10
0.000539
20
183.606023
30
0.0
11
0.000539
21
183.869482
31
0.0
0
LINE
8
0
6
CONTINUOUS
10
-5.415741
20
182.411851
30
0.0
11
-5.415741
21
182.153265
31
0.0
0
LINE
8
0
6
CONTINUOUS
10
0.000539
20
183.869482
30
0.0
11
-5.415741
21
182.411851
31
0.0
0
LINE
8
0
6
CONTINUOUS
10
9.381815
20
178.184273
30
0.0
11
9.381815
21
178.429521
31
0.0
0
LINE
8
0
6
CONTINUOUS
10
5.416819
20
182.411851
30
0.0
11
5.416819
21
182.153265
31
0.0
0
LINE
8
0
6
CONTINUOUS
10
9.381815
20
178.429521
30
0.0
11
5.416819
21
182.411851
31
0.0
0
LINE
8
0
6
CONTINUOUS
10
-9.380717
20
178.184263
30
0.0
11
-9.380717
21
178.429521
31
0.0
0
LINE
8
0
6
CONTINUOUS
10
-10.832010
20
172.989550
30
0.0
11
-10.832010
21
172.762492
31
0.0
0
LINE
8
0
6
CONTINUOUS
10
-9.380717
20
178.429521
30
0.0
11
-10.832010
21
172.989550
31
0.0
0
LINE
8
0
6
CONTINUOUS
10
10.833089
20
172.366149
30
0.0
11
10.833089
21
172.762502
31
0.0
0
LINE
8
0
6
CONTINUOUS
10
9.381815
20
177.771133
30
0.0
11
9.381815
21
178.184273
31
0.0
0
LINE
8
0
6
CONTINUOUS
10
-5.415741
20
181.727820
30
0.0
11
-5.415741
21
182.153265
31
0.0
0
LINE
8
0
6
CONTINUOUS
10
5.416819
20
181.727820
30
0.0
11
5.416819
21
182.153265
31
0.0
0
LINE
8
0
6
CONTINUOUS
10
0.000539
20
183.606023
30
0.0
11
0.000539
21
183.176076
31
0.0
0
LINE
8
0
6
CONTINUOUS
10
-9.380717
20
177.771123
30
0.0
11
-9.380717
21
178.184263
31
0.0
0
LINE
8
0
6
CONTINUOUS
10
-10.832010
20
172.762492
30
0.0
11
-10.832010
21
172.366139
31
0.0
0
LINE
8
0
6
CONTINUOUS
10
-10.832010
20
165.497307
30
0.0
11
-10.832010
21
161.469169
31
0.0
0
LINE
8
0
6
CONTINUOUS
10
10.833089
20
168.750038
30
0.0
11
10.833089
21
170.992453
31
0.0
0
LINE
8
0
6
CONTINUOUS
10
9.381815
20
173.869099
30
0.0
11
9.381815
21
176.258005
31
0.0
0
LINE
8
0
6
CONTINUOUS
10
-5.415741
20
177.616489
30
0.0
11
-5.415741
21
180.112636
31
0.0
0
LINE
8
0
6
CONTINUOUS
10
5.416819
20
177.616489
30
0.0
11
5.416819
21
180.112636
31
0.0
0
LINE
8
0
6
CONTINUOUS
10
0.000539
20
181.523537
30
0.0
11
0.000539
21
178.988149
31
0.0
0
LINE
8
0
6
CONTINUOUS
10
-9.380717
20
173.869089
30
0.0
11
-9.380717
21
176.257995
31
0.0
0
LINE
8
0
6
CONTINUOUS
10
-10.832010
20
170.992443
30
0.0
11
-10.832010
21
168.750038
31
0.0
0
LINE
8
0
6
CONTINUOUS
10
10.833089
20
161.469179
30
0.0
11
10.833089
21
165.497307
31
0.0
0
LINE
8
0
6
CONTINUOUS
10
9.381805
20
166.027425
30
0.0
11
9.381805
21
170.335960
31
0.0
0
LINE
8
0
6
CONTINUOUS
10
-5.415741
20
169.364333
30
0.0
11
-5.415741
21
173.878114
31
0.0
0
LINE
8
0
6
CONTINUOUS
10
-9.380717
20
170.335960
30
0.0
11
-9.380717
21
166.027425
31
0.0
0
LINE
8
0
6
CONTINUOUS
10
5.416819
20
169.364333
30
0.0
11
5.416819
21
173.878114
31
0.0
0
LINE
8
0
6
CONTINUOUS
10
0.000539
20
175.174634
30
0.0
11
0.000539
21
170.585711
31
0.0
0
LINE
8
0
6
CONTINUOUS
10
-9.380727
20
154.682095
30
0.0
11
-9.380727
21
160.752497
31
0.0
0
LINE
8
0
6
CONTINUOUS
10
-10.832010
20
156.648576
30
0.0
11
-10.832010
21
150.970947
31
0.0
0
LINE
8
0
6
CONTINUOUS
10
10.833089
20
150.970947
30
0.0
11
10.833089
21
156.648576
31
0.0
0
LINE
8
0
6
CONTINUOUS
10
0.000539
20
158.393274
30
0.0
11
0.000539
21
164.856458
31
0.0
0
LINE
8
0
6
CONTINUOUS
10
-5.415741
20
163.756831
30
0.0
11
-5.415741
21
157.398912
31
0.0
0
LINE
8
0
6
CONTINUOUS
10
9.381805
20
154.682095
30
0.0
11
9.381805
21
160.752497
31
0.0
0
LINE
8
0
6
CONTINUOUS
10
5.416819
20
163.756831
30
0.0
11
5.416819
21
157.398912
31
0.0
0
LINE
8
0
6
CONTINUOUS
10
-5.415741
20
139.040906
30
0.0
11
-5.415741
21
148.219904
31
0.0
0
LINE
8
0
6
CONTINUOUS
10
5.416819
20
139.040906
30
0.0
11
5.416819
21
148.219904
31
0.0
0
LINE
8
0
6
CONTINUOUS
10
0.000539
20
149.045773
30
0.0
11
0.000539
21
139.698272
31
0.0
0
LINE
8
0
6
CONTINUOUS
10
-9.380727
20
137.244654
30
0.0
11
-9.380727
21
145.963380
31
0.0
0
LINE
8
0
6
CONTINUOUS
10
-10.832010
20
142.880996
30
0.0
11
-10.832010
21
134.791016
31
0.0
0
LINE
8
0
6
CONTINUOUS
10
10.833089
20
134.791016
30
0.0
11
10.833089
21
142.880976
31
0.0
0
LINE
8
0
6
CONTINUOUS
10
9.381805
20
145.963380
30
0.0
11
9.381805
21
137.244654
31
0.0
0
LINE
8
0
6
CONTINUOUS
10
10.833089
20
115.749020
30
0.0
11
10.833089
21
125.270018
31
0.0
0
LINE
8
0
6
CONTINUOUS
10
9.381805
20
116.641274
30
0.0
11
9.381805
21
126.942964
31
0.0
0
LINE
8
0
6
CONTINUOUS
10
-5.415741
20
117.294528
30
0.0
11
-5.415741
21
128.167712
31
0.0
0
LINE
8
0
6
CONTINUOUS
10
5.416819
20
117.294518
30
0.0
11
5.416819
21
128.167702
31
0.0
0
LINE
8
0
6
CONTINUOUS
10
0.000539
20
128.615890
30
0.0
11
0.000539
21
117.533509
31
0.0
0
LINE
8
0
6
CONTINUOUS
10
-9.380727
20
116.641294
30
0.0
11
-9.380727
21
126.942974
31
0.0
0
LINE
8
0
6
CONTINUOUS
10
-10.832020
20
125.270028
30
0.0
11
-10.832020
21
115.749030
31
0.0
0
LINE
8
0
6
CONTINUOUS
10
10.833061
20
-93.945758
30
0.0
11
10.833089
21
115.749020
31
0.0
0
LINE
8
0
6
CONTINUOUS
10
9.381777
20
-91.968904
30
0.0
11
9.381805
21
116.641274
31
0.0
0
LINE
8
0
6
CONTINUOUS
10
-5.415768
20
-89.379869
30
0.0
11
-5.415741
21
117.294528
31
0.0
0
LINE
8
0
6
CONTINUOUS
10
5.416791
20
-89.783938
30
0.0
11
5.416819
21
117.294518
31
0.0
0
LINE
8
0
6
CONTINUOUS
10
0.000539
20
117.533509
30
0.0
11
0.000512
21
-88.603681
31
0.0
0
LINE
8
0
6
CONTINUOUS
10
-9.380755
20
-92.227541
30
0.0
11
-9.380727
21
116.641294
31
0.0
0
LINE
8
0
6
CONTINUOUS
10
-10.832020
20
115.749030
30
0.0
11
-10.832039
21
-93.269860
31
0.0
0
LINE
8
0
6
CONTINUOUS
10
10.833089
20
125.270018
30
0.0
11
10.833089
21
134.791016
31
0.0
0
LINE
8
0
6
CONTINUOUS
10
9.381805
20
126.942964
30
0.0
11
9.381805
21
137.244654
31
0.0
0
LINE
8
0
6
CONTINUOUS
10
-5.415741
20
128.167712
30
0.0
11
-5.415741
21
139.040906
31
0.0
0
LINE
8
0
6
CONTINUOUS
10
5.416819
20
128.167702
30
0.0
11
5.416819
21
139.040906
31
0.0
0
LINE
8
0
6
CONTINUOUS
10
0.000539
20
139.698272
30
0.0
11
0.000539
21
128.615890
31
0.0
0
LINE
8
0
6
CONTINUOUS
10
-9.380727
20
126.942974
30
0.0
11
-9.380727
21
137.244654
31
0.0
0
LINE
8
0
6
CONTINUOUS
10
-10.832010
20
134.791016
30
0.0
11
-10.832020
21
125.270028
31
0.0
0
LINE
8
0
6
CONTINUOUS
10
-5.415741
20
148.219904
30
0.0
11
-5.415741
21
157.398912
31
0.0
0
LINE
8
0
6
CONTINUOUS
10
5.416819
20
148.219904
30
0.0
11
5.416819
21
157.398912
31
0.0
0
LINE
8
0
6
CONTINUOUS
10
0.000539
20
158.393274
30
0.0
11
0.000539
21
149.045773
31
0.0
0
LINE
8
0
6
CONTINUOUS
10
-9.380727
20
145.963380
30
0.0
11
-9.380727
21
154.682095
31
0.0
0
LINE
8
0
6
CONTINUOUS
10
-10.832010
20
150.970947
30
0.0
11
-10.832010
21
142.880996
31
0.0
0
LINE
8
0
6
CONTINUOUS
10
10.833089
20
142.880976
30
0.0
11
10.833089
21
150.970947
31
0.0
0
LINE
8
0
6
CONTINUOUS
10
9.381805
20
154.682095
30
0.0
11
9.381805
21
145.963380
31
0.0
0
LINE
8
0
6
CONTINUOUS
10
-9.380727
20
160.752497
30
0.0
11
-9.380717
21
166.027425
31
0.0
0
LINE
8
0
6
CONTINUOUS
10
-10.832010
20
161.469169
30
0.0
11
-10.832010
21
156.648576
31
0.0
0
LINE
8
0
6
CONTINUOUS
10
10.833089
20
156.648576
30
0.0
11
10.833089
21
161.469179
31
0.0
0
LINE
8
0
6
CONTINUOUS
10
0.000539
20
164.856458
30
0.0
11
0.000539
21
170.585711
31
0.0
0
LINE
8
0
6
CONTINUOUS
10
-5.415741
20
169.364333
30
0.0
11
-5.415741
21
163.791147
31
0.0
0
LINE
8
0
6
CONTINUOUS
10
9.381805
20
160.752497
30
0.0
11
9.381805
21
166.027425
31
0.0
0
LINE
8
0
6
CONTINUOUS
10
5.416819
20
169.364333
30
0.0
11
5.416819
21
163.756831
31
0.0
0
LINE
8
0
6
CONTINUOUS
10
-10.832010
20
168.750038
30
0.0
11
-10.832010
21
165.497307
31
0.0
0
LINE
8
0
6
CONTINUOUS
10
10.833089
20
165.497307
30
0.0
11
10.833089
21
168.750038
31
0.0
0
LINE
8
0
6
CONTINUOUS
10
9.381805
20
170.335960
30
0.0
11
9.381815
21
173.869099
31
0.0
0
LINE
8
0
6
CONTINUOUS
10
-5.415741
20
173.878114
30
0.0
11
-5.415741
21
177.585366
31
0.0
0
LINE
8
0
6
CONTINUOUS
10
-9.380717
20
173.869089
30
0.0
11
-9.380717
21
170.335960
31
0.0
0
LINE
8
0
6
CONTINUOUS
10
5.416819
20
173.878114
30
0.0
11
5.416819
21
177.616489
31
0.0
0
LINE
8
0
6
CONTINUOUS
10
0.000539
20
178.988149
30
0.0
11
0.000539
21
175.174634
31
0.0
0
LINE
8
0
6
CONTINUOUS
10
10.833089
20
170.992453
30
0.0
11
10.833089
21
172.366149
31
0.0
0
LINE
8
0
6
CONTINUOUS
10
9.381815
20
176.258005
30
0.0
11
9.381815
21
177.771133
31
0.0
0
LINE
8
0
6
CONTINUOUS
10
-5.415741
20
180.112636
30
0.0
11
-5.415741
21
181.727820
31
0.0
0
LINE
8
0
6
CONTINUOUS
10
5.416819
20
180.112636
30
0.0
11
5.416819
21
181.727820
31
0.0
0
LINE
8
0
6
CONTINUOUS
10
0.000539
20
183.176076
30
0.0
11
0.000539
21
181.523537
31
0.0
0
LINE
8
0
6
CONTINUOUS
10
-9.380717
20
176.257995
30
0.0
11
-9.380717
21
177.771123
31
0.0
0
LINE
8
0
6
CONTINUOUS
10
-10.832010
20
172.366139
30
0.0
11
-10.832010
21
170.992443
31
0.0
0
LINE
8
0
6
CONTINUOUS
10
-26.050661
20
182.690580
30
0.0
11
-41.691861
21
182.709440
31
0.0
0
LINE
8
0
6
CONTINUOUS
10
-25.938251
20
176.789900
30
0.0
11
-25.938251
21
177.089670
31
0.0
0
LINE
8
0
6
CONTINUOUS
10
-25.938251
20
177.089670
30
0.0
11
-25.938251
21
177.566740
31
0.0
0
LINE
8
0
6
CONTINUOUS
10
-25.938251
20
177.566740
30
0.0
11
-25.938251
21
178.188450
31
0.0
0
LINE
8
0
6
CONTINUOUS
10
-25.938251
20
178.188450
30
0.0
11
-25.938251
21
178.912620
31
0.0
0
LINE
8
0
6
CONTINUOUS
10
-25.938251
20
179.689780
30
0.0
11
-25.938241
21
180.467000
31
0.0
0
LINE
8
0
6
CONTINUOUS
10
-25.938241
20
180.467000
30
0.0
11
-25.938241
21
181.191280
31
0.0
0
LINE
8
0
6
CONTINUOUS
10
-25.938241
20
182.290640
30
0.0
11
-25.938241
21
182.590850
31
0.0
0
LINE
8
0
6
CONTINUOUS
10
-25.938241
20
182.693390
30
0.0
11
-26.050661
21
182.690580
31
0.0
0
LINE
8
0
6
CONTINUOUS
10
-25.938241
20
182.590850
30
0.0
11
-25.938241
21
182.693390
31
0.0
0
LINE
8
0
6
CONTINUOUS
10
-25.938251
20
179.689780
30
0.0
11
-25.938251
21
178.912620
31
0.0
0
LINE
8
0
6
CONTINUOUS
10
-25.938251
20
181.813260
30
0.0
11
-25.938241
21
181.191280
31
0.0
0
LINE
8
0
6
CONTINUOUS
10
-25.938241
20
182.290640
30
0.0
11
-25.938251
21
181.813260
31
0.0
0
LINE
8
0
6
CONTINUOUS
10
-25.938271
20
174.850290
30
0.0
11
-25.938251
21
176.789900
31
0.0
0
LINE
8
0
6
CONTINUOUS
10
-26.050691
20
174.847080
30
0.0
11
-25.938271
21
174.850290
31
0.0
0
LINE
8
0
6
CONTINUOUS
10
-41.692061
20
191.863640
30
0.0
11
-42.404711
21
191.863650
31
0.0
0
LINE
8
0
6
CONTINUOUS
10
-42.404731
20
186.325430
30
0.0
11
-42.404771
21
182.414340
31
0.0
0
LINE
8
0
6
CONTINUOUS
10
-42.404991
20
159.635230
30
0.0
11
-42.405041
21
156.639100
31
0.0
0
LINE
8
0
6
CONTINUOUS
10
-42.405041
20
156.639100
30
0.0
11
-42.405071
21
154.757280
31
0.0
0
LINE
8
0
6
CONTINUOUS
10
-42.405071
20
154.757280
30
0.0
11
-42.405081
21
154.118090
31
0.0
0
LINE
8
0
6
CONTINUOUS
10
-42.405081
20
154.118090
30
0.0
11
-41.692431
21
154.118080
31
0.0
0
LINE
8
0
6
CONTINUOUS
10
-41.692431
20
154.118080
30
0.0
11
-21.431701
21
154.117940
31
0.0
0
LINE
8
0
6
CONTINUOUS
10
-21.431321
20
191.863500
30
0.0
11
-41.692061
21
191.863640
31
0.0
0
LINE
8
0
6
CONTINUOUS
10
-21.431701
20
154.117940
30
0.0
11
-21.141071
21
154.117940
31
0.0
0
LINE
8
0
6
CONTINUOUS
10
-21.141071
20
154.117940
30
0.0
11
-21.141061
21
154.757130
31
0.0
0
LINE
8
0
6
CONTINUOUS
10
-21.141061
20
154.757130
30
0.0
11
-21.141031
21
156.638900
31
0.0
0
LINE
8
0
6
CONTINUOUS
10
-21.141031
20
156.638900
30
0.0
11
-21.140981
21
159.635060
31
0.0
0
LINE
8
0
6
CONTINUOUS
10
-21.140891
20
168.091680
30
0.0
11
-21.140831
21
172.975830
31
0.0
0
LINE
8
0
6
CONTINUOUS
10
-21.140781
20
177.860940
30
0.0
11
-21.140731
21
182.414170
31
0.0
0
LINE
8
0
6
CONTINUOUS
10
-21.140731
20
182.414170
30
0.0
11
-21.140711
21
186.325280
31
0.0
0
LINE
8
0
6
CONTINUOUS
10
-21.140711
20
186.325280
30
0.0
11
-21.140691
21
189.327580
31
0.0
0
LINE
8
0
6
CONTINUOUS
10
-21.140691
20
189.327580
30
0.0
11
-21.140681
21
191.216550
31
0.0
0
LINE
8
0
6
CONTINUOUS
10
-21.140691
20
191.863490
30
0.0
11
-21.431321
21
191.863500
31
0.0
0
LINE
8
0
6
CONTINUOUS
10
-21.140681
20
191.216550
30
0.0
11
-21.140691
21
191.863490
31
0.0
0
LINE
8
0
6
CONTINUOUS
10
-42.404711
20
177.105810
30
0.0
11
-42.404711
21
176.805380
31
0.0
0
LINE
8
0
6
CONTINUOUS
10
-42.404701
20
177.583450
30
0.0
11
-42.404711
21
177.105810
31
0.0
0
LINE
8
0
6
CONTINUOUS
10
-42.404701
20
178.930290
30
0.0
11
-42.404701
21
178.205720
31
0.0
0
LINE
8
0
6
CONTINUOUS
10
-42.404691
20
180.485040
30
0.0
11
-42.404691
21
179.707760
31
0.0
0
LINE
8
0
6
CONTINUOUS
10
-42.404691
20
181.209280
30
0.0
11
-42.404691
21
180.485040
31
0.0
0
LINE
8
0
6
CONTINUOUS
10
-42.404681
20
181.831080
30
0.0
11
-42.404691
21
181.209280
31
0.0
0
LINE
8
0
6
CONTINUOUS
10
-42.404681
20
182.308140
30
0.0
11
-42.404681
21
181.831080
31
0.0
0
LINE
8
0
6
CONTINUOUS
10
-42.404681
20
182.607780
30
0.0
11
-42.404681
21
182.308140
31
0.0
0
LINE
8
0
6
CONTINUOUS
10
-42.404671
20
182.709770
30
0.0
11
-42.404681
21
182.607780
31
0.0
0
LINE
8
0
6
CONTINUOUS
10
-41.691861
20
182.709440
30
0.0
11
-42.404671
21
182.709770
31
0.0
0
LINE
8
0
6
CONTINUOUS
10
-41.691891
20
174.862210
30
0.0
11
-26.050691
21
174.847080
31
0.0
0
LINE
8
0
6
CONTINUOUS
10
-42.404701
20
177.583450
30
0.0
11
-42.404701
21
178.205720
31
0.0
0
LINE
8
0
6
CONTINUOUS
10
-42.404701
20
178.930290
30
0.0
11
-42.404691
21
179.707760
31
0.0
0
LINE
8
0
6
CONTINUOUS
10
-42.404991
20
159.635230
30
0.0
11
-42.404941
21
163.541560
31
0.0
0
LINE
8
0
6
CONTINUOUS
10
-42.404941
20
163.541560
30
0.0
11
-42.404891
21
168.091830
31
0.0
0
LINE
8
0
6
CONTINUOUS
10
-42.404891
20
168.091830
30
0.0
11
-42.404831
21
172.975970
31
0.0
0
LINE
8
0
6
CONTINUOUS
10
-42.404731
20
186.325430
30
0.0
11
-42.404711
21
189.327720
31
0.0
0
LINE
8
0
6
CONTINUOUS
10
-42.404711
20
189.327720
30
0.0
11
-42.404701
21
191.216720
31
0.0
0
LINE
8
0
6
CONTINUOUS
10
-42.404701
20
191.216720
30
0.0
11
-42.404711
21
191.863650
31
0.0
0
LINE
8
0
6
CONTINUOUS
10
-20.559671
20
154.169520
30
0.0
11
-20.239931
21
154.169520
31
0.0
0
LINE
8
0
6
CONTINUOUS
10
-20.559671
20
156.340220
30
0.0
11
-20.559671
21
154.910950
31
0.0
0
LINE
8
0
6
CONTINUOUS
10
-20.559681
20
158.410850
30
0.0
11
-20.559671
21
156.340220
31
0.0
0
LINE
8
0
6
CONTINUOUS
10
-20.559681
20
164.136370
30
0.0
11
-20.559681
21
161.043300
31
0.0
0
LINE
8
0
6
CONTINUOUS
10
-20.559681
20
161.043300
30
0.0
11
-20.559681
21
158.410850
31
0.0
0
LINE
8
0
6
CONTINUOUS
10
-20.239931
20
154.169520
30
0.0
11
-10.832010
21
154.169546
31
0.0
0
LINE
8
0
6
CONTINUOUS
10
10.833089
20
154.169605
30
0.0
11
17.173253
21
154.169622
31
0.0
0
LINE
8
0
6
CONTINUOUS
10
-20.559721
20
174.930290
30
0.0
11
-20.559711
21
171.215920
31
0.0
0
LINE
8
0
6
CONTINUOUS
10
-20.559731
20
178.571630
30
0.0
11
-20.559721
21
174.930290
31
0.0
0
LINE
8
0
6
CONTINUOUS
10
40.248169
20
182.000200
30
0.0
11
40.248159
21
185.083890
31
0.0
0
LINE
8
0
6
CONTINUOUS
10
40.248159
20
185.083890
30
0.0
11
40.248149
21
187.704350
31
0.0
0
LINE
8
0
6
CONTINUOUS
10
40.248149
20
189.760880
30
0.0
11
40.248129
21
191.174500
31
0.0
0
LINE
8
0
6
CONTINUOUS
10
40.248149
20
187.704350
30
0.0
11
40.248149
21
189.760880
31
0.0
0
LINE
8
0
6
CONTINUOUS
10
40.248189
20
178.571810
30
0.0
11
40.248169
21
182.000200
31
0.0
0
LINE
8
0
6
CONTINUOUS
10
40.248199
20
176.226560
30
0.0
11
40.248189
21
178.571810
31
0.0
0
LINE
8
0
6
CONTINUOUS
10
-20.240041
20
191.890620
30
0.0
11
-20.559791
21
191.890640
31
0.0
0
LINE
8
0
6
CONTINUOUS
10
36.742519
20
191.890800
30
0.0
11
32.172559
21
191.890800
31
0.0
0
LINE
8
0
6
CONTINUOUS
10
32.172559
20
191.890800
30
0.0
11
27.160209
21
191.890780
31
0.0
0
LINE
8
0
6
CONTINUOUS
10
27.160209
20
191.890780
30
0.0
11
23.599889
21
191.890770
31
0.0
0
LINE
8
0
6
CONTINUOUS
10
39.847559
20
191.890810
30
0.0
11
36.742519
21
191.890800
31
0.0
0
LINE
8
0
6
CONTINUOUS
10
40.248129
20
191.890820
30
0.0
11
39.847559
21
191.890810
31
0.0
0
LINE
8
0
6
CONTINUOUS
10
40.248129
20
191.174500
30
0.0
11
40.248129
21
191.890820
31
0.0
0
LINE
8
0
6
CONTINUOUS
10
23.599889
20
191.890770
30
0.0
11
10.464844
21
191.890725
31
0.0
0
LINE
8
0
6
CONTINUOUS
10
-10.463763
20
191.890653
30
0.0
11
-20.240041
21
191.890620
31
0.0
0
LINE
8
0
6
CONTINUOUS
10
-42.404711
20
174.858800
30
0.0
11
-41.691891
21
174.862210
31
0.0
0
LINE
8
0
6
CONTINUOUS
10
-42.404711
20
176.805380
30
0.0
11
-42.404711
21
174.858800
31
0.0
0
LINE
8
0
6
CONTINUOUS
10
-41.691891
20
174.862210
30
0.0
11
-42.404711
21
174.858800
31
0.0
0
LINE
8
0
6
CONTINUOUS
10
-21.140941
20
163.541360
30
0.0
11
-21.140981
21
159.635060
31
0.0
0
LINE
8
0
6
CONTINUOUS
10
-21.140891
20
168.091680
30
0.0
11
-21.140941
21
163.541360
31
0.0
0
LINE
8
0
6
CONTINUOUS
10
-21.140781
20
177.860940
30
0.0
11
-21.140831
21
172.975830
31
0.0
0
LINE
8
0
6
CONTINUOUS
10
-42.404831
20
172.975970
30
0.0
11
-42.404711
21
174.858800
31
0.0
0
LINE
8
0
6
CONTINUOUS
10
-20.559761
20
187.704170
30
0.0
11
-20.559771
21
189.760710
31
0.0
0
LINE
8
0
6
CONTINUOUS
10
-20.559681
20
154.178000
30
0.0
11
-20.559671
21
154.910950
31
0.0
0
LINE
8
0
6
CONTINUOUS
10
-20.559681
20
164.136370
30
0.0
11
-20.559691
21
167.571280
31
0.0
0
LINE
8
0
6
CONTINUOUS
10
-20.559731
20
178.571630
30
0.0
11
-20.559741
21
182.000030
31
0.0
0
LINE
8
0
6
CONTINUOUS
10
-20.559771
20
189.760710
30
0.0
11
-20.559781
21
191.174320
31
0.0
0
LINE
8
0
6
CONTINUOUS
10
-20.559751
20
185.083710
30
0.0
11
-20.559761
21
187.704170
31
0.0
0
LINE
8
0
6
CONTINUOUS
10
-20.559781
20
191.174320
30
0.0
11
-20.559791
21
191.890640
31
0.0
0
LINE
8
0
6
CONTINUOUS
10
-20.559691
20
167.571280
30
0.0
11
-20.559711
21
171.215920
31
0.0
0
LINE
8
0
6
CONTINUOUS
10
-20.559741
20
182.000030
30
0.0
11
-20.559751
21
185.083710
31
0.0
0
LINE
8
0
6
CONTINUOUS
10
31.348137
20
-108.898541
30
0.0
11
30.107791
21
-102.730882
31
0.0
0
LINE
8
0
6
CONTINUOUS
10
32.588387
20
-115.066180
30
0.0
11
31.348137
21
-108.898541
31
0.0
0
LINE
8
0
6
CONTINUOUS
10
31.348056
20
-121.233873
30
0.0
11
32.588333
21
-115.066216
31
0.0
0
LINE
8
0
6
CONTINUOUS
10
30.107757
20
-127.401476
30
0.0
11
31.348056
21
-121.233873
31
0.0
0
LINE
8
0
6
CONTINUOUS
10
87.552246
20
210.265372
30
0.0
11
86.203779
21
210.245772
31
0.0
0
LINE
8
0
6
CONTINUOUS
10
87.638521
20
210.267769
30
0.0
11
87.552246
21
210.265372
31
0.0
0
LINE
8
0
6
CONTINUOUS
10
27.107866
20
178.465120
30
0.0
11
28.142463
21
178.863403
31
0.0
0
LINE
8
0
6
CONTINUOUS
10
35.837205
20
178.914065
30
0.0
11
36.818904
21
178.420906
31
0.0
0
LINE
8
0
6
CONTINUOUS
10
32.969353
20
179.594830
30
0.0
11
35.512540
21
179.085064
31
0.0
0
LINE
8
0
6
CONTINUOUS
10
19.471339
20
167.509459
30
0.0
11
19.480588
21
167.571390
31
0.0
0
ENDSEC
0
EOF
