999
Erzeugt mit innoplus bad 
0
SECTION
2
HEADER
9
$ACADVER
1
AC1009
9
$DWGCODEPAGE
3
ISO8859-1
0
ENDSEC
0
SECTION
2
TABLES
0
TABLE
2
LAYER
70
1
0
LAYER
2
0
70
0
62
7
6
CONTINUOUS
0
ENDTAB
0
ENDSEC
0
SECTION
2
ENTITIES
0
LINE
8
0
6
CONTINUOUS
10
-123.744969
20
-115.239439
30
0.0
11
-123.744969
21
-117.122054
31
0.0
0
LINE
8
0
6
CONTINUOUS
10
114.275667
20
-117.122204
30
0.0
11
114.275667
21
-115.239589
31
0.0
0
LINE
8
0
6
CONTINUOUS
10
-27.952432
20
-232.738371
30
0.0
11
-4.734671
21
-235.000000
31
0.0
0
LINE
8
0
6
CONTINUOUS
10
-27.952432
20
-230.509213
30
0.0
11
-4.734661
21
-232.770842
31
0.0
0
LINE
8
0
6
CONTINUOUS
10
-50.277943
20
-226.040298
30
0.0
11
-27.952432
21
-232.738371
31
0.0
0
LINE
8
0
6
CONTINUOUS
10
-50.277943
20
-223.811140
30
0.0
11
-27.952432
21
-230.509213
31
0.0
0
LINE
8
0
6
CONTINUOUS
10
-70.853252
20
-215.163203
30
0.0
11
-50.277943
21
-226.040298
31
0.0
0
LINE
8
0
6
CONTINUOUS
10
-70.853252
20
-212.934045
30
0.0
11
-50.277943
21
-223.811140
31
0.0
0
LINE
8
0
6
CONTINUOUS
10
-88.887672
20
-200.525099
30
0.0
11
-70.853252
21
-215.163203
31
0.0
0
LINE
8
0
6
CONTINUOUS
10
-88.887672
20
-198.295972
30
0.0
11
-70.853252
21
-212.934045
31
0.0
0
LINE
8
0
6
CONTINUOUS
10
-103.688128
20
-182.688537
30
0.0
11
-88.887672
21
-200.525099
31
0.0
0
LINE
8
0
6
CONTINUOUS
10
-103.688128
20
-180.459379
30
0.0
11
-88.887672
21
-198.295972
31
0.0
0
LINE
8
0
6
CONTINUOUS
10
-114.685855
20
-162.338940
30
0.0
11
-103.688128
21
-182.688537
31
0.0
0
LINE
8
0
6
CONTINUOUS
10
-114.685855
20
-160.109823
30
0.0
11
-103.688128
21
-180.459379
31
0.0
0
LINE
8
0
6
CONTINUOUS
10
-121.458225
20
-140.258364
30
0.0
11
-114.685855
21
-162.338940
31
0.0
0
LINE
8
0
6
CONTINUOUS
10
-121.458225
20
-138.029206
30
0.0
11
-114.685855
21
-160.109823
31
0.0
0
LINE
8
0
6
CONTINUOUS
10
-123.744959
20
-117.295340
30
0.0
11
-121.458225
21
-140.258364
31
0.0
0
LINE
8
0
6
CONTINUOUS
10
-123.744969
20
-117.122054
30
0.0
11
-123.744959
21
-117.295340
31
0.0
0
LINE
8
0
6
CONTINUOUS
10
-123.744959
20
-115.066183
30
0.0
11
-121.458225
21
-138.029206
31
0.0
0
LINE
8
0
6
CONTINUOUS
10
-121.458225
20
-92.103129
30
0.0
11
-123.744959
21
-115.066183
31
0.0
0
LINE
8
0
6
CONTINUOUS
10
-114.685835
20
-70.022553
30
0.0
11
-121.458225
21
-92.103129
31
0.0
0
LINE
8
0
6
CONTINUOUS
10
-103.688108
20
-49.672936
30
0.0
11
-114.685835
21
-70.022553
31
0.0
0
LINE
8
0
6
CONTINUOUS
10
-88.887652
20
-31.836384
30
0.0
11
-103.688108
21
-49.672936
31
0.0
0
LINE
8
0
6
CONTINUOUS
10
-70.853232
20
-17.198290
30
0.0
11
-88.887652
21
-31.836384
31
0.0
0
LINE
8
0
6
CONTINUOUS
10
-50.277903
20
-6.321215
30
0.0
11
-70.853232
21
-17.198290
31
0.0
0
LINE
8
0
6
CONTINUOUS
10
-27.952372
20
0.376858
30
0.0
11
-50.277903
21
-6.321215
31
0.0
0
LINE
8
0
6
CONTINUOUS
10
-15.567620
20
1.583260
30
0.0
11
-27.952372
21
0.376858
31
0.0
0
LINE
8
0
6
CONTINUOUS
10
18.483171
20
0.376838
30
0.0
11
6.099362
21
1.583159
31
0.0
0
LINE
8
0
6
CONTINUOUS
10
40.808681
20
-6.321256
30
0.0
11
18.483171
21
0.376838
31
0.0
0
LINE
8
0
6
CONTINUOUS
10
61.384011
20
-17.198351
30
0.0
11
40.808681
21
-6.321256
31
0.0
0
LINE
8
0
6
CONTINUOUS
10
79.418421
20
-31.836454
30
0.0
11
61.384011
21
-17.198351
31
0.0
0
LINE
8
0
6
CONTINUOUS
10
94.218867
20
-49.673036
30
0.0
11
79.418421
21
-31.836454
31
0.0
0
LINE
8
0
6
CONTINUOUS
10
105.216594
20
-70.022653
30
0.0
11
94.218867
21
-49.673036
31
0.0
0
LINE
8
0
6
CONTINUOUS
10
111.988934
20
-92.103239
30
0.0
11
105.216594
21
-70.022653
31
0.0
0
LINE
8
0
6
CONTINUOUS
10
114.275657
20
-115.066303
30
0.0
11
111.988934
21
-92.103239
31
0.0
0
LINE
8
0
6
CONTINUOUS
10
114.275657
20
-117.295461
30
0.0
11
114.275667
21
-117.122204
31
0.0
0
LINE
8
0
6
CONTINUOUS
10
111.988874
20
-140.258524
30
0.0
11
114.275657
21
-117.295461
31
0.0
0
LINE
8
0
6
CONTINUOUS
10
111.988874
20
-138.029367
30
0.0
11
114.275657
21
-115.066303
31
0.0
0
LINE
8
0
6
CONTINUOUS
10
105.216474
20
-162.339091
30
0.0
11
111.988874
21
-140.258524
31
0.0
0
LINE
8
0
6
CONTINUOUS
10
105.216474
20
-160.109933
30
0.0
11
111.988874
21
-138.029367
31
0.0
0
LINE
8
0
6
CONTINUOUS
10
94.218707
20
-182.688698
30
0.0
11
105.216474
21
-162.339091
31
0.0
0
LINE
8
0
6
CONTINUOUS
10
94.218717
20
-180.459530
30
0.0
11
105.216474
21
-160.109933
31
0.0
0
LINE
8
0
6
CONTINUOUS
10
79.418231
20
-200.525250
30
0.0
11
94.218707
21
-182.688698
31
0.0
0
LINE
8
0
6
CONTINUOUS
10
79.418231
20
-198.296092
30
0.0
11
94.218717
21
-180.459530
31
0.0
0
LINE
8
0
6
CONTINUOUS
10
61.383792
20
-215.163323
30
0.0
11
79.418231
21
-200.525250
31
0.0
0
LINE
8
0
6
CONTINUOUS
10
61.383792
20
-212.934165
30
0.0
11
79.418231
21
-198.296092
31
0.0
0
LINE
8
0
6
CONTINUOUS
10
40.808462
20
-226.040378
30
0.0
11
61.383792
21
-215.163323
31
0.0
0
LINE
8
0
6
CONTINUOUS
10
40.808452
20
-223.811220
30
0.0
11
61.383792
21
-212.934165
31
0.0
0
LINE
8
0
6
CONTINUOUS
10
18.482911
20
-232.738411
30
0.0
11
40.808462
21
-226.040378
31
0.0
0
LINE
8
0
6
CONTINUOUS
10
18.482911
20
-230.509243
30
0.0
11
40.808452
21
-223.811220
31
0.0
0
LINE
8
0
6
CONTINUOUS
10
-4.734671
20
-235.000000
30
0.0
11
18.482911
21
-232.738411
31
0.0
0
LINE
8
0
6
CONTINUOUS
10
-4.734661
20
-232.770842
30
0.0
11
18.482911
21
-230.509243
31
0.0
0
LINE
8
0
6
CONTINUOUS
10
1.398637
20
-125.280557
30
0.0
11
-4.734651
21
-126.487144
31
0.0
0
LINE
8
0
6
CONTINUOUS
10
1.398637
20
-125.280557
30
0.0
11
1.398637
21
-125.453814
31
0.0
0
LINE
8
0
6
CONTINUOUS
10
6.598215
20
-121.844401
30
0.0
11
1.398637
21
-125.280557
31
0.0
0
LINE
8
0
6
CONTINUOUS
10
10.072456
20
-116.701905
30
0.0
11
6.598215
21
-121.844401
31
0.0
0
LINE
8
0
6
CONTINUOUS
10
11.292445
20
-110.635876
30
0.0
11
10.072456
21
-116.701905
31
0.0
0
LINE
8
0
6
CONTINUOUS
10
11.292445
20
-110.809162
30
0.0
11
11.292445
21
-110.635876
31
0.0
0
LINE
8
0
6
CONTINUOUS
10
11.292445
20
-110.635876
30
0.0
11
10.072456
21
-104.569877
31
0.0
0
LINE
8
0
6
CONTINUOUS
10
10.072456
20
-104.569877
30
0.0
11
9.108196
21
-103.142590
31
0.0
0
LINE
8
0
6
CONTINUOUS
10
-18.709588
20
-103.338090
30
0.0
11
-19.541747
21
-104.569836
31
0.0
0
LINE
8
0
6
CONTINUOUS
10
-19.541747
20
-104.569836
30
0.0
11
-20.761746
21
-110.635876
31
0.0
0
LINE
8
0
6
CONTINUOUS
10
-20.761746
20
-110.635876
30
0.0
11
-20.761746
21
-110.809162
31
0.0
0
LINE
8
0
6
CONTINUOUS
10
-19.541757
20
-116.701905
30
0.0
11
-20.761746
21
-110.635876
31
0.0
0
LINE
8
0
6
CONTINUOUS
10
-16.067516
20
-121.844401
30
0.0
11
-19.541757
21
-116.701905
31
0.0
0
LINE
8
0
6
CONTINUOUS
10
-10.867958
20
-125.280527
30
0.0
11
-16.067516
21
-121.844401
31
0.0
0
LINE
8
0
6
CONTINUOUS
10
-10.867958
20
-125.280527
30
0.0
11
-10.867958
21
-125.453814
31
0.0
0
LINE
8
0
6
CONTINUOUS
10
-4.734651
20
-126.487144
30
0.0
11
-10.867958
21
-125.280527
31
0.0
0
LINE
8
0
6
CONTINUOUS
10
-4.734651
20
-126.660431
30
0.0
11
-4.734651
21
-126.487144
31
0.0
0
LINE
8
0
6
CONTINUOUS
10
-12.769966
20
-118.583025
30
0.0
11
-13.175422
21
-117.982877
31
0.0
0
LINE
8
0
6
CONTINUOUS
10
-0.385983
20
-121.019335
30
0.0
11
-4.734651
21
-121.874856
31
0.0
0
LINE
8
0
6
CONTINUOUS
10
-9.083328
20
-121.019335
30
0.0
11
-12.769966
21
-118.583025
31
0.0
0
LINE
8
0
6
CONTINUOUS
10
3.300655
20
-118.583025
30
0.0
11
-0.385983
21
-121.019335
31
0.0
0
LINE
8
0
6
CONTINUOUS
10
4.277689
20
-117.136841
30
0.0
11
3.300655
21
-118.583025
31
0.0
0
LINE
8
0
6
CONTINUOUS
10
-4.734651
20
-121.874856
30
0.0
11
-9.083328
21
-121.019335
31
0.0
0
LINE
8
0
6
CONTINUOUS
10
-4.734651
20
-120.495484
30
0.0
11
-4.734651
21
-120.639157
31
0.0
0
LINE
8
0
6
CONTINUOUS
10
-12.769966
20
-118.583025
30
0.0
11
-9.083328
21
-121.019335
31
0.0
0
LINE
8
0
6
CONTINUOUS
10
-9.083328
20
-121.019335
30
0.0
11
-4.734651
21
-121.874856
31
0.0
0
LINE
8
0
6
CONTINUOUS
10
-4.734651
20
-121.874856
30
0.0
11
-0.385983
21
-121.019335
31
0.0
0
LINE
8
0
6
CONTINUOUS
10
-0.385983
20
-121.019335
30
0.0
11
3.300655
21
-118.583025
31
0.0
0
LINE
8
0
6
CONTINUOUS
10
-13.175422
20
-117.982877
30
0.0
11
-12.769966
21
-118.583025
31
0.0
0
LINE
8
0
6
CONTINUOUS
10
3.300655
20
-118.583025
30
0.0
11
4.277689
21
-117.136841
31
0.0
0
LINE
8
0
6
CONTINUOUS
10
9.419784
20
-100.153107
30
0.0
11
13.759005
21
-106.575978
31
0.0
0
LINE
8
0
6
CONTINUOUS
10
-24.752039
20
-114.152257
30
0.0
11
-23.228306
21
-106.575978
31
0.0
0
LINE
8
0
6
CONTINUOUS
10
2.925656
20
-132.443044
30
0.0
11
-4.734651
21
-133.950035
31
0.0
0
LINE
8
0
6
CONTINUOUS
10
-18.889085
20
-128.151396
30
0.0
11
-23.228306
21
-121.728526
31
0.0
0
LINE
8
0
6
CONTINUOUS
10
-4.734651
20
-133.950035
30
0.0
11
-12.394977
21
-132.443044
31
0.0
0
LINE
8
0
6
CONTINUOUS
10
15.282748
20
-114.152257
30
0.0
11
13.759005
21
-121.728526
31
0.0
0
LINE
8
0
6
CONTINUOUS
10
8.744130
20
-99.706604
30
0.0
11
9.419784
21
-100.153107
31
0.0
0
LINE
8
0
6
CONTINUOUS
10
13.759005
20
-106.575978
30
0.0
11
15.282748
21
-114.152257
31
0.0
0
LINE
8
0
6
CONTINUOUS
10
-12.394977
20
-132.443044
30
0.0
11
-18.889085
21
-128.151396
31
0.0
0
LINE
8
0
6
CONTINUOUS
10
13.759005
20
-121.728526
30
0.0
11
9.419784
21
-128.151396
31
0.0
0
LINE
8
0
6
CONTINUOUS
10
9.419784
20
-128.151396
30
0.0
11
2.925656
21
-132.443044
31
0.0
0
LINE
8
0
6
CONTINUOUS
10
-23.228306
20
-106.575978
30
0.0
11
-18.889085
21
-100.153107
31
0.0
0
LINE
8
0
6
CONTINUOUS
10
-23.228306
20
-121.728526
30
0.0
11
-24.752039
21
-114.152257
31
0.0
0
LINE
8
0
6
CONTINUOUS
10
77.116364
20
104.778853
30
0.0
11
77.118272
21
109.193236
31
0.0
0
LINE
8
0
6
CONTINUOUS
10
-22.735145
20
109.245452
30
0.0
11
-22.737042
21
104.831070
31
0.0
0
LINE
8
0
6
CONTINUOUS
10
-22.705475
20
109.606045
30
0.0
11
-22.735065
21
109.417445
31
0.0
0
LINE
8
0
6
CONTINUOUS
10
77.118352
20
109.365228
30
0.0
11
77.088922
21
109.554408
31
0.0
0
LINE
8
0
6
CONTINUOUS
10
-22.737112
20
104.659067
30
0.0
11
-21.781784
21
98.518027
31
0.0
0
LINE
8
0
6
CONTINUOUS
10
-22.737042
20
104.831070
30
0.0
11
-22.737112
21
104.659067
31
0.0
0
LINE
8
0
6
CONTINUOUS
10
-21.781784
20
98.518027
30
0.0
11
-18.944508
21
92.611987
31
0.0
0
LINE
8
0
6
CONTINUOUS
10
-18.944508
20
92.611987
30
0.0
11
-15.567612
21
88.624271
31
0.0
0
LINE
8
0
6
CONTINUOUS
10
17.429312
20
73.767536
30
0.0
11
27.169067
21
73.157674
31
0.0
0
LINE
8
0
6
CONTINUOUS
10
62.478540
20
82.358082
30
0.0
11
68.690692
21
87.124503
31
0.0
0
LINE
8
0
6
CONTINUOUS
10
36.909600
20
73.757357
30
0.0
11
46.276681
21
75.543562
31
0.0
0
LINE
8
0
6
CONTINUOUS
10
27.169067
20
73.157674
30
0.0
11
36.909600
21
73.757357
31
0.0
0
LINE
8
0
6
CONTINUOUS
10
76.155006
20
103.225202
30
0.0
11
73.310021
21
97.322140
31
0.0
0
LINE
8
0
6
CONTINUOUS
10
77.118352
20
109.365228
30
0.0
11
76.155006
21
103.225202
31
0.0
0
LINE
8
0
6
CONTINUOUS
10
77.118272
20
109.193236
30
0.0
11
77.118352
21
109.365228
31
0.0
0
LINE
8
0
6
CONTINUOUS
10
36.911656
20
78.515735
30
0.0
11
27.171114
21
77.916052
31
0.0
0
LINE
8
0
6
CONTINUOUS
10
17.431369
20
78.525924
30
0.0
11
8.066625
21
80.321936
31
0.0
0
LINE
8
0
6
CONTINUOUS
10
27.171114
20
77.916052
30
0.0
11
17.431369
21
78.525924
31
0.0
0
LINE
8
0
6
CONTINUOUS
10
77.116295
20
104.606850
30
0.0
11
77.116364
21
104.778853
31
0.0
0
LINE
8
0
6
CONTINUOUS
10
76.152949
20
98.466814
30
0.0
11
77.116295
21
104.606850
31
0.0
0
LINE
8
0
6
CONTINUOUS
10
73.307974
20
92.563742
30
0.0
11
76.152949
21
98.466814
31
0.0
0
LINE
8
0
6
CONTINUOUS
10
68.690692
20
87.124503
30
0.0
11
73.307974
21
92.563742
31
0.0
0
LINE
8
0
6
CONTINUOUS
10
54.910258
20
78.447684
30
0.0
11
62.478540
21
82.358082
31
0.0
0
LINE
8
0
6
CONTINUOUS
10
46.276681
20
75.543562
30
0.0
11
54.910258
21
78.447684
31
0.0
0
LINE
8
0
6
CONTINUOUS
10
46.278738
20
80.301960
30
0.0
11
36.911656
21
78.515735
31
0.0
0
LINE
8
0
6
CONTINUOUS
10
54.912315
20
83.206062
30
0.0
11
46.278738
21
80.301960
31
0.0
0
LINE
8
0
6
CONTINUOUS
10
62.480597
20
87.116470
30
0.0
11
54.912315
21
83.206062
31
0.0
0
LINE
8
0
6
CONTINUOUS
10
68.692739
20
91.882881
30
0.0
11
62.480597
21
87.116470
31
0.0
0
LINE
8
0
6
CONTINUOUS
10
73.310021
20
97.322140
30
0.0
11
68.692739
21
91.882881
31
0.0
0
LINE
8
0
6
CONTINUOUS
10
6.099372
20
76.226937
30
0.0
11
8.064568
21
75.563548
31
0.0
0
LINE
8
0
6
CONTINUOUS
10
8.064568
20
75.563548
30
0.0
11
17.429312
21
73.767536
31
0.0
0
LINE
8
0
6
CONTINUOUS
10
8.066625
20
80.321936
30
0.0
11
6.099373
21
80.986019
31
0.0
0
LINE
8
0
6
CONTINUOUS
10
-15.567612
20
93.385095
30
0.0
11
-18.942451
21
97.370376
31
0.0
0
LINE
8
0
6
CONTINUOUS
10
-18.942451
20
97.370376
30
0.0
11
-21.779727
21
103.276415
31
0.0
0
LINE
8
0
6
CONTINUOUS
10
-22.735065
20
109.417445
30
0.0
11
-22.735145
21
109.245452
31
0.0
0
LINE
8
0
6
CONTINUOUS
10
-21.779727
20
103.276415
30
0.0
11
-22.735065
21
109.417445
31
0.0
0
LINE
8
0
6
CONTINUOUS
10
14.746321
20
167.556638
30
0.0
11
14.716934
21
167.382098
31
0.0
0
LINE
8
0
6
CONTINUOUS
10
15.394729
20
171.296938
30
0.0
11
14.746321
21
167.556638
31
0.0
0
LINE
8
0
6
CONTINUOUS
10
21.020142
20
178.165791
30
0.0
11
17.305265
21
174.908657
31
0.0
0
LINE
8
0
6
CONTINUOUS
10
39.758019
20
167.369001
30
0.0
11
39.728961
21
167.543571
31
0.0
0
LINE
8
0
6
CONTINUOUS
10
39.728961
20
167.543571
30
0.0
11
39.084228
21
171.284543
31
0.0
0
LINE
8
0
6
CONTINUOUS
10
37.177237
20
174.898268
30
0.0
11
33.465565
21
178.159282
31
0.0
0
LINE
8
0
6
CONTINUOUS
10
39.084228
20
171.284543
30
0.0
11
37.177237
21
174.898268
31
0.0
0
LINE
8
0
6
CONTINUOUS
10
21.020142
20
178.165791
30
0.0
11
21.011594
21
177.996806
31
0.0
0
LINE
8
0
6
CONTINUOUS
10
27.243627
20
179.726332
30
0.0
11
21.020142
21
178.165791
31
0.0
0
LINE
8
0
6
CONTINUOUS
10
17.305265
20
174.908657
30
0.0
11
15.394729
21
171.296938
31
0.0
0
LINE
8
0
6
CONTINUOUS
10
27.243627
20
179.726332
30
0.0
11
27.243457
21
179.555692
31
0.0
0
LINE
8
0
6
CONTINUOUS
10
33.465565
20
178.159282
30
0.0
11
27.243627
21
179.726332
31
0.0
0
LINE
8
0
6
CONTINUOUS
10
33.473783
20
177.990288
30
0.0
11
33.465565
21
178.159282
31
0.0
0
LINE
8
0
6
CONTINUOUS
10
40.601610
20
162.300462
30
0.0
11
39.758019
21
167.369001
31
0.0
0
LINE
8
0
6
CONTINUOUS
10
33.712742
20
173.079793
30
0.0
11
33.473783
21
177.990288
31
0.0
0
LINE
8
0
6
CONTINUOUS
10
-22.734905
20
109.795226
30
0.0
11
-21.779567
21
103.654186
31
0.0
0
LINE
8
0
6
CONTINUOUS
10
-22.734755
20
110.123266
30
0.0
11
-22.734905
21
109.795226
31
0.0
0
LINE
8
0
6
CONTINUOUS
10
-22.734326
20
111.132289
30
0.0
11
-22.734755
21
110.123266
31
0.0
0
LINE
8
0
6
CONTINUOUS
10
-22.729703
20
121.855753
30
0.0
11
-22.732009
21
116.494021
31
0.0
0
LINE
8
0
6
CONTINUOUS
10
-22.732009
20
116.494021
30
0.0
11
-22.734326
21
111.132289
31
0.0
0
LINE
8
0
6
CONTINUOUS
10
-22.729433
20
122.485260
30
0.0
11
-22.729703
21
121.855753
31
0.0
0
LINE
8
0
6
CONTINUOUS
10
27.171283
20
78.293822
30
0.0
11
36.911816
21
78.893506
31
0.0
0
LINE
8
0
6
CONTINUOUS
10
73.310181
20
97.699901
30
0.0
11
76.155165
21
103.602972
31
0.0
0
LINE
8
0
6
CONTINUOUS
10
-21.779567
20
103.654186
30
0.0
11
-18.942292
21
97.748146
31
0.0
0
LINE
8
0
6
CONTINUOUS
10
-18.942292
20
97.748146
30
0.0
11
-15.567612
21
93.763047
31
0.0
0
LINE
8
0
6
CONTINUOUS
10
6.099373
20
81.363844
30
0.0
11
8.066785
21
80.699706
31
0.0
0
LINE
8
0
6
CONTINUOUS
10
17.477182
20
153.334813
30
0.0
11
8.110101
21
151.548589
31
0.0
0
LINE
8
0
6
CONTINUOUS
10
-18.921153
20
134.528368
30
0.0
11
-21.766117
21
128.625297
31
0.0
0
LINE
8
0
6
CONTINUOUS
10
27.217805
20
153.934517
30
0.0
11
17.477182
21
153.334813
31
0.0
0
LINE
8
0
6
CONTINUOUS
10
-21.774105
20
116.344220
30
0.0
11
-18.936830
21
110.438191
31
0.0
0
LINE
8
0
6
CONTINUOUS
10
-22.729433
20
122.485260
30
0.0
11
-21.774105
21
116.344220
31
0.0
0
LINE
8
0
6
CONTINUOUS
10
8.072257
20
93.389751
30
0.0
11
17.437001
21
91.593739
31
0.0
0
LINE
8
0
6
CONTINUOUS
10
8.110101
20
151.548589
30
0.0
11
6.099377
21
150.872230
31
0.0
0
LINE
8
0
6
CONTINUOUS
10
-15.567600
20
138.478935
30
0.0
11
-18.921153
21
134.528368
31
0.0
0
LINE
8
0
6
CONTINUOUS
10
-18.936830
20
110.438191
30
0.0
11
-15.567611
21
106.459549
31
0.0
0
LINE
8
0
6
CONTINUOUS
10
6.099374
20
94.055735
30
0.0
11
8.072257
21
93.389751
31
0.0
0
LINE
8
0
6
CONTINUOUS
10
17.437001
20
91.593739
30
0.0
11
27.176755
21
90.983867
31
0.0
0
LINE
8
0
6
CONTINUOUS
10
8.066785
20
80.699706
30
0.0
11
17.431529
21
78.903694
31
0.0
0
LINE
8
0
6
CONTINUOUS
10
12.982180
20
157.271284
30
0.0
11
12.115495
21
152.312384
31
0.0
0
LINE
8
0
6
CONTINUOUS
10
20.509162
20
168.198349
30
0.0
11
20.266119
21
163.297712
31
0.0
0
LINE
8
0
6
CONTINUOUS
10
20.763049
20
173.086572
30
0.0
11
20.509162
21
168.198349
31
0.0
0
LINE
8
0
6
CONTINUOUS
10
13.863596
20
162.314442
30
0.0
11
12.982180
21
157.271284
31
0.0
0
LINE
8
0
6
CONTINUOUS
10
77.118511
20
109.742999
30
0.0
11
77.118651
21
110.071040
31
0.0
0
LINE
8
0
6
CONTINUOUS
10
76.155165
20
103.602972
30
0.0
11
77.118511
21
109.742999
31
0.0
0
LINE
8
0
6
CONTINUOUS
10
62.480756
20
87.494241
30
0.0
11
68.692908
21
92.260651
31
0.0
0
LINE
8
0
6
CONTINUOUS
10
54.912475
20
83.583843
30
0.0
11
62.480756
21
87.494241
31
0.0
0
LINE
8
0
6
CONTINUOUS
10
17.431529
20
78.903694
30
0.0
11
27.171283
21
78.293822
31
0.0
0
LINE
8
0
6
CONTINUOUS
10
77.118651
20
110.071040
30
0.0
11
77.119090
21
111.080072
31
0.0
0
LINE
8
0
6
CONTINUOUS
10
46.278897
20
80.679720
30
0.0
11
54.912475
21
83.583843
31
0.0
0
LINE
8
0
6
CONTINUOUS
10
77.121397
20
116.441804
30
0.0
11
77.123714
21
121.803536
31
0.0
0
LINE
8
0
6
CONTINUOUS
10
77.119090
20
111.080072
30
0.0
11
77.121397
21
116.441804
31
0.0
0
LINE
8
0
6
CONTINUOUS
10
77.123714
20
121.803536
30
0.0
11
77.123983
21
122.433043
31
0.0
0
LINE
8
0
6
CONTINUOUS
10
46.322394
20
151.528613
30
0.0
11
36.957649
21
153.324635
31
0.0
0
LINE
8
0
6
CONTINUOUS
10
76.168675
20
128.574083
30
0.0
11
73.331410
21
134.480123
31
0.0
0
LINE
8
0
6
CONTINUOUS
10
36.957649
20
153.324635
30
0.0
11
27.217805
21
153.934517
31
0.0
0
LINE
8
0
6
CONTINUOUS
10
73.315663
20
110.389945
30
0.0
11
76.160647
21
116.293007
31
0.0
0
LINE
8
0
6
CONTINUOUS
10
62.515336
20
144.697135
30
0.0
11
54.952167
21
148.615455
31
0.0
0
LINE
8
0
6
CONTINUOUS
10
76.160647
20
116.293007
30
0.0
11
77.123983
21
122.433043
31
0.0
0
LINE
8
0
6
CONTINUOUS
10
62.486228
20
100.184285
30
0.0
11
68.698380
21
104.950696
31
0.0
0
LINE
8
0
6
CONTINUOUS
10
36.917288
20
91.583550
30
0.0
11
46.284369
21
93.369765
31
0.0
0
LINE
8
0
6
CONTINUOUS
10
54.952167
20
148.615455
30
0.0
11
46.322394
21
151.528613
31
0.0
0
LINE
8
0
6
CONTINUOUS
10
73.331410
20
134.480123
30
0.0
11
68.721247
21
139.924216
31
0.0
0
LINE
8
0
6
CONTINUOUS
10
68.698380
20
104.950696
30
0.0
11
73.315663
21
110.389945
31
0.0
0
LINE
8
0
6
CONTINUOUS
10
68.721247
20
139.924216
30
0.0
11
62.515336
21
144.697135
31
0.0
0
LINE
8
0
6
CONTINUOUS
10
77.123983
20
122.433043
30
0.0
11
76.168675
21
128.574083
31
0.0
0
LINE
8
0
6
CONTINUOUS
10
46.284369
20
93.369765
30
0.0
11
54.917947
21
96.273877
31
0.0
0
LINE
8
0
6
CONTINUOUS
10
54.917947
20
96.273877
30
0.0
11
62.486228
21
100.184285
31
0.0
0
LINE
8
0
6
CONTINUOUS
10
27.176755
20
90.983867
30
0.0
11
36.917288
21
91.583550
31
0.0
0
LINE
8
0
6
CONTINUOUS
10
68.692908
20
92.260651
30
0.0
11
73.310181
21
97.699901
31
0.0
0
LINE
8
0
6
CONTINUOUS
10
36.911816
20
78.893506
30
0.0
11
46.278897
21
80.679720
31
0.0
0
LINE
8
0
6
CONTINUOUS
10
42.330908
20
152.294122
30
0.0
11
41.473331
21
157.256382
31
0.0
0
LINE
8
0
6
CONTINUOUS
10
34.190560
20
163.290431
30
0.0
11
33.957073
21
168.191320
31
0.0
0
LINE
8
0
6
CONTINUOUS
10
27.233841
20
169.659150
30
0.0
11
27.229039
21
164.721469
31
0.0
0
LINE
8
0
6
CONTINUOUS
10
33.957073
20
168.191320
30
0.0
11
33.712742
21
173.079793
31
0.0
0
LINE
8
0
6
CONTINUOUS
10
27.238644
20
174.596832
30
0.0
11
27.233841
21
169.659150
31
0.0
0
LINE
8
0
6
CONTINUOUS
10
41.473331
20
157.256382
30
0.0
11
40.601610
21
162.300462
31
0.0
0
LINE
8
0
6
CONTINUOUS
10
-21.766117
20
128.625297
30
0.0
11
-22.729433
21
122.485260
31
0.0
0
LINE
8
0
6
CONTINUOUS
10
14.716934
20
167.382098
30
0.0
11
13.863596
21
162.314442
31
0.0
0
LINE
8
0
6
CONTINUOUS
10
27.238644
20
174.596832
30
0.0
11
27.243457
21
179.555692
31
0.0
0
LINE
8
0
6
CONTINUOUS
10
21.011594
20
177.996806
30
0.0
11
20.763049
21
173.086572
31
0.0
0
LINE
8
0
6
CONTINUOUS
10
27.063646
20
193.977278
30
0.0
11
27.188044
21
192.139388
31
0.0
0
LINE
8
0
6
CONTINUOUS
10
22.624542
20
195.048916
30
0.0
11
21.490914
21
191.890777
31
0.0
0
LINE
8
0
6
CONTINUOUS
10
24.813309
20
199.787990
30
0.0
11
22.624542
21
195.048916
31
0.0
0
LINE
8
0
6
CONTINUOUS
10
24.813309
20
199.787990
30
0.0
11
22.076137
21
192.161821
31
0.0
0
LINE
8
0
6
CONTINUOUS
10
29.748695
20
201.492676
30
0.0
11
27.063646
21
193.977278
31
0.0
0
LINE
8
0
6
CONTINUOUS
10
34.539623
20
199.164400
30
0.0
11
31.958222
21
191.890800
31
0.0
0
LINE
8
0
6
CONTINUOUS
10
34.825911
20
189.767935
30
0.0
11
36.379632
21
194.167031
31
0.0
0
LINE
8
0
6
CONTINUOUS
10
33.631935
20
204.530343
30
0.0
11
24.813309
21
199.787990
31
0.0
0
LINE
8
0
6
CONTINUOUS
10
38.424251
20
206.152307
30
0.0
11
33.631935
21
204.530343
31
0.0
0
LINE
8
0
6
CONTINUOUS
10
38.424251
20
206.152307
30
0.0
11
29.748695
21
201.492676
31
0.0
0
LINE
8
0
6
CONTINUOUS
10
43.011328
20
203.706160
30
0.0
11
34.539623
21
199.164400
31
0.0
0
LINE
8
0
6
CONTINUOUS
10
44.706131
20
198.624825
30
0.0
11
36.379632
21
194.167031
31
0.0
0
LINE
8
0
6
CONTINUOUS
10
35.503163
20
190.130513
30
0.0
11
42.515846
21
193.884878
31
0.0
0
LINE
8
0
6
CONTINUOUS
10
51.583317
20
208.418990
30
0.0
11
38.424251
21
206.152307
31
0.0
0
LINE
8
0
6
CONTINUOUS
10
55.948110
20
205.930835
30
0.0
11
43.011328
21
203.706160
31
0.0
0
LINE
8
0
6
CONTINUOUS
10
57.476966
20
200.818142
30
0.0
11
44.706131
21
198.624825
31
0.0
0
LINE
8
0
6
CONTINUOUS
10
55.274309
20
196.075859
30
0.0
11
42.515846
21
193.884878
31
0.0
0
LINE
8
0
6
CONTINUOUS
10
40.320079
20
192.709335
30
0.0
11
50.630435
21
194.481945
31
0.0
0
LINE
8
0
6
CONTINUOUS
10
67.733791
20
208.793662
30
0.0
11
51.583317
21
208.418990
31
0.0
0
LINE
8
0
6
CONTINUOUS
10
71.929543
20
206.300021
30
0.0
11
55.948110
21
205.930835
31
0.0
0
LINE
8
0
6
CONTINUOUS
10
73.319962
20
201.182836
30
0.0
11
57.476966
21
200.818142
31
0.0
0
LINE
8
0
6
CONTINUOUS
10
71.090564
20
196.439691
30
0.0
11
55.274309
21
196.075859
31
0.0
0
LINE
8
0
6
CONTINUOUS
10
50.630435
20
194.481945
30
0.0
11
66.547293
21
194.849045
31
0.0
0
LINE
8
0
6
CONTINUOUS
10
85.400550
20
207.772555
30
0.0
11
67.733791
21
208.793662
31
0.0
0
LINE
8
0
6
CONTINUOUS
10
89.512235
20
205.283267
30
0.0
11
71.929543
21
206.300021
31
0.0
0
LINE
8
0
6
CONTINUOUS
10
90.813435
20
200.170715
30
0.0
11
73.319962
21
201.182836
31
0.0
0
LINE
8
0
6
CONTINUOUS
10
88.541939
20
195.429745
30
0.0
11
71.090564
21
196.439691
31
0.0
0
LINE
8
0
6
CONTINUOUS
10
66.547293
20
194.849045
30
0.0
11
84.028354
21
193.837556
31
0.0
0
LINE
8
0
6
CONTINUOUS
10
103.118015
20
205.847250
30
0.0
11
85.400550
21
207.772555
31
0.0
0
LINE
8
0
6
CONTINUOUS
10
107.240214
20
203.356869
30
0.0
11
89.512235
21
205.283267
31
0.0
0
LINE
8
0
6
CONTINUOUS
10
108.508403
20
198.247756
30
0.0
11
90.813435
21
200.170715
31
0.0
0
LINE
8
0
6
CONTINUOUS
10
106.179681
20
193.512744
30
0.0
11
88.541939
21
195.429745
31
0.0
0
LINE
8
0
6
CONTINUOUS
10
84.028354
20
193.837556
30
0.0
11
101.618196
21
191.925548
31
0.0
0
LINE
8
0
6
CONTINUOUS
10
119.424979
20
203.506288
30
0.0
11
103.118015
21
205.847250
31
0.0
0
LINE
8
0
6
CONTINUOUS
10
123.649089
20
201.001677
30
0.0
11
107.240214
21
203.356869
31
0.0
0
LINE
8
0
6
CONTINUOUS
10
124.939565
20
195.889456
30
0.0
11
108.508403
21
198.247756
31
0.0
0
LINE
8
0
6
CONTINUOUS
10
122.540427
20
191.164271
30
0.0
11
106.179681
21
193.512744
31
0.0
0
LINE
8
0
6
CONTINUOUS
10
101.618196
20
191.925548
30
0.0
11
117.857061
21
189.594083
31
0.0
0
LINE
8
0
6
CONTINUOUS
10
132.863464
20
201.236206
30
0.0
11
119.424979
21
203.506288
31
0.0
0
LINE
8
0
6
CONTINUOUS
10
137.260541
20
198.703115
30
0.0
11
123.649089
21
201.001677
31
0.0
0
LINE
8
0
6
CONTINUOUS
10
138.618677
20
193.579732
30
0.0
11
124.939565
21
195.889456
31
0.0
0
LINE
8
0
6
CONTINUOUS
10
136.142292
20
188.867283
30
0.0
11
122.540427
21
191.164271
31
0.0
0
LINE
8
0
6
CONTINUOUS
10
117.857061
20
189.594083
30
0.0
11
131.282016
21
187.326247
31
0.0
0
LINE
8
0
6
CONTINUOUS
10
141.981681
20
199.521462
30
0.0
11
132.863464
21
201.236206
31
0.0
0
LINE
8
0
6
CONTINUOUS
10
146.566302
20
196.954175
30
0.0
11
137.260541
21
198.703115
31
0.0
0
LINE
8
0
6
CONTINUOUS
10
148.009064
20
191.815379
30
0.0
11
138.618677
21
193.579732
31
0.0
0
LINE
8
0
6
CONTINUOUS
10
145.464798
20
187.115294
30
0.0
11
136.142292
21
188.867283
31
0.0
0
LINE
8
0
6
CONTINUOUS
10
131.282016
20
187.326247
30
0.0
11
140.423907
21
185.607181
31
0.0
0
LINE
8
0
6
CONTINUOUS
10
145.340701
20
198.843138
30
0.0
11
141.981681
21
199.521462
31
0.0
0
LINE
8
0
6
CONTINUOUS
10
150.008429
20
196.259896
30
0.0
11
146.566302
21
196.954175
31
0.0
0
LINE
8
0
6
CONTINUOUS
10
151.490823
20
191.113468
30
0.0
11
148.009064
21
191.815379
31
0.0
0
LINE
8
0
6
CONTINUOUS
10
148.919478
20
186.418599
30
0.0
11
151.490823
21
191.113468
31
0.0
0
LINE
8
0
6
CONTINUOUS
10
148.919478
20
186.418599
30
0.0
11
145.464798
21
187.115294
31
0.0
0
LINE
8
0
6
CONTINUOUS
10
143.800681
20
184.925447
30
0.0
11
148.919478
21
186.418599
31
0.0
0
LINE
8
0
6
CONTINUOUS
10
140.423907
20
185.607181
30
0.0
11
143.800681
21
184.925447
31
0.0
0
LINE
8
0
6
CONTINUOUS
10
145.339702
20
198.958612
30
0.0
11
145.339702
21
198.874345
31
0.0
0
LINE
8
0
6
CONTINUOUS
10
150.014211
20
196.374267
30
0.0
11
150.014211
21
196.290000
31
0.0
0
LINE
8
0
6
CONTINUOUS
10
151.500000
20
191.143041
30
0.0
11
151.500000
21
191.227318
31
0.0
0
LINE
8
0
6
CONTINUOUS
10
145.339702
20
199.082790
30
0.0
11
145.339702
21
198.958612
31
0.0
0
LINE
8
0
6
CONTINUOUS
10
150.014211
20
196.498456
30
0.0
11
150.014211
21
196.374267
31
0.0
0
LINE
8
0
6
CONTINUOUS
10
151.500000
20
191.227318
30
0.0
11
151.500000
21
191.351507
31
0.0
0
LINE
8
0
6
CONTINUOUS
10
145.339702
20
199.233584
30
0.0
11
145.339702
21
199.082790
31
0.0
0
LINE
8
0
6
CONTINUOUS
10
150.014211
20
196.649259
30
0.0
11
150.014211
21
196.498456
31
0.0
0
LINE
8
0
6
CONTINUOUS
10
151.500000
20
191.351507
30
0.0
11
151.500000
21
191.502320
31
0.0
0
LINE
8
0
6
CONTINUOUS
10
145.339702
20
199.397694
30
0.0
11
145.339702
21
199.233584
31
0.0
0
LINE
8
0
6
CONTINUOUS
10
150.014211
20
196.813370
30
0.0
11
150.014211
21
196.649259
31
0.0
0
LINE
8
0
6
CONTINUOUS
10
151.500000
20
191.502320
30
0.0
11
151.500000
21
191.666441
31
0.0
0
LINE
8
0
6
CONTINUOUS
10
145.339702
20
199.561805
30
0.0
11
145.339702
21
199.397694
31
0.0
0
LINE
8
0
6
CONTINUOUS
10
150.014211
20
196.977480
30
0.0
11
150.014211
21
196.813370
31
0.0
0
LINE
8
0
6
CONTINUOUS
10
151.500000
20
191.666441
30
0.0
11
151.500000
21
191.830561
31
0.0
0
LINE
8
0
6
CONTINUOUS
10
145.339702
20
199.712619
30
0.0
11
145.339702
21
199.561805
31
0.0
0
LINE
8
0
6
CONTINUOUS
10
150.014211
20
197.128284
30
0.0
11
150.014211
21
196.977480
31
0.0
0
LINE
8
0
6
CONTINUOUS
10
151.500000
20
191.830561
30
0.0
11
151.500000
21
191.981365
31
0.0
0
LINE
8
0
6
CONTINUOUS
10
145.339702
20
199.836817
30
0.0
11
145.339702
21
199.712619
31
0.0
0
LINE
8
0
6
CONTINUOUS
10
150.014211
20
197.252492
30
0.0
11
150.014211
21
197.128284
31
0.0
0
LINE
8
0
6
CONTINUOUS
10
151.500000
20
191.981365
30
0.0
11
151.500000
21
192.105563
31
0.0
0
LINE
8
0
6
CONTINUOUS
10
145.339702
20
199.921124
30
0.0
11
145.339702
21
199.836817
31
0.0
0
LINE
8
0
6
CONTINUOUS
10
150.014211
20
197.336779
30
0.0
11
150.014211
21
197.252492
31
0.0
0
LINE
8
0
6
CONTINUOUS
10
151.500000
20
192.105563
30
0.0
11
151.500000
21
192.189830
31
0.0
0
LINE
8
0
6
CONTINUOUS
10
150.009578
20
197.367204
30
0.0
11
145.337725
21
199.951910
31
0.0
0
LINE
8
0
6
CONTINUOUS
10
151.495387
20
192.220265
30
0.0
11
150.009578
21
197.367204
31
0.0
0
LINE
8
0
6
CONTINUOUS
10
145.337725
20
199.951910
30
0.0
11
143.909891
21
199.596342
31
0.0
0
LINE
8
0
6
CONTINUOUS
10
138.671919
20
184.756593
30
0.0
11
142.437781
21
185.693964
31
0.0
0
LINE
8
0
6
CONTINUOUS
10
132.990358
20
183.344148
30
0.0
11
138.671919
21
184.756593
31
0.0
0
LINE
8
0
6
CONTINUOUS
10
128.909468
20
186.075505
30
0.0
11
132.795635
21
187.041622
31
0.0
0
LINE
8
0
6
CONTINUOUS
10
125.846254
20
181.570910
30
0.0
11
132.990358
21
183.344148
31
0.0
0
LINE
8
0
6
CONTINUOUS
10
122.271631
20
184.427870
30
0.0
11
128.909468
21
186.075505
31
0.0
0
LINE
8
0
6
CONTINUOUS
10
117.659421
20
179.542826
30
0.0
11
125.846254
21
181.570910
31
0.0
0
LINE
8
0
6
CONTINUOUS
10
114.669529
20
182.544593
30
0.0
11
122.271631
21
184.427870
31
0.0
0
LINE
8
0
6
CONTINUOUS
10
119.644576
20
189.292124
30
0.0
11
113.277303
21
187.714747
31
0.0
0
LINE
8
0
6
CONTINUOUS
10
105.564793
20
189.866598
30
0.0
11
109.384639
21
190.810495
31
0.0
0
LINE
8
0
6
CONTINUOUS
10
108.810617
20
190.892910
30
0.0
11
107.616552
21
190.597861
31
0.0
0
LINE
8
0
6
CONTINUOUS
10
111.039549
20
177.907031
30
0.0
11
117.659421
21
179.542826
31
0.0
0
LINE
8
0
6
CONTINUOUS
10
106.431621
20
180.508928
30
0.0
11
114.669529
21
182.544593
31
0.0
0
LINE
8
0
6
CONTINUOUS
10
113.277303
20
187.714747
30
0.0
11
105.073974
21
185.687627
31
0.0
0
LINE
8
0
6
CONTINUOUS
10
96.627991
20
187.665629
30
0.0
11
105.564793
21
189.866598
31
0.0
0
LINE
8
0
6
CONTINUOUS
10
107.616552
20
190.597861
30
0.0
11
97.978938
21
188.224378
31
0.0
0
LINE
8
0
6
CONTINUOUS
10
97.934123
20
178.416123
30
0.0
11
106.431621
21
180.508928
31
0.0
0
LINE
8
0
6
CONTINUOUS
10
105.073974
20
185.687627
30
0.0
11
96.609418
21
183.602924
31
0.0
0
LINE
8
0
6
CONTINUOUS
10
87.939803
20
185.535810
30
0.0
11
96.627991
21
187.665629
31
0.0
0
LINE
8
0
6
CONTINUOUS
10
97.978938
20
188.224378
30
0.0
11
88.698599
21
185.949492
31
0.0
0
LINE
8
0
6
CONTINUOUS
10
96.304436
20
178.016609
30
0.0
11
97.934123
21
178.416123
31
0.0
0
LINE
8
0
6
CONTINUOUS
10
96.609418
20
183.602924
30
0.0
11
88.318008
21
181.570298
31
0.0
0
LINE
8
0
6
CONTINUOUS
10
86.308047
20
185.138551
30
0.0
11
87.939803
21
185.535810
31
0.0
0
LINE
8
0
6
CONTINUOUS
10
88.698599
20
185.949492
30
0.0
11
86.295066
21
185.364380
31
0.0
0
LINE
8
0
6
CONTINUOUS
10
88.318008
20
181.570298
30
0.0
11
86.517273
21
181.131878
31
0.0
0
LINE
8
0
6
CONTINUOUS
10
36.265470
20
180.009015
30
0.0
11
35.503200
21
181.072752
31
0.0
0
LINE
8
0
6
CONTINUOUS
10
37.190053
20
177.466538
30
0.0
11
37.164111
21
177.588340
31
0.0
0
LINE
8
0
6
CONTINUOUS
10
37.164111
20
177.588340
30
0.0
11
36.265470
21
180.009015
31
0.0
0
LINE
8
0
6
CONTINUOUS
10
37.934543
20
173.972918
30
0.0
11
37.190053
21
177.466538
31
0.0
0
LINE
8
0
6
CONTINUOUS
10
-130.317412
20
139.700257
30
0.0
11
-130.308644
21
140.077346
31
0.0
0
LINE
8
0
6
CONTINUOUS
10
-130.540065
20
144.286502
30
0.0
11
-150.628849
21
144.283905
31
0.0
0
LINE
8
0
6
CONTINUOUS
10
-130.546326
20
142.803228
30
0.0
11
-150.635119
21
142.801233
31
0.0
0
LINE
8
0
6
CONTINUOUS
10
-150.637266
20
141.226021
30
0.0
11
-130.548482
21
141.226863
31
0.0
0
LINE
8
0
6
CONTINUOUS
10
-130.545956
20
140.120708
30
0.0
11
-150.634760
21
140.120407
31
0.0
0
LINE
8
0
6
CONTINUOUS
10
-150.628240
20
139.699405
30
0.0
11
-130.539446
21
139.700277
31
0.0
0
LINE
8
0
6
CONTINUOUS
10
-151.499990
20
139.699575
30
0.0
11
-150.628240
21
139.699405
31
0.0
0
LINE
8
0
6
CONTINUOUS
10
-151.499990
20
140.120296
30
0.0
11
-151.499990
21
139.699575
31
0.0
0
LINE
8
0
6
CONTINUOUS
10
-151.499990
20
140.120296
30
0.0
11
-150.634760
21
140.120407
31
0.0
0
LINE
8
0
6
CONTINUOUS
10
-151.499990
20
141.226181
30
0.0
11
-151.499990
21
140.120296
31
0.0
0
LINE
8
0
6
CONTINUOUS
10
-151.499990
20
144.284928
30
0.0
11
-151.499990
21
142.801965
31
0.0
0
LINE
8
0
6
CONTINUOUS
10
-151.499990
20
144.284928
30
0.0
11
-150.628849
21
144.283905
31
0.0
0
LINE
8
0
6
CONTINUOUS
10
-151.499990
20
145.358893
30
0.0
11
-151.499990
21
144.284928
31
0.0
0
LINE
8
0
6
CONTINUOUS
10
-151.499990
20
141.226181
30
0.0
11
-150.637266
21
141.226021
31
0.0
0
LINE
8
0
6
CONTINUOUS
10
-151.499990
20
142.801965
30
0.0
11
-151.499990
21
141.226181
31
0.0
0
LINE
8
0
6
CONTINUOUS
10
-150.635119
20
142.801233
30
0.0
11
-151.499950
21
142.801965
31
0.0
0
LINE
8
0
6
CONTINUOUS
10
-130.317412
20
139.700257
30
0.0
11
-130.323912
21
140.120968
31
0.0
0
LINE
8
0
6
CONTINUOUS
10
-130.539446
20
139.700277
30
0.0
11
-130.317412
21
139.700257
31
0.0
0
LINE
8
0
6
CONTINUOUS
10
-130.323912
20
140.120968
30
0.0
11
-130.326428
21
141.226863
31
0.0
0
LINE
8
0
6
CONTINUOUS
10
-130.545956
20
140.120708
30
0.0
11
-130.323912
21
140.120968
31
0.0
0
LINE
8
0
6
CONTINUOUS
10
-130.324291
20
142.802636
30
0.0
11
-130.318021
21
144.285620
31
0.0
0
LINE
8
0
6
CONTINUOUS
10
-130.318021
20
144.285620
30
0.0
11
-130.309333
21
145.359575
31
0.0
0
LINE
8
0
6
CONTINUOUS
10
-130.540065
20
144.286502
30
0.0
11
-130.318021
21
144.285620
31
0.0
0
LINE
8
0
6
CONTINUOUS
10
-130.324291
20
142.802636
30
0.0
11
-130.546326
21
142.803228
31
0.0
0
LINE
8
0
6
CONTINUOUS
10
-130.326428
20
141.226863
30
0.0
11
-130.324291
21
142.802636
31
0.0
0
LINE
8
0
6
CONTINUOUS
10
-130.548482
20
141.226863
30
0.0
11
-130.326428
21
141.226863
31
0.0
0
LINE
8
0
6
CONTINUOUS
10
-130.273346
20
148.942814
30
0.0
11
-130.309333
21
145.359575
31
0.0
0
LINE
8
0
6
CONTINUOUS
10
-150.583016
20
135.869042
30
0.0
11
-96.544573
21
135.284010
31
0.0
0
LINE
8
0
6
CONTINUOUS
10
-96.540409
20
178.085265
30
0.0
11
-150.582896
21
177.683376
31
0.0
0
LINE
8
0
6
CONTINUOUS
10
-96.544573
20
135.284010
30
0.0
11
-96.287161
21
135.282094
31
0.0
0
LINE
8
0
6
CONTINUOUS
10
-96.287111
20
135.939209
30
0.0
11
-96.287161
21
135.282094
31
0.0
0
LINE
8
0
6
CONTINUOUS
10
-96.287161
20
135.282094
30
0.0
11
-96.029689
21
136.462067
31
0.0
0
LINE
8
0
6
CONTINUOUS
10
-96.287021
20
138.086507
30
0.0
11
-96.287111
21
135.939209
31
0.0
0
LINE
8
0
6
CONTINUOUS
10
-96.286781
20
141.522513
30
0.0
11
-96.287021
21
138.086507
31
0.0
0
LINE
8
0
6
CONTINUOUS
10
-96.292213
20
145.974511
30
0.0
11
-96.286781
21
141.522513
31
0.0
0
LINE
8
0
6
CONTINUOUS
10
-96.287131
20
151.171149
30
0.0
11
-96.292213
21
145.974511
31
0.0
0
LINE
8
0
6
CONTINUOUS
10
-96.285373
20
156.772925
30
0.0
11
-96.287131
21
151.171149
31
0.0
0
LINE
8
0
6
CONTINUOUS
10
-96.284654
20
162.339743
30
0.0
11
-96.285373
21
156.772925
31
0.0
0
LINE
8
0
6
CONTINUOUS
10
-96.284075
20
167.515121
30
0.0
11
-96.284654
21
162.339743
31
0.0
0
LINE
8
0
6
CONTINUOUS
10
-96.284015
20
171.929935
30
0.0
11
-96.284075
21
167.515121
31
0.0
0
LINE
8
0
6
CONTINUOUS
10
-96.284015
20
175.262581
30
0.0
11
-96.284015
21
171.929935
31
0.0
0
LINE
8
0
6
CONTINUOUS
10
-96.284025
20
177.341948
30
0.0
11
-96.284015
21
175.262581
31
0.0
0
LINE
8
0
6
CONTINUOUS
10
-96.284045
20
178.086638
30
0.0
11
-96.540409
21
178.085265
31
0.0
0
LINE
8
0
6
CONTINUOUS
10
-96.284045
20
178.086638
30
0.0
11
-96.284025
21
177.341948
31
0.0
0
LINE
8
0
6
CONTINUOUS
10
-96.027702
20
176.919622
30
0.0
11
-96.284045
21
178.086638
31
0.0
0
LINE
8
0
6
CONTINUOUS
10
-96.027702
20
176.215796
30
0.0
11
-96.027702
21
176.919622
31
0.0
0
LINE
8
0
6
CONTINUOUS
10
-151.499950
20
177.676006
30
0.0
11
-151.499960
21
176.955393
31
0.0
0
LINE
8
0
6
CONTINUOUS
10
-150.582896
20
177.683376
30
0.0
11
-151.499950
21
177.676006
31
0.0
0
LINE
8
0
6
CONTINUOUS
10
-151.499950
20
174.887337
30
0.0
11
-151.499960
21
171.611200
31
0.0
0
LINE
8
0
6
CONTINUOUS
10
-151.499950
20
167.282919
30
0.0
11
-151.499950
21
162.219986
31
0.0
0
LINE
8
0
6
CONTINUOUS
10
-151.499950
20
162.219986
30
0.0
11
-151.499950
21
156.780386
31
0.0
0
LINE
8
0
6
CONTINUOUS
10
-151.499950
20
156.780386
30
0.0
11
-151.499950
21
151.270117
31
0.0
0
LINE
8
0
6
CONTINUOUS
10
-151.499960
20
138.608543
30
0.0
11
-151.499950
21
136.543606
31
0.0
0
LINE
8
0
6
CONTINUOUS
10
-151.499960
20
135.879762
30
0.0
11
-150.583016
21
135.869042
31
0.0
0
LINE
8
0
6
CONTINUOUS
10
-151.499960
20
135.879762
30
0.0
11
-151.499950
21
136.543606
31
0.0
0
LINE
8
0
6
CONTINUOUS
10
-151.499950
20
167.282919
30
0.0
11
-151.499960
21
171.611200
31
0.0
0
LINE
8
0
6
CONTINUOUS
10
-151.499950
20
174.887337
30
0.0
11
-151.499960
21
176.955393
31
0.0
0
LINE
8
0
6
CONTINUOUS
10
-130.308644
20
140.077346
30
0.0
11
-130.271579
21
143.765139
31
0.0
0
LINE
8
0
6
CONTINUOUS
10
-151.499950
20
149.015678
30
0.0
11
-151.499990
21
145.358893
31
0.0
0
LINE
8
0
6
CONTINUOUS
10
-150.583425
20
149.014756
30
0.0
11
-151.499950
21
149.015678
31
0.0
0
LINE
8
0
6
CONTINUOUS
10
-151.499950
20
151.270117
30
0.0
11
-151.499950
21
149.015678
31
0.0
0
LINE
8
0
6
CONTINUOUS
10
-151.499950
20
149.015678
30
0.0
11
-150.583425
21
149.014756
31
0.0
0
LINE
8
0
6
CONTINUOUS
10
-61.575969
20
188.294274
30
0.0
11
-64.579052
21
189.826937
31
0.0
0
LINE
8
0
6
CONTINUOUS
10
-84.408746
20
135.541372
30
0.0
11
-79.891796
21
135.501590
31
0.0
0
LINE
8
0
6
CONTINUOUS
10
-62.375626
20
189.107517
30
0.0
11
-64.133905
21
189.826556
31
0.0
0
LINE
8
0
6
CONTINUOUS
10
-61.575969
20
188.294274
30
0.0
11
-62.375626
21
189.107517
31
0.0
0
LINE
8
0
6
CONTINUOUS
10
-72.872199
20
135.474735
30
0.0
11
-26.014866
21
135.293316
31
0.0
0
LINE
8
0
6
CONTINUOUS
10
-47.149700
20
186.127492
30
0.0
11
-55.401892
21
186.102882
31
0.0
0
LINE
8
0
6
CONTINUOUS
10
-96.002768
20
178.635539
30
0.0
11
-96.025295
21
178.171888
31
0.0
0
LINE
8
0
6
CONTINUOUS
10
-92.964548
20
135.614417
30
0.0
11
-88.925716
21
135.581154
31
0.0
0
LINE
8
0
6
CONTINUOUS
10
-95.842643
20
178.885501
30
0.0
11
-95.653790
21
177.721463
31
0.0
0
LINE
8
0
6
CONTINUOUS
10
-79.891796
20
135.501590
30
0.0
11
-72.872199
21
135.474735
31
0.0
0
LINE
8
0
6
CONTINUOUS
10
-95.506816
20
189.825412
30
0.0
11
-95.980451
21
181.585822
31
0.0
0
LINE
8
0
6
CONTINUOUS
10
-94.621725
20
179.817538
30
0.0
11
-95.309825
21
178.202694
31
0.0
0
LINE
8
0
6
CONTINUOUS
10
-93.295242
20
178.294652
30
0.0
11
-94.586157
21
174.712205
31
0.0
0
LINE
8
0
6
CONTINUOUS
10
-60.676739
20
187.371313
30
0.0
11
-61.575969
21
188.294274
31
0.0
0
LINE
8
0
6
CONTINUOUS
10
-95.995828
20
180.191056
30
0.0
11
-96.002768
21
178.635539
31
0.0
0
LINE
8
0
6
CONTINUOUS
10
-91.530942
20
181.170486
30
0.0
11
-94.088198
21
181.537777
31
0.0
0
LINE
8
0
6
CONTINUOUS
10
-55.401892
20
186.102882
30
0.0
11
-57.351300
21
186.285314
31
0.0
0
LINE
8
0
6
CONTINUOUS
10
-57.351300
20
186.285314
30
0.0
11
-59.246898
21
186.820858
31
0.0
0
LINE
8
0
6
CONTINUOUS
10
-56.891086
20
185.641577
30
0.0
11
-58.661278
21
186.173250
31
0.0
0
LINE
8
0
6
CONTINUOUS
10
-75.763086
20
190.365940
30
0.0
11
-79.891796
21
190.367013
31
0.0
0
LINE
8
0
6
CONTINUOUS
10
-64.582756
20
190.365438
30
0.0
11
-66.163716
21
190.366020
31
0.0
0
LINE
8
0
6
CONTINUOUS
10
-71.914165
20
190.365830
30
0.0
11
-75.763086
21
190.365940
31
0.0
0
LINE
8
0
6
CONTINUOUS
10
-64.141973
20
190.364716
30
0.0
11
-64.582756
21
190.365438
31
0.0
0
LINE
8
0
6
CONTINUOUS
10
-64.133905
20
189.826556
30
0.0
11
-64.141973
21
190.364716
31
0.0
0
LINE
8
0
6
CONTINUOUS
10
-64.579052
20
189.826937
30
0.0
11
-64.133905
21
189.826556
31
0.0
0
LINE
8
0
6
CONTINUOUS
10
-66.163716
20
190.366020
30
0.0
11
-68.649996
21
190.366562
31
0.0
0
LINE
8
0
6
CONTINUOUS
10
-95.073452
20
190.364726
30
0.0
11
-95.502682
21
190.363924
31
0.0
0
LINE
8
0
6
CONTINUOUS
10
-95.502682
20
190.363924
30
0.0
11
-95.506816
21
189.825412
31
0.0
0
LINE
8
0
6
CONTINUOUS
10
-93.508369
20
190.364837
30
0.0
11
-95.073452
21
190.364726
31
0.0
0
LINE
8
0
6
CONTINUOUS
10
-91.052245
20
190.365569
30
0.0
11
-93.508369
21
190.364837
31
0.0
0
LINE
8
0
6
CONTINUOUS
10
-87.805860
20
190.365328
30
0.0
11
-91.052245
21
190.365569
31
0.0
0
LINE
8
0
6
CONTINUOUS
10
-79.891796
20
190.367013
30
0.0
11
-83.980494
21
190.366251
31
0.0
0
LINE
8
0
6
CONTINUOUS
10
-83.980494
20
190.366251
30
0.0
11
-87.805860
21
190.365328
31
0.0
0
LINE
8
0
6
CONTINUOUS
10
-21.758703
20
135.278665
30
0.0
11
-18.294358
21
135.266747
31
0.0
0
LINE
8
0
6
CONTINUOUS
10
-26.014866
20
135.293316
30
0.0
11
-21.758703
21
135.278665
31
0.0
0
LINE
8
0
6
CONTINUOUS
10
-71.914165
20
190.365830
30
0.0
11
-68.649996
21
190.366562
31
0.0
0
LINE
8
0
6
CONTINUOUS
10
-88.925716
20
135.581154
30
0.0
11
-84.408746
21
135.541372
31
0.0
0
LINE
8
0
6
CONTINUOUS
10
-95.793875
20
135.640069
30
0.0
11
-92.964548
21
135.614417
31
0.0
0
LINE
8
0
6
CONTINUOUS
10
-95.980451
20
181.585822
30
0.0
11
-95.995828
21
180.191056
31
0.0
0
LINE
8
0
6
CONTINUOUS
10
-95.309825
20
178.202694
30
0.0
11
-95.839668
21
175.173882
31
0.0
0
LINE
8
0
6
CONTINUOUS
10
-94.586157
20
174.712205
30
0.0
11
-95.309825
21
178.202694
31
0.0
0
LINE
8
0
6
CONTINUOUS
10
-74.927502
20
176.963887
30
0.0
11
-70.431571
21
178.444944
31
0.0
0
LINE
8
0
6
CONTINUOUS
10
-84.306955
20
177.284707
30
0.0
11
-79.877347
21
176.769762
31
0.0
0
LINE
8
0
6
CONTINUOUS
10
-66.797655
20
180.615688
30
0.0
11
-70.431571
21
178.444944
31
0.0
0
LINE
8
0
6
CONTINUOUS
10
-68.848086
20
175.223721
30
0.0
11
-64.224921
21
178.017063
31
0.0
0
LINE
8
0
6
CONTINUOUS
10
-64.224921
20
178.017063
30
0.0
11
-62.042545
21
180.833139
31
0.0
0
LINE
8
0
6
CONTINUOUS
10
-60.676739
20
187.371313
30
0.0
11
-58.661278
21
186.173250
31
0.0
0
LINE
8
0
6
CONTINUOUS
10
-59.246898
20
186.820858
30
0.0
11
-61.403133
21
188.097030
31
0.0
0
LINE
8
0
6
CONTINUOUS
10
-91.530942
20
181.170486
30
0.0
11
-93.295242
21
178.294652
31
0.0
0
LINE
8
0
6
CONTINUOUS
10
-96.025295
20
178.171888
30
0.0
11
-96.050588
21
177.651266
31
0.0
0
LINE
8
0
6
CONTINUOUS
10
-95.975638
20
178.318529
30
0.0
11
-96.050588
21
177.651266
31
0.0
0
LINE
8
0
6
CONTINUOUS
10
-96.081333
20
135.642666
30
0.0
11
-95.793875
21
135.640069
31
0.0
0
LINE
8
0
6
CONTINUOUS
10
-96.081343
20
136.467582
30
0.0
11
-96.081333
21
135.642666
31
0.0
0
LINE
8
0
6
CONTINUOUS
10
-96.081343
20
136.467582
30
0.0
11
-96.080824
21
138.615703
31
0.0
0
LINE
8
0
6
CONTINUOUS
10
-96.080824
20
138.615703
30
0.0
11
-96.081343
21
142.068536
31
0.0
0
LINE
8
0
6
CONTINUOUS
10
-96.081343
20
146.612753
30
0.0
11
-96.081343
21
142.068536
31
0.0
0
LINE
8
0
6
CONTINUOUS
10
-96.081323
20
151.855370
30
0.0
11
-96.081343
21
146.612753
31
0.0
0
LINE
8
0
6
CONTINUOUS
10
-96.080764
20
157.423602
30
0.0
11
-96.081323
21
151.855370
31
0.0
0
LINE
8
0
6
CONTINUOUS
10
-96.079965
20
162.913293
30
0.0
11
-96.080764
21
157.423602
31
0.0
0
LINE
8
0
6
CONTINUOUS
10
-96.077908
20
167.890726
30
0.0
11
-96.079965
21
162.913293
31
0.0
0
LINE
8
0
6
CONTINUOUS
10
-96.077908
20
167.890726
30
0.0
11
-96.075991
21
172.061043
31
0.0
0
LINE
8
0
6
CONTINUOUS
10
-96.079076
20
175.262059
30
0.0
11
-96.075991
21
172.061043
31
0.0
0
LINE
8
0
6
CONTINUOUS
10
-95.873578
20
178.753651
30
0.0
11
-95.975638
21
178.318529
31
0.0
0
LINE
8
0
6
CONTINUOUS
10
-95.969437
20
177.811877
30
0.0
11
-95.991984
21
176.928778
31
0.0
0
LINE
8
0
6
CONTINUOUS
10
-95.883144
20
177.400583
30
0.0
11
-95.975638
21
178.318529
31
0.0
0
LINE
8
0
6
CONTINUOUS
10
-95.883144
20
177.400583
30
0.0
11
-95.839668
21
175.173882
31
0.0
0
LINE
8
0
6
CONTINUOUS
10
-95.991984
20
176.928778
30
0.0
11
-96.079076
21
175.262059
31
0.0
0
LINE
8
0
6
CONTINUOUS
10
-96.079076
20
175.262059
30
0.0
11
-95.883144
21
177.400583
31
0.0
0
LINE
8
0
6
CONTINUOUS
10
120.840462
20
140.077346
30
0.0
11
120.849229
21
139.700257
31
0.0
0
LINE
8
0
6
CONTINUOUS
10
141.160666
20
144.283905
30
0.0
11
121.071882
21
144.286502
31
0.0
0
LINE
8
0
6
CONTINUOUS
10
121.080300
20
141.226863
30
0.0
11
141.169084
21
141.226021
31
0.0
0
LINE
8
0
6
CONTINUOUS
10
141.166937
20
142.801233
30
0.0
11
121.078143
21
142.803228
31
0.0
0
LINE
8
0
6
CONTINUOUS
10
121.071263
20
139.700277
30
0.0
11
141.160057
21
139.699405
31
0.0
0
LINE
8
0
6
CONTINUOUS
10
141.166577
20
140.120407
30
0.0
11
121.077773
21
140.120708
31
0.0
0
LINE
8
0
6
CONTINUOUS
10
142.031807
20
139.699575
30
0.0
11
142.031807
21
140.120296
31
0.0
0
LINE
8
0
6
CONTINUOUS
10
141.160057
20
139.699405
30
0.0
11
142.031767
21
139.699575
31
0.0
0
LINE
8
0
6
CONTINUOUS
10
142.031807
20
140.120296
30
0.0
11
142.031807
21
141.226181
31
0.0
0
LINE
8
0
6
CONTINUOUS
10
141.166577
20
140.120407
30
0.0
11
142.031767
21
140.120296
31
0.0
0
LINE
8
0
6
CONTINUOUS
10
142.031807
20
142.801965
30
0.0
11
142.031807
21
144.284928
31
0.0
0
LINE
8
0
6
CONTINUOUS
10
142.031807
20
144.284928
30
0.0
11
142.031807
21
145.358893
31
0.0
0
LINE
8
0
6
CONTINUOUS
10
141.160666
20
144.283905
30
0.0
11
142.031767
21
144.284928
31
0.0
0
LINE
8
0
6
CONTINUOUS
10
142.031807
20
142.801965
30
0.0
11
141.166937
21
142.801233
31
0.0
0
LINE
8
0
6
CONTINUOUS
10
142.031807
20
141.226181
30
0.0
11
142.031807
21
142.801965
31
0.0
0
LINE
8
0
6
CONTINUOUS
10
141.169084
20
141.226021
30
0.0
11
142.031767
21
141.226181
31
0.0
0
LINE
8
0
6
CONTINUOUS
10
120.849229
20
139.700257
30
0.0
11
121.071263
21
139.700277
31
0.0
0
LINE
8
0
6
CONTINUOUS
10
120.855729
20
140.120968
30
0.0
11
120.849229
21
139.700257
31
0.0
0
LINE
8
0
6
CONTINUOUS
10
120.855729
20
140.120968
30
0.0
11
121.077773
21
140.120708
31
0.0
0
LINE
8
0
6
CONTINUOUS
10
120.858246
20
141.226863
30
0.0
11
120.855729
21
140.120968
31
0.0
0
LINE
8
0
6
CONTINUOUS
10
120.849838
20
144.285620
30
0.0
11
120.856109
21
142.802636
31
0.0
0
LINE
8
0
6
CONTINUOUS
10
120.849838
20
144.285620
30
0.0
11
121.071882
21
144.286502
31
0.0
0
LINE
8
0
6
CONTINUOUS
10
120.841151
20
145.359575
30
0.0
11
120.849838
21
144.285620
31
0.0
0
LINE
8
0
6
CONTINUOUS
10
120.858246
20
141.226863
30
0.0
11
121.080300
21
141.226863
31
0.0
0
LINE
8
0
6
CONTINUOUS
10
120.856109
20
142.802636
30
0.0
11
120.858246
21
141.226863
31
0.0
0
LINE
8
0
6
CONTINUOUS
10
121.078143
20
142.803228
30
0.0
11
120.856109
21
142.802636
31
0.0
0
LINE
8
0
6
CONTINUOUS
10
120.841151
20
145.359575
30
0.0
11
120.805164
21
148.942814
31
0.0
0
LINE
8
0
6
CONTINUOUS
10
87.076390
20
135.284010
30
0.0
11
141.114833
21
135.869042
31
0.0
0
LINE
8
0
6
CONTINUOUS
10
141.114713
20
177.683376
30
0.0
11
87.072226
21
178.085265
31
0.0
0
LINE
8
0
6
CONTINUOUS
10
86.818978
20
135.282094
30
0.0
11
87.076390
21
135.284010
31
0.0
0
LINE
8
0
6
CONTINUOUS
10
86.561506
20
136.462067
30
0.0
11
86.818978
21
135.282094
31
0.0
0
LINE
8
0
6
CONTINUOUS
10
86.818978
20
135.282094
30
0.0
11
86.818928
21
135.939209
31
0.0
0
LINE
8
0
6
CONTINUOUS
10
86.818928
20
135.939209
30
0.0
11
86.818838
21
138.086507
31
0.0
0
LINE
8
0
6
CONTINUOUS
10
86.818838
20
138.086507
30
0.0
11
86.818599
21
141.522513
31
0.0
0
LINE
8
0
6
CONTINUOUS
10
86.818599
20
141.522513
30
0.0
11
86.824031
21
145.974511
31
0.0
0
LINE
8
0
6
CONTINUOUS
10
86.824031
20
145.974511
30
0.0
11
86.818948
21
151.171149
31
0.0
0
LINE
8
0
6
CONTINUOUS
10
86.818948
20
151.171149
30
0.0
11
86.817191
21
156.772925
31
0.0
0
LINE
8
0
6
CONTINUOUS
10
86.817191
20
156.772925
30
0.0
11
86.816472
21
162.339743
31
0.0
0
LINE
8
0
6
CONTINUOUS
10
86.816472
20
162.339743
30
0.0
11
86.815893
21
167.515121
31
0.0
0
LINE
8
0
6
CONTINUOUS
10
86.815893
20
167.515121
30
0.0
11
86.815833
21
171.929935
31
0.0
0
LINE
8
0
6
CONTINUOUS
10
86.815833
20
171.929935
30
0.0
11
86.815833
21
175.262581
31
0.0
0
LINE
8
0
6
CONTINUOUS
10
86.815833
20
175.262581
30
0.0
11
86.815843
21
177.341948
31
0.0
0
LINE
8
0
6
CONTINUOUS
10
87.072226
20
178.085265
30
0.0
11
86.815863
21
178.086638
31
0.0
0
LINE
8
0
6
CONTINUOUS
10
86.559519
20
176.919622
30
0.0
11
86.559519
21
176.215796
31
0.0
0
LINE
8
0
6
CONTINUOUS
10
86.815863
20
178.086638
30
0.0
11
86.559519
21
176.919622
31
0.0
0
LINE
8
0
6
CONTINUOUS
10
86.815843
20
177.341948
30
0.0
11
86.815863
21
178.086638
31
0.0
0
LINE
8
0
6
CONTINUOUS
10
142.031767
20
177.676006
30
0.0
11
141.114713
21
177.683376
31
0.0
0
LINE
8
0
6
CONTINUOUS
10
142.031777
20
176.955393
30
0.0
11
142.031767
21
177.676006
31
0.0
0
LINE
8
0
6
CONTINUOUS
10
142.031777
20
171.611200
30
0.0
11
142.031767
21
174.887337
31
0.0
0
LINE
8
0
6
CONTINUOUS
10
142.031767
20
162.219986
30
0.0
11
142.031767
21
167.282919
31
0.0
0
LINE
8
0
6
CONTINUOUS
10
142.031767
20
156.780386
30
0.0
11
142.031767
21
162.219986
31
0.0
0
LINE
8
0
6
CONTINUOUS
10
142.031767
20
151.270117
30
0.0
11
142.031767
21
156.780386
31
0.0
0
LINE
8
0
6
CONTINUOUS
10
142.031767
20
136.543606
30
0.0
11
142.031777
21
138.608543
31
0.0
0
LINE
8
0
6
CONTINUOUS
10
141.114833
20
135.869042
30
0.0
11
142.031777
21
135.879762
31
0.0
0
LINE
8
0
6
CONTINUOUS
10
142.031767
20
136.543606
30
0.0
11
142.031777
21
135.879762
31
0.0
0
LINE
8
0
6
CONTINUOUS
10
142.031777
20
171.611200
30
0.0
11
142.031767
21
167.282919
31
0.0
0
LINE
8
0
6
CONTINUOUS
10
142.031777
20
176.955393
30
0.0
11
142.031767
21
174.887337
31
0.0
0
LINE
8
0
6
CONTINUOUS
10
120.803396
20
143.765139
30
0.0
11
120.840462
21
140.077346
31
0.0
0
LINE
8
0
6
CONTINUOUS
10
142.031767
20
149.015678
30
0.0
11
141.115243
21
149.014756
31
0.0
0
LINE
8
0
6
CONTINUOUS
10
142.031807
20
145.358893
30
0.0
11
142.031767
21
149.015678
31
0.0
0
LINE
8
0
6
CONTINUOUS
10
141.115243
20
149.014756
30
0.0
11
142.031767
21
149.015678
31
0.0
0
LINE
8
0
6
CONTINUOUS
10
142.031767
20
149.015678
30
0.0
11
142.031767
21
151.270117
31
0.0
0
LINE
8
0
6
CONTINUOUS
10
52.107787
20
188.294274
30
0.0
11
55.110869
21
189.826937
31
0.0
0
LINE
8
0
6
CONTINUOUS
10
72.451289
20
135.519449
30
0.0
11
74.940563
21
135.541372
31
0.0
0
LINE
8
0
6
CONTINUOUS
10
54.665722
20
189.826556
30
0.0
11
52.907443
21
189.107517
31
0.0
0
LINE
8
0
6
CONTINUOUS
10
52.907443
20
189.107517
30
0.0
11
52.107787
21
188.294274
31
0.0
0
LINE
8
0
6
CONTINUOUS
10
45.933709
20
186.102882
30
0.0
11
35.503186
21
186.133988
31
0.0
0
LINE
8
0
6
CONTINUOUS
10
86.557112
20
178.171888
30
0.0
11
86.534586
21
178.635539
31
0.0
0
LINE
8
0
6
CONTINUOUS
10
79.457533
20
135.581154
30
0.0
11
83.496365
21
135.614417
31
0.0
0
LINE
8
0
6
CONTINUOUS
10
86.374461
20
178.885501
30
0.0
11
86.185608
21
177.721463
31
0.0
0
LINE
8
0
6
CONTINUOUS
10
86.512268
20
181.585822
30
0.0
11
86.038633
21
189.825412
31
0.0
0
LINE
8
0
6
CONTINUOUS
10
85.841643
20
178.202694
30
0.0
11
85.153543
21
179.817538
31
0.0
0
LINE
8
0
6
CONTINUOUS
10
85.117975
20
174.712205
30
0.0
11
83.827060
21
178.294652
31
0.0
0
LINE
8
0
6
CONTINUOUS
10
52.107787
20
188.294274
30
0.0
11
51.208557
21
187.371313
31
0.0
0
LINE
8
0
6
CONTINUOUS
10
86.534586
20
178.635539
30
0.0
11
86.527646
21
180.191056
31
0.0
0
LINE
8
0
6
CONTINUOUS
10
84.620016
20
181.537777
30
0.0
11
82.062759
21
181.170486
31
0.0
0
LINE
8
0
6
CONTINUOUS
10
47.883118
20
186.285314
30
0.0
11
45.933709
21
186.102882
31
0.0
0
LINE
8
0
6
CONTINUOUS
10
49.778715
20
186.820858
30
0.0
11
47.883118
21
186.285314
31
0.0
0
LINE
8
0
6
CONTINUOUS
10
49.193095
20
186.173250
30
0.0
11
47.422903
21
185.641577
31
0.0
0
LINE
8
0
6
CONTINUOUS
10
70.423613
20
190.367013
30
0.0
11
66.294903
21
190.365940
31
0.0
0
LINE
8
0
6
CONTINUOUS
10
56.695533
20
190.366020
30
0.0
11
55.114573
21
190.365438
31
0.0
0
LINE
8
0
6
CONTINUOUS
10
66.294903
20
190.365940
30
0.0
11
62.445982
21
190.365830
31
0.0
0
LINE
8
0
6
CONTINUOUS
10
54.665722
20
189.826556
30
0.0
11
55.110869
21
189.826937
31
0.0
0
LINE
8
0
6
CONTINUOUS
10
54.673790
20
190.364716
30
0.0
11
54.665722
21
189.826556
31
0.0
0
LINE
8
0
6
CONTINUOUS
10
55.114573
20
190.365438
30
0.0
11
54.673790
21
190.364716
31
0.0
0
LINE
8
0
6
CONTINUOUS
10
59.181814
20
190.366562
30
0.0
11
56.695533
21
190.366020
31
0.0
0
LINE
8
0
6
CONTINUOUS
10
86.038633
20
189.825412
30
0.0
11
86.034500
21
190.363924
31
0.0
0
LINE
8
0
6
CONTINUOUS
10
86.034500
20
190.363924
30
0.0
11
85.605270
21
190.364726
31
0.0
0
LINE
8
0
6
CONTINUOUS
10
85.605270
20
190.364726
30
0.0
11
84.040187
21
190.364837
31
0.0
0
LINE
8
0
6
CONTINUOUS
10
84.040187
20
190.364837
30
0.0
11
81.584062
21
190.365569
31
0.0
0
LINE
8
0
6
CONTINUOUS
10
81.584062
20
190.365569
30
0.0
11
78.337677
21
190.365328
31
0.0
0
LINE
8
0
6
CONTINUOUS
10
74.512312
20
190.366251
30
0.0
11
70.423613
21
190.367013
31
0.0
0
LINE
8
0
6
CONTINUOUS
10
78.337677
20
190.365328
30
0.0
11
74.512312
21
190.366251
31
0.0
0
LINE
8
0
6
CONTINUOUS
10
59.181814
20
190.366562
30
0.0
11
62.445982
21
190.365830
31
0.0
0
LINE
8
0
6
CONTINUOUS
10
74.940563
20
135.541372
30
0.0
11
79.457533
21
135.581154
31
0.0
0
LINE
8
0
6
CONTINUOUS
10
83.496365
20
135.614417
30
0.0
11
86.325692
21
135.640069
31
0.0
0
LINE
8
0
6
CONTINUOUS
10
86.527646
20
180.191056
30
0.0
11
86.512268
21
181.585822
31
0.0
0
LINE
8
0
6
CONTINUOUS
10
85.841643
20
178.202694
30
0.0
11
85.117975
21
174.712205
31
0.0
0
LINE
8
0
6
CONTINUOUS
10
85.841643
20
178.202694
30
0.0
11
86.371485
21
175.173882
31
0.0
0
LINE
8
0
6
CONTINUOUS
10
60.963389
20
178.444944
30
0.0
11
65.459320
21
176.963887
31
0.0
0
LINE
8
0
6
CONTINUOUS
10
70.409164
20
176.769762
30
0.0
11
74.838772
21
177.284707
31
0.0
0
LINE
8
0
6
CONTINUOUS
10
54.756739
20
178.017063
30
0.0
11
59.379903
21
175.223721
31
0.0
0
LINE
8
0
6
CONTINUOUS
10
60.963389
20
178.444944
30
0.0
11
57.329472
21
180.615688
31
0.0
0
LINE
8
0
6
CONTINUOUS
10
52.574362
20
180.833139
30
0.0
11
54.756739
21
178.017063
31
0.0
0
LINE
8
0
6
CONTINUOUS
10
51.934950
20
188.097030
30
0.0
11
49.778715
21
186.820858
31
0.0
0
LINE
8
0
6
CONTINUOUS
10
49.193095
20
186.173250
30
0.0
11
51.208557
21
187.371313
31
0.0
0
LINE
8
0
6
CONTINUOUS
10
83.827060
20
178.294652
30
0.0
11
82.062759
21
181.170486
31
0.0
0
LINE
8
0
6
CONTINUOUS
10
86.582405
20
177.651266
30
0.0
11
86.557112
21
178.171888
31
0.0
0
LINE
8
0
6
CONTINUOUS
10
86.582405
20
177.651266
30
0.0
11
86.507455
21
178.318529
31
0.0
0
LINE
8
0
6
CONTINUOUS
10
86.613150
20
135.642666
30
0.0
11
86.613160
21
136.467582
31
0.0
0
LINE
8
0
6
CONTINUOUS
10
86.325692
20
135.640069
30
0.0
11
86.613150
21
135.642666
31
0.0
0
LINE
8
0
6
CONTINUOUS
10
86.612641
20
138.615703
30
0.0
11
86.613160
21
136.467582
31
0.0
0
LINE
8
0
6
CONTINUOUS
10
86.613160
20
142.068536
30
0.0
11
86.612641
21
138.615703
31
0.0
0
LINE
8
0
6
CONTINUOUS
10
86.613160
20
142.068536
30
0.0
11
86.613160
21
146.612753
31
0.0
0
LINE
8
0
6
CONTINUOUS
10
86.613160
20
146.612753
30
0.0
11
86.613140
21
151.855370
31
0.0
0
LINE
8
0
6
CONTINUOUS
10
86.613140
20
151.855370
30
0.0
11
86.612581
21
157.423602
31
0.0
0
LINE
8
0
6
CONTINUOUS
10
86.612581
20
157.423602
30
0.0
11
86.611782
21
162.913293
31
0.0
0
LINE
8
0
6
CONTINUOUS
10
86.611782
20
162.913293
30
0.0
11
86.609725
21
167.890726
31
0.0
0
LINE
8
0
6
CONTINUOUS
10
86.607808
20
172.061043
30
0.0
11
86.609725
21
167.890726
31
0.0
0
LINE
8
0
6
CONTINUOUS
10
86.607808
20
172.061043
30
0.0
11
86.610894
21
175.262059
31
0.0
0
LINE
8
0
6
CONTINUOUS
10
86.507455
20
178.318529
30
0.0
11
86.405395
21
178.753651
31
0.0
0
LINE
8
0
6
CONTINUOUS
10
86.507455
20
178.318529
30
0.0
11
86.414961
21
177.400583
31
0.0
0
LINE
8
0
6
CONTINUOUS
10
86.523801
20
176.928778
30
0.0
11
86.501254
21
177.811877
31
0.0
0
LINE
8
0
6
CONTINUOUS
10
86.414961
20
177.400583
30
0.0
11
86.371485
21
175.173882
31
0.0
0
LINE
8
0
6
CONTINUOUS
10
86.610894
20
175.262059
30
0.0
11
86.523801
21
176.928778
31
0.0
0
LINE
8
0
6
CONTINUOUS
10
86.414961
20
177.400583
30
0.0
11
86.610894
21
175.262059
31
0.0
0
LINE
8
0
6
CONTINUOUS
10
-93.806152
20
192.881552
30
0.0
11
-92.424131
21
192.881552
31
0.0
0
LINE
8
0
6
CONTINUOUS
10
-85.482170
20
193.628429
30
0.0
11
-90.291891
21
193.705826
31
0.0
0
LINE
8
0
6
CONTINUOUS
10
-85.482170
20
193.991197
30
0.0
11
-85.482170
21
193.628429
31
0.0
0
LINE
8
0
6
CONTINUOUS
10
-85.482170
20
193.628429
30
0.0
11
-85.088907
21
193.556206
31
0.0
0
LINE
8
0
6
CONTINUOUS
10
-90.498008
20
193.626142
30
0.0
11
-90.291891
21
193.705826
31
0.0
0
LINE
8
0
6
CONTINUOUS
10
-90.291891
20
193.705826
30
0.0
11
-90.291891
21
194.060943
31
0.0
0
LINE
8
0
6
CONTINUOUS
10
-90.498008
20
193.626142
30
0.0
11
-92.424131
21
192.881552
31
0.0
0
LINE
8
0
6
CONTINUOUS
10
-81.413822
20
192.881552
30
0.0
11
-85.088907
21
193.556206
31
0.0
0
LINE
8
0
6
CONTINUOUS
10
-92.424131
20
192.881552
30
0.0
11
-81.413822
21
192.881552
31
0.0
0
LINE
8
0
6
CONTINUOUS
10
-85.482170
20
193.991197
30
0.0
11
-85.482170
21
200.442377
31
0.0
0
LINE
8
0
6
CONTINUOUS
10
-90.291891
20
200.442377
30
0.0
11
-90.291891
21
194.060943
31
0.0
0
LINE
8
0
6
CONTINUOUS
10
-69.668701
20
193.628429
30
0.0
11
-74.380335
21
193.705816
31
0.0
0
LINE
8
0
6
CONTINUOUS
10
-69.668691
20
193.991197
30
0.0
11
-69.668701
21
193.628429
31
0.0
0
LINE
8
0
6
CONTINUOUS
10
-69.668701
20
193.628429
30
0.0
11
-69.472050
21
193.556206
31
0.0
0
LINE
8
0
6
CONTINUOUS
10
-74.792570
20
193.626132
30
0.0
11
-74.380335
21
193.705816
31
0.0
0
LINE
8
0
6
CONTINUOUS
10
-74.380335
20
193.705816
30
0.0
11
-74.380335
21
194.060933
31
0.0
0
LINE
8
0
6
CONTINUOUS
10
-74.792570
20
193.626132
30
0.0
11
-78.644826
21
192.881552
31
0.0
0
LINE
8
0
6
CONTINUOUS
10
-67.634517
20
192.881552
30
0.0
11
-69.472050
21
193.556206
31
0.0
0
LINE
8
0
6
CONTINUOUS
10
-78.644826
20
192.881552
30
0.0
11
-67.634517
21
192.881552
31
0.0
0
LINE
8
0
6
CONTINUOUS
10
-69.668691
20
193.991197
30
0.0
11
-69.668691
21
200.442367
31
0.0
0
LINE
8
0
6
CONTINUOUS
10
-74.380325
20
200.442367
30
0.0
11
-74.380335
21
194.060933
31
0.0
0
LINE
8
0
6
CONTINUOUS
10
-64.213368
20
193.628429
30
0.0
11
-64.115302
21
193.705816
31
0.0
0
LINE
8
0
6
CONTINUOUS
10
-64.410000
20
193.556206
30
0.0
11
-64.213368
21
193.628429
31
0.0
0
LINE
8
0
6
CONTINUOUS
10
-64.321410
20
193.626132
30
0.0
11
-64.115302
21
193.705816
31
0.0
0
LINE
8
0
6
CONTINUOUS
10
-64.115302
20
193.705816
30
0.0
11
-64.115302
21
194.060933
31
0.0
0
LINE
8
0
6
CONTINUOUS
10
-64.115302
20
194.060933
30
0.0
11
-64.115292
21
200.442367
31
0.0
0
LINE
8
0
6
CONTINUOUS
10
-66.247533
20
192.881552
30
0.0
11
-64.410000
21
193.556206
31
0.0
0
LINE
8
0
6
CONTINUOUS
10
-64.321410
20
193.626132
30
0.0
11
-66.247533
21
192.881552
31
0.0
0
LINE
8
0
6
CONTINUOUS
10
-95.938403
20
193.705826
30
0.0
11
-95.840327
21
193.628439
31
0.0
0
LINE
8
0
6
CONTINUOUS
10
-95.938403
20
194.060943
30
0.0
11
-95.938403
21
193.705826
31
0.0
0
LINE
8
0
6
CONTINUOUS
10
-95.840327
20
193.991197
30
0.0
11
-95.840327
21
193.628439
31
0.0
0
LINE
8
0
6
CONTINUOUS
10
-95.840327
20
193.628439
30
0.0
11
-95.643675
21
193.556206
31
0.0
0
LINE
8
0
6
CONTINUOUS
10
-95.840327
20
193.991197
30
0.0
11
-95.840327
21
200.442377
31
0.0
0
LINE
8
0
6
CONTINUOUS
10
-95.938403
20
200.442377
30
0.0
11
-95.938403
21
194.060943
31
0.0
0
LINE
8
0
6
CONTINUOUS
10
-81.413822
20
192.881552
30
0.0
11
-78.644826
21
192.881552
31
0.0
0
LINE
8
0
6
CONTINUOUS
10
-67.634517
20
192.881552
30
0.0
11
-66.247533
21
192.881552
31
0.0
0
LINE
8
0
6
CONTINUOUS
10
-95.643675
20
193.556206
30
0.0
11
-93.806152
21
192.881552
31
0.0
0
LINE
8
0
6
CONTINUOUS
10
-92.424131
20
208.003203
30
0.0
11
-93.806152
21
208.003203
31
0.0
0
LINE
8
0
6
CONTINUOUS
10
-90.291891
20
207.178929
30
0.0
11
-85.482170
21
207.256326
31
0.0
0
LINE
8
0
6
CONTINUOUS
10
-85.088907
20
207.328549
30
0.0
11
-85.482170
21
207.256326
31
0.0
0
LINE
8
0
6
CONTINUOUS
10
-85.482170
20
207.256326
30
0.0
11
-85.482170
21
206.893557
31
0.0
0
LINE
8
0
6
CONTINUOUS
10
-90.291891
20
206.823822
30
0.0
11
-90.291891
21
207.178929
31
0.0
0
LINE
8
0
6
CONTINUOUS
10
-90.291891
20
207.178929
30
0.0
11
-90.498008
21
207.258612
31
0.0
0
LINE
8
0
6
CONTINUOUS
10
-81.413822
20
208.003203
30
0.0
11
-92.424131
21
208.003203
31
0.0
0
LINE
8
0
6
CONTINUOUS
10
-85.088907
20
207.328549
30
0.0
11
-81.413822
21
208.003203
31
0.0
0
LINE
8
0
6
CONTINUOUS
10
-92.424131
20
208.003203
30
0.0
11
-90.498008
21
207.258612
31
0.0
0
LINE
8
0
6
CONTINUOUS
10
-90.291891
20
206.823822
30
0.0
11
-90.291891
21
200.442377
31
0.0
0
LINE
8
0
6
CONTINUOUS
10
-85.482170
20
200.442377
30
0.0
11
-85.482170
21
206.893557
31
0.0
0
LINE
8
0
6
CONTINUOUS
10
-74.380335
20
207.178929
30
0.0
11
-69.668701
21
207.256316
31
0.0
0
LINE
8
0
6
CONTINUOUS
10
-69.472050
20
207.328539
30
0.0
11
-69.668701
21
207.256316
31
0.0
0
LINE
8
0
6
CONTINUOUS
10
-69.668701
20
207.256316
30
0.0
11
-69.668691
21
206.893547
31
0.0
0
LINE
8
0
6
CONTINUOUS
10
-74.380335
20
206.823812
30
0.0
11
-74.380335
21
207.178929
31
0.0
0
LINE
8
0
6
CONTINUOUS
10
-74.380335
20
207.178929
30
0.0
11
-74.792570
21
207.258612
31
0.0
0
LINE
8
0
6
CONTINUOUS
10
-67.634517
20
208.003192
30
0.0
11
-78.644826
21
208.003192
31
0.0
0
LINE
8
0
6
CONTINUOUS
10
-69.472050
20
207.328539
30
0.0
11
-67.634517
21
208.003192
31
0.0
0
LINE
8
0
6
CONTINUOUS
10
-78.644826
20
208.003192
30
0.0
11
-74.792570
21
207.258612
31
0.0
0
LINE
8
0
6
CONTINUOUS
10
-74.380335
20
206.823812
30
0.0
11
-74.380325
21
200.442367
31
0.0
0
LINE
8
0
6
CONTINUOUS
10
-69.668691
20
200.442367
30
0.0
11
-69.668691
21
206.893547
31
0.0
0
LINE
8
0
6
CONTINUOUS
10
-64.213368
20
207.256316
30
0.0
11
-64.410000
21
207.328539
31
0.0
0
LINE
8
0
6
CONTINUOUS
10
-64.115292
20
207.178929
30
0.0
11
-64.213368
21
207.256316
31
0.0
0
LINE
8
0
6
CONTINUOUS
10
-64.115292
20
206.823812
30
0.0
11
-64.115292
21
207.178929
31
0.0
0
LINE
8
0
6
CONTINUOUS
10
-64.115292
20
207.178929
30
0.0
11
-64.321410
21
207.258612
31
0.0
0
LINE
8
0
6
CONTINUOUS
10
-64.115292
20
200.442367
30
0.0
11
-64.115292
21
206.823812
31
0.0
0
LINE
8
0
6
CONTINUOUS
10
-64.410000
20
207.328539
30
0.0
11
-66.247533
21
208.003192
31
0.0
0
LINE
8
0
6
CONTINUOUS
10
-66.247533
20
208.003192
30
0.0
11
-64.321410
21
207.258612
31
0.0
0
LINE
8
0
6
CONTINUOUS
10
-95.938403
20
207.178939
30
0.0
11
-95.938403
21
206.823822
31
0.0
0
LINE
8
0
6
CONTINUOUS
10
-95.840327
20
207.256326
30
0.0
11
-95.938403
21
207.178939
31
0.0
0
LINE
8
0
6
CONTINUOUS
10
-95.643675
20
207.328549
30
0.0
11
-95.840327
21
207.256326
31
0.0
0
LINE
8
0
6
CONTINUOUS
10
-95.840327
20
207.256326
30
0.0
11
-95.840327
21
206.893557
31
0.0
0
LINE
8
0
6
CONTINUOUS
10
-95.938403
20
206.823822
30
0.0
11
-95.938403
21
200.442377
31
0.0
0
LINE
8
0
6
CONTINUOUS
10
-95.840327
20
200.442377
30
0.0
11
-95.840327
21
206.893557
31
0.0
0
LINE
8
0
6
CONTINUOUS
10
-78.644826
20
208.003192
30
0.0
11
-81.413822
21
208.003203
31
0.0
0
LINE
8
0
6
CONTINUOUS
10
-66.247533
20
208.003192
30
0.0
11
-67.634517
21
208.003192
31
0.0
0
LINE
8
0
6
CONTINUOUS
10
-93.806152
20
208.003203
30
0.0
11
-95.643675
21
207.328549
31
0.0
0
LINE
8
0
6
CONTINUOUS
10
82.955948
20
192.881512
30
0.0
11
84.337950
21
192.881512
31
0.0
0
LINE
8
0
6
CONTINUOUS
10
80.823688
20
193.705776
30
0.0
11
76.013978
21
193.628388
31
0.0
0
LINE
8
0
6
CONTINUOUS
10
75.620705
20
193.556166
30
0.0
11
76.013978
21
193.628388
31
0.0
0
LINE
8
0
6
CONTINUOUS
10
76.013978
20
193.628388
30
0.0
11
76.013978
21
193.991157
31
0.0
0
LINE
8
0
6
CONTINUOUS
10
80.823688
20
194.060893
30
0.0
11
80.823688
21
193.705776
31
0.0
0
LINE
8
0
6
CONTINUOUS
10
80.823688
20
193.705776
30
0.0
11
81.029805
21
193.626092
31
0.0
0
LINE
8
0
6
CONTINUOUS
10
71.945639
20
192.881522
30
0.0
11
82.955948
21
192.881512
31
0.0
0
LINE
8
0
6
CONTINUOUS
10
75.620705
20
193.556166
30
0.0
11
71.945639
21
192.881522
31
0.0
0
LINE
8
0
6
CONTINUOUS
10
82.955948
20
192.881512
30
0.0
11
81.029805
21
193.626092
31
0.0
0
LINE
8
0
6
CONTINUOUS
10
76.013978
20
194.301284
30
0.0
11
76.013978
21
193.991157
31
0.0
0
LINE
8
0
6
CONTINUOUS
10
64.912153
20
193.705786
30
0.0
11
60.200508
21
193.628398
31
0.0
0
LINE
8
0
6
CONTINUOUS
10
60.003877
20
193.556176
30
0.0
11
60.200508
21
193.628398
31
0.0
0
LINE
8
0
6
CONTINUOUS
10
60.200508
20
193.628398
30
0.0
11
60.200508
21
193.991167
31
0.0
0
LINE
8
0
6
CONTINUOUS
10
64.912153
20
194.060903
30
0.0
11
64.912153
21
193.705786
31
0.0
0
LINE
8
0
6
CONTINUOUS
10
64.912153
20
193.705786
30
0.0
11
65.324378
21
193.626102
31
0.0
0
LINE
8
0
6
CONTINUOUS
10
58.166334
20
192.881522
30
0.0
11
69.176643
21
192.881522
31
0.0
0
LINE
8
0
6
CONTINUOUS
10
60.003877
20
193.556176
30
0.0
11
58.166334
21
192.881522
31
0.0
0
LINE
8
0
6
CONTINUOUS
10
69.176643
20
192.881522
30
0.0
11
65.324378
21
193.626102
31
0.0
0
LINE
8
0
6
CONTINUOUS
10
64.912153
20
194.060903
30
0.0
11
64.912153
21
194.811333
31
0.0
0
LINE
8
0
6
CONTINUOUS
10
60.200508
20
194.702665
30
0.0
11
60.200508
21
193.991167
31
0.0
0
LINE
8
0
6
CONTINUOUS
10
54.745186
20
193.628398
30
0.0
11
54.941827
21
193.556176
31
0.0
0
LINE
8
0
6
CONTINUOUS
10
54.647110
20
193.705786
30
0.0
11
54.745186
21
193.628398
31
0.0
0
LINE
8
0
6
CONTINUOUS
10
54.647110
20
194.060903
30
0.0
11
54.647110
21
193.705786
31
0.0
0
LINE
8
0
6
CONTINUOUS
10
54.647110
20
193.705786
30
0.0
11
54.853217
21
193.626102
31
0.0
0
LINE
8
0
6
CONTINUOUS
10
54.647110
20
194.574584
30
0.0
11
54.647110
21
194.060903
31
0.0
0
LINE
8
0
6
CONTINUOUS
10
54.941827
20
193.556176
30
0.0
11
56.779360
21
192.881522
31
0.0
0
LINE
8
0
6
CONTINUOUS
10
56.779360
20
192.881522
30
0.0
11
54.853217
21
193.626102
31
0.0
0
LINE
8
0
6
CONTINUOUS
10
69.176643
20
192.881522
30
0.0
11
71.945639
21
192.881522
31
0.0
0
LINE
8
0
6
CONTINUOUS
10
56.779360
20
192.881522
30
0.0
11
58.166334
21
192.881522
31
0.0
0
LINE
8
0
6
CONTINUOUS
10
84.337950
20
192.881512
30
0.0
11
86.175473
21
193.556166
31
0.0
0
LINE
8
0
6
CONTINUOUS
10
84.337950
20
208.003162
30
0.0
11
82.955948
21
208.003162
31
0.0
0
LINE
8
0
6
CONTINUOUS
10
82.754955
20
207.925466
30
0.0
11
82.955948
21
208.003162
31
0.0
0
LINE
8
0
6
CONTINUOUS
10
82.955948
20
208.003162
30
0.0
11
81.410677
21
208.003162
31
0.0
0
LINE
8
0
6
CONTINUOUS
10
84.884854
20
207.802361
30
0.0
11
84.337950
21
208.003162
31
0.0
0
LINE
8
0
6
CONTINUOUS
10
-45.917882
20
212.957631
30
0.0
11
-45.917882
21
213.601368
31
0.0
0
LINE
8
0
6
CONTINUOUS
10
-113.745935
20
213.601388
30
0.0
11
-113.745935
21
212.957641
31
0.0
0
LINE
8
0
6
CONTINUOUS
10
-73.228486
20
212.957591
30
0.0
11
-79.859483
21
212.957591
31
0.0
0
LINE
8
0
6
CONTINUOUS
10
-66.835889
20
212.957591
30
0.0
11
-73.228486
21
212.957591
31
0.0
0
LINE
8
0
6
CONTINUOUS
10
-60.906113
20
212.957591
30
0.0
11
-66.835889
21
212.957591
31
0.0
0
LINE
8
0
6
CONTINUOUS
10
-55.782683
20
212.957631
30
0.0
11
-60.906113
21
212.957591
31
0.0
0
LINE
8
0
6
CONTINUOUS
10
-51.558533
20
212.957631
30
0.0
11
-55.782683
21
212.957631
31
0.0
0
LINE
8
0
6
CONTINUOUS
10
-48.405541
20
212.957631
30
0.0
11
-51.558533
21
212.957631
31
0.0
0
LINE
8
0
6
CONTINUOUS
10
-46.544632
20
212.957631
30
0.0
11
-48.405541
21
212.957631
31
0.0
0
LINE
8
0
6
CONTINUOUS
10
-45.917882
20
212.957631
30
0.0
11
-46.544632
21
212.957631
31
0.0
0
LINE
8
0
6
CONTINUOUS
10
-46.410659
20
211.829013
30
0.0
11
-45.917882
21
212.957631
31
0.0
0
LINE
8
0
6
CONTINUOUS
10
-113.745935
20
212.957641
30
0.0
11
-113.359442
21
211.908055
31
0.0
0
LINE
8
0
6
CONTINUOUS
10
-103.920866
20
212.957641
30
0.0
11
-108.144297
21
212.957641
31
0.0
0
LINE
8
0
6
CONTINUOUS
10
-98.776597
20
212.957601
30
0.0
11
-103.920866
21
212.957641
31
0.0
0
LINE
8
0
6
CONTINUOUS
10
-92.927402
20
212.957601
30
0.0
11
-98.776597
21
212.957601
31
0.0
0
LINE
8
0
6
CONTINUOUS
10
-86.506946
20
212.957601
30
0.0
11
-92.927402
21
212.957601
31
0.0
0
LINE
8
0
6
CONTINUOUS
10
-79.859483
20
212.957591
30
0.0
11
-86.506946
21
212.957601
31
0.0
0
LINE
8
0
6
CONTINUOUS
10
-92.933064
20
190.374745
30
0.0
11
-91.939033
21
190.374745
31
0.0
0
LINE
8
0
6
CONTINUOUS
10
-93.360745
20
210.270093
30
0.0
11
-93.312015
21
208.003203
31
0.0
0
LINE
8
0
6
CONTINUOUS
10
-92.986952
20
192.881552
30
0.0
11
-92.933064
21
190.374745
31
0.0
0
LINE
8
0
6
CONTINUOUS
10
-79.874811
20
190.374704
30
0.0
11
-74.877635
21
190.374704
31
0.0
0
LINE
8
0
6
CONTINUOUS
10
-70.641244
20
190.374704
30
0.0
11
-67.810568
21
190.374704
31
0.0
0
LINE
8
0
6
CONTINUOUS
10
-79.874811
20
190.374704
30
0.0
11
-79.869604
21
192.881552
31
0.0
0
LINE
8
0
6
CONTINUOUS
10
-79.838199
20
208.003197
30
0.0
11
-79.833601
21
210.217288
31
0.0
0
LINE
8
0
6
CONTINUOUS
10
-84.871976
20
190.374745
30
0.0
11
-79.874811
21
190.374704
31
0.0
0
LINE
8
0
6
CONTINUOUS
10
-91.939033
20
190.374745
30
0.0
11
-89.108378
21
190.374745
31
0.0
0
LINE
8
0
6
CONTINUOUS
10
-66.816567
20
190.374704
30
0.0
11
-66.754405
21
192.881552
31
0.0
0
LINE
8
0
6
CONTINUOUS
10
-66.379435
20
208.003192
30
0.0
11
-66.323322
21
210.266069
31
0.0
0
LINE
8
0
6
CONTINUOUS
10
-67.810568
20
190.374704
30
0.0
11
-66.816567
21
190.374704
31
0.0
0
LINE
8
0
6
CONTINUOUS
10
-67.286049
20
210.223057
30
0.0
11
-67.344712
21
208.003192
31
0.0
0
LINE
8
0
6
CONTINUOUS
10
-67.744322
20
192.881552
30
0.0
11
-67.810568
21
190.374704
31
0.0
0
LINE
8
0
6
CONTINUOUS
10
-70.641244
20
190.374704
30
0.0
11
-70.588509
21
192.881552
31
0.0
0
LINE
8
0
6
CONTINUOUS
10
-70.270409
20
208.003192
30
0.0
11
-70.223792
21
210.219244
31
0.0
0
LINE
8
0
6
CONTINUOUS
10
-74.877635
20
190.374704
30
0.0
11
-70.641244
21
190.374704
31
0.0
0
LINE
8
0
6
CONTINUOUS
10
-74.626292
20
210.217349
30
0.0
11
-74.654338
21
208.003192
31
0.0
0
LINE
8
0
6
CONTINUOUS
10
-74.845882
20
192.881552
30
0.0
11
-74.877635
21
190.374704
31
0.0
0
LINE
8
0
6
CONTINUOUS
10
-73.341660
20
211.777709
30
0.0
11
-79.876568
21
211.777789
31
0.0
0
LINE
8
0
6
CONTINUOUS
10
-67.056355
20
211.766808
30
0.0
11
-73.341660
21
211.777709
31
0.0
0
LINE
8
0
6
CONTINUOUS
10
-61.274262
20
211.776906
30
0.0
11
-67.056355
21
211.766808
31
0.0
0
LINE
8
0
6
CONTINUOUS
10
-56.201358
20
211.788960
30
0.0
11
-61.274262
21
211.776906
31
0.0
0
LINE
8
0
6
CONTINUOUS
10
-52.036751
20
211.789833
30
0.0
11
-56.201358
21
211.788960
31
0.0
0
LINE
8
0
6
CONTINUOUS
10
-48.948244
20
211.797675
30
0.0
11
-52.036751
21
211.789833
31
0.0
0
LINE
8
0
6
CONTINUOUS
10
-47.050310
20
211.819717
30
0.0
11
-48.948244
21
211.797675
31
0.0
0
LINE
8
0
6
CONTINUOUS
10
-46.410659
20
211.829013
30
0.0
11
-47.050310
21
211.819717
31
0.0
0
LINE
8
0
6
CONTINUOUS
10
-47.992727
20
211.704834
30
0.0
11
-46.410659
21
211.829013
31
0.0
0
LINE
8
0
6
CONTINUOUS
10
-113.359442
20
211.908055
30
0.0
11
-111.775747
21
211.778330
31
0.0
0
LINE
8
0
6
CONTINUOUS
10
-112.738544
20
211.888279
30
0.0
11
-113.359442
21
211.908055
31
0.0
0
LINE
8
0
6
CONTINUOUS
10
-110.840500
20
211.879705
30
0.0
11
-112.738544
21
211.888279
31
0.0
0
LINE
8
0
6
CONTINUOUS
10
-107.701357
20
211.819496
30
0.0
11
-110.840500
21
211.879705
31
0.0
0
LINE
8
0
6
CONTINUOUS
10
-103.547364
20
211.800823
30
0.0
11
-107.701357
21
211.819496
31
0.0
0
LINE
8
0
6
CONTINUOUS
10
-98.473182
20
211.801024
30
0.0
11
-103.547364
21
211.800823
31
0.0
0
LINE
8
0
6
CONTINUOUS
10
-92.685377
20
211.789231
30
0.0
11
-98.473182
21
211.801024
31
0.0
0
LINE
8
0
6
CONTINUOUS
10
-86.412295
20
211.767319
30
0.0
11
-92.685377
21
211.789231
31
0.0
0
LINE
8
0
6
CONTINUOUS
10
-79.876568
20
211.777789
30
0.0
11
-86.412295
21
211.767319
31
0.0
0
LINE
8
0
6
CONTINUOUS
10
-89.108378
20
190.374745
30
0.0
11
-84.871976
21
190.374745
31
0.0
0
LINE
8
0
6
CONTINUOUS
10
-45.917882
20
213.601368
30
0.0
11
-45.917862
21
233.930016
31
0.0
0
LINE
8
0
6
CONTINUOUS
10
-113.745915
20
233.930026
30
0.0
11
-113.745935
21
213.601388
31
0.0
0
LINE
8
0
6
CONTINUOUS
10
-66.323322
20
210.266069
30
0.0
11
-47.992727
21
211.704834
31
0.0
0
LINE
8
0
6
CONTINUOUS
10
-111.775747
20
211.778330
30
0.0
11
-93.360745
21
210.270093
31
0.0
0
LINE
8
0
6
CONTINUOUS
10
36.449700
20
213.601358
30
0.0
11
36.449700
21
212.957611
31
0.0
0
LINE
8
0
6
CONTINUOUS
10
104.277742
20
212.957591
30
0.0
11
104.277742
21
213.601338
31
0.0
0
LINE
8
0
6
CONTINUOUS
10
70.391300
20
212.957561
30
0.0
11
63.760303
21
212.957561
31
0.0
0
LINE
8
0
6
CONTINUOUS
10
63.760303
20
212.957561
30
0.0
11
57.367706
21
212.957561
31
0.0
0
LINE
8
0
6
CONTINUOUS
10
57.367706
20
212.957561
30
0.0
11
51.437930
21
212.957561
31
0.0
0
LINE
8
0
6
CONTINUOUS
10
51.437930
20
212.957561
30
0.0
11
46.314510
21
212.957601
31
0.0
0
LINE
8
0
6
CONTINUOUS
10
46.314510
20
212.957601
30
0.0
11
42.090350
21
212.957611
31
0.0
0
LINE
8
0
6
CONTINUOUS
10
42.090350
20
212.957611
30
0.0
11
38.937358
21
212.957611
31
0.0
0
LINE
8
0
6
CONTINUOUS
10
38.937358
20
212.957611
30
0.0
11
37.076450
21
212.957611
31
0.0
0
LINE
8
0
6
CONTINUOUS
10
36.449700
20
212.957611
30
0.0
11
36.942476
21
211.828993
31
0.0
0
LINE
8
0
6
CONTINUOUS
10
37.076450
20
212.957611
30
0.0
11
36.449700
21
212.957611
31
0.0
0
LINE
8
0
6
CONTINUOUS
10
103.891250
20
211.908004
30
0.0
11
104.277742
21
212.957591
31
0.0
0
LINE
8
0
6
CONTINUOUS
10
98.676104
20
212.957591
30
0.0
11
94.452663
21
212.957591
31
0.0
0
LINE
8
0
6
CONTINUOUS
10
94.452663
20
212.957591
30
0.0
11
89.308394
21
212.957551
31
0.0
0
LINE
8
0
6
CONTINUOUS
10
89.308394
20
212.957551
30
0.0
11
83.459219
21
212.957561
31
0.0
0
LINE
8
0
6
CONTINUOUS
10
83.459219
20
212.957561
30
0.0
11
77.038753
21
212.957561
31
0.0
0
LINE
8
0
6
CONTINUOUS
10
77.038753
20
212.957561
30
0.0
11
70.391300
21
212.957561
31
0.0
0
LINE
8
0
6
CONTINUOUS
10
83.464851
20
190.374704
30
0.0
11
83.518742
21
192.881512
31
0.0
0
LINE
8
0
6
CONTINUOUS
10
83.843826
20
208.003162
30
0.0
11
83.892559
21
210.270063
31
0.0
0
LINE
8
0
6
CONTINUOUS
10
82.470850
20
190.374704
30
0.0
11
83.464851
21
190.374704
31
0.0
0
LINE
8
0
6
CONTINUOUS
10
65.409453
20
190.374674
30
0.0
11
70.406628
21
190.374674
31
0.0
0
LINE
8
0
6
CONTINUOUS
10
58.342376
20
190.374674
30
0.0
11
61.173061
21
190.374674
31
0.0
0
LINE
8
0
6
CONTINUOUS
10
70.406628
20
190.374674
30
0.0
11
75.403773
21
190.374704
31
0.0
0
LINE
8
0
6
CONTINUOUS
10
70.365312
20
210.268375
30
0.0
11
70.368691
21
208.641369
31
0.0
0
LINE
8
0
6
CONTINUOUS
10
70.401422
20
192.881522
30
0.0
11
70.406628
21
190.374674
31
0.0
0
LINE
8
0
6
CONTINUOUS
10
79.640175
20
190.374704
30
0.0
11
82.470850
21
190.374704
31
0.0
0
LINE
8
0
6
CONTINUOUS
10
58.342376
20
190.374674
30
0.0
11
58.276129
21
192.881522
31
0.0
0
LINE
8
0
6
CONTINUOUS
10
57.861681
20
208.564640
30
0.0
11
57.817856
21
210.223029
31
0.0
0
LINE
8
0
6
CONTINUOUS
10
57.348385
20
190.374674
30
0.0
11
58.342376
21
190.374674
31
0.0
0
LINE
8
0
6
CONTINUOUS
10
56.855140
20
210.266049
30
0.0
11
56.897884
21
208.542281
31
0.0
0
LINE
8
0
6
CONTINUOUS
10
57.286223
20
192.881522
30
0.0
11
57.348385
21
190.374674
31
0.0
0
LINE
8
0
6
CONTINUOUS
10
65.409453
20
190.374674
30
0.0
11
65.377699
21
192.881522
31
0.0
0
LINE
8
0
6
CONTINUOUS
10
65.176894
20
208.734345
30
0.0
11
65.158109
21
210.217319
31
0.0
0
LINE
8
0
6
CONTINUOUS
10
61.173061
20
190.374674
30
0.0
11
65.409453
21
190.374674
31
0.0
0
LINE
8
0
6
CONTINUOUS
10
60.755619
20
210.219214
30
0.0
11
60.788995
21
208.632551
31
0.0
0
LINE
8
0
6
CONTINUOUS
10
61.120328
20
192.881522
30
0.0
11
61.173061
21
190.374674
31
0.0
0
LINE
8
0
6
CONTINUOUS
10
70.408395
20
211.777759
30
0.0
11
63.873467
21
211.777689
31
0.0
0
LINE
8
0
6
CONTINUOUS
10
63.873467
20
211.777689
30
0.0
11
57.588183
21
211.766778
31
0.0
0
LINE
8
0
6
CONTINUOUS
10
57.588183
20
211.766778
30
0.0
11
51.806080
21
211.776876
31
0.0
0
LINE
8
0
6
CONTINUOUS
10
51.806080
20
211.776876
30
0.0
11
46.733176
21
211.788930
31
0.0
0
LINE
8
0
6
CONTINUOUS
10
46.733176
20
211.788930
30
0.0
11
42.568558
21
211.789823
31
0.0
0
LINE
8
0
6
CONTINUOUS
10
42.568558
20
211.789823
30
0.0
11
39.480062
21
211.797665
31
0.0
0
LINE
8
0
6
CONTINUOUS
10
39.480062
20
211.797665
30
0.0
11
37.582127
21
211.819696
31
0.0
0
LINE
8
0
6
CONTINUOUS
10
36.942476
20
211.828993
30
0.0
11
38.524544
21
211.704814
31
0.0
0
LINE
8
0
6
CONTINUOUS
10
37.582127
20
211.819696
30
0.0
11
36.942476
21
211.828993
31
0.0
0
LINE
8
0
6
CONTINUOUS
10
103.891250
20
211.908004
30
0.0
11
103.270361
21
211.888229
31
0.0
0
LINE
8
0
6
CONTINUOUS
10
102.307554
20
211.778290
30
0.0
11
103.891250
21
211.908004
31
0.0
0
LINE
8
0
6
CONTINUOUS
10
103.270361
20
211.888229
30
0.0
11
101.372297
21
211.879665
31
0.0
0
LINE
8
0
6
CONTINUOUS
10
101.372297
20
211.879665
30
0.0
11
98.233164
21
211.819446
31
0.0
0
LINE
8
0
6
CONTINUOUS
10
98.233164
20
211.819446
30
0.0
11
94.079162
21
211.800783
31
0.0
0
LINE
8
0
6
CONTINUOUS
10
94.079162
20
211.800783
30
0.0
11
89.004999
21
211.800974
31
0.0
0
LINE
8
0
6
CONTINUOUS
10
89.004999
20
211.800974
30
0.0
11
83.217185
21
211.789191
31
0.0
0
LINE
8
0
6
CONTINUOUS
10
83.217185
20
211.789191
30
0.0
11
76.944102
21
211.767279
31
0.0
0
LINE
8
0
6
CONTINUOUS
10
76.944102
20
211.767279
30
0.0
11
70.408395
21
211.777759
31
0.0
0
LINE
8
0
6
CONTINUOUS
10
75.403773
20
190.374704
30
0.0
11
79.640175
21
190.374704
31
0.0
0
LINE
8
0
6
CONTINUOUS
10
36.449690
20
233.929996
30
0.0
11
36.449700
21
213.601358
31
0.0
0
LINE
8
0
6
CONTINUOUS
10
104.277742
20
213.601338
30
0.0
11
104.277722
21
233.929976
31
0.0
0
LINE
8
0
6
CONTINUOUS
10
38.524544
20
211.704814
30
0.0
11
56.855140
21
210.266049
31
0.0
0
LINE
8
0
6
CONTINUOUS
10
83.892559
20
210.270063
30
0.0
11
102.307554
21
211.778290
31
0.0
0
LINE
8
0
6
CONTINUOUS
10
70.391310
20
234.999880
30
0.0
11
63.760293
21
234.999920
31
0.0
0
LINE
8
0
6
CONTINUOUS
10
63.760293
20
234.999920
30
0.0
11
57.367726
21
234.999880
31
0.0
0
LINE
8
0
6
CONTINUOUS
10
57.367726
20
234.999880
30
0.0
11
51.437960
21
234.999880
31
0.0
0
LINE
8
0
6
CONTINUOUS
10
42.090350
20
234.999930
30
0.0
11
38.937378
21
234.999930
31
0.0
0
LINE
8
0
6
CONTINUOUS
10
38.937378
20
234.999930
30
0.0
11
37.076460
21
234.999930
31
0.0
0
LINE
8
0
6
CONTINUOUS
10
36.449690
20
234.999930
30
0.0
11
36.449690
21
233.929996
31
0.0
0
LINE
8
0
6
CONTINUOUS
10
37.076460
20
234.999930
30
0.0
11
36.449690
21
234.999930
31
0.0
0
LINE
8
0
6
CONTINUOUS
10
104.277722
20
233.929976
30
0.0
11
104.277722
21
234.999910
31
0.0
0
LINE
8
0
6
CONTINUOUS
10
104.277722
20
234.999910
30
0.0
11
103.658611
21
234.999910
31
0.0
0
LINE
8
0
6
CONTINUOUS
10
103.658611
20
234.999910
30
0.0
11
101.746757
21
234.999910
31
0.0
0
LINE
8
0
6
CONTINUOUS
10
101.746757
20
234.999910
30
0.0
11
98.676074
21
234.999910
31
0.0
0
LINE
8
0
6
CONTINUOUS
10
98.676074
20
234.999910
30
0.0
11
94.452633
21
234.999910
31
0.0
0
LINE
8
0
6
CONTINUOUS
10
89.308374
20
234.999870
30
0.0
11
83.459160
21
234.999910
31
0.0
0
LINE
8
0
6
CONTINUOUS
10
77.038743
20
234.999880
30
0.0
11
70.391310
21
234.999880
31
0.0
0
LINE
8
0
6
CONTINUOUS
10
-73.228476
20
234.999950
30
0.0
11
-79.859483
21
234.999910
31
0.0
0
LINE
8
0
6
CONTINUOUS
10
-66.835899
20
234.999910
30
0.0
11
-73.228476
21
234.999950
31
0.0
0
LINE
8
0
6
CONTINUOUS
10
-60.906123
20
234.999910
30
0.0
11
-66.835899
21
234.999910
31
0.0
0
LINE
8
0
6
CONTINUOUS
10
-51.558523
20
234.999950
30
0.0
11
-55.782713
21
234.999950
31
0.0
0
LINE
8
0
6
CONTINUOUS
10
-48.405561
20
234.999950
30
0.0
11
-51.558523
21
234.999950
31
0.0
0
LINE
8
0
6
CONTINUOUS
10
-46.544632
20
234.999950
30
0.0
11
-48.405561
21
234.999950
31
0.0
0
LINE
8
0
6
CONTINUOUS
10
-45.917862
20
234.999950
30
0.0
11
-46.544632
21
234.999950
31
0.0
0
LINE
8
0
6
CONTINUOUS
10
-45.917862
20
233.930016
30
0.0
11
-45.917862
21
234.999950
31
0.0
0
LINE
8
0
6
CONTINUOUS
10
-113.126794
20
234.999960
30
0.0
11
-113.745915
21
234.999960
31
0.0
0
LINE
8
0
6
CONTINUOUS
10
-113.745915
20
234.999960
30
0.0
11
-113.745915
21
233.930026
31
0.0
0
LINE
8
0
6
CONTINUOUS
10
-111.214940
20
234.999960
30
0.0
11
-113.126794
21
234.999960
31
0.0
0
LINE
8
0
6
CONTINUOUS
10
-108.144257
20
234.999960
30
0.0
11
-111.214940
21
234.999960
31
0.0
0
LINE
8
0
6
CONTINUOUS
10
-103.920816
20
234.999960
30
0.0
11
-108.144257
21
234.999960
31
0.0
0
LINE
8
0
6
CONTINUOUS
10
-92.927352
20
234.999960
30
0.0
11
-98.776557
21
234.999920
31
0.0
0
LINE
8
0
6
CONTINUOUS
10
-79.859483
20
234.999910
30
0.0
11
-86.506926
21
234.999920
31
0.0
0
LINE
8
0
6
CONTINUOUS
10
46.314530
20
234.999920
30
0.0
11
51.437960
21
234.999880
31
0.0
0
LINE
8
0
6
CONTINUOUS
10
42.090350
20
234.999930
30
0.0
11
46.314530
21
234.999920
31
0.0
0
LINE
8
0
6
CONTINUOUS
10
42.941601
20
234.999930
30
0.0
11
42.090350
21
234.999930
31
0.0
0
LINE
8
0
6
CONTINUOUS
10
36.449690
20
234.999930
30
0.0
11
37.472119
21
234.999930
31
0.0
0
LINE
8
0
6
CONTINUOUS
10
37.118428
20
234.999960
30
0.0
11
36.449690
21
234.999930
31
0.0
0
LINE
8
0
6
CONTINUOUS
10
38.120407
20
234.999960
30
0.0
11
37.118428
21
234.999960
31
0.0
0
LINE
8
0
6
CONTINUOUS
10
37.472119
20
234.999930
30
0.0
11
38.120407
21
234.999960
31
0.0
0
LINE
8
0
6
CONTINUOUS
10
42.266572
20
234.999960
30
0.0
11
39.124553
21
234.999930
31
0.0
0
LINE
8
0
6
CONTINUOUS
10
43.115595
20
234.999960
30
0.0
11
42.266572
21
234.999960
31
0.0
0
LINE
8
0
6
CONTINUOUS
10
63.766364
20
234.999960
30
0.0
11
63.964733
21
234.999960
31
0.0
0
LINE
8
0
6
CONTINUOUS
10
70.431741
20
234.999960
30
0.0
11
63.766364
21
234.999960
31
0.0
0
LINE
8
0
6
CONTINUOUS
10
76.964123
20
234.999950
30
0.0
11
70.431741
21
234.999960
31
0.0
0
LINE
8
0
6
CONTINUOUS
10
76.767452
20
234.999950
30
0.0
11
76.964123
21
234.999950
31
0.0
0
LINE
8
0
6
CONTINUOUS
10
70.426629
20
234.999950
30
0.0
11
76.767452
21
234.999950
31
0.0
0
LINE
8
0
6
CONTINUOUS
10
94.240105
20
234.999950
30
0.0
11
93.521121
21
234.999950
31
0.0
0
LINE
8
0
6
CONTINUOUS
10
98.464954
20
234.999910
30
0.0
11
94.240105
21
234.999950
31
0.0
0
LINE
8
0
6
CONTINUOUS
10
89.308374
20
234.999870
30
0.0
11
94.452633
21
234.999910
31
0.0
0
LINE
8
0
6
CONTINUOUS
10
77.038743
20
234.999880
30
0.0
11
83.459160
21
234.999910
31
0.0
0
LINE
8
0
6
CONTINUOUS
10
-60.906123
20
234.999910
30
0.0
11
-55.782713
21
234.999950
31
0.0
0
LINE
8
0
6
CONTINUOUS
10
-46.586611
20
234.999980
30
0.0
11
-47.588590
21
234.999980
31
0.0
0
LINE
8
0
6
CONTINUOUS
10
-45.917862
20
234.999950
30
0.0
11
-46.586611
21
234.999980
31
0.0
0
LINE
8
0
6
CONTINUOUS
10
-47.588590
20
234.999980
30
0.0
11
-46.940292
21
234.999950
31
0.0
0
LINE
8
0
6
CONTINUOUS
10
-51.734754
20
234.999980
30
0.0
11
-52.583778
21
234.999980
31
0.0
0
LINE
8
0
6
CONTINUOUS
10
-48.592726
20
234.999950
30
0.0
11
-51.734754
21
234.999980
31
0.0
0
LINE
8
0
6
CONTINUOUS
10
-55.950347
20
234.999980
30
0.0
11
-61.135176
21
234.999990
31
0.0
0
LINE
8
0
6
CONTINUOUS
10
-56.670060
20
234.999980
30
0.0
11
-55.950347
21
234.999980
31
0.0
0
LINE
8
0
6
CONTINUOUS
10
-61.695634
20
234.999980
30
0.0
11
-56.670060
21
234.999980
31
0.0
0
LINE
8
0
6
CONTINUOUS
10
-66.949902
20
234.999990
30
0.0
11
-67.341287
21
234.999990
31
0.0
0
LINE
8
0
6
CONTINUOUS
10
-61.135176
20
234.999990
30
0.0
11
-66.949902
21
234.999990
31
0.0
0
LINE
8
0
6
CONTINUOUS
10
-67.341287
20
234.999990
30
0.0
11
-61.695634
21
234.999980
31
0.0
0
LINE
8
0
6
CONTINUOUS
10
-98.628534
20
234.999990
30
0.0
11
-103.708288
21
235.000000
31
0.0
0
LINE
8
0
6
CONTINUOUS
10
-98.059509
20
234.999990
30
0.0
11
-98.628534
21
234.999990
31
0.0
0
LINE
8
0
6
CONTINUOUS
10
-102.989303
20
234.999990
30
0.0
11
-98.059509
21
234.999990
31
0.0
0
LINE
8
0
6
CONTINUOUS
10
-107.933137
20
234.999960
30
0.0
11
-107.086020
21
234.999960
31
0.0
0
LINE
8
0
6
CONTINUOUS
10
-103.708288
20
235.000000
30
0.0
11
-107.933137
21
234.999960
31
0.0
0
LINE
8
0
6
CONTINUOUS
10
-103.920816
20
234.999960
30
0.0
11
-98.776557
21
234.999920
31
0.0
0
LINE
8
0
6
CONTINUOUS
10
-103.194842
20
234.999960
30
0.0
11
-103.920816
21
234.999960
31
0.0
0
LINE
8
0
6
CONTINUOUS
10
-92.927352
20
234.999960
30
0.0
11
-86.506926
21
234.999920
31
0.0
0
LINE
8
0
6
CONTINUOUS
10
-92.528917
20
234.999960
30
0.0
11
-92.927352
21
234.999960
31
0.0
0
LINE
8
0
6
CONTINUOUS
10
-79.836717
20
234.999960
30
0.0
11
-103.194842
21
234.999960
31
0.0
0
LINE
8
0
6
CONTINUOUS
10
-79.836717
20
234.999960
30
0.0
11
-102.989303
21
234.999990
31
0.0
0
LINE
8
0
6
CONTINUOUS
10
-110.159499
20
234.999960
30
0.0
11
-79.836717
21
234.999960
31
0.0
0
LINE
8
0
6
CONTINUOUS
10
-107.086020
20
234.999960
30
0.0
11
-110.159499
21
234.999960
31
0.0
0
LINE
8
0
6
CONTINUOUS
10
-79.836717
20
234.999960
30
0.0
11
-49.533375
21
234.999950
31
0.0
0
LINE
8
0
6
CONTINUOUS
10
-56.670060
20
234.999980
30
0.0
11
-79.836717
21
234.999960
31
0.0
0
LINE
8
0
6
CONTINUOUS
10
-52.583778
20
234.999980
30
0.0
11
-56.670060
21
234.999980
31
0.0
0
LINE
8
0
6
CONTINUOUS
10
-56.507499
20
234.999950
30
0.0
11
-79.836717
21
234.999960
31
0.0
0
LINE
8
0
6
CONTINUOUS
10
40.065203
20
234.999920
30
0.0
11
70.368534
21
234.999920
31
0.0
0
LINE
8
0
6
CONTINUOUS
10
47.201878
20
234.999960
30
0.0
11
43.115595
21
234.999960
31
0.0
0
LINE
8
0
6
CONTINUOUS
10
52.227451
20
234.999960
30
0.0
11
47.201878
21
234.999960
31
0.0
0
LINE
8
0
6
CONTINUOUS
10
57.873105
20
234.999960
30
0.0
11
52.227451
21
234.999960
31
0.0
0
LINE
8
0
6
CONTINUOUS
10
63.964733
20
234.999960
30
0.0
11
57.873105
21
234.999960
31
0.0
0
LINE
8
0
6
CONTINUOUS
10
70.368534
20
234.999920
30
0.0
11
70.426629
21
234.999950
31
0.0
0
LINE
8
0
6
CONTINUOUS
10
93.521121
20
234.999950
30
0.0
11
70.368534
21
234.999920
31
0.0
0
LINE
8
0
6
CONTINUOUS
10
70.368534
20
234.999920
30
0.0
11
100.691306
21
234.999910
31
0.0
0
LINE
8
0
6
CONTINUOUS
10
93.726659
20
234.999910
30
0.0
11
70.368534
21
234.999920
31
0.0
0
LINE
8
0
6
CONTINUOUS
10
-9.966712
20
222.633825
30
0.0
11
-9.966719
21
182.461402
31
0.0
0
LINE
8
0
6
CONTINUOUS
10
-4.734102
20
222.633825
30
0.0
11
-4.734109
21
183.869482
31
0.0
0
LINE
8
0
6
CONTINUOUS
10
0.498500
20
182.461402
30
0.0
11
0.498507
21
222.633825
31
0.0
0
LINE
8
0
6
CONTINUOUS
10
4.329045
20
222.633825
30
0.0
11
4.329037
21
178.749828
31
0.0
0
LINE
8
0
6
CONTINUOUS
10
5.731098
20
174.369892
30
0.0
11
5.731107
21
222.633825
31
0.0
0
LINE
8
0
6
CONTINUOUS
10
-15.199321
20
222.633825
30
0.0
11
-15.199321
21
174.369874
31
0.0
0
LINE
8
0
6
CONTINUOUS
10
-13.797248
20
178.749822
30
0.0
11
-13.797240
21
222.633825
31
0.0
0
LINE
8
0
6
CONTINUOUS
10
-17.797128
20
234.999950
30
0.0
11
-23.505679
21
234.999950
31
0.0
0
LINE
8
0
6
CONTINUOUS
10
-4.734091
20
222.633825
30
0.0
11
1.879192
21
222.633825
31
0.0
0
LINE
8
0
6
CONTINUOUS
10
-23.505679
20
234.999950
30
0.0
11
-28.272931
21
234.999950
31
0.0
0
LINE
8
0
6
CONTINUOUS
10
1.879192
20
222.633825
30
0.0
11
8.160852
21
222.633825
31
0.0
0
LINE
8
0
6
CONTINUOUS
10
8.160852
20
222.633825
30
0.0
11
13.795911
21
222.633825
31
0.0
0
LINE
8
0
6
CONTINUOUS
10
13.795911
20
222.633825
30
0.0
11
18.501783
21
222.633825
31
0.0
0
LINE
8
0
6
CONTINUOUS
10
-34.086558
20
234.999960
30
0.0
11
-34.841420
21
234.999970
31
0.0
0
LINE
8
0
6
CONTINUOUS
10
-34.841420
20
234.999970
30
0.0
11
-34.827201
21
228.379966
31
0.0
0
LINE
8
0
6
CONTINUOUS
10
18.501783
20
222.633825
30
0.0
11
22.042526
21
222.633825
31
0.0
0
LINE
8
0
6
CONTINUOUS
10
22.042526
20
222.633825
30
0.0
11
24.240570
21
222.633835
31
0.0
0
LINE
8
0
6
CONTINUOUS
10
24.985716
20
222.633835
30
0.0
11
25.016801
21
223.112278
31
0.0
0
LINE
8
0
6
CONTINUOUS
10
24.240570
20
222.633835
30
0.0
11
24.985716
21
222.633835
31
0.0
0
LINE
8
0
6
CONTINUOUS
10
25.373237
20
234.999970
30
0.0
11
24.618375
21
234.999960
31
0.0
0
LINE
8
0
6
CONTINUOUS
10
25.359018
20
228.379956
30
0.0
11
25.373237
21
234.999970
31
0.0
0
LINE
8
0
6
CONTINUOUS
10
-34.453909
20
222.633835
30
0.0
11
-33.708763
21
222.633835
31
0.0
0
LINE
8
0
6
CONTINUOUS
10
-34.484993
20
223.112278
30
0.0
11
-34.453909
21
222.633835
31
0.0
0
LINE
8
0
6
CONTINUOUS
10
18.804759
20
234.999940
30
0.0
11
14.037526
21
234.999940
31
0.0
0
LINE
8
0
6
CONTINUOUS
10
-33.708763
20
222.633835
30
0.0
11
-31.510709
21
222.633835
31
0.0
0
LINE
8
0
6
CONTINUOUS
10
14.037526
20
234.999940
30
0.0
11
8.328985
21
234.999940
31
0.0
0
LINE
8
0
6
CONTINUOUS
10
-31.510709
20
222.633835
30
0.0
11
-27.969956
21
222.633825
31
0.0
0
LINE
8
0
6
CONTINUOUS
10
8.328985
20
234.999940
30
0.0
11
1.965415
21
234.999940
31
0.0
0
LINE
8
0
6
CONTINUOUS
10
-27.969956
20
222.633825
30
0.0
11
-23.264063
21
222.633825
31
0.0
0
LINE
8
0
6
CONTINUOUS
10
-11.433558
20
234.999950
30
0.0
11
-17.797128
21
234.999950
31
0.0
0
LINE
8
0
6
CONTINUOUS
10
-23.264063
20
222.633825
30
0.0
11
-17.628994
21
222.633825
31
0.0
0
LINE
8
0
6
CONTINUOUS
10
-11.347335
20
222.633825
30
0.0
11
-4.734091
21
222.633825
31
0.0
0
LINE
8
0
6
CONTINUOUS
10
-17.628994
20
222.633825
30
0.0
11
-11.347335
21
222.633825
31
0.0
0
LINE
8
0
6
CONTINUOUS
10
25.016801
20
223.112278
30
0.0
11
25.359018
21
228.379956
31
0.0
0
LINE
8
0
6
CONTINUOUS
10
-34.827201
20
228.379966
30
0.0
11
-34.484993
21
223.112278
31
0.0
0
LINE
8
0
6
CONTINUOUS
10
-28.272931
20
234.999950
30
0.0
11
-31.859846
21
234.999960
31
0.0
0
LINE
8
0
6
CONTINUOUS
10
-31.859846
20
234.999960
30
0.0
11
-34.086558
21
234.999960
31
0.0
0
LINE
8
0
6
CONTINUOUS
10
24.618375
20
234.999960
30
0.0
11
22.391674
21
234.999960
31
0.0
0
LINE
8
0
6
CONTINUOUS
10
22.391674
20
234.999960
30
0.0
11
18.804759
21
234.999940
31
0.0
0
LINE
8
0
6
CONTINUOUS
10
1.965415
20
234.999940
30
0.0
11
-4.734091
21
234.999950
31
0.0
0
LINE
8
0
6
CONTINUOUS
10
-4.734091
20
234.999950
30
0.0
11
-11.433558
21
234.999950
31
0.0
0
LINE
8
0
6
CONTINUOUS
10
9.240247
20
-104.528871
30
0.0
11
9.240247
21
-104.388858
31
0.0
0
LINE
8
0
6
CONTINUOUS
10
6.259293
20
-111.005754
30
0.0
11
6.259293
21
-111.145767
31
0.0
0
LINE
8
0
6
CONTINUOUS
10
-17.946179
20
-107.207210
30
0.0
11
-17.946179
21
-107.347263
31
0.0
0
LINE
8
0
6
CONTINUOUS
10
-13.642576
20
-113.069006
30
0.0
11
-13.642576
21
-113.209019
31
0.0
0
LINE
8
0
6
CONTINUOUS
10
0.332462
20
-115.402055
30
0.0
11
0.332462
21
-115.262012
31
0.0
0
LINE
8
0
6
CONTINUOUS
10
-6.952246
20
-116.017383
30
0.0
11
-6.952246
21
-116.157436
31
0.0
0
LINE
8
0
6
CONTINUOUS
10
0.332462
20
-119.970089
30
0.0
11
6.259293
21
-115.713761
31
0.0
0
LINE
8
0
6
CONTINUOUS
10
-18.709588
20
-104.710461
30
0.0
11
-17.946189
21
-111.915247
31
0.0
0
LINE
8
0
6
CONTINUOUS
10
-18.709588
20
-104.559778
30
0.0
11
-18.709588
21
-104.710461
31
0.0
0
LINE
8
0
6
CONTINUOUS
10
9.240247
20
-109.096865
30
0.0
11
9.240247
21
-108.946212
31
0.0
0
LINE
8
0
6
CONTINUOUS
10
6.259293
20
-115.713761
30
0.0
11
9.240247
21
-109.096865
31
0.0
0
LINE
8
0
6
CONTINUOUS
10
6.259293
20
-115.563108
30
0.0
11
6.259293
21
-115.713761
31
0.0
0
LINE
8
0
6
CONTINUOUS
10
-17.946189
20
-111.915247
30
0.0
11
-13.642576
21
-117.777003
31
0.0
0
LINE
8
0
6
CONTINUOUS
10
-17.946189
20
-111.764564
30
0.0
11
-17.946189
21
-111.915247
31
0.0
0
LINE
8
0
6
CONTINUOUS
10
-13.642576
20
-117.777003
30
0.0
11
-6.952246
21
-120.725420
31
0.0
0
LINE
8
0
6
CONTINUOUS
10
-13.642576
20
-117.626360
30
0.0
11
-13.642576
21
-117.777003
31
0.0
0
LINE
8
0
6
CONTINUOUS
10
0.332462
20
-119.970089
30
0.0
11
0.332462
21
-119.819446
31
0.0
0
LINE
8
0
6
CONTINUOUS
10
-6.952246
20
-120.725420
30
0.0
11
0.332462
21
-119.970089
31
0.0
0
LINE
8
0
6
CONTINUOUS
10
-6.952246
20
-120.574737
30
0.0
11
-6.952246
21
-120.725420
31
0.0
0
LINE
8
0
6
CONTINUOUS
10
8.476838
20
-97.183952
30
0.0
11
4.173185
21
-91.322277
31
0.0
0
LINE
8
0
6
CONTINUOUS
10
9.240247
20
-104.388858
30
0.0
11
8.476838
21
-97.183952
31
0.0
0
LINE
8
0
6
CONTINUOUS
10
6.259293
20
-111.005754
30
0.0
11
9.240247
21
-104.388858
31
0.0
0
LINE
8
0
6
CONTINUOUS
10
0.332462
20
-115.262012
30
0.0
11
6.259293
21
-111.005754
31
0.0
0
LINE
8
0
6
CONTINUOUS
10
-6.952246
20
-116.017383
30
0.0
11
0.332462
21
-115.262012
31
0.0
0
LINE
8
0
6
CONTINUOUS
10
-13.642576
20
-113.069006
30
0.0
11
-6.952246
21
-116.017383
31
0.0
0
LINE
8
0
6
CONTINUOUS
10
-17.946179
20
-107.207210
30
0.0
11
-13.642576
21
-113.069006
31
0.0
0
LINE
8
0
6
CONTINUOUS
10
-18.709588
20
-100.002384
30
0.0
11
-17.946179
21
-107.207210
31
0.0
0
LINE
8
0
6
CONTINUOUS
10
-15.728584
20
-93.385449
30
0.0
11
-18.709588
21
-100.002384
31
0.0
0
LINE
8
0
6
CONTINUOUS
10
-9.801823
20
-89.129190
30
0.0
11
-15.728584
21
-93.385449
31
0.0
0
LINE
8
0
6
CONTINUOUS
10
-2.517115
20
-88.373780
30
0.0
11
-9.801823
21
-89.129190
31
0.0
0
LINE
8
0
6
CONTINUOUS
10
4.173185
20
-91.322277
30
0.0
11
-2.517115
21
-88.373780
31
0.0
0
LINE
8
0
6
CONTINUOUS
10
-18.709588
20
-100.142397
30
0.0
11
-18.709588
21
-104.559778
31
0.0
0
LINE
8
0
6
CONTINUOUS
10
9.240247
20
-108.946212
30
0.0
11
9.240247
21
-104.528871
31
0.0
0
LINE
8
0
6
CONTINUOUS
10
6.259293
20
-111.145767
30
0.0
11
6.259293
21
-115.563108
31
0.0
0
LINE
8
0
6
CONTINUOUS
10
-17.946179
20
-107.347263
30
0.0
11
-17.946189
21
-111.764564
31
0.0
0
LINE
8
0
6
CONTINUOUS
10
-13.642576
20
-113.209019
30
0.0
11
-13.642576
21
-117.626360
31
0.0
0
LINE
8
0
6
CONTINUOUS
10
0.332462
20
-119.819446
30
0.0
11
0.332462
21
-115.402055
31
0.0
0
LINE
8
0
6
CONTINUOUS
10
-6.952246
20
-116.157436
30
0.0
11
-6.952246
21
-120.574737
31
0.0
0
LINE
8
0
6
CONTINUOUS
10
6.099377
20
172.762502
30
0.0
11
6.099377
21
172.989550
31
0.0
0
LINE
8
0
6
CONTINUOUS
10
6.099377
20
172.989550
30
0.0
11
4.647978
21
178.429521
31
0.0
0
LINE
8
0
6
CONTINUOUS
10
-10.150861
20
182.411851
30
0.0
11
-14.116180
21
178.429521
31
0.0
0
LINE
8
0
6
CONTINUOUS
10
0.682638
20
182.411851
30
0.0
11
-4.734111
21
183.869482
31
0.0
0
LINE
8
0
6
CONTINUOUS
10
-4.734111
20
183.606023
30
0.0
11
-4.734111
21
183.869482
31
0.0
0
LINE
8
0
6
CONTINUOUS
10
-10.150861
20
182.411851
30
0.0
11
-10.150861
21
182.153265
31
0.0
0
LINE
8
0
6
CONTINUOUS
10
-4.734111
20
183.869482
30
0.0
11
-10.150861
21
182.411851
31
0.0
0
LINE
8
0
6
CONTINUOUS
10
4.647978
20
178.184273
30
0.0
11
4.647978
21
178.429521
31
0.0
0
LINE
8
0
6
CONTINUOUS
10
0.682638
20
182.411851
30
0.0
11
0.682638
21
182.153265
31
0.0
0
LINE
8
0
6
CONTINUOUS
10
4.647978
20
178.429521
30
0.0
11
0.682638
21
182.411851
31
0.0
0
LINE
8
0
6
CONTINUOUS
10
-14.116180
20
178.184263
30
0.0
11
-14.116180
21
178.429521
31
0.0
0
LINE
8
0
6
CONTINUOUS
10
-15.567600
20
172.989550
30
0.0
11
-15.567600
21
172.762492
31
0.0
0
LINE
8
0
6
CONTINUOUS
10
-14.116180
20
178.429521
30
0.0
11
-15.567600
21
172.989550
31
0.0
0
LINE
8
0
6
CONTINUOUS
10
6.099377
20
172.366149
30
0.0
11
6.099377
21
172.762502
31
0.0
0
LINE
8
0
6
CONTINUOUS
10
4.647978
20
177.771133
30
0.0
11
4.647978
21
178.184273
31
0.0
0
LINE
8
0
6
CONTINUOUS
10
-10.150861
20
181.727820
30
0.0
11
-10.150861
21
182.153265
31
0.0
0
LINE
8
0
6
CONTINUOUS
10
0.682638
20
181.727820
30
0.0
11
0.682638
21
182.153265
31
0.0
0
LINE
8
0
6
CONTINUOUS
10
-4.734111
20
183.606023
30
0.0
11
-4.734111
21
183.176076
31
0.0
0
LINE
8
0
6
CONTINUOUS
10
-14.116180
20
177.771123
30
0.0
11
-14.116180
21
178.184263
31
0.0
0
LINE
8
0
6
CONTINUOUS
10
-15.567600
20
172.762492
30
0.0
11
-15.567600
21
172.366139
31
0.0
0
LINE
8
0
6
CONTINUOUS
10
-15.567600
20
165.497307
30
0.0
11
-15.567600
21
161.469169
31
0.0
0
LINE
8
0
6
CONTINUOUS
10
6.099377
20
168.750038
30
0.0
11
6.099377
21
170.992453
31
0.0
0
LINE
8
0
6
CONTINUOUS
10
4.647978
20
173.869099
30
0.0
11
4.647978
21
176.258005
31
0.0
0
LINE
8
0
6
CONTINUOUS
10
-10.150861
20
177.616489
30
0.0
11
-10.150861
21
180.112636
31
0.0
0
LINE
8
0
6
CONTINUOUS
10
0.682638
20
177.616489
30
0.0
11
0.682638
21
180.112636
31
0.0
0
LINE
8
0
6
CONTINUOUS
10
-4.734111
20
181.523537
30
0.0
11
-4.734111
21
178.988149
31
0.0
0
LINE
8
0
6
CONTINUOUS
10
-14.116180
20
173.869089
30
0.0
11
-14.116180
21
176.257995
31
0.0
0
LINE
8
0
6
CONTINUOUS
10
-15.567600
20
170.992443
30
0.0
11
-15.567600
21
168.750038
31
0.0
0
LINE
8
0
6
CONTINUOUS
10
6.099377
20
161.469179
30
0.0
11
6.099377
21
165.497307
31
0.0
0
LINE
8
0
6
CONTINUOUS
10
4.647968
20
166.027425
30
0.0
11
4.647968
21
170.335960
31
0.0
0
LINE
8
0
6
CONTINUOUS
10
-10.150861
20
169.364333
30
0.0
11
-10.150861
21
173.878114
31
0.0
0
LINE
8
0
6
CONTINUOUS
10
-14.116180
20
170.335960
30
0.0
11
-14.116180
21
166.027425
31
0.0
0
LINE
8
0
6
CONTINUOUS
10
0.682638
20
169.364333
30
0.0
11
0.682638
21
173.878114
31
0.0
0
LINE
8
0
6
CONTINUOUS
10
-4.734111
20
175.174634
30
0.0
11
-4.734111
21
170.585711
31
0.0
0
LINE
8
0
6
CONTINUOUS
10
-14.116190
20
154.682095
30
0.0
11
-14.116190
21
160.752497
31
0.0
0
LINE
8
0
6
CONTINUOUS
10
-15.567600
20
156.648576
30
0.0
11
-15.567600
21
150.970947
31
0.0
0
LINE
8
0
6
CONTINUOUS
10
6.099377
20
150.970947
30
0.0
11
6.099377
21
156.648576
31
0.0
0
LINE
8
0
6
CONTINUOUS
10
-4.734111
20
158.393274
30
0.0
11
-4.734111
21
164.856458
31
0.0
0
LINE
8
0
6
CONTINUOUS
10
-10.150861
20
163.756831
30
0.0
11
-10.150861
21
157.398912
31
0.0
0
LINE
8
0
6
CONTINUOUS
10
4.647968
20
154.682095
30
0.0
11
4.647968
21
160.752497
31
0.0
0
LINE
8
0
6
CONTINUOUS
10
0.682638
20
163.756831
30
0.0
11
0.682638
21
157.398912
31
0.0
0
LINE
8
0
6
CONTINUOUS
10
-10.150861
20
139.040906
30
0.0
11
-10.150861
21
148.219904
31
0.0
0
LINE
8
0
6
CONTINUOUS
10
0.682638
20
139.040906
30
0.0
11
0.682638
21
148.219904
31
0.0
0
LINE
8
0
6
CONTINUOUS
10
-4.734111
20
149.045773
30
0.0
11
-4.734111
21
139.698272
31
0.0
0
LINE
8
0
6
CONTINUOUS
10
-14.116190
20
137.244654
30
0.0
11
-14.116190
21
145.963380
31
0.0
0
LINE
8
0
6
CONTINUOUS
10
-15.567600
20
142.880996
30
0.0
11
-15.567600
21
134.791016
31
0.0
0
LINE
8
0
6
CONTINUOUS
10
6.099377
20
134.791016
30
0.0
11
6.099377
21
142.880976
31
0.0
0
LINE
8
0
6
CONTINUOUS
10
4.647968
20
145.963380
30
0.0
11
4.647968
21
137.244654
31
0.0
0
LINE
8
0
6
CONTINUOUS
10
6.099377
20
115.749020
30
0.0
11
6.099377
21
125.270018
31
0.0
0
LINE
8
0
6
CONTINUOUS
10
4.647968
20
116.641274
30
0.0
11
4.647968
21
126.942964
31
0.0
0
LINE
8
0
6
CONTINUOUS
10
-10.150861
20
117.294528
30
0.0
11
-10.150861
21
128.167712
31
0.0
0
LINE
8
0
6
CONTINUOUS
10
0.682638
20
117.294518
30
0.0
11
0.682638
21
128.167702
31
0.0
0
LINE
8
0
6
CONTINUOUS
10
-4.734111
20
128.615890
30
0.0
11
-4.734111
21
117.533509
31
0.0
0
LINE
8
0
6
CONTINUOUS
10
-14.116190
20
116.641294
30
0.0
11
-14.116190
21
126.942974
31
0.0
0
LINE
8
0
6
CONTINUOUS
10
-15.567610
20
125.270028
30
0.0
11
-15.567610
21
115.749030
31
0.0
0
LINE
8
0
6
CONTINUOUS
10
6.099349
20
-93.945758
30
0.0
11
6.099377
21
115.749020
31
0.0
0
LINE
8
0
6
CONTINUOUS
10
4.647940
20
-91.968904
30
0.0
11
4.647968
21
116.641274
31
0.0
0
LINE
8
0
6
CONTINUOUS
10
-10.150888
20
-89.379869
30
0.0
11
-10.150861
21
117.294528
31
0.0
0
LINE
8
0
6
CONTINUOUS
10
0.682610
20
-89.783938
30
0.0
11
0.682638
21
117.294518
31
0.0
0
LINE
8
0
6
CONTINUOUS
10
-4.734111
20
117.533509
30
0.0
11
-4.734139
21
-88.603681
31
0.0
0
LINE
8
0
6
CONTINUOUS
10
-14.116218
20
-92.227541
30
0.0
11
-14.116190
21
116.641294
31
0.0
0
LINE
8
0
6
CONTINUOUS
10
-15.567610
20
115.749030
30
0.0
11
-15.567629
21
-93.269860
31
0.0
0
LINE
8
0
6
CONTINUOUS
10
6.099377
20
125.270018
30
0.0
11
6.099377
21
134.791016
31
0.0
0
LINE
8
0
6
CONTINUOUS
10
4.647968
20
126.942964
30
0.0
11
4.647968
21
137.244654
31
0.0
0
LINE
8
0
6
CONTINUOUS
10
-10.150861
20
128.167712
30
0.0
11
-10.150861
21
139.040906
31
0.0
0
LINE
8
0
6
CONTINUOUS
10
0.682638
20
128.167702
30
0.0
11
0.682638
21
139.040906
31
0.0
0
LINE
8
0
6
CONTINUOUS
10
-4.734111
20
139.698272
30
0.0
11
-4.734111
21
128.615890
31
0.0
0
LINE
8
0
6
CONTINUOUS
10
-14.116190
20
126.942974
30
0.0
11
-14.116190
21
137.244654
31
0.0
0
LINE
8
0
6
CONTINUOUS
10
-15.567600
20
134.791016
30
0.0
11
-15.567610
21
125.270028
31
0.0
0
LINE
8
0
6
CONTINUOUS
10
-10.150861
20
148.219904
30
0.0
11
-10.150861
21
157.398912
31
0.0
0
LINE
8
0
6
CONTINUOUS
10
0.682638
20
148.219904
30
0.0
11
0.682638
21
157.398912
31
0.0
0
LINE
8
0
6
CONTINUOUS
10
-4.734111
20
158.393274
30
0.0
11
-4.734111
21
149.045773
31
0.0
0
LINE
8
0
6
CONTINUOUS
10
-14.116190
20
145.963380
30
0.0
11
-14.116190
21
154.682095
31
0.0
0
LINE
8
0
6
CONTINUOUS
10
-15.567600
20
150.970947
30
0.0
11
-15.567600
21
142.880996
31
0.0
0
LINE
8
0
6
CONTINUOUS
10
6.099377
20
142.880976
30
0.0
11
6.099377
21
150.970947
31
0.0
0
LINE
8
0
6
CONTINUOUS
10
4.647968
20
154.682095
30
0.0
11
4.647968
21
145.963380
31
0.0
0
LINE
8
0
6
CONTINUOUS
10
-14.116190
20
160.752497
30
0.0
11
-14.116180
21
166.027425
31
0.0
0
LINE
8
0
6
CONTINUOUS
10
-15.567600
20
161.469169
30
0.0
11
-15.567600
21
156.648576
31
0.0
0
LINE
8
0
6
CONTINUOUS
10
6.099377
20
156.648576
30
0.0
11
6.099377
21
161.469179
31
0.0
0
LINE
8
0
6
CONTINUOUS
10
-4.734111
20
164.856458
30
0.0
11
-4.734111
21
170.585711
31
0.0
0
LINE
8
0
6
CONTINUOUS
10
-10.150861
20
169.364333
30
0.0
11
-10.150861
21
163.756831
31
0.0
0
LINE
8
0
6
CONTINUOUS
10
4.647968
20
160.752497
30
0.0
11
4.647968
21
166.027425
31
0.0
0
LINE
8
0
6
CONTINUOUS
10
0.682638
20
169.364333
30
0.0
11
0.682638
21
163.756831
31
0.0
0
LINE
8
0
6
CONTINUOUS
10
-15.567600
20
168.750038
30
0.0
11
-15.567600
21
165.497307
31
0.0
0
LINE
8
0
6
CONTINUOUS
10
6.099377
20
165.497307
30
0.0
11
6.099377
21
168.750038
31
0.0
0
LINE
8
0
6
CONTINUOUS
10
4.647968
20
170.335960
30
0.0
11
4.647978
21
173.869099
31
0.0
0
LINE
8
0
6
CONTINUOUS
10
-10.150861
20
173.878114
30
0.0
11
-10.150861
21
177.616489
31
0.0
0
LINE
8
0
6
CONTINUOUS
10
-14.116180
20
173.869089
30
0.0
11
-14.116180
21
170.335960
31
0.0
0
LINE
8
0
6
CONTINUOUS
10
0.682638
20
173.878114
30
0.0
11
0.682638
21
177.616489
31
0.0
0
LINE
8
0
6
CONTINUOUS
10
-4.734111
20
178.988149
30
0.0
11
-4.734111
21
175.174634
31
0.0
0
LINE
8
0
6
CONTINUOUS
10
6.099377
20
170.992453
30
0.0
11
6.099377
21
172.366149
31
0.0
0
LINE
8
0
6
CONTINUOUS
10
4.647978
20
176.258005
30
0.0
11
4.647978
21
177.771133
31
0.0
0
LINE
8
0
6
CONTINUOUS
10
-10.150861
20
180.112636
30
0.0
11
-10.150861
21
181.727820
31
0.0
0
LINE
8
0
6
CONTINUOUS
10
0.682638
20
180.112636
30
0.0
11
0.682638
21
181.727820
31
0.0
0
LINE
8
0
6
CONTINUOUS
10
-4.734111
20
183.176076
30
0.0
11
-4.734111
21
181.523537
31
0.0
0
LINE
8
0
6
CONTINUOUS
10
-14.116180
20
176.257995
30
0.0
11
-14.116180
21
177.771123
31
0.0
0
LINE
8
0
6
CONTINUOUS
10
-15.567600
20
172.366139
30
0.0
11
-15.567600
21
170.992443
31
0.0
0
LINE
8
0
6
CONTINUOUS
10
-30.795630
20
182.690580
30
0.0
11
-46.436830
21
182.709440
31
0.0
0
LINE
8
0
6
CONTINUOUS
10
-30.683220
20
176.789900
30
0.0
11
-30.683220
21
177.089670
31
0.0
0
LINE
8
0
6
CONTINUOUS
10
-30.683220
20
177.089670
30
0.0
11
-30.683220
21
177.566740
31
0.0
0
LINE
8
0
6
CONTINUOUS
10
-30.683220
20
177.566740
30
0.0
11
-30.683220
21
178.188450
31
0.0
0
LINE
8
0
6
CONTINUOUS
10
-30.683220
20
178.188450
30
0.0
11
-30.683220
21
178.912620
31
0.0
0
LINE
8
0
6
CONTINUOUS
10
-30.683220
20
179.689780
30
0.0
11
-30.683210
21
180.467000
31
0.0
0
LINE
8
0
6
CONTINUOUS
10
-30.683210
20
180.467000
30
0.0
11
-30.683210
21
181.191280
31
0.0
0
LINE
8
0
6
CONTINUOUS
10
-30.683210
20
182.290640
30
0.0
11
-30.683210
21
182.590850
31
0.0
0
LINE
8
0
6
CONTINUOUS
10
-30.683210
20
182.693390
30
0.0
11
-30.795630
21
182.690580
31
0.0
0
LINE
8
0
6
CONTINUOUS
10
-30.683210
20
182.590850
30
0.0
11
-30.683210
21
182.693390
31
0.0
0
LINE
8
0
6
CONTINUOUS
10
-30.683220
20
179.689780
30
0.0
11
-30.683220
21
178.912620
31
0.0
0
LINE
8
0
6
CONTINUOUS
10
-30.683220
20
181.813260
30
0.0
11
-30.683210
21
181.191280
31
0.0
0
LINE
8
0
6
CONTINUOUS
10
-30.683210
20
182.290640
30
0.0
11
-30.683220
21
181.813260
31
0.0
0
LINE
8
0
6
CONTINUOUS
10
-30.683240
20
174.850290
30
0.0
11
-30.683220
21
176.789900
31
0.0
0
LINE
8
0
6
CONTINUOUS
10
-30.795660
20
174.847080
30
0.0
11
-30.683240
21
174.850290
31
0.0
0
LINE
8
0
6
CONTINUOUS
10
-46.437030
20
191.863640
30
0.0
11
-47.149680
21
191.863650
31
0.0
0
LINE
8
0
6
CONTINUOUS
10
-47.149700
20
186.325430
30
0.0
11
-47.149740
21
182.414340
31
0.0
0
LINE
8
0
6
CONTINUOUS
10
-47.149960
20
159.635230
30
0.0
11
-47.150010
21
156.639100
31
0.0
0
LINE
8
0
6
CONTINUOUS
10
-47.150010
20
156.639100
30
0.0
11
-47.150040
21
154.757280
31
0.0
0
LINE
8
0
6
CONTINUOUS
10
-47.150040
20
154.757280
30
0.0
11
-47.150050
21
154.118090
31
0.0
0
LINE
8
0
6
CONTINUOUS
10
-47.150050
20
154.118090
30
0.0
11
-46.437400
21
154.118080
31
0.0
0
LINE
8
0
6
CONTINUOUS
10
-46.437400
20
154.118080
30
0.0
11
-26.176670
21
154.117940
31
0.0
0
LINE
8
0
6
CONTINUOUS
10
-26.176290
20
191.863500
30
0.0
11
-46.437030
21
191.863640
31
0.0
0
LINE
8
0
6
CONTINUOUS
10
-26.176670
20
154.117940
30
0.0
11
-25.886040
21
154.117940
31
0.0
0
LINE
8
0
6
CONTINUOUS
10
-25.886040
20
154.117940
30
0.0
11
-25.886030
21
154.757130
31
0.0
0
LINE
8
0
6
CONTINUOUS
10
-25.886030
20
154.757130
30
0.0
11
-25.886000
21
156.638900
31
0.0
0
LINE
8
0
6
CONTINUOUS
10
-25.886000
20
156.638900
30
0.0
11
-25.885950
21
159.635060
31
0.0
0
LINE
8
0
6
CONTINUOUS
10
-25.885860
20
168.091680
30
0.0
11
-25.885800
21
172.975830
31
0.0
0
LINE
8
0
6
CONTINUOUS
10
-25.885750
20
177.860940
30
0.0
11
-25.885700
21
182.414170
31
0.0
0
LINE
8
0
6
CONTINUOUS
10
-25.885700
20
182.414170
30
0.0
11
-25.885680
21
186.325280
31
0.0
0
LINE
8
0
6
CONTINUOUS
10
-25.885680
20
186.325280
30
0.0
11
-25.885660
21
189.327580
31
0.0
0
LINE
8
0
6
CONTINUOUS
10
-25.885660
20
189.327580
30
0.0
11
-25.885650
21
191.216550
31
0.0
0
LINE
8
0
6
CONTINUOUS
10
-25.885660
20
191.863490
30
0.0
11
-26.176290
21
191.863500
31
0.0
0
LINE
8
0
6
CONTINUOUS
10
-25.885650
20
191.216550
30
0.0
11
-25.885660
21
191.863490
31
0.0
0
LINE
8
0
6
CONTINUOUS
10
-47.149680
20
177.105810
30
0.0
11
-47.149680
21
176.805380
31
0.0
0
LINE
8
0
6
CONTINUOUS
10
-47.149670
20
177.583450
30
0.0
11
-47.149680
21
177.105810
31
0.0
0
LINE
8
0
6
CONTINUOUS
10
-47.149670
20
178.930290
30
0.0
11
-47.149670
21
178.205720
31
0.0
0
LINE
8
0
6
CONTINUOUS
10
-47.149660
20
180.485040
30
0.0
11
-47.149660
21
179.707760
31
0.0
0
LINE
8
0
6
CONTINUOUS
10
-47.149660
20
181.209280
30
0.0
11
-47.149660
21
180.485040
31
0.0
0
LINE
8
0
6
CONTINUOUS
10
-47.149650
20
181.831080
30
0.0
11
-47.149660
21
181.209280
31
0.0
0
LINE
8
0
6
CONTINUOUS
10
-47.149650
20
182.308140
30
0.0
11
-47.149650
21
181.831080
31
0.0
0
LINE
8
0
6
CONTINUOUS
10
-47.149650
20
182.607780
30
0.0
11
-47.149650
21
182.308140
31
0.0
0
LINE
8
0
6
CONTINUOUS
10
-47.149640
20
182.709770
30
0.0
11
-47.149650
21
182.607780
31
0.0
0
LINE
8
0
6
CONTINUOUS
10
-46.436830
20
182.709440
30
0.0
11
-47.149640
21
182.709770
31
0.0
0
LINE
8
0
6
CONTINUOUS
10
-46.436860
20
174.862210
30
0.0
11
-30.795660
21
174.847080
31
0.0
0
LINE
8
0
6
CONTINUOUS
10
-47.149670
20
177.583450
30
0.0
11
-47.149670
21
178.205720
31
0.0
0
LINE
8
0
6
CONTINUOUS
10
-47.149670
20
178.930290
30
0.0
11
-47.149660
21
179.707760
31
0.0
0
LINE
8
0
6
CONTINUOUS
10
-47.149960
20
159.635230
30
0.0
11
-47.149910
21
163.541560
31
0.0
0
LINE
8
0
6
CONTINUOUS
10
-47.149910
20
163.541560
30
0.0
11
-47.149860
21
168.091830
31
0.0
0
LINE
8
0
6
CONTINUOUS
10
-47.149860
20
168.091830
30
0.0
11
-47.149800
21
172.975970
31
0.0
0
LINE
8
0
6
CONTINUOUS
10
-47.149700
20
186.325430
30
0.0
11
-47.149680
21
189.327720
31
0.0
0
LINE
8
0
6
CONTINUOUS
10
-47.149680
20
189.327720
30
0.0
11
-47.149670
21
191.216720
31
0.0
0
LINE
8
0
6
CONTINUOUS
10
-47.149670
20
191.216720
30
0.0
11
-47.149680
21
191.863650
31
0.0
0
LINE
8
0
6
CONTINUOUS
10
-25.304640
20
154.169520
30
0.0
11
-24.984900
21
154.169520
31
0.0
0
LINE
8
0
6
CONTINUOUS
10
-25.304640
20
156.340220
30
0.0
11
-25.304640
21
154.910950
31
0.0
0
LINE
8
0
6
CONTINUOUS
10
-25.304650
20
158.410850
30
0.0
11
-25.304640
21
156.340220
31
0.0
0
LINE
8
0
6
CONTINUOUS
10
-25.304650
20
164.136370
30
0.0
11
-25.304650
21
161.043300
31
0.0
0
LINE
8
0
6
CONTINUOUS
10
-25.304650
20
161.043300
30
0.0
11
-25.304650
21
158.410850
31
0.0
0
LINE
8
0
6
CONTINUOUS
10
-24.984900
20
154.169520
30
0.0
11
-15.567600
21
154.169546
31
0.0
0
LINE
8
0
6
CONTINUOUS
10
6.074530
20
154.169605
30
0.0
11
12.440091
21
154.169622
31
0.0
0
LINE
8
0
6
CONTINUOUS
10
-25.304690
20
174.930290
30
0.0
11
-25.304680
21
171.215920
31
0.0
0
LINE
8
0
6
CONTINUOUS
10
-25.304700
20
178.571630
30
0.0
11
-25.304690
21
174.930290
31
0.0
0
LINE
8
0
6
CONTINUOUS
10
35.503200
20
182.000200
30
0.0
11
35.503190
21
185.083890
31
0.0
0
LINE
8
0
6
CONTINUOUS
10
35.503190
20
185.083890
30
0.0
11
35.503180
21
187.704350
31
0.0
0
LINE
8
0
6
CONTINUOUS
10
35.503180
20
189.760880
30
0.0
11
35.503160
21
191.174500
31
0.0
0
LINE
8
0
6
CONTINUOUS
10
35.503180
20
187.704350
30
0.0
11
35.503180
21
189.760880
31
0.0
0
LINE
8
0
6
CONTINUOUS
10
35.503220
20
178.571810
30
0.0
11
35.503200
21
182.000200
31
0.0
0
LINE
8
0
6
CONTINUOUS
10
35.503230
20
176.226560
30
0.0
11
35.503220
21
178.571810
31
0.0
0
LINE
8
0
6
CONTINUOUS
10
-24.985010
20
191.890620
30
0.0
11
-25.304760
21
191.890640
31
0.0
0
LINE
8
0
6
CONTINUOUS
10
31.997550
20
191.890800
30
0.0
11
27.427590
21
191.890800
31
0.0
0
LINE
8
0
6
CONTINUOUS
10
27.427590
20
191.890800
30
0.0
11
22.415240
21
191.890780
31
0.0
0
LINE
8
0
6
CONTINUOUS
10
22.415240
20
191.890780
30
0.0
11
18.854920
21
191.890770
31
0.0
0
LINE
8
0
6
CONTINUOUS
10
35.102590
20
191.890810
30
0.0
11
31.997550
21
191.890800
31
0.0
0
LINE
8
0
6
CONTINUOUS
10
35.503160
20
191.890820
30
0.0
11
35.102590
21
191.890810
31
0.0
0
LINE
8
0
6
CONTINUOUS
10
35.503160
20
191.174500
30
0.0
11
35.503160
21
191.890820
31
0.0
0
LINE
8
0
6
CONTINUOUS
10
18.854920
20
191.890770
30
0.0
11
5.731101
21
191.890725
31
0.0
0
LINE
8
0
6
CONTINUOUS
10
-15.199321
20
191.890653
30
0.0
11
-24.985010
21
191.890620
31
0.0
0
LINE
8
0
6
CONTINUOUS
10
-47.149680
20
174.858800
30
0.0
11
-46.436860
21
174.862210
31
0.0
0
LINE
8
0
6
CONTINUOUS
10
-47.149680
20
176.805380
30
0.0
11
-47.149680
21
174.858800
31
0.0
0
LINE
8
0
6
CONTINUOUS
10
-46.436860
20
174.862210
30
0.0
11
-47.149680
21
174.858800
31
0.0
0
LINE
8
0
6
CONTINUOUS
10
-25.885910
20
163.541360
30
0.0
11
-25.885950
21
159.635060
31
0.0
0
LINE
8
0
6
CONTINUOUS
10
-25.885860
20
168.091680
30
0.0
11
-25.885910
21
163.541360
31
0.0
0
LINE
8
0
6
CONTINUOUS
10
-25.885750
20
177.860940
30
0.0
11
-25.885800
21
172.975830
31
0.0
0
LINE
8
0
6
CONTINUOUS
10
-47.149800
20
172.975970
30
0.0
11
-47.149680
21
174.858800
31
0.0
0
LINE
8
0
6
CONTINUOUS
10
-25.304730
20
187.704170
30
0.0
11
-25.304740
21
189.760710
31
0.0
0
LINE
8
0
6
CONTINUOUS
10
-25.304650
20
154.178000
30
0.0
11
-25.304640
21
154.910950
31
0.0
0
LINE
8
0
6
CONTINUOUS
10
-25.304650
20
164.136370
30
0.0
11
-25.304660
21
167.571280
31
0.0
0
LINE
8
0
6
CONTINUOUS
10
-25.304700
20
178.571630
30
0.0
11
-25.304710
21
182.000030
31
0.0
0
LINE
8
0
6
CONTINUOUS
10
-25.304740
20
189.760710
30
0.0
11
-25.304750
21
191.174320
31
0.0
0
LINE
8
0
6
CONTINUOUS
10
-25.304720
20
185.083710
30
0.0
11
-25.304730
21
187.704170
31
0.0
0
LINE
8
0
6
CONTINUOUS
10
-25.304750
20
191.174320
30
0.0
11
-25.304760
21
191.890640
31
0.0
0
LINE
8
0
6
CONTINUOUS
10
-25.304660
20
167.571280
30
0.0
11
-25.304680
21
171.215920
31
0.0
0
LINE
8
0
6
CONTINUOUS
10
-25.304710
20
182.000030
30
0.0
11
-25.304720
21
185.083710
31
0.0
0
LINE
8
0
6
CONTINUOUS
10
82.819600
20
210.264804
30
0.0
11
81.470431
21
210.245193
31
0.0
0
LINE
8
0
6
CONTINUOUS
10
82.904642
20
210.267168
30
0.0
11
82.819600
21
210.264804
31
0.0
0
LINE
8
0
6
CONTINUOUS
10
22.388416
20
178.632446
30
0.0
11
22.919267
21
178.836778
31
0.0
0
LINE
8
0
6
CONTINUOUS
10
31.459782
20
178.896627
30
0.0
11
32.042939
21
178.603713
31
0.0
0
LINE
8
0
6
CONTINUOUS
10
30.767111
20
179.261389
30
0.0
11
31.459782
21
178.896627
31
0.0
0
LINE
8
0
6
CONTINUOUS
10
26.616205
20
-108.898541
30
0.0
11
25.375751
21
-102.730882
31
0.0
0
LINE
8
0
6
CONTINUOUS
10
27.856562
20
-115.066180
30
0.0
11
26.616205
21
-108.898541
31
0.0
0
LINE
8
0
6
CONTINUOUS
10
26.616124
20
-121.233873
30
0.0
11
27.856508
21
-115.066216
31
0.0
0
LINE
8
0
6
CONTINUOUS
10
25.375717
20
-127.401476
30
0.0
11
26.616124
21
-121.233873
31
0.0
0
ENDSEC
0
EOF
