999
Erzeugt mit innoplus bad 
0
SECTION
2
HEADER
9
$ACADVER
1
AC1009
9
$DWGCODEPAGE
3
ISO8859-1
0
ENDSEC
0
SECTION
2
TABLES
0
TABLE
2
LAYER
70
1
0
LAYER
2
0
70
0
62
7
6
CONTINUOUS
0
ENDTAB
0
ENDSEC
0
SECTION
2
ENTITIES
0
LINE
8
0
6
CONTINUOUS
10
-28.234780
20
85.000365
30
0.0
11
-30.538900
21
85.000365
31
0.0
0
LINE
8
0
6
CONTINUOUS
10
15.524080
20
85.000365
30
0.0
11
13.219960
21
85.000365
31
0.0
0
LINE
8
0
6
CONTINUOUS
10
-24.426080
20
85.000365
30
0.0
11
-28.234780
21
85.000365
31
0.0
0
LINE
8
0
6
CONTINUOUS
10
13.219960
20
85.000365
30
0.0
11
9.411260
21
85.000365
31
0.0
0
LINE
8
0
6
CONTINUOUS
10
7.488140
20
-85.000385
30
0.0
11
10.076660
21
-85.000385
31
0.0
0
LINE
8
0
6
CONTINUOUS
10
-1.080740
20
-85.000385
30
0.0
11
4.899630
21
-85.000385
31
0.0
0
LINE
8
0
6
CONTINUOUS
10
10.076660
20
-85.000385
30
0.0
11
14.182580
21
-85.000385
31
0.0
0
LINE
8
0
6
CONTINUOUS
10
-7.507410
20
-85.000385
30
0.0
11
-1.080740
21
-85.000385
31
0.0
0
LINE
8
0
6
CONTINUOUS
10
4.899630
20
-85.000385
30
0.0
11
7.488140
21
-85.000385
31
0.0
0
LINE
8
0
6
CONTINUOUS
10
17.485180
20
-85.000385
30
0.0
11
17.485180
21
-84.500815
31
0.0
0
LINE
8
0
6
CONTINUOUS
10
16.592580
20
-85.000385
30
0.0
11
17.485180
21
-85.000385
31
0.0
0
LINE
8
0
6
CONTINUOUS
10
14.182580
20
-85.000385
30
0.0
11
16.592580
21
-85.000385
31
0.0
0
LINE
8
0
6
CONTINUOUS
10
-25.091480
20
-85.000385
30
0.0
11
-22.502960
21
-85.000385
31
0.0
0
LINE
8
0
6
CONTINUOUS
10
-19.914450
20
-85.000385
30
0.0
11
-13.934080
21
-85.000385
31
0.0
0
LINE
8
0
6
CONTINUOUS
10
-29.197400
20
-85.000385
30
0.0
11
-25.091480
21
-85.000385
31
0.0
0
LINE
8
0
6
CONTINUOUS
10
-13.934080
20
-85.000385
30
0.0
11
-7.507410
21
-85.000385
31
0.0
0
LINE
8
0
6
CONTINUOUS
10
-22.502960
20
-85.000385
30
0.0
11
-19.914450
21
-85.000385
31
0.0
0
LINE
8
0
6
CONTINUOUS
10
-32.500000
20
-85.000385
30
0.0
11
-31.607410
21
-85.000385
31
0.0
0
LINE
8
0
6
CONTINUOUS
10
-32.500000
20
-84.500815
30
0.0
11
-32.500000
21
-85.000385
31
0.0
0
LINE
8
0
6
CONTINUOUS
10
-31.607410
20
-85.000385
30
0.0
11
-29.197400
21
-85.000385
31
0.0
0
LINE
8
0
6
CONTINUOUS
10
-32.500000
20
64.663875
30
0.0
11
-32.500000
21
-84.500815
31
0.0
0
LINE
8
0
6
CONTINUOUS
10
17.485180
20
75.223715
30
0.0
11
17.485180
21
75.572305
31
0.0
0
LINE
8
0
6
CONTINUOUS
10
17.485180
20
69.943805
30
0.0
11
17.485180
21
75.223715
31
0.0
0
LINE
8
0
6
CONTINUOUS
10
17.217400
20
74.834655
30
0.0
11
17.444520
21
75.193985
31
0.0
0
LINE
8
0
6
CONTINUOUS
10
16.770780
20
74.327425
30
0.0
11
17.217400
21
74.834655
31
0.0
0
LINE
8
0
6
CONTINUOUS
10
16.719060
20
74.125245
30
0.0
11
16.785680
21
74.348705
31
0.0
0
LINE
8
0
6
CONTINUOUS
10
16.592590
20
79.743565
30
0.0
11
16.592590
21
81.106005
31
0.0
0
LINE
8
0
6
CONTINUOUS
10
16.592590
20
81.106005
30
0.0
11
16.592590
21
82.363645
31
0.0
0
LINE
8
0
6
CONTINUOUS
10
17.485180
20
83.952295
30
0.0
11
17.217400
21
84.685945
31
0.0
0
LINE
8
0
6
CONTINUOUS
10
17.485180
20
75.551435
30
0.0
11
17.485180
21
75.656205
31
0.0
0
LINE
8
0
6
CONTINUOUS
10
17.217400
20
74.817785
30
0.0
11
17.485180
21
75.551435
31
0.0
0
LINE
8
0
6
CONTINUOUS
10
17.485180
20
83.411695
30
0.0
11
17.485180
21
83.830915
31
0.0
0
LINE
8
0
6
CONTINUOUS
10
17.217400
20
84.459745
30
0.0
11
17.217400
21
84.040515
31
0.0
0
LINE
8
0
6
CONTINUOUS
10
17.485180
20
82.678095
30
0.0
11
17.485180
21
83.411695
31
0.0
0
LINE
8
0
6
CONTINUOUS
10
17.485180
20
76.075425
30
0.0
11
17.485180
21
76.809035
31
0.0
0
LINE
8
0
6
CONTINUOUS
10
17.217400
20
76.285045
30
0.0
11
17.217400
21
75.446615
31
0.0
0
LINE
8
0
6
CONTINUOUS
10
17.485180
20
78.695515
30
0.0
11
17.485180
21
79.743565
31
0.0
0
LINE
8
0
6
CONTINUOUS
10
17.485180
20
77.647465
30
0.0
11
17.485180
21
78.695515
31
0.0
0
LINE
8
0
6
CONTINUOUS
10
17.217400
20
78.485915
30
0.0
11
17.217400
21
77.333075
31
0.0
0
LINE
8
0
6
CONTINUOUS
10
17.485180
20
75.656205
30
0.0
11
17.485180
21
76.075425
31
0.0
0
LINE
8
0
6
CONTINUOUS
10
17.485180
20
81.839665
30
0.0
11
17.485180
21
82.678095
31
0.0
0
LINE
8
0
6
CONTINUOUS
10
17.485180
20
83.830915
30
0.0
11
17.485180
21
83.935725
31
0.0
0
LINE
8
0
6
CONTINUOUS
10
17.485180
20
80.791615
30
0.0
11
17.485180
21
81.839665
31
0.0
0
LINE
8
0
6
CONTINUOUS
10
17.217400
20
82.154055
30
0.0
11
17.217400
21
81.001215
31
0.0
0
LINE
8
0
6
CONTINUOUS
10
17.485180
20
79.743565
30
0.0
11
17.485180
21
80.791615
31
0.0
0
LINE
8
0
6
CONTINUOUS
10
17.217400
20
81.001215
30
0.0
11
17.217400
21
79.743565
31
0.0
0
LINE
8
0
6
CONTINUOUS
10
17.485180
20
76.809035
30
0.0
11
17.485180
21
77.647465
31
0.0
0
LINE
8
0
6
CONTINUOUS
10
17.217400
20
74.817785
30
0.0
11
17.217400
21
75.027375
31
0.0
0
LINE
8
0
6
CONTINUOUS
10
16.592580
20
74.503375
30
0.0
11
17.217400
21
74.817785
31
0.0
0
LINE
8
0
6
CONTINUOUS
10
8.018370
20
67.627545
30
0.0
11
8.063960
21
67.666915
31
0.0
0
LINE
8
0
6
CONTINUOUS
10
8.063960
20
67.666915
30
0.0
11
8.112960
21
67.709235
31
0.0
0
LINE
8
0
6
CONTINUOUS
10
9.902390
20
68.661655
30
0.0
11
8.925180
21
64.304035
31
0.0
0
LINE
8
0
6
CONTINUOUS
10
17.217400
20
83.202085
30
0.0
11
17.217400
21
84.040515
31
0.0
0
LINE
8
0
6
CONTINUOUS
10
17.217400
20
82.154055
30
0.0
11
17.217400
21
83.202085
31
0.0
0
LINE
8
0
6
CONTINUOUS
10
14.918980
20
73.605055
30
0.0
11
13.245370
21
71.973115
31
0.0
0
LINE
8
0
6
CONTINUOUS
10
7.115240
20
63.969465
30
0.0
11
8.018370
21
67.627545
31
0.0
0
LINE
8
0
6
CONTINUOUS
10
16.592590
20
82.363645
30
0.0
11
16.592580
21
83.411695
31
0.0
0
LINE
8
0
6
CONTINUOUS
10
9.898140
20
68.709235
30
0.0
11
9.005550
21
68.209235
31
0.0
0
LINE
8
0
6
CONTINUOUS
10
7.026470
20
63.425785
30
0.0
11
4.492590
21
63.180761
31
0.0
0
LINE
8
0
6
CONTINUOUS
10
8.730050
20
59.745055
30
0.0
11
8.685550
21
62.284815
31
0.0
0
LINE
8
0
6
CONTINUOUS
10
8.151720
20
55.744435
30
0.0
11
8.730050
21
59.745055
31
0.0
0
LINE
8
0
6
CONTINUOUS
10
-0.977880
20
54.290385
30
0.0
11
5.257790
21
55.122375
31
0.0
0
LINE
8
0
6
CONTINUOUS
10
7.093450
20
59.326705
30
0.0
11
-0.994780
21
57.817725
31
0.0
0
LINE
8
0
6
CONTINUOUS
10
8.112960
20
67.709235
30
0.0
11
9.005550
21
68.209235
31
0.0
0
LINE
8
0
6
CONTINUOUS
10
0.302770
20
67.709235
30
0.0
11
8.112960
21
67.709235
31
0.0
0
LINE
8
0
6
CONTINUOUS
10
17.217400
20
75.027375
30
0.0
11
17.217400
21
75.446615
31
0.0
0
LINE
8
0
6
CONTINUOUS
10
4.362920
20
85.000365
30
0.0
11
-1.396260
21
85.000365
31
0.0
0
LINE
8
0
6
CONTINUOUS
10
9.411260
20
85.000365
30
0.0
11
4.362920
21
85.000365
31
0.0
0
LINE
8
0
6
CONTINUOUS
10
16.592580
20
83.411695
30
0.0
11
16.592580
21
84.250135
31
0.0
0
LINE
8
0
6
CONTINUOUS
10
15.699990
20
85.000365
30
0.0
11
15.524080
21
85.000365
31
0.0
0
LINE
8
0
6
CONTINUOUS
10
16.592590
20
85.000385
30
0.0
11
15.699990
21
85.000365
31
0.0
0
LINE
8
0
6
CONTINUOUS
10
17.217400
20
76.285045
30
0.0
11
17.217400
21
77.333075
31
0.0
0
LINE
8
0
6
CONTINUOUS
10
16.592580
20
77.123475
30
0.0
11
16.592580
21
76.075425
31
0.0
0
LINE
8
0
6
CONTINUOUS
10
17.217400
20
84.685945
30
0.0
11
16.592590
21
85.000385
31
0.0
0
LINE
8
0
6
CONTINUOUS
10
-1.348520
20
85.000365
30
0.0
11
-7.507410
21
85.000385
31
0.0
0
LINE
8
0
6
CONTINUOUS
10
-1.396260
20
85.000365
30
0.0
11
-1.348520
21
85.000365
31
0.0
0
LINE
8
0
6
CONTINUOUS
10
16.417930
20
75.097985
30
0.0
11
14.918980
21
73.605055
31
0.0
0
LINE
8
0
6
CONTINUOUS
10
16.592590
20
75.237035
30
0.0
11
16.592580
21
76.075425
31
0.0
0
LINE
8
0
6
CONTINUOUS
10
16.417930
20
75.097985
30
0.0
11
16.592590
21
75.237035
31
0.0
0
LINE
8
0
6
CONTINUOUS
10
16.592580
20
84.250135
30
0.0
11
16.592590
21
84.774115
31
0.0
0
LINE
8
0
6
CONTINUOUS
10
17.217400
20
84.459745
30
0.0
11
17.217400
21
84.669325
31
0.0
0
LINE
8
0
6
CONTINUOUS
10
8.151720
20
55.744435
30
0.0
11
5.257790
21
55.122375
31
0.0
0
LINE
8
0
6
CONTINUOUS
10
17.485180
20
64.663875
30
0.0
11
17.485180
21
69.943805
31
0.0
0
LINE
8
0
6
CONTINUOUS
10
-7.507410
20
67.709235
30
0.0
11
0.302770
21
67.709235
31
0.0
0
LINE
8
0
6
CONTINUOUS
10
13.245370
20
71.973115
30
0.0
11
9.898140
21
68.709235
31
0.0
0
LINE
8
0
6
CONTINUOUS
10
8.748300
20
63.659535
30
0.0
11
8.925180
21
64.304035
31
0.0
0
LINE
8
0
6
CONTINUOUS
10
8.685550
20
62.284815
30
0.0
11
8.748300
21
63.659535
31
0.0
0
LINE
8
0
6
CONTINUOUS
10
16.592580
20
77.123475
30
0.0
11
16.592590
21
78.381125
31
0.0
0
LINE
8
0
6
CONTINUOUS
10
17.217400
20
78.485915
30
0.0
11
17.217400
21
79.743565
31
0.0
0
LINE
8
0
6
CONTINUOUS
10
16.592590
20
79.743565
30
0.0
11
16.592590
21
78.381125
31
0.0
0
LINE
8
0
6
CONTINUOUS
10
16.592590
20
84.774115
30
0.0
11
16.592580
21
84.983735
31
0.0
0
LINE
8
0
6
CONTINUOUS
10
-32.500000
20
75.572305
30
0.0
11
-32.500000
21
75.223715
31
0.0
0
LINE
8
0
6
CONTINUOUS
10
-32.500000
20
75.223715
30
0.0
11
-32.500000
21
69.943805
31
0.0
0
LINE
8
0
6
CONTINUOUS
10
-32.459340
20
75.193985
30
0.0
11
-32.232220
21
74.834655
31
0.0
0
LINE
8
0
6
CONTINUOUS
10
-32.232220
20
74.834655
30
0.0
11
-31.785600
21
74.327425
31
0.0
0
LINE
8
0
6
CONTINUOUS
10
-31.800500
20
74.348705
30
0.0
11
-31.733880
21
74.125245
31
0.0
0
LINE
8
0
6
CONTINUOUS
10
-31.607410
20
81.106005
30
0.0
11
-31.607410
21
79.743565
31
0.0
0
LINE
8
0
6
CONTINUOUS
10
-31.607410
20
82.363645
30
0.0
11
-31.607410
21
81.106005
31
0.0
0
LINE
8
0
6
CONTINUOUS
10
-32.232220
20
84.685945
30
0.0
11
-32.500000
21
83.952295
31
0.0
0
LINE
8
0
6
CONTINUOUS
10
-32.500000
20
75.551435
30
0.0
11
-32.232220
21
74.817785
31
0.0
0
LINE
8
0
6
CONTINUOUS
10
-32.500000
20
75.656205
30
0.0
11
-32.500000
21
75.551435
31
0.0
0
LINE
8
0
6
CONTINUOUS
10
-32.232220
20
84.040515
30
0.0
11
-32.232220
21
84.459745
31
0.0
0
LINE
8
0
6
CONTINUOUS
10
-32.500000
20
83.830915
30
0.0
11
-32.500000
21
83.411695
31
0.0
0
LINE
8
0
6
CONTINUOUS
10
-32.500000
20
83.411695
30
0.0
11
-32.500000
21
82.678095
31
0.0
0
LINE
8
0
6
CONTINUOUS
10
-32.232220
20
75.446615
30
0.0
11
-32.232220
21
76.285045
31
0.0
0
LINE
8
0
6
CONTINUOUS
10
-32.500000
20
76.809035
30
0.0
11
-32.500000
21
76.075425
31
0.0
0
LINE
8
0
6
CONTINUOUS
10
-32.500000
20
79.743565
30
0.0
11
-32.500000
21
78.695515
31
0.0
0
LINE
8
0
6
CONTINUOUS
10
-32.232220
20
77.333075
30
0.0
11
-32.232220
21
78.485915
31
0.0
0
LINE
8
0
6
CONTINUOUS
10
-32.500000
20
78.695515
30
0.0
11
-32.500000
21
77.647465
31
0.0
0
LINE
8
0
6
CONTINUOUS
10
-32.500000
20
76.075425
30
0.0
11
-32.500000
21
75.656205
31
0.0
0
LINE
8
0
6
CONTINUOUS
10
-32.500000
20
82.678095
30
0.0
11
-32.500000
21
81.839665
31
0.0
0
LINE
8
0
6
CONTINUOUS
10
-32.500000
20
83.935725
30
0.0
11
-32.500000
21
83.830915
31
0.0
0
LINE
8
0
6
CONTINUOUS
10
-32.232220
20
81.001215
30
0.0
11
-32.232220
21
82.154055
31
0.0
0
LINE
8
0
6
CONTINUOUS
10
-32.500000
20
81.839665
30
0.0
11
-32.500000
21
80.791615
31
0.0
0
LINE
8
0
6
CONTINUOUS
10
-32.232220
20
79.743565
30
0.0
11
-32.232220
21
81.001215
31
0.0
0
LINE
8
0
6
CONTINUOUS
10
-32.500000
20
80.791615
30
0.0
11
-32.500000
21
79.743565
31
0.0
0
LINE
8
0
6
CONTINUOUS
10
-32.500000
20
77.647465
30
0.0
11
-32.500000
21
76.809035
31
0.0
0
LINE
8
0
6
CONTINUOUS
10
-32.232220
20
74.817785
30
0.0
11
-31.607400
21
74.503375
31
0.0
0
LINE
8
0
6
CONTINUOUS
10
-32.232220
20
75.027375
30
0.0
11
-32.232220
21
74.817785
31
0.0
0
LINE
8
0
6
CONTINUOUS
10
17.485180
20
-84.500815
30
0.0
11
17.485180
21
-70.506985
31
0.0
0
LINE
8
0
6
CONTINUOUS
10
17.485180
20
-55.620895
30
0.0
11
17.485180
21
64.663875
31
0.0
0
LINE
8
0
6
CONTINUOUS
10
-23.078780
20
67.666915
30
0.0
11
-23.033190
21
67.627545
31
0.0
0
LINE
8
0
6
CONTINUOUS
10
-23.127780
20
67.709235
30
0.0
11
-23.078780
21
67.666915
31
0.0
0
LINE
8
0
6
CONTINUOUS
10
-24.917210
20
68.661655
30
0.0
11
-23.940000
21
64.304035
31
0.0
0
LINE
8
0
6
CONTINUOUS
10
-32.232220
20
84.040515
30
0.0
11
-32.232220
21
83.202085
31
0.0
0
LINE
8
0
6
CONTINUOUS
10
-32.232220
20
83.202085
30
0.0
11
-32.232220
21
82.154055
31
0.0
0
LINE
8
0
6
CONTINUOUS
10
-28.260190
20
71.973115
30
0.0
11
-29.933800
21
73.605055
31
0.0
0
LINE
8
0
6
CONTINUOUS
10
-23.033190
20
67.627545
30
0.0
11
-22.130060
21
63.969465
31
0.0
0
LINE
8
0
6
CONTINUOUS
10
-31.607400
20
83.411695
30
0.0
11
-31.607410
21
82.363645
31
0.0
0
LINE
8
0
6
CONTINUOUS
10
-24.020370
20
68.209235
30
0.0
11
-24.912960
21
68.709235
31
0.0
0
LINE
8
0
6
CONTINUOUS
10
-19.507410
20
63.180761
30
0.0
11
-22.041290
21
63.425785
31
0.0
0
LINE
8
0
6
CONTINUOUS
10
-23.700370
20
62.284815
30
0.0
11
-23.744870
21
59.745055
31
0.0
0
LINE
8
0
6
CONTINUOUS
10
-23.744870
20
59.745055
30
0.0
11
-23.166540
21
55.744435
31
0.0
0
LINE
8
0
6
CONTINUOUS
10
-14.020040
20
57.817725
30
0.0
11
-22.108270
21
59.326705
31
0.0
0
LINE
8
0
6
CONTINUOUS
10
-20.272610
20
55.122375
30
0.0
11
-14.036940
21
54.290385
31
0.0
0
LINE
8
0
6
CONTINUOUS
10
-23.127780
20
67.709235
30
0.0
11
-15.317590
21
67.709235
31
0.0
0
LINE
8
0
6
CONTINUOUS
10
-24.020370
20
68.209235
30
0.0
11
-23.127780
21
67.709235
31
0.0
0
LINE
8
0
6
CONTINUOUS
10
-32.232220
20
75.446615
30
0.0
11
-32.232220
21
75.027375
31
0.0
0
LINE
8
0
6
CONTINUOUS
10
-19.377740
20
85.000365
30
0.0
11
-24.426080
21
85.000365
31
0.0
0
LINE
8
0
6
CONTINUOUS
10
-13.618560
20
85.000365
30
0.0
11
-19.377740
21
85.000365
31
0.0
0
LINE
8
0
6
CONTINUOUS
10
-31.607400
20
84.250135
30
0.0
11
-31.607400
21
83.411695
31
0.0
0
LINE
8
0
6
CONTINUOUS
10
-30.714810
20
85.000365
30
0.0
11
-31.607410
21
85.000385
31
0.0
0
LINE
8
0
6
CONTINUOUS
10
-30.538900
20
85.000365
30
0.0
11
-30.714810
21
85.000365
31
0.0
0
LINE
8
0
6
CONTINUOUS
10
-31.607400
20
76.075425
30
0.0
11
-31.607400
21
77.123475
31
0.0
0
LINE
8
0
6
CONTINUOUS
10
-32.232220
20
77.333075
30
0.0
11
-32.232220
21
76.285045
31
0.0
0
LINE
8
0
6
CONTINUOUS
10
-31.607410
20
85.000385
30
0.0
11
-32.232220
21
84.685945
31
0.0
0
LINE
8
0
6
CONTINUOUS
10
-13.666300
20
85.000365
30
0.0
11
-13.618560
21
85.000365
31
0.0
0
LINE
8
0
6
CONTINUOUS
10
-7.507410
20
85.000385
30
0.0
11
-13.666300
21
85.000365
31
0.0
0
LINE
8
0
6
CONTINUOUS
10
-29.933800
20
73.605055
30
0.0
11
-31.432750
21
75.097985
31
0.0
0
LINE
8
0
6
CONTINUOUS
10
-31.607410
20
75.237035
30
0.0
11
-31.432750
21
75.097985
31
0.0
0
LINE
8
0
6
CONTINUOUS
10
-31.607400
20
76.075425
30
0.0
11
-31.607410
21
75.237035
31
0.0
0
LINE
8
0
6
CONTINUOUS
10
-31.607410
20
84.774115
30
0.0
11
-31.607400
21
84.250135
31
0.0
0
LINE
8
0
6
CONTINUOUS
10
-32.232220
20
84.669325
30
0.0
11
-32.232220
21
84.459745
31
0.0
0
LINE
8
0
6
CONTINUOUS
10
-20.272610
20
55.122375
30
0.0
11
-23.166540
21
55.744435
31
0.0
0
LINE
8
0
6
CONTINUOUS
10
-32.500000
20
69.943805
30
0.0
11
-32.500000
21
64.663875
31
0.0
0
LINE
8
0
6
CONTINUOUS
10
-15.317590
20
67.709235
30
0.0
11
-7.507410
21
67.709235
31
0.0
0
LINE
8
0
6
CONTINUOUS
10
-24.912960
20
68.709235
30
0.0
11
-28.260190
21
71.973115
31
0.0
0
LINE
8
0
6
CONTINUOUS
10
-23.940000
20
64.304035
30
0.0
11
-23.763120
21
63.659535
31
0.0
0
LINE
8
0
6
CONTINUOUS
10
-23.763120
20
63.659535
30
0.0
11
-23.700370
21
62.284815
31
0.0
0
LINE
8
0
6
CONTINUOUS
10
-31.607410
20
78.381125
30
0.0
11
-31.607400
21
77.123475
31
0.0
0
LINE
8
0
6
CONTINUOUS
10
-31.607410
20
78.381125
30
0.0
11
-31.607410
21
79.743565
31
0.0
0
LINE
8
0
6
CONTINUOUS
10
-32.232220
20
79.743565
30
0.0
11
-32.232220
21
78.485915
31
0.0
0
LINE
8
0
6
CONTINUOUS
10
-31.607400
20
84.983735
30
0.0
11
-31.607410
21
84.774115
31
0.0
0
LINE
8
0
6
CONTINUOUS
10
0.725820
20
62.534265
30
0.0
11
1.646240
21
62.976265
31
0.0
0
LINE
8
0
6
CONTINUOUS
10
-0.781100
20
62.150585
30
0.0
11
0.725820
21
62.534265
31
0.0
0
LINE
8
0
6
CONTINUOUS
10
-2.777620
20
61.860805
30
0.0
11
-0.781100
21
62.150585
31
0.0
0
LINE
8
0
6
CONTINUOUS
10
-5.078740
20
61.684435
30
0.0
11
-2.777620
21
61.860805
31
0.0
0
LINE
8
0
6
CONTINUOUS
10
-7.507410
20
61.617885
30
0.0
11
-5.078740
21
61.684435
31
0.0
0
LINE
8
0
6
CONTINUOUS
10
-9.936080
20
61.684435
30
0.0
11
-7.507410
21
61.617885
31
0.0
0
LINE
8
0
6
CONTINUOUS
10
-12.237200
20
61.860805
30
0.0
11
-9.936080
21
61.684435
31
0.0
0
LINE
8
0
6
CONTINUOUS
10
-14.233720
20
62.150585
30
0.0
11
-12.237200
21
61.860805
31
0.0
0
LINE
8
0
6
CONTINUOUS
10
-15.740640
20
62.534265
30
0.0
11
-14.233720
21
62.150585
31
0.0
0
LINE
8
0
6
CONTINUOUS
10
-16.661060
20
62.976265
30
0.0
11
-15.740640
21
62.534265
31
0.0
0
LINE
8
0
6
CONTINUOUS
10
-15.740640
20
61.185275
30
0.0
11
-16.661060
21
61.627285
31
0.0
0
LINE
8
0
6
CONTINUOUS
10
-2.777680
20
63.674515
30
0.0
11
-0.781050
21
63.385785
31
0.0
0
LINE
8
0
6
CONTINUOUS
10
-12.237210
20
60.511825
30
0.0
11
-14.233720
21
60.801605
31
0.0
0
LINE
8
0
6
CONTINUOUS
10
-5.078740
20
60.335465
30
0.0
11
-7.507410
21
60.268905
31
0.0
0
LINE
8
0
6
CONTINUOUS
10
1.646240
20
61.627285
30
0.0
11
0.725820
21
61.185275
31
0.0
0
LINE
8
0
6
CONTINUOUS
10
-15.740660
20
63.002145
30
0.0
11
-14.233760
21
63.385785
31
0.0
0
LINE
8
0
6
CONTINUOUS
10
-12.237140
20
63.674515
30
0.0
11
-9.936110
21
63.851975
31
0.0
0
LINE
8
0
6
CONTINUOUS
10
-0.781050
20
63.385785
30
0.0
11
0.725850
21
63.002145
31
0.0
0
LINE
8
0
6
CONTINUOUS
10
-14.233720
20
60.801605
30
0.0
11
-15.740640
21
61.185275
31
0.0
0
LINE
8
0
6
CONTINUOUS
10
-14.233760
20
63.385785
30
0.0
11
-12.237140
21
63.674515
31
0.0
0
LINE
8
0
6
CONTINUOUS
10
-2.777620
20
60.511825
30
0.0
11
-5.078740
21
60.335465
31
0.0
0
LINE
8
0
6
CONTINUOUS
10
-0.781100
20
60.801605
30
0.0
11
-2.777620
21
60.511825
31
0.0
0
LINE
8
0
6
CONTINUOUS
10
-9.936080
20
60.335465
30
0.0
11
-12.237210
21
60.511825
31
0.0
0
LINE
8
0
6
CONTINUOUS
10
-5.078710
20
63.851975
30
0.0
11
-2.777680
21
63.674515
31
0.0
0
LINE
8
0
6
CONTINUOUS
10
-7.507410
20
60.268905
30
0.0
11
-9.936080
21
60.335465
31
0.0
0
LINE
8
0
6
CONTINUOUS
10
-9.936110
20
63.851975
30
0.0
11
-7.507410
21
63.917415
31
0.0
0
LINE
8
0
6
CONTINUOUS
10
1.987770
20
62.093715
30
0.0
11
1.646240
21
61.627285
31
0.0
0
LINE
8
0
6
CONTINUOUS
10
0.725820
20
61.185275
30
0.0
11
-0.781100
21
60.801605
31
0.0
0
LINE
8
0
6
CONTINUOUS
10
1.646240
20
62.560155
30
0.0
11
1.987770
21
62.093715
31
0.0
0
LINE
8
0
6
CONTINUOUS
10
-7.507410
20
63.917415
30
0.0
11
-5.078710
21
63.851975
31
0.0
0
LINE
8
0
6
CONTINUOUS
10
-17.002600
20
62.093715
30
0.0
11
-16.661060
21
62.560155
31
0.0
0
LINE
8
0
6
CONTINUOUS
10
0.725850
20
63.002145
30
0.0
11
1.646240
21
62.560155
31
0.0
0
LINE
8
0
6
CONTINUOUS
10
-16.661060
20
61.627285
30
0.0
11
-17.002600
21
62.093715
31
0.0
0
LINE
8
0
6
CONTINUOUS
10
-16.661060
20
62.560155
30
0.0
11
-15.740660
21
63.002145
31
0.0
0
LINE
8
0
6
CONTINUOUS
10
-19.075410
20
61.553925
30
0.0
11
-17.923410
21
61.000715
31
0.0
0
LINE
8
0
6
CONTINUOUS
10
-16.003400
20
60.511925
30
0.0
11
-13.459420
21
60.142785
31
0.0
0
LINE
8
0
6
CONTINUOUS
10
-7.507410
20
59.838075
30
0.0
11
-4.435410
21
59.921915
31
0.0
0
LINE
8
0
6
CONTINUOUS
10
2.908590
20
61.000715
30
0.0
11
4.060590
21
61.553925
31
0.0
0
LINE
8
0
6
CONTINUOUS
10
-17.923410
20
61.000715
30
0.0
11
-16.003400
21
60.511925
31
0.0
0
LINE
8
0
6
CONTINUOUS
10
-4.435410
20
59.921915
30
0.0
11
-1.555400
21
60.142785
31
0.0
0
LINE
8
0
6
CONTINUOUS
10
-1.555400
20
60.142785
30
0.0
11
0.988580
21
60.511925
31
0.0
0
LINE
8
0
6
CONTINUOUS
10
-13.459420
20
60.142785
30
0.0
11
-10.579410
21
59.921915
31
0.0
0
LINE
8
0
6
CONTINUOUS
10
-10.579410
20
59.921915
30
0.0
11
-7.507410
21
59.838075
31
0.0
0
LINE
8
0
6
CONTINUOUS
10
4.060590
20
61.553925
30
0.0
11
4.492590
21
62.143945
31
0.0
0
LINE
8
0
6
CONTINUOUS
10
0.988580
20
60.511925
30
0.0
11
2.908590
21
61.000715
31
0.0
0
LINE
8
0
6
CONTINUOUS
10
-19.507410
20
62.143945
30
0.0
11
-19.075410
21
61.553925
31
0.0
0
LINE
8
0
6
CONTINUOUS
10
-19.507410
20
62.143945
30
0.0
11
-19.075410
21
62.733965
31
0.0
0
LINE
8
0
6
CONTINUOUS
10
-19.507410
20
62.574795
30
0.0
11
-19.507410
21
62.143945
31
0.0
0
LINE
8
0
6
CONTINUOUS
10
-16.003390
20
63.775935
30
0.0
11
-13.459420
21
64.144085
31
0.0
0
LINE
8
0
6
CONTINUOUS
10
-17.923410
20
63.287155
30
0.0
11
-16.003390
21
63.775935
31
0.0
0
LINE
8
0
6
CONTINUOUS
10
4.492590
20
62.143945
30
0.0
11
4.492590
21
62.574795
31
0.0
0
LINE
8
0
6
CONTINUOUS
10
4.060590
20
62.733965
30
0.0
11
4.492590
21
62.143945
31
0.0
0
LINE
8
0
6
CONTINUOUS
10
0.988570
20
63.775935
30
0.0
11
2.908590
21
63.287155
31
0.0
0
LINE
8
0
6
CONTINUOUS
10
-10.579410
20
64.365965
30
0.0
11
-7.507410
21
64.448795
31
0.0
0
LINE
8
0
6
CONTINUOUS
10
2.908590
20
63.287155
30
0.0
11
4.060590
21
62.733965
31
0.0
0
LINE
8
0
6
CONTINUOUS
10
-19.075410
20
62.733965
30
0.0
11
-17.923410
21
63.287155
31
0.0
0
LINE
8
0
6
CONTINUOUS
10
-1.555400
20
64.144085
30
0.0
11
0.988570
21
63.775935
31
0.0
0
LINE
8
0
6
CONTINUOUS
10
-4.435410
20
64.365965
30
0.0
11
-1.555400
21
64.144085
31
0.0
0
LINE
8
0
6
CONTINUOUS
10
-13.459420
20
64.144085
30
0.0
11
-10.579410
21
64.365965
31
0.0
0
LINE
8
0
6
CONTINUOUS
10
-7.507410
20
64.448795
30
0.0
11
-4.435410
21
64.365965
31
0.0
0
LINE
8
0
6
CONTINUOUS
10
22.500000
20
-33.914635
30
0.0
11
22.500000
21
-34.314395
31
0.0
0
LINE
8
0
6
CONTINUOUS
10
22.500000
20
-37.067935
30
0.0
11
22.500000
21
-56.711925
31
0.0
0
LINE
8
0
6
CONTINUOUS
10
22.500000
20
-56.711925
30
0.0
11
22.999990
21
-56.711925
31
0.0
0
LINE
8
0
6
CONTINUOUS
10
22.500000
20
-34.314395
30
0.0
11
22.500000
21
-34.873495
31
0.0
0
LINE
8
0
6
CONTINUOUS
10
22.500000
20
-36.284125
30
0.0
11
22.500000
21
-37.067935
31
0.0
0
LINE
8
0
6
CONTINUOUS
10
32.500000
20
-34.314395
30
0.0
11
32.500000
21
-33.914635
31
0.0
0
LINE
8
0
6
CONTINUOUS
10
32.500000
20
-36.284125
30
0.0
11
32.500000
21
-35.532965
31
0.0
0
LINE
8
0
6
CONTINUOUS
10
32.500000
20
-34.873495
30
0.0
11
32.500000
21
-34.314395
31
0.0
0
LINE
8
0
6
CONTINUOUS
10
22.500000
20
-35.532965
30
0.0
11
22.500000
21
-36.284125
31
0.0
0
LINE
8
0
6
CONTINUOUS
10
22.500000
20
-33.683035
30
0.0
11
22.500000
21
-33.914635
31
0.0
0
LINE
8
0
6
CONTINUOUS
10
22.999990
20
-33.683035
30
0.0
11
22.500000
21
-33.683035
31
0.0
0
LINE
8
0
6
CONTINUOUS
10
32.500000
20
-35.532965
30
0.0
11
32.500000
21
-34.873495
31
0.0
0
LINE
8
0
6
CONTINUOUS
10
32.500000
20
-33.683035
30
0.0
11
31.999980
21
-33.683035
31
0.0
0
LINE
8
0
6
CONTINUOUS
10
32.500000
20
-33.914635
30
0.0
11
32.500000
21
-33.683035
31
0.0
0
LINE
8
0
6
CONTINUOUS
10
32.500000
20
-37.067935
30
0.0
11
32.500000
21
-36.284125
31
0.0
0
LINE
8
0
6
CONTINUOUS
10
31.999980
20
-33.683035
30
0.0
11
22.999990
21
-33.683035
31
0.0
0
LINE
8
0
6
CONTINUOUS
10
22.500000
20
-34.873495
30
0.0
11
22.500000
21
-35.532965
31
0.0
0
LINE
8
0
6
CONTINUOUS
10
17.224086
20
-70.506985
30
0.0
11
32.002920
21
-70.506985
31
0.0
0
LINE
8
0
6
CONTINUOUS
10
22.500000
20
-55.620895
30
0.0
11
17.485180
21
-55.620895
31
0.0
0
LINE
8
0
6
CONTINUOUS
10
32.500000
20
-64.227315
30
0.0
11
32.500000
21
-62.287945
31
0.0
0
LINE
8
0
6
CONTINUOUS
10
32.500000
20
-60.397365
30
0.0
11
32.500000
21
-58.639865
31
0.0
0
LINE
8
0
6
CONTINUOUS
10
32.500000
20
-70.506985
30
0.0
11
32.500000
21
-70.074645
31
0.0
0
LINE
8
0
6
CONTINUOUS
10
32.002920
20
-70.506985
30
0.0
11
32.500000
21
-70.506985
31
0.0
0
LINE
8
0
6
CONTINUOUS
10
32.500000
20
-69.135345
30
0.0
11
32.500000
21
-67.750135
31
0.0
0
LINE
8
0
6
CONTINUOUS
10
32.500000
20
-62.287945
30
0.0
11
32.500000
21
-60.397365
31
0.0
0
LINE
8
0
6
CONTINUOUS
10
32.500000
20
-66.082915
30
0.0
11
32.500000
21
-64.227315
31
0.0
0
LINE
8
0
6
CONTINUOUS
10
32.500000
20
-70.074645
30
0.0
11
32.500000
21
-69.135345
31
0.0
0
LINE
8
0
6
CONTINUOUS
10
32.500000
20
-67.750135
30
0.0
11
32.500000
21
-66.082915
31
0.0
0
LINE
8
0
6
CONTINUOUS
10
32.500000
20
-58.639865
30
0.0
11
32.500000
21
-57.207305
31
0.0
0
LINE
8
0
6
CONTINUOUS
10
32.500000
20
-56.711925
30
0.0
11
32.001450
21
-56.711925
31
0.0
0
LINE
8
0
6
CONTINUOUS
10
32.500000
20
-57.207305
30
0.0
11
32.500000
21
-56.711925
31
0.0
0
LINE
8
0
6
CONTINUOUS
10
22.999990
20
-56.711925
30
0.0
11
32.001450
21
-56.711925
31
0.0
0
LINE
8
0
6
CONTINUOUS
10
32.500000
20
-56.711925
30
0.0
11
32.500000
21
-37.067935
31
0.0
0
LINE
8
0
6
CONTINUOUS
10
32.001450
20
-56.711925
30
0.0
11
32.500000
21
-56.711925
31
0.0
0
LINE
8
0
6
CONTINUOUS
10
-10.973810
20
-44.940095
30
0.0
11
-10.607810
21
-44.578575
31
0.0
0
LINE
8
0
6
CONTINUOUS
10
-10.973810
20
-44.940095
30
0.0
11
-10.973599
21
-44.868116
31
0.0
0
LINE
8
0
6
CONTINUOUS
10
-11.107740
20
-45.433935
30
0.0
11
-10.973810
21
-44.940095
31
0.0
0
LINE
8
0
6
CONTINUOUS
10
-11.107521
20
-45.359256
30
0.0
11
-11.107740
21
-45.433935
31
0.0
0
LINE
8
0
6
CONTINUOUS
10
-10.907840
20
-45.465235
30
0.0
11
-10.906990
21
-56.824135
31
0.0
0
LINE
8
0
6
CONTINUOUS
10
-10.107820
20
-44.446255
30
0.0
11
-7.507410
21
-44.446255
31
0.0
0
LINE
8
0
6
CONTINUOUS
10
-4.407010
20
-44.578575
30
0.0
11
-4.041010
21
-44.940095
31
0.0
0
LINE
8
0
6
CONTINUOUS
10
-4.041221
20
-44.868116
30
0.0
11
-4.041010
21
-44.940095
31
0.0
0
LINE
8
0
6
CONTINUOUS
10
-3.907080
20
-45.433935
30
0.0
11
-3.907299
21
-45.359256
31
0.0
0
LINE
8
0
6
CONTINUOUS
10
-4.041010
20
-44.940095
30
0.0
11
-3.907080
21
-45.433935
31
0.0
0
LINE
8
0
6
CONTINUOUS
10
-7.507410
20
-44.446255
30
0.0
11
-4.907000
21
-44.446255
31
0.0
0
LINE
8
0
6
CONTINUOUS
10
-4.106980
20
-68.182465
30
0.0
11
-4.107830
21
-56.824135
31
0.0
0
LINE
8
0
6
CONTINUOUS
10
-10.607810
20
-44.578575
30
0.0
11
-10.107820
21
-44.446255
31
0.0
0
LINE
8
0
6
CONTINUOUS
10
-10.607617
20
-44.514282
30
0.0
11
-10.607810
21
-44.578575
31
0.0
0
LINE
8
0
6
CONTINUOUS
10
-4.907000
20
-44.446255
30
0.0
11
-4.407010
21
-44.578575
31
0.0
0
LINE
8
0
6
CONTINUOUS
10
-4.407010
20
-44.578575
30
0.0
11
-4.407203
21
-44.514282
31
0.0
0
LINE
8
0
6
CONTINUOUS
10
-10.788120
20
-45.064895
30
0.0
11
-10.907840
21
-45.465235
31
0.0
0
LINE
8
0
6
CONTINUOUS
10
-4.906920
20
-44.675085
30
0.0
11
-7.507410
21
-44.675075
31
0.0
0
LINE
8
0
6
CONTINUOUS
10
-10.506740
20
-44.782645
30
0.0
11
-10.788120
21
-45.064895
31
0.0
0
LINE
8
0
6
CONTINUOUS
10
-10.107900
20
-44.675085
30
0.0
11
-10.506740
21
-44.782645
31
0.0
0
LINE
8
0
6
CONTINUOUS
10
-10.906990
20
-56.824135
30
0.0
11
-10.907840
21
-68.182465
31
0.0
0
LINE
8
0
6
CONTINUOUS
10
-7.507410
20
-44.675075
30
0.0
11
-10.107900
21
-44.675085
31
0.0
0
LINE
8
0
6
CONTINUOUS
10
-4.106980
20
-45.465235
30
0.0
11
-4.226700
21
-45.064895
31
0.0
0
LINE
8
0
6
CONTINUOUS
10
-4.107830
20
-56.824135
30
0.0
11
-4.106980
21
-45.465235
31
0.0
0
LINE
8
0
6
CONTINUOUS
10
-4.226700
20
-45.064895
30
0.0
11
-4.508080
21
-44.782645
31
0.0
0
LINE
8
0
6
CONTINUOUS
10
-4.508080
20
-44.782645
30
0.0
11
-4.906920
21
-44.675085
31
0.0
0
LINE
8
0
6
CONTINUOUS
10
-4.226700
20
-68.582855
30
0.0
11
-4.106980
21
-68.182465
31
0.0
0
LINE
8
0
6
CONTINUOUS
10
-10.907840
20
-68.182465
30
0.0
11
-10.788120
21
-68.582855
31
0.0
0
LINE
8
0
6
CONTINUOUS
10
-10.107900
20
-68.972805
30
0.0
11
-7.507410
21
-68.973185
31
0.0
0
LINE
8
0
6
CONTINUOUS
10
-7.507410
20
-68.973185
30
0.0
11
-4.906920
21
-68.972805
31
0.0
0
LINE
8
0
6
CONTINUOUS
10
-4.508080
20
-68.865175
30
0.0
11
-4.226700
21
-68.582855
31
0.0
0
LINE
8
0
6
CONTINUOUS
10
-4.906920
20
-68.972805
30
0.0
11
-4.508080
21
-68.865175
31
0.0
0
LINE
8
0
6
CONTINUOUS
10
-10.788120
20
-68.582855
30
0.0
11
-10.506740
21
-68.865175
31
0.0
0
LINE
8
0
6
CONTINUOUS
10
-10.506740
20
-68.865175
30
0.0
11
-10.107900
21
-68.972805
31
0.0
0
LINE
8
0
6
CONTINUOUS
10
-10.973810
20
-44.940095
30
0.0
11
-11.107740
21
-45.433935
31
0.0
0
LINE
8
0
6
CONTINUOUS
10
-10.907840
20
-45.465235
30
0.0
11
-10.788120
21
-45.064895
31
0.0
0
LINE
8
0
6
CONTINUOUS
10
-10.107820
20
-44.446255
30
0.0
11
-10.607810
21
-44.578575
31
0.0
0
LINE
8
0
6
CONTINUOUS
10
-10.506740
20
-44.782645
30
0.0
11
-10.107900
21
-44.675085
31
0.0
0
LINE
8
0
6
CONTINUOUS
10
-10.788120
20
-45.064895
30
0.0
11
-10.506740
21
-44.782645
31
0.0
0
LINE
8
0
6
CONTINUOUS
10
-10.607810
20
-44.578575
30
0.0
11
-10.973810
21
-44.940095
31
0.0
0
LINE
8
0
6
CONTINUOUS
10
-11.107740
20
-45.433935
30
0.0
11
-11.106890
21
-56.792245
31
0.0
0
LINE
8
0
6
CONTINUOUS
10
-10.906990
20
-56.824135
30
0.0
11
-10.907840
21
-45.465235
31
0.0
0
LINE
8
0
6
CONTINUOUS
10
-7.507410
20
-44.446255
30
0.0
11
-10.107820
21
-44.446255
31
0.0
0
LINE
8
0
6
CONTINUOUS
10
-10.107900
20
-44.675085
30
0.0
11
-7.507410
21
-44.675075
31
0.0
0
LINE
8
0
6
CONTINUOUS
10
-3.907080
20
-45.433935
30
0.0
11
-4.041010
21
-44.940095
31
0.0
0
LINE
8
0
6
CONTINUOUS
10
-4.226700
20
-45.064895
30
0.0
11
-4.106980
21
-45.465235
31
0.0
0
LINE
8
0
6
CONTINUOUS
10
-4.906920
20
-44.675085
30
0.0
11
-4.508080
21
-44.782645
31
0.0
0
LINE
8
0
6
CONTINUOUS
10
-4.407010
20
-44.578575
30
0.0
11
-4.907000
21
-44.446255
31
0.0
0
LINE
8
0
6
CONTINUOUS
10
-4.041010
20
-44.940095
30
0.0
11
-4.407010
21
-44.578575
31
0.0
0
LINE
8
0
6
CONTINUOUS
10
-4.508080
20
-44.782645
30
0.0
11
-4.226700
21
-45.064895
31
0.0
0
LINE
8
0
6
CONTINUOUS
10
-4.106980
20
-45.465235
30
0.0
11
-4.107830
21
-56.824135
31
0.0
0
LINE
8
0
6
CONTINUOUS
10
-3.907930
20
-56.792245
30
0.0
11
-3.907080
21
-45.433935
31
0.0
0
LINE
8
0
6
CONTINUOUS
10
-7.507410
20
-44.675075
30
0.0
11
-4.906920
21
-44.675085
31
0.0
0
LINE
8
0
6
CONTINUOUS
10
-4.907000
20
-44.446255
30
0.0
11
-7.507410
21
-44.446255
31
0.0
0
LINE
8
0
6
CONTINUOUS
10
-11.107740
20
-68.151255
30
0.0
11
-10.973810
21
-68.645155
31
0.0
0
LINE
8
0
6
CONTINUOUS
10
-10.788120
20
-68.582855
30
0.0
11
-10.907840
21
-68.182465
31
0.0
0
LINE
8
0
6
CONTINUOUS
10
-10.107900
20
-68.972805
30
0.0
11
-10.506740
21
-68.865175
31
0.0
0
LINE
8
0
6
CONTINUOUS
10
-10.607810
20
-69.006765
30
0.0
11
-10.107820
21
-69.139165
31
0.0
0
LINE
8
0
6
CONTINUOUS
10
-10.973810
20
-68.645155
30
0.0
11
-10.607810
21
-69.006765
31
0.0
0
LINE
8
0
6
CONTINUOUS
10
-10.506740
20
-68.865175
30
0.0
11
-10.788120
21
-68.582855
31
0.0
0
LINE
8
0
6
CONTINUOUS
10
-3.907080
20
-68.151255
30
0.0
11
-3.907930
21
-56.792245
31
0.0
0
LINE
8
0
6
CONTINUOUS
10
-4.107830
20
-56.824135
30
0.0
11
-4.106980
21
-68.182465
31
0.0
0
LINE
8
0
6
CONTINUOUS
10
-7.507410
20
-68.973185
30
0.0
11
-10.107900
21
-68.972805
31
0.0
0
LINE
8
0
6
CONTINUOUS
10
-10.107820
20
-69.139165
30
0.0
11
-8.185664
21
-69.139453
31
0.0
0
LINE
8
0
6
CONTINUOUS
10
-10.907840
20
-68.182465
30
0.0
11
-10.906990
21
-56.824135
31
0.0
0
LINE
8
0
6
CONTINUOUS
10
-11.106890
20
-56.792245
30
0.0
11
-11.107740
21
-68.151255
31
0.0
0
LINE
8
0
6
CONTINUOUS
10
-4.041010
20
-68.645155
30
0.0
11
-3.907080
21
-68.151255
31
0.0
0
LINE
8
0
6
CONTINUOUS
10
-4.106980
20
-68.182465
30
0.0
11
-4.226700
21
-68.582855
31
0.0
0
LINE
8
0
6
CONTINUOUS
10
-4.907000
20
-69.139165
30
0.0
11
-4.407010
21
-69.006765
31
0.0
0
LINE
8
0
6
CONTINUOUS
10
-4.508080
20
-68.865175
30
0.0
11
-4.906920
21
-68.972805
31
0.0
0
LINE
8
0
6
CONTINUOUS
10
-4.226700
20
-68.582855
30
0.0
11
-4.508080
21
-68.865175
31
0.0
0
LINE
8
0
6
CONTINUOUS
10
-4.407010
20
-69.006765
30
0.0
11
-4.041010
21
-68.645155
31
0.0
0
LINE
8
0
6
CONTINUOUS
10
-6.829156
20
-69.139453
30
0.0
11
-4.907000
21
-69.139165
31
0.0
0
LINE
8
0
6
CONTINUOUS
10
-4.906920
20
-68.972805
30
0.0
11
-7.507410
21
-68.973185
31
0.0
0
LINE
8
0
6
CONTINUOUS
10
-7.507410
20
-44.445253
30
0.0
11
-5.621218
21
-44.408196
31
0.0
0
LINE
8
0
6
CONTINUOUS
10
-10.607617
20
-44.514282
30
0.0
11
-10.107659
21
-44.392721
31
0.0
0
LINE
8
0
6
CONTINUOUS
10
-10.107659
20
-44.392721
30
0.0
11
-9.393602
21
-44.408196
31
0.0
0
LINE
8
0
6
CONTINUOUS
10
-11.107521
20
-45.359256
30
0.0
11
-10.973599
21
-44.868116
31
0.0
0
LINE
8
0
6
CONTINUOUS
10
-10.973599
20
-44.868116
30
0.0
11
-10.607617
21
-44.514282
31
0.0
0
ENDSEC
0
EOF
