999
Erzeugt mit innoplus bad 
0
SECTION
2
HEADER
9
$ACADVER
1
AC1009
9
$DWGCODEPAGE
3
ISO8859-1
0
ENDSEC
0
SECTION
2
TABLES
0
TABLE
2
LAYER
70
1
0
LAYER
2
0
70
0
62
7
6
CONTINUOUS
0
ENDTAB
0
ENDSEC
0
SECTION
2
ENTITIES
0
LINE
8
0
6
CONTINUOUS
10
12.407040
20
87.821045
30
0.0
11
6.426670
21
90.261785
31
0.0
0
LINE
8
0
6
CONTINUOUS
10
24.992590
20
65.772205
30
0.0
11
24.992590
21
65.854315
31
0.0
0
LINE
8
0
6
CONTINUOUS
10
24.992590
20
65.854315
30
0.0
11
24.100000
21
72.362965
31
0.0
0
LINE
8
0
6
CONTINUOUS
10
21.689990
20
78.419635
30
0.0
11
17.584070
21
83.662725
31
0.0
0
LINE
8
0
6
CONTINUOUS
10
6.426670
20
90.261785
30
0.0
11
0.000000
21
91.165755
31
0.0
0
LINE
8
0
6
CONTINUOUS
10
24.100000
20
72.362965
30
0.0
11
21.689990
21
78.419635
31
0.0
0
LINE
8
0
6
CONTINUOUS
10
17.584070
20
83.662725
30
0.0
11
12.407040
21
87.821045
31
0.0
0
LINE
8
0
6
CONTINUOUS
10
-6.426670
20
90.261785
30
0.0
11
-12.407040
21
87.821045
31
0.0
0
LINE
8
0
6
CONTINUOUS
10
-24.992590
20
65.854315
30
0.0
11
-24.992590
21
65.772205
31
0.0
0
LINE
8
0
6
CONTINUOUS
10
-24.100000
20
72.362965
30
0.0
11
-24.992590
21
65.854315
31
0.0
0
LINE
8
0
6
CONTINUOUS
10
-17.584070
20
83.662725
30
0.0
11
-21.689990
21
78.419635
31
0.0
0
LINE
8
0
6
CONTINUOUS
10
0.000000
20
91.165755
30
0.0
11
-6.426670
21
90.261785
31
0.0
0
LINE
8
0
6
CONTINUOUS
10
-21.689990
20
78.419635
30
0.0
11
-24.100000
21
72.362965
31
0.0
0
LINE
8
0
6
CONTINUOUS
10
-12.407040
20
87.821045
30
0.0
11
-17.584070
21
83.662725
31
0.0
0
LINE
8
0
6
CONTINUOUS
10
24.992590
20
38.114465
30
0.0
11
24.992590
21
39.519755
31
0.0
0
LINE
8
0
6
CONTINUOUS
10
24.992590
20
40.387575
30
0.0
11
24.992590
21
41.255385
31
0.0
0
LINE
8
0
6
CONTINUOUS
10
24.992590
20
39.519755
30
0.0
11
24.992590
21
40.387575
31
0.0
0
LINE
8
0
6
CONTINUOUS
10
24.100000
20
-91.165755
30
0.0
11
24.724810
21
-90.849955
31
0.0
0
LINE
8
0
6
CONTINUOUS
10
24.100000
20
-91.165755
30
0.0
11
24.100000
21
-90.955215
31
0.0
0
LINE
8
0
6
CONTINUOUS
10
23.919250
20
-91.165745
30
0.0
11
24.100000
21
-91.165755
31
0.0
0
LINE
8
0
6
CONTINUOUS
10
24.100000
20
28.056605
30
0.0
11
24.100000
21
21.370925
31
0.0
0
LINE
8
0
6
CONTINUOUS
10
24.100000
20
-90.955215
30
0.0
11
24.100000
21
-90.428925
31
0.0
0
LINE
8
0
6
CONTINUOUS
10
11.960740
20
59.238255
30
0.0
11
17.048520
21
55.351135
31
0.0
0
LINE
8
0
6
CONTINUOUS
10
24.724810
20
28.056605
30
0.0
11
24.724810
21
21.370925
31
0.0
0
LINE
8
0
6
CONTINUOUS
10
24.992590
20
21.370935
30
0.0
11
24.992590
21
28.056605
31
0.0
0
LINE
8
0
6
CONTINUOUS
10
24.992590
20
7.999565
30
0.0
11
24.992590
21
14.685245
31
0.0
0
LINE
8
0
6
CONTINUOUS
10
24.992590
20
14.685245
30
0.0
11
24.992590
21
21.370935
31
0.0
0
LINE
8
0
6
CONTINUOUS
10
24.992590
20
28.056605
30
0.0
11
24.992590
21
38.085125
31
0.0
0
LINE
8
0
6
CONTINUOUS
10
24.992590
20
-88.007935
30
0.0
11
24.992590
21
-86.955345
31
0.0
0
LINE
8
0
6
CONTINUOUS
10
24.724810
20
-87.165855
30
0.0
11
24.724810
21
-88.323705
31
0.0
0
LINE
8
0
6
CONTINUOUS
10
24.992590
20
-88.850015
30
0.0
11
24.992590
21
-88.007935
31
0.0
0
LINE
8
0
6
CONTINUOUS
10
24.992590
20
-85.902735
30
0.0
11
24.992590
21
7.999565
31
0.0
0
LINE
8
0
6
CONTINUOUS
10
23.832220
20
44.503375
30
0.0
11
24.724810
21
38.085115
31
0.0
0
LINE
8
0
6
CONTINUOUS
10
0.000000
20
63.125375
30
0.0
11
6.337410
21
62.221395
31
0.0
0
LINE
8
0
6
CONTINUOUS
10
24.992590
20
-89.586865
30
0.0
11
24.992590
21
-88.850015
31
0.0
0
LINE
8
0
6
CONTINUOUS
10
12.317780
20
59.780645
30
0.0
11
17.405550
21
55.712725
31
0.0
0
LINE
8
0
6
CONTINUOUS
10
24.992590
20
-86.955345
30
0.0
11
24.992590
21
-85.902735
31
0.0
0
LINE
8
0
6
CONTINUOUS
10
24.992590
20
-90.007855
30
0.0
11
24.992590
21
-89.586865
31
0.0
0
LINE
8
0
6
CONTINUOUS
10
24.724810
20
-90.218385
30
0.0
11
24.724810
21
-90.639425
31
0.0
0
LINE
8
0
6
CONTINUOUS
10
24.992590
20
-90.113135
30
0.0
11
24.992590
21
-90.007855
31
0.0
0
LINE
8
0
6
CONTINUOUS
10
24.724810
20
-90.849955
30
0.0
11
24.992590
21
-90.113135
31
0.0
0
LINE
8
0
6
CONTINUOUS
10
24.724810
20
-90.639425
30
0.0
11
24.724810
21
-90.849955
31
0.0
0
LINE
8
0
6
CONTINUOUS
10
17.405550
20
55.712725
30
0.0
11
21.422220
21
50.560045
31
0.0
0
LINE
8
0
6
CONTINUOUS
10
0.000000
20
-91.165745
30
0.0
11
12.050000
21
-91.165745
31
0.0
0
LINE
8
0
6
CONTINUOUS
10
24.724810
20
-89.376315
30
0.0
11
24.724810
21
-88.323705
31
0.0
0
LINE
8
0
6
CONTINUOUS
10
24.724810
20
-90.218385
30
0.0
11
24.724810
21
-89.376315
31
0.0
0
LINE
8
0
6
CONTINUOUS
10
23.832220
20
44.503375
30
0.0
11
21.422220
21
50.560045
31
0.0
0
LINE
8
0
6
CONTINUOUS
10
24.724810
20
-85.902735
30
0.0
11
24.724810
21
7.999565
31
0.0
0
LINE
8
0
6
CONTINUOUS
10
24.100000
20
-90.428925
30
0.0
11
24.099990
21
-89.586865
31
0.0
0
LINE
8
0
6
CONTINUOUS
10
24.099990
20
-85.902735
30
0.0
11
24.099990
21
7.999565
31
0.0
0
LINE
8
0
6
CONTINUOUS
10
24.099990
20
-89.586865
30
0.0
11
24.099990
21
-88.534235
31
0.0
0
LINE
8
0
6
CONTINUOUS
10
24.724810
20
7.999565
30
0.0
11
24.724810
21
14.685245
31
0.0
0
LINE
8
0
6
CONTINUOUS
10
24.099990
20
14.685245
30
0.0
11
24.099990
21
7.999565
31
0.0
0
LINE
8
0
6
CONTINUOUS
10
24.100000
20
38.085125
30
0.0
11
23.207400
21
44.322585
31
0.0
0
LINE
8
0
6
CONTINUOUS
10
6.158890
20
61.588605
30
0.0
11
11.960740
21
59.238255
31
0.0
0
LINE
8
0
6
CONTINUOUS
10
12.317780
20
59.780645
30
0.0
11
6.337410
21
62.221395
31
0.0
0
LINE
8
0
6
CONTINUOUS
10
24.724810
20
28.056605
30
0.0
11
24.724810
21
38.085115
31
0.0
0
LINE
8
0
6
CONTINUOUS
10
24.100000
20
38.085125
30
0.0
11
24.100000
21
28.056605
31
0.0
0
LINE
8
0
6
CONTINUOUS
10
24.724810
20
14.685245
30
0.0
11
24.724810
21
21.370925
31
0.0
0
LINE
8
0
6
CONTINUOUS
10
24.100000
20
21.370925
30
0.0
11
24.099990
21
14.685245
31
0.0
0
LINE
8
0
6
CONTINUOUS
10
6.158890
20
61.588605
30
0.0
11
0.000000
21
62.492585
31
0.0
0
LINE
8
0
6
CONTINUOUS
10
20.886660
20
50.198455
30
0.0
11
17.048520
21
55.351135
31
0.0
0
LINE
8
0
6
CONTINUOUS
10
23.207400
20
44.322585
30
0.0
11
20.886660
21
50.198455
31
0.0
0
LINE
8
0
6
CONTINUOUS
10
12.050000
20
-91.165745
30
0.0
11
23.919250
21
-91.165745
31
0.0
0
LINE
8
0
6
CONTINUOUS
10
24.099990
20
-88.534235
30
0.0
11
24.100000
21
-87.271105
31
0.0
0
LINE
8
0
6
CONTINUOUS
10
24.724810
20
-87.165855
30
0.0
11
24.724810
21
-85.902735
31
0.0
0
LINE
8
0
6
CONTINUOUS
10
24.992590
20
41.255385
30
0.0
11
24.992590
21
65.772205
31
0.0
0
LINE
8
0
6
CONTINUOUS
10
24.100000
20
-87.271105
30
0.0
11
24.099990
21
-85.902735
31
0.0
0
LINE
8
0
6
CONTINUOUS
10
-24.992590
20
39.519755
30
0.0
11
-24.992590
21
38.114465
31
0.0
0
LINE
8
0
6
CONTINUOUS
10
-24.992590
20
41.255385
30
0.0
11
-24.992590
21
40.387575
31
0.0
0
LINE
8
0
6
CONTINUOUS
10
-24.992590
20
40.387575
30
0.0
11
-24.992590
21
39.519755
31
0.0
0
LINE
8
0
6
CONTINUOUS
10
-24.724810
20
-90.849955
30
0.0
11
-24.100000
21
-91.165755
31
0.0
0
LINE
8
0
6
CONTINUOUS
10
-24.100000
20
-91.165755
30
0.0
11
-23.919250
21
-91.165745
31
0.0
0
LINE
8
0
6
CONTINUOUS
10
-24.100000
20
-90.955215
30
0.0
11
-24.100000
21
-91.165755
31
0.0
0
LINE
8
0
6
CONTINUOUS
10
-24.100000
20
21.370925
30
0.0
11
-24.100000
21
28.056605
31
0.0
0
LINE
8
0
6
CONTINUOUS
10
-24.100000
20
-90.428925
30
0.0
11
-24.100000
21
-90.955215
31
0.0
0
LINE
8
0
6
CONTINUOUS
10
-17.048520
20
55.351135
30
0.0
11
-11.960740
21
59.238255
31
0.0
0
LINE
8
0
6
CONTINUOUS
10
-24.992590
20
28.056605
30
0.0
11
-24.992590
21
21.370935
31
0.0
0
LINE
8
0
6
CONTINUOUS
10
-24.724810
20
21.370925
30
0.0
11
-24.724810
21
28.056605
31
0.0
0
LINE
8
0
6
CONTINUOUS
10
-24.992590
20
14.685245
30
0.0
11
-24.992590
21
7.999565
31
0.0
0
LINE
8
0
6
CONTINUOUS
10
-24.992590
20
21.370935
30
0.0
11
-24.992590
21
14.685245
31
0.0
0
LINE
8
0
6
CONTINUOUS
10
-24.992590
20
38.085125
30
0.0
11
-24.992590
21
28.056605
31
0.0
0
LINE
8
0
6
CONTINUOUS
10
-24.724810
20
-88.323705
30
0.0
11
-24.724810
21
-87.165855
31
0.0
0
LINE
8
0
6
CONTINUOUS
10
-24.992590
20
-86.955345
30
0.0
11
-24.992590
21
-88.007935
31
0.0
0
LINE
8
0
6
CONTINUOUS
10
-24.992590
20
-88.007935
30
0.0
11
-24.992590
21
-88.850015
31
0.0
0
LINE
8
0
6
CONTINUOUS
10
-24.992590
20
7.999565
30
0.0
11
-24.992590
21
-85.902735
31
0.0
0
LINE
8
0
6
CONTINUOUS
10
-24.724810
20
38.085115
30
0.0
11
-23.832220
21
44.503375
31
0.0
0
LINE
8
0
6
CONTINUOUS
10
-6.337410
20
62.221395
30
0.0
11
0.000000
21
63.125375
31
0.0
0
LINE
8
0
6
CONTINUOUS
10
-24.992590
20
-88.850015
30
0.0
11
-24.992590
21
-89.586865
31
0.0
0
LINE
8
0
6
CONTINUOUS
10
-17.405550
20
55.712725
30
0.0
11
-12.317780
21
59.780645
31
0.0
0
LINE
8
0
6
CONTINUOUS
10
-24.992590
20
-85.902735
30
0.0
11
-24.992590
21
-86.955345
31
0.0
0
LINE
8
0
6
CONTINUOUS
10
-24.724810
20
-90.639425
30
0.0
11
-24.724810
21
-90.218385
31
0.0
0
LINE
8
0
6
CONTINUOUS
10
-24.992590
20
-89.586865
30
0.0
11
-24.992590
21
-90.007855
31
0.0
0
LINE
8
0
6
CONTINUOUS
10
-24.724810
20
-90.849955
30
0.0
11
-24.724810
21
-90.639425
31
0.0
0
LINE
8
0
6
CONTINUOUS
10
-24.992590
20
-90.113135
30
0.0
11
-24.724810
21
-90.849955
31
0.0
0
LINE
8
0
6
CONTINUOUS
10
-24.992590
20
-90.007855
30
0.0
11
-24.992590
21
-90.113135
31
0.0
0
LINE
8
0
6
CONTINUOUS
10
-21.422220
20
50.560045
30
0.0
11
-17.405550
21
55.712725
31
0.0
0
LINE
8
0
6
CONTINUOUS
10
-12.050000
20
-91.165745
30
0.0
11
0.000000
21
-91.165745
31
0.0
0
LINE
8
0
6
CONTINUOUS
10
-24.724810
20
-88.323705
30
0.0
11
-24.724810
21
-89.376315
31
0.0
0
LINE
8
0
6
CONTINUOUS
10
-24.724810
20
-89.376315
30
0.0
11
-24.724810
21
-90.218385
31
0.0
0
LINE
8
0
6
CONTINUOUS
10
-21.422220
20
50.560045
30
0.0
11
-23.832220
21
44.503375
31
0.0
0
LINE
8
0
6
CONTINUOUS
10
-24.724810
20
7.999565
30
0.0
11
-24.724810
21
-85.902735
31
0.0
0
LINE
8
0
6
CONTINUOUS
10
-24.099990
20
-89.586865
30
0.0
11
-24.100000
21
-90.428925
31
0.0
0
LINE
8
0
6
CONTINUOUS
10
-24.099990
20
7.999565
30
0.0
11
-24.099990
21
-85.902735
31
0.0
0
LINE
8
0
6
CONTINUOUS
10
-24.099990
20
-88.534235
30
0.0
11
-24.099990
21
-89.586865
31
0.0
0
LINE
8
0
6
CONTINUOUS
10
-24.099990
20
7.999565
30
0.0
11
-24.099990
21
14.685245
31
0.0
0
LINE
8
0
6
CONTINUOUS
10
-24.724810
20
14.685245
30
0.0
11
-24.724810
21
7.999565
31
0.0
0
LINE
8
0
6
CONTINUOUS
10
-23.207400
20
44.322585
30
0.0
11
-24.100000
21
38.085125
31
0.0
0
LINE
8
0
6
CONTINUOUS
10
-6.337410
20
62.221395
30
0.0
11
-12.317780
21
59.780645
31
0.0
0
LINE
8
0
6
CONTINUOUS
10
-11.960740
20
59.238255
30
0.0
11
-6.158890
21
61.588605
31
0.0
0
LINE
8
0
6
CONTINUOUS
10
-24.100000
20
28.056605
30
0.0
11
-24.100000
21
38.085125
31
0.0
0
LINE
8
0
6
CONTINUOUS
10
-24.724810
20
38.085115
30
0.0
11
-24.724810
21
28.056605
31
0.0
0
LINE
8
0
6
CONTINUOUS
10
-24.099990
20
14.685245
30
0.0
11
-24.100000
21
21.370925
31
0.0
0
LINE
8
0
6
CONTINUOUS
10
-24.724810
20
21.370925
30
0.0
11
-24.724810
21
14.685245
31
0.0
0
LINE
8
0
6
CONTINUOUS
10
0.000000
20
62.492585
30
0.0
11
-6.158890
21
61.588605
31
0.0
0
LINE
8
0
6
CONTINUOUS
10
-17.048520
20
55.351135
30
0.0
11
-20.886660
21
50.198455
31
0.0
0
LINE
8
0
6
CONTINUOUS
10
-20.886660
20
50.198455
30
0.0
11
-23.207400
21
44.322585
31
0.0
0
LINE
8
0
6
CONTINUOUS
10
-23.919250
20
-91.165745
30
0.0
11
-12.050000
21
-91.165745
31
0.0
0
LINE
8
0
6
CONTINUOUS
10
-24.100000
20
-87.271105
30
0.0
11
-24.099990
21
-88.534235
31
0.0
0
LINE
8
0
6
CONTINUOUS
10
-24.724810
20
-85.902735
30
0.0
11
-24.724810
21
-87.165855
31
0.0
0
LINE
8
0
6
CONTINUOUS
10
-24.992590
20
65.772205
30
0.0
11
-24.992590
21
41.255385
31
0.0
0
LINE
8
0
6
CONTINUOUS
10
-24.099990
20
-85.902735
30
0.0
11
-24.100000
21
-87.271105
31
0.0
0
ENDSEC
0
EOF
