999
Erzeugt mit innoplus bad 
0
SECTION
2
HEADER
9
$ACADVER
1
AC1009
9
$DWGCODEPAGE
3
ISO8859-1
0
ENDSEC
0
SECTION
2
TABLES
0
TABLE
2
LAYER
70
1
0
LAYER
2
0
70
0
62
7
6
CONTINUOUS
0
ENDTAB
0
ENDSEC
0
SECTION
2
ENTITIES
0
LINE
8
0
6
CONTINUOUS
10
14.685245
20
84.995085
30
0.0
11
7.999565
21
84.994345
31
0.0
0
LINE
8
0
6
CONTINUOUS
10
45.966745
20
-85.000385
30
0.0
11
48.045905
21
-85.000385
31
0.0
0
LINE
8
0
6
CONTINUOUS
10
41.446855
20
-85.000385
30
0.0
11
43.887595
21
-85.000385
31
0.0
0
LINE
8
0
6
CONTINUOUS
10
87.821045
20
-85.000385
30
0.0
11
90.261785
21
-85.000385
31
0.0
0
LINE
8
0
6
CONTINUOUS
10
65.854315
20
-85.000385
30
0.0
11
72.362965
21
-85.000385
31
0.0
0
LINE
8
0
6
CONTINUOUS
10
48.045905
20
-85.000385
30
0.0
11
53.288985
21
-85.000385
31
0.0
0
LINE
8
0
6
CONTINUOUS
10
40.465765
20
-84.500995
30
0.0
11
40.542865
21
-85.000385
31
0.0
0
LINE
8
0
6
CONTINUOUS
10
40.542865
20
-85.000385
30
0.0
11
41.446855
21
-85.000385
31
0.0
0
LINE
8
0
6
CONTINUOUS
10
78.419635
20
-85.000385
30
0.0
11
83.662725
21
-85.000385
31
0.0
0
LINE
8
0
6
CONTINUOUS
10
91.165755
20
-85.000385
30
0.0
11
91.083645
21
-84.500815
31
0.0
0
LINE
8
0
6
CONTINUOUS
10
90.261785
20
-85.000385
30
0.0
11
91.165755
21
-85.000385
31
0.0
0
LINE
8
0
6
CONTINUOUS
10
72.362965
20
-85.000385
30
0.0
11
78.419635
21
-85.000385
31
0.0
0
LINE
8
0
6
CONTINUOUS
10
43.887595
20
-85.000385
30
0.0
11
45.966745
21
-85.000385
31
0.0
0
LINE
8
0
6
CONTINUOUS
10
83.662725
20
-85.000385
30
0.0
11
87.821045
21
-85.000385
31
0.0
0
LINE
8
0
6
CONTINUOUS
10
59.345655
20
-85.000385
30
0.0
11
65.854315
21
-85.000385
31
0.0
0
LINE
8
0
6
CONTINUOUS
10
53.288985
20
-85.000385
30
0.0
11
59.345655
21
-85.000385
31
0.0
0
LINE
8
0
6
CONTINUOUS
10
30.412755
20
75.572305
30
0.0
11
39.519755
21
75.223715
31
0.0
0
LINE
8
0
6
CONTINUOUS
10
66.477065
20
65.210025
30
0.0
11
65.706945
21
69.895605
31
0.0
0
LINE
8
0
6
CONTINUOUS
10
40.387575
20
69.943805
30
0.0
11
39.519755
21
75.223715
31
0.0
0
LINE
8
0
6
CONTINUOUS
10
-90.955215
20
81.106005
30
0.0
11
-91.165755
21
79.743565
31
0.0
0
LINE
8
0
6
CONTINUOUS
10
62.492585
20
85.000385
30
0.0
11
61.588605
21
85.000365
31
0.0
0
LINE
8
0
6
CONTINUOUS
10
63.125375
20
84.685945
30
0.0
11
62.492585
21
85.000385
31
0.0
0
LINE
8
0
6
CONTINUOUS
10
-90.428925
20
82.363645
30
0.0
11
-90.955215
21
81.106005
31
0.0
0
LINE
8
0
6
CONTINUOUS
10
-90.955215
20
78.381125
30
0.0
11
-90.428925
21
77.123475
31
0.0
0
LINE
8
0
6
CONTINUOUS
10
28.056605
20
84.997585
30
0.0
11
21.370925
21
84.995775
31
0.0
0
LINE
8
0
6
CONTINUOUS
10
-89.586865
20
76.075425
30
0.0
11
-88.534375
21
75.237035
31
0.0
0
LINE
8
0
6
CONTINUOUS
10
59.238255
20
85.000365
30
0.0
11
55.351135
21
85.000365
31
0.0
0
LINE
8
0
6
CONTINUOUS
10
44.322585
20
85.000365
30
0.0
11
38.085125
21
85.000385
31
0.0
0
LINE
8
0
6
CONTINUOUS
10
64.936815
20
74.581185
30
0.0
11
63.425915
21
83.773775
31
0.0
0
LINE
8
0
6
CONTINUOUS
10
55.351135
20
85.000365
30
0.0
11
50.198455
21
85.000365
31
0.0
0
LINE
8
0
6
CONTINUOUS
10
28.056605
20
84.683175
30
0.0
11
21.370925
21
84.681325
31
0.0
0
LINE
8
0
6
CONTINUOUS
10
-87.165855
20
84.459745
30
0.0
11
-88.323705
21
84.040515
31
0.0
0
LINE
8
0
6
CONTINUOUS
10
-89.376315
20
76.285045
30
0.0
11
-88.323705
21
75.446615
31
0.0
0
LINE
8
0
6
CONTINUOUS
10
-90.639425
20
78.485915
30
0.0
11
-90.218385
21
77.333075
31
0.0
0
LINE
8
0
6
CONTINUOUS
10
63.425915
20
83.773775
30
0.0
11
63.396565
21
83.952315
31
0.0
0
LINE
8
0
6
CONTINUOUS
10
44.503375
20
84.685945
30
0.0
11
38.085115
21
84.685945
31
0.0
0
LINE
8
0
6
CONTINUOUS
10
63.125375
20
84.685945
30
0.0
11
62.221395
21
84.685945
31
0.0
0
LINE
8
0
6
CONTINUOUS
10
63.396565
20
83.952315
30
0.0
11
63.125375
21
84.685945
31
0.0
0
LINE
8
0
6
CONTINUOUS
10
-85.902735
20
74.817785
30
0.0
11
8.001075
21
74.834655
31
0.0
0
LINE
8
0
6
CONTINUOUS
10
59.780645
20
84.685945
30
0.0
11
55.712725
21
84.685945
31
0.0
0
LINE
8
0
6
CONTINUOUS
10
-90.218385
20
82.154055
30
0.0
11
-90.639425
21
81.001215
31
0.0
0
LINE
8
0
6
CONTINUOUS
10
-90.639425
20
81.001215
30
0.0
11
-90.849955
21
79.743565
31
0.0
0
LINE
8
0
6
CONTINUOUS
10
55.712725
20
84.685945
30
0.0
11
50.560045
21
84.685945
31
0.0
0
LINE
8
0
6
CONTINUOUS
10
-85.902735
20
74.817785
30
0.0
11
-87.165855
21
75.027375
31
0.0
0
LINE
8
0
6
CONTINUOUS
10
65.706945
20
69.895605
30
0.0
11
64.936815
21
74.581185
31
0.0
0
LINE
8
0
6
CONTINUOUS
10
-88.534375
20
75.237035
30
0.0
11
-88.343105
21
75.097985
31
0.0
0
LINE
8
0
6
CONTINUOUS
10
91.083645
20
-84.500815
30
0.0
11
66.477065
21
65.210025
31
0.0
0
LINE
8
0
6
CONTINUOUS
10
-78.655305
20
68.209235
30
0.0
11
-77.751335
21
67.709235
31
0.0
0
LINE
8
0
6
CONTINUOUS
10
-75.203835
20
67.627545
30
0.0
11
-76.431665
21
67.666915
31
0.0
0
LINE
8
0
6
CONTINUOUS
10
-76.432595
20
67.646985
30
0.0
11
-75.205655
21
67.589065
31
0.0
0
LINE
8
0
6
CONTINUOUS
10
-76.431665
20
67.666915
30
0.0
11
-77.751335
21
67.709235
31
0.0
0
LINE
8
0
6
CONTINUOUS
10
-77.751335
20
67.709235
30
0.0
11
-76.432595
21
67.646985
31
0.0
0
LINE
8
0
6
CONTINUOUS
10
-77.382345
20
68.661655
30
0.0
11
7.171995
21
64.304035
31
0.0
0
LINE
8
0
6
CONTINUOUS
10
-89.376315
20
83.202085
30
0.0
11
-88.323705
21
84.040515
31
0.0
0
LINE
8
0
6
CONTINUOUS
10
-88.534235
20
84.250135
30
0.0
11
-89.586865
21
83.411695
31
0.0
0
LINE
8
0
6
CONTINUOUS
10
-90.218385
20
82.154055
30
0.0
11
-89.376315
21
83.202085
31
0.0
0
LINE
8
0
6
CONTINUOUS
10
-89.586865
20
83.411695
30
0.0
11
-90.428925
21
82.363645
31
0.0
0
LINE
8
0
6
CONTINUOUS
10
50.198455
20
85.000365
30
0.0
11
44.322585
21
85.000365
31
0.0
0
LINE
8
0
6
CONTINUOUS
10
44.503375
20
84.685945
30
0.0
11
50.560045
21
84.685945
31
0.0
0
LINE
8
0
6
CONTINUOUS
10
-85.902735
20
84.669325
30
0.0
11
7.999565
21
84.677645
31
0.0
0
LINE
8
0
6
CONTINUOUS
10
7.999565
20
84.992075
30
0.0
11
-85.902735
21
84.983735
31
0.0
0
LINE
8
0
6
CONTINUOUS
10
-86.290495
20
73.605055
30
0.0
11
-84.046745
21
71.973115
31
0.0
0
LINE
8
0
6
CONTINUOUS
10
7.486005
20
63.969465
30
0.0
11
-75.203835
21
67.627545
31
0.0
0
LINE
8
0
6
CONTINUOUS
10
-75.205655
20
67.589065
30
0.0
11
-73.865833
21
67.525959
31
0.0
0
LINE
8
0
6
CONTINUOUS
10
-49.651743
20
66.385465
30
0.0
11
8.082115
21
63.666175
31
0.0
0
LINE
8
0
6
CONTINUOUS
10
-79.559265
20
68.709235
30
0.0
11
-78.655305
21
68.209235
31
0.0
0
LINE
8
0
6
CONTINUOUS
10
11.926015
20
63.425785
30
0.0
11
11.678775
21
62.641995
31
0.0
0
LINE
8
0
6
CONTINUOUS
10
20.449825
20
59.745055
30
0.0
11
16.052725
21
62.284815
31
0.0
0
LINE
8
0
6
CONTINUOUS
10
16.128615
20
61.806725
30
0.0
11
15.005325
21
60.676195
31
0.0
0
LINE
8
0
6
CONTINUOUS
10
14.747445
20
60.325735
30
0.0
11
17.349275
21
57.427085
31
0.0
0
LINE
8
0
6
CONTINUOUS
10
23.577715
20
55.744435
30
0.0
11
20.449825
21
59.745055
31
0.0
0
LINE
8
0
6
CONTINUOUS
10
19.869315
20
54.290385
30
0.0
11
21.980595
21
55.122375
31
0.0
0
LINE
8
0
6
CONTINUOUS
10
19.893065
20
59.326705
30
0.0
11
17.870555
21
57.817725
31
0.0
0
LINE
8
0
6
CONTINUOUS
10
-87.165855
20
75.027375
30
0.0
11
-88.323705
21
75.446615
31
0.0
0
LINE
8
0
6
CONTINUOUS
10
7.999565
20
84.677645
30
0.0
11
14.685245
21
84.679495
31
0.0
0
LINE
8
0
6
CONTINUOUS
10
14.685245
20
84.993885
30
0.0
11
7.999565
21
84.992075
31
0.0
0
LINE
8
0
6
CONTINUOUS
10
-89.376315
20
76.285045
30
0.0
11
-90.218385
21
77.333075
31
0.0
0
LINE
8
0
6
CONTINUOUS
10
-90.428925
20
77.123475
30
0.0
11
-89.586865
21
76.075425
31
0.0
0
LINE
8
0
6
CONTINUOUS
10
22.942125
20
74.348705
30
0.0
11
30.412765
21
74.348685
31
0.0
0
LINE
8
0
6
CONTINUOUS
10
61.588605
20
85.000365
30
0.0
11
59.238255
21
85.000365
31
0.0
0
LINE
8
0
6
CONTINUOUS
10
59.780645
20
84.685945
30
0.0
11
62.221395
21
84.685945
31
0.0
0
LINE
8
0
6
CONTINUOUS
10
28.056605
20
84.683175
30
0.0
11
38.085115
21
84.685945
31
0.0
0
LINE
8
0
6
CONTINUOUS
10
38.085125
20
85.000385
30
0.0
11
28.056605
21
84.997585
31
0.0
0
LINE
8
0
6
CONTINUOUS
10
14.685245
20
84.679495
30
0.0
11
21.370925
21
84.681325
31
0.0
0
LINE
8
0
6
CONTINUOUS
10
21.370925
20
84.995775
30
0.0
11
14.685245
21
84.993885
31
0.0
0
LINE
8
0
6
CONTINUOUS
10
-88.343105
20
75.097985
30
0.0
11
-86.290495
21
73.605055
31
0.0
0
LINE
8
0
6
CONTINUOUS
10
-88.534235
20
84.250135
30
0.0
11
-87.271105
21
84.774115
31
0.0
0
LINE
8
0
6
CONTINUOUS
10
-87.165855
20
84.459745
30
0.0
11
-85.902735
21
84.669325
31
0.0
0
LINE
8
0
6
CONTINUOUS
10
23.577715
20
55.744435
30
0.0
11
21.980595
21
55.122375
31
0.0
0
LINE
8
0
6
CONTINUOUS
10
19.091475
20
53.936485
30
0.0
11
34.281291
21
-44.445253
31
0.0
0
LINE
8
0
6
CONTINUOUS
10
38.083110
20
-69.068964
30
0.0
11
40.465765
21
-84.500995
31
0.0
0
LINE
8
0
6
CONTINUOUS
10
41.255385
20
64.663875
30
0.0
11
40.387575
21
69.943805
31
0.0
0
LINE
8
0
6
CONTINUOUS
10
-84.046745
20
71.973115
30
0.0
11
-79.559265
21
68.709235
31
0.0
0
LINE
8
0
6
CONTINUOUS
10
11.696065
20
63.659535
30
0.0
11
7.171995
21
64.304035
31
0.0
0
LINE
8
0
6
CONTINUOUS
10
8.082115
20
63.666175
30
0.0
11
11.617845
21
62.409215
31
0.0
0
LINE
8
0
6
CONTINUOUS
10
16.052725
20
62.284815
30
0.0
11
11.696065
21
63.659535
31
0.0
0
LINE
8
0
6
CONTINUOUS
10
11.617845
20
62.409215
30
0.0
11
14.747445
21
60.325735
31
0.0
0
LINE
8
0
6
CONTINUOUS
10
17.349275
20
57.427085
30
0.0
11
19.091475
21
53.936485
31
0.0
0
LINE
8
0
6
CONTINUOUS
10
-90.639425
20
78.485915
30
0.0
11
-90.849955
21
79.743565
31
0.0
0
LINE
8
0
6
CONTINUOUS
10
-91.165755
20
79.743565
30
0.0
11
-90.955215
21
78.381125
31
0.0
0
LINE
8
0
6
CONTINUOUS
10
-87.271105
20
84.774115
30
0.0
11
-85.902735
21
84.983735
31
0.0
0
LINE
8
0
6
CONTINUOUS
10
61.412925
20
85.000365
30
0.0
11
59.079865
21
85.000365
31
0.0
0
LINE
8
0
6
CONTINUOUS
10
-53.704545
20
60.335465
30
0.0
11
-53.369375
21
60.268905
31
0.0
0
LINE
8
0
6
CONTINUOUS
10
-53.369375
20
60.268905
30
0.0
11
-52.942765
21
60.185395
31
0.0
0
LINE
8
0
6
CONTINUOUS
10
-53.704545
20
60.335465
30
0.0
11
-53.369375
21
60.268905
31
0.0
0
LINE
8
0
6
CONTINUOUS
10
-72.432625
20
64.000915
30
0.0
11
-72.006015
21
63.917415
31
0.0
0
LINE
8
0
6
CONTINUOUS
10
-52.942765
20
60.185395
30
0.0
11
-51.379915
21
59.931755
31
0.0
0
LINE
8
0
6
CONTINUOUS
10
-69.590305
20
63.444825
30
0.0
11
-67.538695
21
63.043135
31
0.0
0
LINE
8
0
6
CONTINUOUS
10
-54.236545
20
60.439155
30
0.0
11
-53.293335
21
60.254975
31
0.0
0
LINE
8
0
6
CONTINUOUS
10
-72.082055
20
63.932465
30
0.0
11
-71.138905
21
63.747185
31
0.0
0
LINE
8
0
6
CONTINUOUS
10
-62.687695
20
62.093715
30
0.0
11
-60.194745
21
61.605855
31
0.0
0
LINE
8
0
6
CONTINUOUS
10
-73.975765
20
64.355125
30
0.0
11
-72.432625
21
64.000915
31
0.0
0
LINE
8
0
6
CONTINUOUS
10
-62.677865
20
62.143945
30
0.0
11
-59.663035
21
61.553925
31
0.0
0
LINE
8
0
6
CONTINUOUS
10
-50.901345
20
59.838075
30
0.0
11
-50.817035
21
60.268935
31
0.0
0
LINE
8
0
6
CONTINUOUS
10
-51.325345
20
59.921915
30
0.0
11
-50.901345
21
59.838075
31
0.0
0
LINE
8
0
6
CONTINUOUS
10
-54.340055
20
60.511925
30
0.0
11
-52.455805
21
60.142785
31
0.0
0
LINE
8
0
6
CONTINUOUS
10
-65.692685
20
62.733965
30
0.0
11
-62.677865
21
62.143945
31
0.0
0
LINE
8
0
6
CONTINUOUS
10
-71.015545
20
63.775935
30
0.0
11
-68.519015
21
63.287155
31
0.0
0
LINE
8
0
6
CONTINUOUS
10
-68.519015
20
63.287155
30
0.0
11
-65.692685
21
62.733965
31
0.0
0
LINE
8
0
6
CONTINUOUS
10
-72.899925
20
64.144085
30
0.0
11
-71.015545
21
63.775935
31
0.0
0
LINE
8
0
6
CONTINUOUS
10
-74.030385
20
64.365965
30
0.0
11
-72.899925
21
64.144085
31
0.0
0
LINE
8
0
6
CONTINUOUS
10
-59.663035
20
61.553925
30
0.0
11
-56.836705
21
61.000715
31
0.0
0
LINE
8
0
6
CONTINUOUS
10
-52.455805
20
60.142785
30
0.0
11
-51.325345
21
59.921915
31
0.0
0
LINE
8
0
6
CONTINUOUS
10
-56.836705
20
61.000715
30
0.0
11
-54.340055
21
60.511925
31
0.0
0
LINE
8
0
6
CONTINUOUS
10
-74.454335
20
64.448795
30
0.0
11
-74.030385
21
64.365965
31
0.0
0
LINE
8
0
6
CONTINUOUS
10
-74.370005
20
64.879635
30
0.0
11
-74.454335
21
64.448795
31
0.0
0
LINE
8
0
6
CONTINUOUS
10
-50.817035
20
60.268935
30
0.0
11
-49.651743
21
66.385465
31
0.0
0
LINE
8
0
6
CONTINUOUS
10
-73.865833
20
67.525959
30
0.0
11
-74.370005
21
64.879635
31
0.0
0
LINE
8
0
6
CONTINUOUS
10
34.297395
20
-44.578575
30
0.0
11
34.354845
21
-44.940095
31
0.0
0
LINE
8
0
6
CONTINUOUS
10
34.809513
20
-44.868116
30
0.0
11
34.357625
21
-44.939655
31
0.0
0
LINE
8
0
6
CONTINUOUS
10
34.354845
20
-44.940095
30
0.0
11
34.433155
21
-45.433935
31
0.0
0
LINE
8
0
6
CONTINUOUS
10
34.433155
20
-45.433935
30
0.0
11
36.232795
21
-56.792245
31
0.0
0
LINE
8
0
6
CONTINUOUS
10
38.160665
20
-69.006765
30
0.0
11
38.181325
21
-69.139165
31
0.0
0
LINE
8
0
6
CONTINUOUS
10
38.103755
20
-68.645155
30
0.0
11
38.160665
21
-69.006765
31
0.0
0
LINE
8
0
6
CONTINUOUS
10
38.103755
20
-68.645155
30
0.0
11
38.485930
21
-68.584779
31
0.0
0
LINE
8
0
6
CONTINUOUS
10
38.025855
20
-68.151255
30
0.0
11
38.103755
21
-68.645155
31
0.0
0
LINE
8
0
6
CONTINUOUS
10
36.232795
20
-56.792245
30
0.0
11
38.025855
21
-68.151255
31
0.0
0
LINE
8
0
6
CONTINUOUS
10
37.828215
20
-68.182465
30
0.0
11
36.032055
21
-56.824135
31
0.0
0
LINE
8
0
6
CONTINUOUS
10
34.276185
20
-44.446255
30
0.0
11
34.297395
21
-44.578575
31
0.0
0
LINE
8
0
6
CONTINUOUS
10
34.297395
20
-44.578575
30
0.0
11
34.703201
21
-44.514282
31
0.0
0
LINE
8
0
6
CONTINUOUS
10
34.235525
20
-45.465235
30
0.0
11
34.172045
21
-45.064895
31
0.0
0
LINE
8
0
6
CONTINUOUS
10
36.032055
20
-56.824135
30
0.0
11
34.235525
21
-45.465235
31
0.0
0
LINE
8
0
6
CONTINUOUS
10
34.172045
20
-45.064895
30
0.0
11
34.127185
21
-44.782645
31
0.0
0
LINE
8
0
6
CONTINUOUS
10
34.127185
20
-44.782645
30
0.0
11
34.109955
21
-44.675085
31
0.0
0
LINE
8
0
6
CONTINUOUS
10
37.891365
20
-68.582855
30
0.0
11
37.828215
21
-68.182465
31
0.0
0
LINE
8
0
6
CONTINUOUS
10
37.935795
20
-68.865175
30
0.0
11
37.891365
21
-68.582855
31
0.0
0
LINE
8
0
6
CONTINUOUS
10
37.952595
20
-68.972805
30
0.0
11
37.935795
21
-68.865175
31
0.0
0
LINE
8
0
6
CONTINUOUS
10
34.433155
20
-45.433935
30
0.0
11
34.354845
21
-44.940095
31
0.0
0
LINE
8
0
6
CONTINUOUS
10
34.172045
20
-45.064895
30
0.0
11
34.235525
21
-45.465235
31
0.0
0
LINE
8
0
6
CONTINUOUS
10
34.109955
20
-44.675085
30
0.0
11
34.127185
21
-44.782645
31
0.0
0
LINE
8
0
6
CONTINUOUS
10
34.297395
20
-44.578575
30
0.0
11
34.276185
21
-44.446255
31
0.0
0
LINE
8
0
6
CONTINUOUS
10
34.354845
20
-44.940095
30
0.0
11
34.297395
21
-44.578575
31
0.0
0
LINE
8
0
6
CONTINUOUS
10
34.127185
20
-44.782645
30
0.0
11
34.172045
21
-45.064895
31
0.0
0
LINE
8
0
6
CONTINUOUS
10
34.235525
20
-45.465235
30
0.0
11
36.032055
21
-56.824135
31
0.0
0
LINE
8
0
6
CONTINUOUS
10
36.232795
20
-56.792245
30
0.0
11
34.433155
21
-45.433935
31
0.0
0
LINE
8
0
6
CONTINUOUS
10
38.025855
20
-68.151255
30
0.0
11
36.232795
21
-56.792245
31
0.0
0
LINE
8
0
6
CONTINUOUS
10
36.032055
20
-56.824135
30
0.0
11
37.828215
21
-68.182465
31
0.0
0
LINE
8
0
6
CONTINUOUS
10
38.103755
20
-68.645155
30
0.0
11
38.025855
21
-68.151255
31
0.0
0
LINE
8
0
6
CONTINUOUS
10
37.828215
20
-68.182465
30
0.0
11
37.891365
21
-68.582855
31
0.0
0
LINE
8
0
6
CONTINUOUS
10
38.181325
20
-69.139165
30
0.0
11
38.160665
21
-69.006765
31
0.0
0
LINE
8
0
6
CONTINUOUS
10
37.935795
20
-68.865175
30
0.0
11
37.952595
21
-68.972805
31
0.0
0
LINE
8
0
6
CONTINUOUS
10
37.891365
20
-68.582855
30
0.0
11
37.935795
21
-68.865175
31
0.0
0
LINE
8
0
6
CONTINUOUS
10
38.160665
20
-69.006765
30
0.0
11
38.103755
21
-68.645155
31
0.0
0
ENDSEC
0
EOF
