999
Erzeugt mit innoplus bad 
0
SECTION
2
HEADER
9
$ACADVER
1
AC1009
9
$DWGCODEPAGE
3
ISO8859-1
0
ENDSEC
0
SECTION
2
TABLES
0
TABLE
2
LAYER
70
1
0
LAYER
2
0
70
0
62
7
6
CONTINUOUS
0
ENDTAB
0
ENDSEC
0
SECTION
2
ENTITIES
0
LINE
8
0
6
CONTINUOUS
10
-80.000010
20
4.250315
30
0.0
11
-80.000010
21
-0.007045
31
0.0
0
LINE
8
0
6
CONTINUOUS
10
-80.000010
20
-13.784155
30
0.0
11
0.000000
21
-13.784155
31
0.0
0
LINE
8
0
6
CONTINUOUS
10
-80.000010
20
-13.109855
30
0.0
11
-80.000010
21
-13.784155
31
0.0
0
LINE
8
0
6
CONTINUOUS
10
-80.000010
20
8.090925
30
0.0
11
-80.000010
21
4.250315
31
0.0
0
LINE
8
0
6
CONTINUOUS
10
-80.000010
20
-11.152955
30
0.0
11
-80.000010
21
-13.109855
31
0.0
0
LINE
8
0
6
CONTINUOUS
10
-80.000010
20
11.138855
30
0.0
11
-80.000010
21
8.090925
31
0.0
0
LINE
8
0
6
CONTINUOUS
10
-80.000010
20
13.095745
30
0.0
11
-80.000010
21
11.138855
31
0.0
0
LINE
8
0
6
CONTINUOUS
10
-0.000000
20
13.770035
30
0.0
11
-80.000010
21
13.770035
31
0.0
0
LINE
8
0
6
CONTINUOUS
10
-80.000010
20
13.770035
30
0.0
11
-80.000010
21
13.095745
31
0.0
0
LINE
8
0
6
CONTINUOUS
10
-80.000010
20
-8.105025
30
0.0
11
-80.000010
21
-11.152955
31
0.0
0
LINE
8
0
6
CONTINUOUS
10
-80.000010
20
-4.264405
30
0.0
11
-80.000010
21
-8.105025
31
0.0
0
LINE
8
0
6
CONTINUOUS
10
-80.000010
20
-0.007045
30
0.0
11
-80.000010
21
-4.264405
31
0.0
0
LINE
8
0
6
CONTINUOUS
10
80.000010
20
-0.007045
30
0.0
11
80.000010
21
4.250315
31
0.0
0
LINE
8
0
6
CONTINUOUS
10
80.000010
20
-13.784155
30
0.0
11
80.000010
21
-13.109855
31
0.0
0
LINE
8
0
6
CONTINUOUS
10
0.000000
20
-13.784155
30
0.0
11
80.000010
21
-13.784155
31
0.0
0
LINE
8
0
6
CONTINUOUS
10
80.000010
20
4.250315
30
0.0
11
80.000010
21
8.090925
31
0.0
0
LINE
8
0
6
CONTINUOUS
10
80.000010
20
-13.109855
30
0.0
11
80.000010
21
-11.152955
31
0.0
0
LINE
8
0
6
CONTINUOUS
10
80.000010
20
8.090925
30
0.0
11
80.000010
21
11.138855
31
0.0
0
LINE
8
0
6
CONTINUOUS
10
80.000010
20
11.138855
30
0.0
11
80.000010
21
13.095745
31
0.0
0
LINE
8
0
6
CONTINUOUS
10
80.000010
20
13.095745
30
0.0
11
80.000010
21
13.770035
31
0.0
0
LINE
8
0
6
CONTINUOUS
10
80.000010
20
13.770035
30
0.0
11
-0.000000
21
13.770035
31
0.0
0
LINE
8
0
6
CONTINUOUS
10
80.000010
20
-11.152955
30
0.0
11
80.000010
21
-8.105025
31
0.0
0
LINE
8
0
6
CONTINUOUS
10
80.000010
20
-8.105025
30
0.0
11
80.000010
21
-4.264405
31
0.0
0
LINE
8
0
6
CONTINUOUS
10
80.000010
20
-4.264405
30
0.0
11
80.000010
21
-0.007045
31
0.0
0
LINE
8
0
6
CONTINUOUS
10
-123.988275
20
-12.507165
30
0.0
11
-121.487870
21
-17.132325
31
0.0
0
LINE
8
0
6
CONTINUOUS
10
-121.487870
20
-17.132325
30
0.0
11
-117.634580
21
-21.770245
31
0.0
0
LINE
8
0
6
CONTINUOUS
10
-117.634580
20
-21.770245
30
0.0
11
-112.977600
21
-25.594115
31
0.0
0
LINE
8
0
6
CONTINUOUS
10
-112.977600
20
-25.594115
30
0.0
11
-107.590530
21
-28.448315
31
0.0
0
LINE
8
0
6
CONTINUOUS
10
-107.590530
20
-28.448315
30
0.0
11
-101.815560
21
-30.132875
31
0.0
0
LINE
8
0
6
CONTINUOUS
10
-101.815560
20
-30.132875
30
0.0
11
-95.838320
21
-30.700245
31
0.0
0
LINE
8
0
6
CONTINUOUS
10
-95.838320
20
-30.700245
30
0.0
11
-89.783340
21
-30.094865
31
0.0
0
LINE
8
0
6
CONTINUOUS
10
-89.783340
20
-30.094865
30
0.0
11
-84.071670
21
-28.278835
31
0.0
0
LINE
8
0
6
CONTINUOUS
10
-84.071670
20
-28.278835
30
0.0
11
-78.814510
21
-25.434555
31
0.0
0
LINE
8
0
6
CONTINUOUS
10
-78.814510
20
-25.434555
30
0.0
11
-74.143460
21
-21.618465
31
0.0
0
LINE
8
0
6
CONTINUOUS
10
-74.143460
20
-21.618465
30
0.0
11
-70.389580
21
-16.924945
31
0.0
0
LINE
8
0
6
CONTINUOUS
10
-70.389580
20
-16.924945
30
0.0
11
-68.728933
21
-13.784155
31
0.0
0
LINE
8
0
6
CONTINUOUS
10
-68.704358
20
13.770035
30
0.0
11
-70.450590
21
17.015405
31
0.0
0
LINE
8
0
6
CONTINUOUS
10
-70.450590
20
17.015405
30
0.0
11
-74.223730
21
21.613755
31
0.0
0
LINE
8
0
6
CONTINUOUS
10
-74.223730
20
21.613755
30
0.0
11
-78.791300
21
25.438275
31
0.0
0
LINE
8
0
6
CONTINUOUS
10
-78.791300
20
25.438275
30
0.0
11
-84.136210
21
28.308135
31
0.0
0
LINE
8
0
6
CONTINUOUS
10
-84.136210
20
28.308135
30
0.0
11
-89.843170
21
30.050645
31
0.0
0
LINE
8
0
6
CONTINUOUS
10
-89.843170
20
30.050645
30
0.0
11
-95.785640
21
30.700255
31
0.0
0
LINE
8
0
6
CONTINUOUS
10
-95.785640
20
30.700255
30
0.0
11
-101.838270
21
30.139815
31
0.0
0
LINE
8
0
6
CONTINUOUS
10
-101.838270
20
30.139815
30
0.0
11
-107.576130
21
28.409145
31
0.0
0
LINE
8
0
6
CONTINUOUS
10
-107.576130
20
28.409145
30
0.0
11
-112.895160
21
25.629445
31
0.0
0
LINE
8
0
6
CONTINUOUS
10
-112.895160
20
25.629445
30
0.0
11
-117.636450
21
21.806235
31
0.0
0
LINE
8
0
6
CONTINUOUS
10
-117.636450
20
21.806235
30
0.0
11
-121.449100
21
17.149435
31
0.0
0
LINE
8
0
6
CONTINUOUS
10
-121.449100
20
17.149435
30
0.0
11
-123.970427
21
12.493045
31
0.0
0
LINE
8
0
6
CONTINUOUS
10
-123.322894
20
-12.507165
30
0.0
11
-121.024900
21
-16.799065
31
0.0
0
LINE
8
0
6
CONTINUOUS
10
-121.024900
20
-16.799065
30
0.0
11
-117.249840
21
-21.391255
31
0.0
0
LINE
8
0
6
CONTINUOUS
10
-117.249840
20
-21.391255
30
0.0
11
-112.653640
21
-25.161215
31
0.0
0
LINE
8
0
6
CONTINUOUS
10
-112.653640
20
-25.161215
30
0.0
11
-107.415580
21
-27.957045
31
0.0
0
LINE
8
0
6
CONTINUOUS
10
-107.415580
20
-27.957045
30
0.0
11
-101.725530
21
-29.675125
31
0.0
0
LINE
8
0
6
CONTINUOUS
10
-101.725530
20
-29.675125
30
0.0
11
-95.811280
21
-30.254165
31
0.0
0
LINE
8
0
6
CONTINUOUS
10
-95.811280
20
-30.254165
30
0.0
11
-89.903440
21
-29.671365
31
0.0
0
LINE
8
0
6
CONTINUOUS
10
-89.903440
20
-29.671365
30
0.0
11
-84.211020
21
-27.962685
31
0.0
0
LINE
8
0
6
CONTINUOUS
10
-84.211020
20
-27.962685
30
0.0
11
-78.978420
21
-25.145005
31
0.0
0
LINE
8
0
6
CONTINUOUS
10
-78.978420
20
-25.145005
30
0.0
11
-74.381940
21
-21.380335
31
0.0
0
LINE
8
0
6
CONTINUOUS
10
-74.381940
20
-21.380335
30
0.0
11
-70.650340
21
-16.768745
31
0.0
0
LINE
8
0
6
CONTINUOUS
10
-70.650340
20
-16.768745
30
0.0
11
-69.064476
21
-13.784155
31
0.0
0
LINE
8
0
6
CONTINUOUS
10
-69.027895
20
13.770035
30
0.0
11
-70.671550
21
16.832855
31
0.0
0
LINE
8
0
6
CONTINUOUS
10
-70.671550
20
16.832855
30
0.0
11
-74.429450
21
21.415205
31
0.0
0
LINE
8
0
6
CONTINUOUS
10
-74.429450
20
21.415205
30
0.0
11
-78.995850
21
25.200385
31
0.0
0
LINE
8
0
6
CONTINUOUS
10
-78.995850
20
25.200385
30
0.0
11
-84.225270
21
28.002485
31
0.0
0
LINE
8
0
6
CONTINUOUS
10
-84.225270
20
28.002485
30
0.0
11
-89.904150
21
29.734585
31
0.0
0
LINE
8
0
6
CONTINUOUS
10
-89.904150
20
29.734585
30
0.0
11
-95.815360
21
30.350385
31
0.0
0
LINE
8
0
6
CONTINUOUS
10
-95.815360
20
30.350385
30
0.0
11
-101.728520
21
29.788335
31
0.0
0
LINE
8
0
6
CONTINUOUS
10
-101.728520
20
29.788335
30
0.0
11
-107.426980
21
28.070145
31
0.0
0
LINE
8
0
6
CONTINUOUS
10
-107.426980
20
28.070145
30
0.0
11
-112.651640
21
25.228475
31
0.0
0
LINE
8
0
6
CONTINUOUS
10
-112.651640
20
25.228475
30
0.0
11
-117.245220
21
21.468125
31
0.0
0
LINE
8
0
6
CONTINUOUS
10
-117.245220
20
21.468125
30
0.0
11
-121.016630
21
16.874795
31
0.0
0
LINE
8
0
6
CONTINUOUS
10
-121.016630
20
16.874795
30
0.0
11
-123.363156
21
12.493045
31
0.0
0
LINE
8
0
6
CONTINUOUS
10
121.487850
20
-17.132325
30
0.0
11
123.988255
21
-12.507165
31
0.0
0
LINE
8
0
6
CONTINUOUS
10
117.634560
20
-21.770245
30
0.0
11
121.487850
21
-17.132325
31
0.0
0
LINE
8
0
6
CONTINUOUS
10
112.977580
20
-25.594115
30
0.0
11
117.634560
21
-21.770245
31
0.0
0
LINE
8
0
6
CONTINUOUS
10
107.590510
20
-28.448315
30
0.0
11
112.977580
21
-25.594115
31
0.0
0
LINE
8
0
6
CONTINUOUS
10
101.815540
20
-30.132875
30
0.0
11
107.590510
21
-28.448315
31
0.0
0
LINE
8
0
6
CONTINUOUS
10
95.838300
20
-30.700245
30
0.0
11
101.815540
21
-30.132875
31
0.0
0
LINE
8
0
6
CONTINUOUS
10
89.783320
20
-30.094865
30
0.0
11
95.838300
21
-30.700245
31
0.0
0
LINE
8
0
6
CONTINUOUS
10
84.071650
20
-28.278835
30
0.0
11
89.783320
21
-30.094865
31
0.0
0
LINE
8
0
6
CONTINUOUS
10
78.814490
20
-25.434555
30
0.0
11
84.071650
21
-28.278835
31
0.0
0
LINE
8
0
6
CONTINUOUS
10
74.143440
20
-21.618465
30
0.0
11
78.814490
21
-25.434555
31
0.0
0
LINE
8
0
6
CONTINUOUS
10
70.389560
20
-16.924945
30
0.0
11
74.143440
21
-21.618465
31
0.0
0
LINE
8
0
6
CONTINUOUS
10
68.728913
20
-13.784155
30
0.0
11
70.389560
21
-16.924945
31
0.0
0
LINE
8
0
6
CONTINUOUS
10
70.450570
20
17.015405
30
0.0
11
68.704338
21
13.770035
31
0.0
0
LINE
8
0
6
CONTINUOUS
10
74.223710
20
21.613755
30
0.0
11
70.450570
21
17.015405
31
0.0
0
LINE
8
0
6
CONTINUOUS
10
78.791280
20
25.438275
30
0.0
11
74.223710
21
21.613755
31
0.0
0
LINE
8
0
6
CONTINUOUS
10
84.136190
20
28.308135
30
0.0
11
78.791280
21
25.438275
31
0.0
0
LINE
8
0
6
CONTINUOUS
10
89.843150
20
30.050645
30
0.0
11
84.136190
21
28.308135
31
0.0
0
LINE
8
0
6
CONTINUOUS
10
95.785620
20
30.700255
30
0.0
11
89.843150
21
30.050645
31
0.0
0
LINE
8
0
6
CONTINUOUS
10
101.838250
20
30.139815
30
0.0
11
95.785620
21
30.700255
31
0.0
0
LINE
8
0
6
CONTINUOUS
10
107.576110
20
28.409145
30
0.0
11
101.838250
21
30.139815
31
0.0
0
LINE
8
0
6
CONTINUOUS
10
112.895140
20
25.629445
30
0.0
11
107.576110
21
28.409145
31
0.0
0
LINE
8
0
6
CONTINUOUS
10
117.636430
20
21.806235
30
0.0
11
112.895140
21
25.629445
31
0.0
0
LINE
8
0
6
CONTINUOUS
10
121.449080
20
17.149435
30
0.0
11
117.636430
21
21.806235
31
0.0
0
LINE
8
0
6
CONTINUOUS
10
123.970407
20
12.493045
30
0.0
11
121.449080
21
17.149435
31
0.0
0
LINE
8
0
6
CONTINUOUS
10
121.024880
20
-16.799065
30
0.0
11
123.322874
21
-12.507165
31
0.0
0
LINE
8
0
6
CONTINUOUS
10
117.249820
20
-21.391255
30
0.0
11
121.024880
21
-16.799065
31
0.0
0
LINE
8
0
6
CONTINUOUS
10
112.653620
20
-25.161215
30
0.0
11
117.249820
21
-21.391255
31
0.0
0
LINE
8
0
6
CONTINUOUS
10
107.415560
20
-27.957045
30
0.0
11
112.653620
21
-25.161215
31
0.0
0
LINE
8
0
6
CONTINUOUS
10
101.725510
20
-29.675125
30
0.0
11
107.415560
21
-27.957045
31
0.0
0
LINE
8
0
6
CONTINUOUS
10
95.811260
20
-30.254165
30
0.0
11
101.725510
21
-29.675125
31
0.0
0
LINE
8
0
6
CONTINUOUS
10
89.903420
20
-29.671365
30
0.0
11
95.811260
21
-30.254165
31
0.0
0
LINE
8
0
6
CONTINUOUS
10
84.211000
20
-27.962685
30
0.0
11
89.903420
21
-29.671365
31
0.0
0
LINE
8
0
6
CONTINUOUS
10
78.978400
20
-25.145005
30
0.0
11
84.211000
21
-27.962685
31
0.0
0
LINE
8
0
6
CONTINUOUS
10
74.381920
20
-21.380335
30
0.0
11
78.978400
21
-25.145005
31
0.0
0
LINE
8
0
6
CONTINUOUS
10
70.650320
20
-16.768745
30
0.0
11
74.381920
21
-21.380335
31
0.0
0
LINE
8
0
6
CONTINUOUS
10
69.064456
20
-13.784155
30
0.0
11
70.650320
21
-16.768745
31
0.0
0
LINE
8
0
6
CONTINUOUS
10
70.671530
20
16.832855
30
0.0
11
69.027875
21
13.770035
31
0.0
0
LINE
8
0
6
CONTINUOUS
10
74.429430
20
21.415205
30
0.0
11
70.671530
21
16.832855
31
0.0
0
LINE
8
0
6
CONTINUOUS
10
78.995830
20
25.200385
30
0.0
11
74.429430
21
21.415205
31
0.0
0
LINE
8
0
6
CONTINUOUS
10
84.225250
20
28.002485
30
0.0
11
78.995830
21
25.200385
31
0.0
0
LINE
8
0
6
CONTINUOUS
10
89.904130
20
29.734585
30
0.0
11
84.225250
21
28.002485
31
0.0
0
LINE
8
0
6
CONTINUOUS
10
95.815340
20
30.350385
30
0.0
11
89.904130
21
29.734585
31
0.0
0
LINE
8
0
6
CONTINUOUS
10
101.728500
20
29.788335
30
0.0
11
95.815340
21
30.350385
31
0.0
0
LINE
8
0
6
CONTINUOUS
10
107.426960
20
28.070145
30
0.0
11
101.728500
21
29.788335
31
0.0
0
LINE
8
0
6
CONTINUOUS
10
112.651620
20
25.228475
30
0.0
11
107.426960
21
28.070145
31
0.0
0
LINE
8
0
6
CONTINUOUS
10
117.245200
20
21.468125
30
0.0
11
112.651620
21
25.228475
31
0.0
0
LINE
8
0
6
CONTINUOUS
10
121.016610
20
16.874795
30
0.0
11
117.245200
21
21.468125
31
0.0
0
LINE
8
0
6
CONTINUOUS
10
123.363136
20
12.493045
30
0.0
11
121.016610
21
16.874795
31
0.0
0
LINE
8
0
6
CONTINUOUS
10
-139.760490
20
11.881255
30
0.0
11
-139.760490
21
10.105755
31
0.0
0
LINE
8
0
6
CONTINUOUS
10
-139.760490
20
-7.354435
30
0.0
11
-139.760490
21
-10.119855
31
0.0
0
LINE
8
0
6
CONTINUOUS
10
-139.760490
20
-10.119855
30
0.0
11
-139.760490
21
-11.895365
31
0.0
0
LINE
8
0
6
CONTINUOUS
10
-139.760490
20
10.105755
30
0.0
11
-139.760490
21
7.340335
31
0.0
0
LINE
8
0
6
CONTINUOUS
10
-139.760490
20
-12.507165
30
0.0
11
-80.000010
21
-12.507165
31
0.0
0
LINE
8
0
6
CONTINUOUS
10
-139.760490
20
-11.895365
30
0.0
11
-139.760490
21
-12.507165
31
0.0
0
LINE
8
0
6
CONTINUOUS
10
-139.760490
20
7.340335
30
0.0
11
-139.760490
21
3.855705
31
0.0
0
LINE
8
0
6
CONTINUOUS
10
-139.760490
20
3.855705
30
0.0
11
-139.760490
21
-0.007045
31
0.0
0
LINE
8
0
6
CONTINUOUS
10
-139.760490
20
-0.007045
30
0.0
11
-139.760490
21
-3.869795
31
0.0
0
LINE
8
0
6
CONTINUOUS
10
-80.000010
20
12.493045
30
0.0
11
-139.760490
21
12.493045
31
0.0
0
LINE
8
0
6
CONTINUOUS
10
-139.760490
20
12.493045
30
0.0
11
-139.760490
21
11.881255
31
0.0
0
LINE
8
0
6
CONTINUOUS
10
-139.760490
20
-3.869795
30
0.0
11
-139.760490
21
-7.354435
31
0.0
0
LINE
8
0
6
CONTINUOUS
10
-140.239530
20
10.105755
30
0.0
11
-140.239530
21
11.881255
31
0.0
0
LINE
8
0
6
CONTINUOUS
10
-140.239530
20
11.881255
30
0.0
11
-140.239530
21
12.493045
31
0.0
0
LINE
8
0
6
CONTINUOUS
10
-140.239530
20
12.493045
30
0.0
11
-141.253900
21
12.493045
31
0.0
0
LINE
8
0
6
CONTINUOUS
10
-140.239530
20
-10.119855
30
0.0
11
-140.239530
21
-7.354435
31
0.0
0
LINE
8
0
6
CONTINUOUS
10
-140.239530
20
-11.895365
30
0.0
11
-140.239530
21
-10.119855
31
0.0
0
LINE
8
0
6
CONTINUOUS
10
-140.239530
20
7.340335
30
0.0
11
-140.239530
21
10.105755
31
0.0
0
LINE
8
0
6
CONTINUOUS
10
-140.239530
20
-12.507165
30
0.0
11
-140.239530
21
-11.895365
31
0.0
0
LINE
8
0
6
CONTINUOUS
10
-141.253900
20
-12.507165
30
0.0
11
-140.239530
21
-12.507165
31
0.0
0
LINE
8
0
6
CONTINUOUS
10
-140.239530
20
3.855705
30
0.0
11
-140.239530
21
7.340335
31
0.0
0
LINE
8
0
6
CONTINUOUS
10
-140.239530
20
-0.007045
30
0.0
11
-140.239530
21
3.855705
31
0.0
0
LINE
8
0
6
CONTINUOUS
10
-140.239530
20
-3.869795
30
0.0
11
-140.239530
21
-0.007045
31
0.0
0
LINE
8
0
6
CONTINUOUS
10
-140.239530
20
-7.354435
30
0.0
11
-140.239530
21
-3.869795
31
0.0
0
LINE
8
0
6
CONTINUOUS
10
-142.133000
20
-12.507165
30
0.0
11
-141.253900
21
-12.507165
31
0.0
0
LINE
8
0
6
CONTINUOUS
10
-142.133000
20
-11.895365
30
0.0
11
-142.133000
21
-12.507165
31
0.0
0
LINE
8
0
6
CONTINUOUS
10
-142.133000
20
-10.119855
30
0.0
11
-142.133000
21
-11.895365
31
0.0
0
LINE
8
0
6
CONTINUOUS
10
-142.133000
20
-7.354435
30
0.0
11
-142.133000
21
-10.119855
31
0.0
0
LINE
8
0
6
CONTINUOUS
10
-142.133000
20
-3.869795
30
0.0
11
-142.133000
21
-7.354435
31
0.0
0
LINE
8
0
6
CONTINUOUS
10
-142.133000
20
-0.007045
30
0.0
11
-142.133000
21
-3.869795
31
0.0
0
LINE
8
0
6
CONTINUOUS
10
-142.133000
20
3.855705
30
0.0
11
-142.133000
21
-0.007045
31
0.0
0
LINE
8
0
6
CONTINUOUS
10
-142.133000
20
7.340335
30
0.0
11
-142.133000
21
3.855705
31
0.0
0
LINE
8
0
6
CONTINUOUS
10
-142.133000
20
10.105755
30
0.0
11
-142.133000
21
7.340335
31
0.0
0
LINE
8
0
6
CONTINUOUS
10
-142.133000
20
11.881255
30
0.0
11
-142.133000
21
10.105755
31
0.0
0
LINE
8
0
6
CONTINUOUS
10
-141.253900
20
12.493045
30
0.0
11
-142.133000
21
12.493045
31
0.0
0
LINE
8
0
6
CONTINUOUS
10
-142.133000
20
12.493045
30
0.0
11
-142.133000
21
11.881255
31
0.0
0
LINE
8
0
6
CONTINUOUS
10
-140.239530
20
-12.507165
30
0.0
11
-140.000010
21
-12.401275
31
0.0
0
LINE
8
0
6
CONTINUOUS
10
-140.239530
20
-11.895365
30
0.0
11
-140.239530
21
-12.507165
31
0.0
0
LINE
8
0
6
CONTINUOUS
10
-139.760490
20
-12.507165
30
0.0
11
-139.760490
21
-11.895365
31
0.0
0
LINE
8
0
6
CONTINUOUS
10
-140.000010
20
-12.401275
30
0.0
11
-139.760490
21
-12.507165
31
0.0
0
LINE
8
0
6
CONTINUOUS
10
-140.000010
20
-11.794655
30
0.0
11
-140.000010
21
-12.401275
31
0.0
0
LINE
8
0
6
CONTINUOUS
10
-140.239530
20
-10.119855
30
0.0
11
-140.239530
21
-11.895365
31
0.0
0
LINE
8
0
6
CONTINUOUS
10
-139.760490
20
-11.895365
30
0.0
11
-139.760490
21
-10.119855
31
0.0
0
LINE
8
0
6
CONTINUOUS
10
-140.000010
20
-10.034185
30
0.0
11
-140.000010
21
-11.794655
31
0.0
0
LINE
8
0
6
CONTINUOUS
10
-140.239530
20
-7.354435
30
0.0
11
-140.239530
21
-10.119855
31
0.0
0
LINE
8
0
6
CONTINUOUS
10
-139.760490
20
-10.119855
30
0.0
11
-139.760490
21
-7.354435
31
0.0
0
LINE
8
0
6
CONTINUOUS
10
-140.000010
20
-7.292185
30
0.0
11
-140.000010
21
-10.034185
31
0.0
0
LINE
8
0
6
CONTINUOUS
10
-140.239530
20
-3.869795
30
0.0
11
-140.239530
21
-7.354435
31
0.0
0
LINE
8
0
6
CONTINUOUS
10
-139.760490
20
-7.354435
30
0.0
11
-139.760490
21
-3.869795
31
0.0
0
LINE
8
0
6
CONTINUOUS
10
-140.000010
20
-3.837075
30
0.0
11
-140.000010
21
-7.292185
31
0.0
0
LINE
8
0
6
CONTINUOUS
10
-140.239530
20
-0.007045
30
0.0
11
-140.239530
21
-3.869795
31
0.0
0
LINE
8
0
6
CONTINUOUS
10
-139.760490
20
-3.869795
30
0.0
11
-139.760490
21
-0.007045
31
0.0
0
LINE
8
0
6
CONTINUOUS
10
-140.000010
20
-0.007045
30
0.0
11
-140.000010
21
-3.837075
31
0.0
0
LINE
8
0
6
CONTINUOUS
10
-140.239530
20
3.855705
30
0.0
11
-140.239530
21
-0.007045
31
0.0
0
LINE
8
0
6
CONTINUOUS
10
-139.760490
20
-0.007045
30
0.0
11
-139.760490
21
3.855705
31
0.0
0
LINE
8
0
6
CONTINUOUS
10
-140.000010
20
3.822975
30
0.0
11
-140.000010
21
-0.007045
31
0.0
0
LINE
8
0
6
CONTINUOUS
10
-140.239530
20
7.340335
30
0.0
11
-140.239530
21
3.855705
31
0.0
0
LINE
8
0
6
CONTINUOUS
10
-139.760490
20
3.855705
30
0.0
11
-139.760490
21
7.340335
31
0.0
0
LINE
8
0
6
CONTINUOUS
10
-140.000010
20
7.278095
30
0.0
11
-140.000010
21
3.822975
31
0.0
0
LINE
8
0
6
CONTINUOUS
10
-140.239530
20
10.105755
30
0.0
11
-140.239530
21
7.340335
31
0.0
0
LINE
8
0
6
CONTINUOUS
10
-139.760490
20
7.340335
30
0.0
11
-139.760490
21
10.105755
31
0.0
0
LINE
8
0
6
CONTINUOUS
10
-140.000010
20
10.020085
30
0.0
11
-140.000010
21
7.278095
31
0.0
0
LINE
8
0
6
CONTINUOUS
10
-140.239530
20
11.881255
30
0.0
11
-140.239530
21
10.105755
31
0.0
0
LINE
8
0
6
CONTINUOUS
10
-139.760490
20
10.105755
30
0.0
11
-139.760490
21
11.881255
31
0.0
0
LINE
8
0
6
CONTINUOUS
10
-140.000010
20
11.780545
30
0.0
11
-140.000010
21
10.020085
31
0.0
0
LINE
8
0
6
CONTINUOUS
10
-140.000010
20
12.387155
30
0.0
11
-140.239530
21
12.493045
31
0.0
0
LINE
8
0
6
CONTINUOUS
10
-140.239530
20
12.493045
30
0.0
11
-140.239530
21
11.881255
31
0.0
0
LINE
8
0
6
CONTINUOUS
10
-139.760490
20
12.493045
30
0.0
11
-140.000010
21
12.387155
31
0.0
0
LINE
8
0
6
CONTINUOUS
10
-139.760490
20
11.881255
30
0.0
11
-139.760490
21
12.493045
31
0.0
0
LINE
8
0
6
CONTINUOUS
10
-140.000010
20
12.387155
30
0.0
11
-140.000010
21
11.780545
31
0.0
0
LINE
8
0
6
CONTINUOUS
10
139.760490
20
10.105755
30
0.0
11
139.760490
21
11.881255
31
0.0
0
LINE
8
0
6
CONTINUOUS
10
139.760490
20
-10.119855
30
0.0
11
139.760490
21
-7.354435
31
0.0
0
LINE
8
0
6
CONTINUOUS
10
139.760490
20
-11.895365
30
0.0
11
139.760490
21
-10.119855
31
0.0
0
LINE
8
0
6
CONTINUOUS
10
139.760490
20
7.340335
30
0.0
11
139.760490
21
10.105755
31
0.0
0
LINE
8
0
6
CONTINUOUS
10
139.760490
20
-12.507165
30
0.0
11
139.760490
21
-11.895365
31
0.0
0
LINE
8
0
6
CONTINUOUS
10
80.000010
20
-12.507165
30
0.0
11
139.760490
21
-12.507165
31
0.0
0
LINE
8
0
6
CONTINUOUS
10
139.760490
20
3.855705
30
0.0
11
139.760490
21
7.340335
31
0.0
0
LINE
8
0
6
CONTINUOUS
10
139.760490
20
-0.007045
30
0.0
11
139.760490
21
3.855705
31
0.0
0
LINE
8
0
6
CONTINUOUS
10
139.760490
20
-3.869795
30
0.0
11
139.760490
21
-0.007045
31
0.0
0
LINE
8
0
6
CONTINUOUS
10
139.760490
20
11.881255
30
0.0
11
139.760490
21
12.493045
31
0.0
0
LINE
8
0
6
CONTINUOUS
10
139.760490
20
12.493045
30
0.0
11
80.000010
21
12.493045
31
0.0
0
LINE
8
0
6
CONTINUOUS
10
139.760490
20
-7.354435
30
0.0
11
139.760490
21
-3.869795
31
0.0
0
LINE
8
0
6
CONTINUOUS
10
140.239520
20
11.881255
30
0.0
11
140.239520
21
10.105755
31
0.0
0
LINE
8
0
6
CONTINUOUS
10
141.253900
20
12.493045
30
0.0
11
140.239520
21
12.493045
31
0.0
0
LINE
8
0
6
CONTINUOUS
10
140.239520
20
12.493045
30
0.0
11
140.239520
21
11.881255
31
0.0
0
LINE
8
0
6
CONTINUOUS
10
140.239520
20
-7.354435
30
0.0
11
140.239520
21
-10.119855
31
0.0
0
LINE
8
0
6
CONTINUOUS
10
140.239520
20
-10.119855
30
0.0
11
140.239520
21
-11.895365
31
0.0
0
LINE
8
0
6
CONTINUOUS
10
140.239520
20
10.105755
30
0.0
11
140.239520
21
7.340335
31
0.0
0
LINE
8
0
6
CONTINUOUS
10
140.239520
20
-12.507165
30
0.0
11
141.253900
21
-12.507165
31
0.0
0
LINE
8
0
6
CONTINUOUS
10
140.239520
20
-11.895365
30
0.0
11
140.239520
21
-12.507165
31
0.0
0
LINE
8
0
6
CONTINUOUS
10
140.239520
20
7.340335
30
0.0
11
140.239520
21
3.855705
31
0.0
0
LINE
8
0
6
CONTINUOUS
10
140.239520
20
3.855705
30
0.0
11
140.239520
21
-0.007045
31
0.0
0
LINE
8
0
6
CONTINUOUS
10
140.239520
20
-0.007045
30
0.0
11
140.239520
21
-3.869795
31
0.0
0
LINE
8
0
6
CONTINUOUS
10
140.239520
20
-3.869795
30
0.0
11
140.239520
21
-7.354435
31
0.0
0
LINE
8
0
6
CONTINUOUS
10
142.133000
20
-12.507165
30
0.0
11
142.133000
21
-11.895365
31
0.0
0
LINE
8
0
6
CONTINUOUS
10
141.253900
20
-12.507165
30
0.0
11
142.133000
21
-12.507165
31
0.0
0
LINE
8
0
6
CONTINUOUS
10
142.133000
20
-11.895365
30
0.0
11
142.133000
21
-10.119855
31
0.0
0
LINE
8
0
6
CONTINUOUS
10
142.133000
20
-10.119855
30
0.0
11
142.133000
21
-7.354435
31
0.0
0
LINE
8
0
6
CONTINUOUS
10
142.133000
20
-7.354435
30
0.0
11
142.133000
21
-3.869795
31
0.0
0
LINE
8
0
6
CONTINUOUS
10
142.133000
20
-3.869795
30
0.0
11
142.133000
21
-0.007045
31
0.0
0
LINE
8
0
6
CONTINUOUS
10
142.133000
20
-0.007045
30
0.0
11
142.133000
21
3.855705
31
0.0
0
LINE
8
0
6
CONTINUOUS
10
142.133000
20
3.855705
30
0.0
11
142.133000
21
7.340335
31
0.0
0
LINE
8
0
6
CONTINUOUS
10
142.133000
20
7.340335
30
0.0
11
142.133000
21
10.105755
31
0.0
0
LINE
8
0
6
CONTINUOUS
10
142.133000
20
10.105755
30
0.0
11
142.133000
21
11.881255
31
0.0
0
LINE
8
0
6
CONTINUOUS
10
142.133000
20
11.881255
30
0.0
11
142.133000
21
12.493045
31
0.0
0
LINE
8
0
6
CONTINUOUS
10
142.133000
20
12.493045
30
0.0
11
141.253900
21
12.493045
31
0.0
0
LINE
8
0
6
CONTINUOUS
10
140.239520
20
-12.507165
30
0.0
11
140.239520
21
-11.895365
31
0.0
0
LINE
8
0
6
CONTINUOUS
10
140.000010
20
-12.401275
30
0.0
11
140.239520
21
-12.507165
31
0.0
0
LINE
8
0
6
CONTINUOUS
10
140.000010
20
-12.401275
30
0.0
11
140.000010
21
-11.794655
31
0.0
0
LINE
8
0
6
CONTINUOUS
10
139.760490
20
-12.507165
30
0.0
11
140.000010
21
-12.401275
31
0.0
0
LINE
8
0
6
CONTINUOUS
10
139.760490
20
-11.895365
30
0.0
11
139.760490
21
-12.507165
31
0.0
0
LINE
8
0
6
CONTINUOUS
10
140.239520
20
-11.895365
30
0.0
11
140.239520
21
-10.119855
31
0.0
0
LINE
8
0
6
CONTINUOUS
10
140.000010
20
-11.794655
30
0.0
11
140.000010
21
-10.034185
31
0.0
0
LINE
8
0
6
CONTINUOUS
10
139.760490
20
-10.119855
30
0.0
11
139.760490
21
-11.895365
31
0.0
0
LINE
8
0
6
CONTINUOUS
10
140.239520
20
-10.119855
30
0.0
11
140.239520
21
-7.354435
31
0.0
0
LINE
8
0
6
CONTINUOUS
10
140.000010
20
-10.034185
30
0.0
11
140.000010
21
-7.292185
31
0.0
0
LINE
8
0
6
CONTINUOUS
10
139.760490
20
-7.354435
30
0.0
11
139.760490
21
-10.119855
31
0.0
0
LINE
8
0
6
CONTINUOUS
10
140.239520
20
-7.354435
30
0.0
11
140.239520
21
-3.869795
31
0.0
0
LINE
8
0
6
CONTINUOUS
10
140.000010
20
-7.292185
30
0.0
11
140.000010
21
-3.837075
31
0.0
0
LINE
8
0
6
CONTINUOUS
10
139.760490
20
-3.869795
30
0.0
11
139.760490
21
-7.354435
31
0.0
0
LINE
8
0
6
CONTINUOUS
10
140.239520
20
-3.869795
30
0.0
11
140.239520
21
-0.007045
31
0.0
0
LINE
8
0
6
CONTINUOUS
10
140.000010
20
-3.837075
30
0.0
11
140.000010
21
-0.007045
31
0.0
0
LINE
8
0
6
CONTINUOUS
10
139.760490
20
-0.007045
30
0.0
11
139.760490
21
-3.869795
31
0.0
0
LINE
8
0
6
CONTINUOUS
10
140.239520
20
-0.007045
30
0.0
11
140.239520
21
3.855705
31
0.0
0
LINE
8
0
6
CONTINUOUS
10
140.000010
20
-0.007045
30
0.0
11
140.000010
21
3.822975
31
0.0
0
LINE
8
0
6
CONTINUOUS
10
139.760490
20
3.855705
30
0.0
11
139.760490
21
-0.007045
31
0.0
0
LINE
8
0
6
CONTINUOUS
10
140.239520
20
3.855705
30
0.0
11
140.239520
21
7.340335
31
0.0
0
LINE
8
0
6
CONTINUOUS
10
140.000010
20
3.822975
30
0.0
11
140.000010
21
7.278095
31
0.0
0
LINE
8
0
6
CONTINUOUS
10
139.760490
20
7.340335
30
0.0
11
139.760490
21
3.855705
31
0.0
0
LINE
8
0
6
CONTINUOUS
10
140.239520
20
7.340335
30
0.0
11
140.239520
21
10.105755
31
0.0
0
LINE
8
0
6
CONTINUOUS
10
140.000010
20
7.278095
30
0.0
11
140.000010
21
10.020085
31
0.0
0
LINE
8
0
6
CONTINUOUS
10
139.760490
20
10.105755
30
0.0
11
139.760490
21
7.340335
31
0.0
0
LINE
8
0
6
CONTINUOUS
10
140.239520
20
10.105755
30
0.0
11
140.239520
21
11.881255
31
0.0
0
LINE
8
0
6
CONTINUOUS
10
140.000010
20
10.020085
30
0.0
11
140.000010
21
11.780545
31
0.0
0
LINE
8
0
6
CONTINUOUS
10
139.760490
20
11.881255
30
0.0
11
139.760490
21
10.105755
31
0.0
0
LINE
8
0
6
CONTINUOUS
10
140.239520
20
11.881255
30
0.0
11
140.239520
21
12.493045
31
0.0
0
LINE
8
0
6
CONTINUOUS
10
140.239520
20
12.493045
30
0.0
11
140.000010
21
12.387155
31
0.0
0
LINE
8
0
6
CONTINUOUS
10
140.000010
20
11.780545
30
0.0
11
140.000010
21
12.387155
31
0.0
0
LINE
8
0
6
CONTINUOUS
10
139.760490
20
12.493045
30
0.0
11
139.760490
21
11.881255
31
0.0
0
LINE
8
0
6
CONTINUOUS
10
140.000010
20
12.387155
30
0.0
11
139.760490
21
12.493045
31
0.0
0
ENDSEC
0
EOF
