999
Erzeugt mit innoplus bad 
0
SECTION
2
HEADER
9
$ACADVER
1
AC1009
9
$DWGCODEPAGE
3
ISO8859-1
0
ENDSEC
0
SECTION
2
TABLES
0
TABLE
2
LAYER
70
1
0
LAYER
2
0
70
0
62
7
6
CONTINUOUS
0
ENDTAB
0
ENDSEC
0
SECTION
2
ENTITIES
0
LINE
8
0
6
CONTINUOUS
10
-51.366495
20
43.365100
30
0.0
11
-51.461765
21
43.338480
31
0.0
0
LINE
8
0
6
CONTINUOUS
10
-37.369405
20
-6.387670
30
0.0
11
-37.537675
21
-6.434670
31
0.0
0
LINE
8
0
6
CONTINUOUS
10
42.152555
20
-9.796810
30
0.0
11
42.794495
21
-9.796810
31
0.0
0
LINE
8
0
6
CONTINUOUS
10
42.794475
20
51.603700
30
0.0
11
42.152545
21
51.603700
31
0.0
0
LINE
8
0
6
CONTINUOUS
10
41.193725
20
20.943890
30
0.0
11
41.193725
21
15.028230
31
0.0
0
LINE
8
0
6
CONTINUOUS
10
41.193725
20
15.028230
30
0.0
11
41.193725
21
9.338540
31
0.0
0
LINE
8
0
6
CONTINUOUS
10
41.193725
20
9.338540
30
0.0
11
41.193725
21
4.104370
31
0.0
0
LINE
8
0
6
CONTINUOUS
10
41.193725
20
4.104370
30
0.0
11
41.193725
21
-0.487820
31
0.0
0
LINE
8
0
6
CONTINUOUS
10
41.193725
20
-0.487820
30
0.0
11
41.193725
21
-4.257780
31
0.0
0
LINE
8
0
6
CONTINUOUS
10
41.193725
20
-4.257780
30
0.0
11
41.193725
21
-7.053610
31
0.0
0
LINE
8
0
6
CONTINUOUS
10
41.193725
20
-7.053610
30
0.0
11
41.193725
21
-8.771690
31
0.0
0
LINE
8
0
6
CONTINUOUS
10
41.193725
20
-9.350730
30
0.0
11
42.152555
21
-9.796810
31
0.0
0
LINE
8
0
6
CONTINUOUS
10
41.193725
20
-8.771690
30
0.0
11
41.193725
21
-9.350730
31
0.0
0
LINE
8
0
6
CONTINUOUS
10
42.152545
20
51.603700
30
0.0
11
41.193725
21
51.253830
31
0.0
0
LINE
8
0
6
CONTINUOUS
10
41.193725
20
51.253830
30
0.0
11
41.193725
21
50.691780
31
0.0
0
LINE
8
0
6
CONTINUOUS
10
41.193725
20
50.691780
30
0.0
11
41.193725
21
48.973580
31
0.0
0
LINE
8
0
6
CONTINUOUS
10
41.193725
20
48.973580
30
0.0
11
41.193725
21
46.131910
31
0.0
0
LINE
8
0
6
CONTINUOUS
10
41.193725
20
46.131910
30
0.0
11
41.193725
21
42.371560
31
0.0
0
LINE
8
0
6
CONTINUOUS
10
41.193725
20
42.371560
30
0.0
11
41.193725
21
37.778230
31
0.0
0
LINE
8
0
6
CONTINUOUS
10
41.193725
20
37.778230
30
0.0
11
41.193725
21
32.538880
31
0.0
0
LINE
8
0
6
CONTINUOUS
10
41.193725
20
32.538880
30
0.0
11
41.193725
21
26.860250
31
0.0
0
LINE
8
0
6
CONTINUOUS
10
41.193725
20
26.860250
30
0.0
11
41.193725
21
20.943890
31
0.0
0
LINE
8
0
6
CONTINUOUS
10
42.794495
20
-9.796810
30
0.0
11
56.198305
21
-9.796820
31
0.0
0
LINE
8
0
6
CONTINUOUS
10
56.198295
20
51.603680
30
0.0
11
42.794475
21
51.603700
31
0.0
0
LINE
8
0
6
CONTINUOUS
10
57.265225
20
14.925770
30
0.0
11
57.265185
21
20.928420
31
0.0
0
LINE
8
0
6
CONTINUOUS
10
57.265185
20
9.138980
30
0.0
11
57.265225
21
14.925770
31
0.0
0
LINE
8
0
6
CONTINUOUS
10
57.265185
20
3.771130
30
0.0
11
57.265185
21
9.138980
31
0.0
0
LINE
8
0
6
CONTINUOUS
10
57.265235
20
-7.544870
30
0.0
11
57.265235
21
-4.690680
31
0.0
0
LINE
8
0
6
CONTINUOUS
10
57.265235
20
-9.229440
30
0.0
11
57.265235
21
-7.544870
31
0.0
0
LINE
8
0
6
CONTINUOUS
10
57.265235
20
-9.796820
30
0.0
11
57.265235
21
-9.229440
31
0.0
0
LINE
8
0
6
CONTINUOUS
10
56.198305
20
-9.796820
30
0.0
11
57.265235
21
-9.796820
31
0.0
0
LINE
8
0
6
CONTINUOUS
10
57.265215
20
51.043240
30
0.0
11
57.265215
21
51.603680
31
0.0
0
LINE
8
0
6
CONTINUOUS
10
57.265215
20
51.603680
30
0.0
11
56.198295
21
51.603680
31
0.0
0
LINE
8
0
6
CONTINUOUS
10
57.265215
20
49.312560
30
0.0
11
57.265215
21
51.043240
31
0.0
0
LINE
8
0
6
CONTINUOUS
10
57.265215
20
46.532860
30
0.0
11
57.265215
21
49.312560
31
0.0
0
LINE
8
0
6
CONTINUOUS
10
57.265215
20
42.709640
30
0.0
11
57.265215
21
46.532860
31
0.0
0
LINE
8
0
6
CONTINUOUS
10
57.265215
20
32.757920
30
0.0
11
57.265185
21
38.052850
31
0.0
0
LINE
8
0
6
CONTINUOUS
10
57.265185
20
20.928420
30
0.0
11
57.265185
21
26.945930
31
0.0
0
LINE
8
0
6
CONTINUOUS
10
57.265185
20
3.771130
30
0.0
11
57.265225
21
-0.866790
31
0.0
0
LINE
8
0
6
CONTINUOUS
10
57.265225
20
-0.866790
30
0.0
11
57.265235
21
-4.690680
31
0.0
0
LINE
8
0
6
CONTINUOUS
10
57.265215
20
42.709640
30
0.0
11
57.265185
21
38.052850
31
0.0
0
LINE
8
0
6
CONTINUOUS
10
57.265215
20
32.757920
30
0.0
11
57.265185
21
26.945930
31
0.0
0
LINE
8
0
6
CONTINUOUS
10
41.193725
20
30.534600
30
0.0
11
36.723175
21
30.534600
31
0.0
0
LINE
8
0
6
CONTINUOUS
10
-22.276825
20
30.534600
30
0.0
11
-22.834258
21
30.534600
31
0.0
0
LINE
8
0
6
CONTINUOUS
10
-17.475819
20
11.364770
30
0.0
11
41.193725
21
11.364770
31
0.0
0
LINE
8
0
6
CONTINUOUS
10
41.193725
20
-9.350730
30
0.0
11
42.152555
21
-9.796810
31
0.0
0
LINE
8
0
6
CONTINUOUS
10
57.265215
20
51.603680
30
0.0
11
56.198295
21
51.603680
31
0.0
0
LINE
8
0
6
CONTINUOUS
10
36.723175
20
32.384120
30
0.0
11
36.302045
21
32.384120
31
0.0
0
LINE
8
0
6
CONTINUOUS
10
-21.855675
20
32.384120
30
0.0
11
-22.276825
21
32.384120
31
0.0
0
LINE
8
0
6
CONTINUOUS
10
36.302045
20
32.384120
30
0.0
11
-21.855675
21
32.384120
31
0.0
0
LINE
8
0
6
CONTINUOUS
10
36.723175
20
25.490260
30
0.0
11
36.723175
21
28.413430
31
0.0
0
LINE
8
0
6
CONTINUOUS
10
36.723175
20
28.413430
30
0.0
11
36.723175
21
30.658590
31
0.0
0
LINE
8
0
6
CONTINUOUS
10
36.723175
20
-40.413810
30
0.0
11
36.723175
21
-39.827510
31
0.0
0
LINE
8
0
6
CONTINUOUS
10
36.723175
20
13.793850
30
0.0
11
36.723175
21
14.311620
31
0.0
0
LINE
8
0
6
CONTINUOUS
10
36.302035
20
13.793860
30
0.0
11
36.723175
21
13.793850
31
0.0
0
LINE
8
0
6
CONTINUOUS
10
36.723175
20
18.701990
30
0.0
11
36.723175
21
22.152800
31
0.0
0
LINE
8
0
6
CONTINUOUS
10
36.723175
20
-51.603700
30
0.0
11
36.723175
21
-51.044210
31
0.0
0
LINE
8
0
6
CONTINUOUS
10
36.302045
20
-51.603700
30
0.0
11
36.723175
21
-51.603700
31
0.0
0
LINE
8
0
6
CONTINUOUS
10
36.723175
20
22.152800
30
0.0
11
36.723175
21
25.490260
31
0.0
0
LINE
8
0
6
CONTINUOUS
10
36.723175
20
32.384120
30
0.0
11
36.302045
21
32.384120
31
0.0
0
LINE
8
0
6
CONTINUOUS
10
36.723175
20
32.023160
30
0.0
11
36.723175
21
32.384120
31
0.0
0
LINE
8
0
6
CONTINUOUS
10
36.723175
20
30.658590
30
0.0
11
36.723175
21
32.023160
31
0.0
0
LINE
8
0
6
CONTINUOUS
10
-22.276825
20
32.023160
30
0.0
11
-22.276825
21
30.658590
31
0.0
0
LINE
8
0
6
CONTINUOUS
10
-21.855675
20
32.384120
30
0.0
11
-22.276825
21
32.384120
31
0.0
0
LINE
8
0
6
CONTINUOUS
10
-22.276825
20
32.384120
30
0.0
11
-22.276825
21
32.023160
31
0.0
0
LINE
8
0
6
CONTINUOUS
10
36.302045
20
32.384120
30
0.0
11
-21.855675
21
32.384120
31
0.0
0
LINE
8
0
6
CONTINUOUS
10
-22.276825
20
-51.603700
30
0.0
11
-21.855675
21
-51.603700
31
0.0
0
LINE
8
0
6
CONTINUOUS
10
-22.276825
20
-51.044200
30
0.0
11
-22.276825
21
-51.603700
31
0.0
0
LINE
8
0
6
CONTINUOUS
10
-21.855675
20
-51.603700
30
0.0
11
36.302045
21
-51.603700
31
0.0
0
LINE
8
0
6
CONTINUOUS
10
-18.154809
20
13.793860
30
0.0
11
36.302035
21
13.793860
31
0.0
0
LINE
8
0
6
CONTINUOUS
10
-22.276825
20
-39.827500
30
0.0
11
-22.276825
21
-40.413800
31
0.0
0
LINE
8
0
6
CONTINUOUS
10
-22.276825
20
30.658590
30
0.0
11
-22.276825
21
28.540383
31
0.0
0
LINE
8
0
6
CONTINUOUS
10
-22.276825
20
-41.016090
30
0.0
11
-22.276825
21
-51.044200
31
0.0
0
LINE
8
0
6
CONTINUOUS
10
36.723175
20
-51.044210
30
0.0
11
36.723175
21
-41.016100
31
0.0
0
LINE
8
0
6
CONTINUOUS
10
36.723175
20
-41.016100
30
0.0
11
36.723175
21
-40.413810
31
0.0
0
LINE
8
0
6
CONTINUOUS
10
-22.276825
20
-40.413800
30
0.0
11
-22.276825
21
-41.016090
31
0.0
0
LINE
8
0
6
CONTINUOUS
10
-22.276825
20
-2.171842
30
0.0
11
-22.276825
21
-39.827500
31
0.0
0
LINE
8
0
6
CONTINUOUS
10
36.723175
20
-39.827510
30
0.0
11
36.723175
21
11.364770
31
0.0
0
LINE
8
0
6
CONTINUOUS
10
36.723175
20
14.311620
30
0.0
11
36.723175
21
18.701990
31
0.0
0
LINE
8
0
6
CONTINUOUS
10
-34.502645
20
48.075690
30
0.0
11
-34.587495
21
48.051980
31
0.0
0
LINE
8
0
6
CONTINUOUS
10
-34.587495
20
48.051980
30
0.0
11
-34.657255
21
48.032500
31
0.0
0
LINE
8
0
6
CONTINUOUS
10
-34.657255
20
48.032500
30
0.0
11
-36.938775
21
47.395200
31
0.0
0
LINE
8
0
6
CONTINUOUS
10
-34.494505
20
47.450230
30
0.0
11
-34.657255
21
48.032500
31
0.0
0
LINE
8
0
6
CONTINUOUS
10
-36.938775
20
47.395200
30
0.0
11
-39.738895
21
46.613040
31
0.0
0
LINE
8
0
6
CONTINUOUS
10
-39.738895
20
46.613040
30
0.0
11
-42.746355
21
45.772970
31
0.0
0
LINE
8
0
6
CONTINUOUS
10
-20.536175
20
-1.685630
30
0.0
11
-20.195805
21
-1.590560
31
0.0
0
LINE
8
0
6
CONTINUOUS
10
-20.789355
20
-0.779890
30
0.0
11
-20.536175
21
-1.685630
31
0.0
0
LINE
8
0
6
CONTINUOUS
10
-14.313755
20
0.052490
30
0.0
11
-14.566935
21
0.958230
31
0.0
0
LINE
8
0
6
CONTINUOUS
10
-14.832275
20
-0.092350
30
0.0
11
-14.313755
21
0.052490
31
0.0
0
LINE
8
0
6
CONTINUOUS
10
-37.073085
20
-6.304890
30
0.0
11
-36.992175
21
-6.282290
31
0.0
0
LINE
8
0
6
CONTINUOUS
10
-36.992175
20
-6.282290
30
0.0
11
-36.921785
21
-6.262630
31
0.0
0
LINE
8
0
6
CONTINUOUS
10
-36.921785
20
-6.262630
30
0.0
11
-34.640285
21
-5.625340
31
0.0
0
LINE
8
0
6
CONTINUOUS
10
-37.174965
20
-5.356900
30
0.0
11
-36.921785
21
-6.262630
31
0.0
0
LINE
8
0
6
CONTINUOUS
10
-34.640285
20
-5.625340
30
0.0
11
-31.840165
21
-4.843170
31
0.0
0
LINE
8
0
6
CONTINUOUS
10
-31.840165
20
-4.843170
30
0.0
11
-28.832715
21
-4.003100
31
0.0
0
LINE
8
0
6
CONTINUOUS
10
-37.129195
20
-6.320570
30
0.0
11
-37.382375
21
-5.414840
31
0.0
0
LINE
8
0
6
CONTINUOUS
10
-37.474845
20
-6.417120
30
0.0
11
-37.129195
21
-6.320570
31
0.0
0
LINE
8
0
6
CONTINUOUS
10
-53.013245
20
42.905100
30
0.0
11
-55.294855
21
42.267780
31
0.0
0
LINE
8
0
6
CONTINUOUS
10
-55.294855
20
42.267780
30
0.0
11
-56.746745
21
41.862220
31
0.0
0
LINE
8
0
6
CONTINUOUS
10
-57.265275
20
41.717380
30
0.0
11
-57.102515
21
41.135120
31
0.0
0
LINE
8
0
6
CONTINUOUS
10
-56.746745
20
41.862220
30
0.0
11
-57.265275
21
41.717380
31
0.0
0
LINE
8
0
6
CONTINUOUS
10
-18.565765
20
-1.135240
30
0.0
11
-16.284165
21
-0.497910
31
0.0
0
LINE
8
0
6
CONTINUOUS
10
-16.284165
20
-0.497910
30
0.0
11
-14.832275
21
-0.092350
31
0.0
0
LINE
8
0
6
CONTINUOUS
10
-20.195805
20
-1.590560
30
0.0
11
-18.565765
21
-1.135240
31
0.0
0
LINE
8
0
6
CONTINUOUS
10
-51.388475
20
43.358950
30
0.0
11
-53.013245
21
42.905100
31
0.0
0
LINE
8
0
6
CONTINUOUS
10
-20.996795
20
-0.837840
30
0.0
11
-34.494505
21
47.450230
31
0.0
0
LINE
8
0
6
CONTINUOUS
10
-34.109445
20
48.185510
30
0.0
11
-34.449815
21
48.090440
31
0.0
0
LINE
8
0
6
CONTINUOUS
10
-34.449815
20
48.090440
30
0.0
11
-34.287065
21
47.508180
31
0.0
0
LINE
8
0
6
CONTINUOUS
10
-28.227385
20
49.828560
30
0.0
11
-28.745905
21
49.683720
31
0.0
0
LINE
8
0
6
CONTINUOUS
10
-28.064635
20
49.246290
30
0.0
11
-28.227385
21
49.828560
31
0.0
0
LINE
8
0
6
CONTINUOUS
10
-50.991425
20
43.469860
30
0.0
11
-51.083375
21
43.444170
31
0.0
0
LINE
8
0
6
CONTINUOUS
10
-50.905815
20
43.493780
30
0.0
11
-50.991425
21
43.469860
31
0.0
0
LINE
8
0
6
CONTINUOUS
10
-50.835425
20
43.513440
30
0.0
11
-50.905815
21
43.493780
31
0.0
0
LINE
8
0
6
CONTINUOUS
10
-48.553925
20
44.150730
30
0.0
11
-50.835425
21
43.513440
31
0.0
0
LINE
8
0
6
CONTINUOUS
10
-50.835425
20
43.513440
30
0.0
11
-50.672675
21
42.931180
31
0.0
0
LINE
8
0
6
CONTINUOUS
10
-45.753805
20
44.932890
30
0.0
11
-48.553925
21
44.150730
31
0.0
0
LINE
8
0
6
CONTINUOUS
10
-42.746355
20
45.772970
30
0.0
11
-45.753805
21
44.932890
31
0.0
0
LINE
8
0
6
CONTINUOUS
10
-51.042835
20
43.455490
30
0.0
11
-51.388475
21
43.358950
31
0.0
0
LINE
8
0
6
CONTINUOUS
10
-50.880075
20
42.873230
30
0.0
11
-51.042835
21
43.455490
31
0.0
0
LINE
8
0
6
CONTINUOUS
10
-57.102515
20
41.135120
30
0.0
11
-43.604815
21
-7.152950
31
0.0
0
LINE
8
0
6
CONTINUOUS
10
-30.197805
20
49.278160
30
0.0
11
-32.479405
21
48.640840
31
0.0
0
LINE
8
0
6
CONTINUOUS
10
-28.745905
20
49.683720
30
0.0
11
-30.197805
21
49.278160
31
0.0
0
LINE
8
0
6
CONTINUOUS
10
-32.479405
20
48.640840
30
0.0
11
-34.109445
21
48.185510
31
0.0
0
LINE
8
0
6
CONTINUOUS
10
-34.287065
20
47.508180
30
0.0
11
-20.789355
21
-0.779890
31
0.0
0
LINE
8
0
6
CONTINUOUS
10
-14.566935
20
0.958230
30
0.0
11
-28.064635
21
49.246290
31
0.0
0
LINE
8
0
6
CONTINUOUS
10
-50.672675
20
42.931180
30
0.0
11
-37.174965
21
-5.356900
31
0.0
0
LINE
8
0
6
CONTINUOUS
10
-37.382375
20
-5.414840
30
0.0
11
-50.880075
21
42.873230
31
0.0
0
LINE
8
0
6
CONTINUOUS
10
-20.673865
20
-1.724090
30
0.0
11
-20.589015
21
-1.700390
31
0.0
0
LINE
8
0
6
CONTINUOUS
10
-20.743625
20
-1.743570
30
0.0
11
-20.673865
21
-1.724090
31
0.0
0
LINE
8
0
6
CONTINUOUS
10
-20.743625
20
-1.743570
30
0.0
11
-20.996795
21
-0.837840
31
0.0
0
LINE
8
0
6
CONTINUOUS
10
-23.025145
20
-2.380870
30
0.0
11
-20.743625
21
-1.743570
31
0.0
0
LINE
8
0
6
CONTINUOUS
10
-25.825265
20
-3.163030
30
0.0
11
-23.025145
21
-2.380870
31
0.0
0
LINE
8
0
6
CONTINUOUS
10
-28.832715
20
-4.003100
30
0.0
11
-25.825265
21
-3.163030
31
0.0
0
LINE
8
0
6
CONTINUOUS
10
-41.381225
20
-7.508290
30
0.0
11
-39.099605
21
-6.870960
31
0.0
0
LINE
8
0
6
CONTINUOUS
10
-42.833115
20
-7.913850
30
0.0
11
-41.381225
21
-7.508290
31
0.0
0
LINE
8
0
6
CONTINUOUS
10
-43.604815
20
-7.152950
30
0.0
11
-43.351635
21
-8.058690
31
0.0
0
LINE
8
0
6
CONTINUOUS
10
-43.351635
20
-8.058690
30
0.0
11
-42.833115
21
-7.913850
31
0.0
0
LINE
8
0
6
CONTINUOUS
10
-39.099605
20
-6.870960
30
0.0
11
-37.474845
21
-6.417120
31
0.0
0
ENDSEC
0
EOF
