999
Erzeugt mit innoplus bad 
0
SECTION
2
HEADER
9
$ACADVER
1
AC1009
9
$DWGCODEPAGE
3
ISO8859-1
0
ENDSEC
0
SECTION
2
TABLES
0
TABLE
2
LAYER
70
1
0
LAYER
2
0
70
0
62
7
6
CONTINUOUS
0
ENDTAB
0
ENDSEC
0
SECTION
2
ENTITIES
0
LINE
8
0
6
CONTINUOUS
10
161.725100
20
7.578180
30
0.0
11
169.588936
21
7.578174
31
0.0
0
LINE
8
0
6
CONTINUOUS
10
169.513939
20
34.214364
30
0.0
11
161.725140
21
34.214370
31
0.0
0
LINE
8
0
6
CONTINUOUS
10
161.419430
20
8.389720
30
0.0
11
161.419430
21
7.944380
31
0.0
0
LINE
8
0
6
CONTINUOUS
10
161.419450
20
17.382690
30
0.0
11
161.419450
21
14.321130
31
0.0
0
LINE
8
0
6
CONTINUOUS
10
161.419430
20
11.668200
30
0.0
11
161.419430
21
9.679600
31
0.0
0
LINE
8
0
6
CONTINUOUS
10
161.419450
20
27.272960
30
0.0
11
161.419450
21
24.188010
31
0.0
0
LINE
8
0
6
CONTINUOUS
10
161.419430
20
9.679600
30
0.0
11
161.419430
21
8.396270
31
0.0
0
LINE
8
0
6
CONTINUOUS
10
161.419450
20
24.188010
30
0.0
11
161.419450
21
20.781120
31
0.0
0
LINE
8
0
6
CONTINUOUS
10
161.419450
20
33.848180
30
0.0
11
161.419450
21
33.342230
31
0.0
0
LINE
8
0
6
CONTINUOUS
10
161.419450
20
20.781120
30
0.0
11
161.419450
21
17.382690
31
0.0
0
LINE
8
0
6
CONTINUOUS
10
161.430370
20
30.218150
30
0.0
11
161.430370
21
27.453250
31
0.0
0
LINE
8
0
6
CONTINUOUS
10
161.430370
20
27.453250
30
0.0
11
161.430370
21
24.281080
31
0.0
0
LINE
8
0
6
CONTINUOUS
10
161.430370
20
24.281080
30
0.0
11
161.430370
21
20.777860
31
0.0
0
LINE
8
0
6
CONTINUOUS
10
161.430370
20
20.777860
30
0.0
11
161.430370
21
17.283340
31
0.0
0
LINE
8
0
6
CONTINUOUS
10
161.430370
20
17.283340
30
0.0
11
161.430360
21
14.135230
31
0.0
0
LINE
8
0
6
CONTINUOUS
10
161.430360
20
14.135230
30
0.0
11
161.430360
21
11.407290
31
0.0
0
LINE
8
0
6
CONTINUOUS
10
161.430340
20
7.578180
30
0.0
11
161.725100
21
7.578180
31
0.0
0
LINE
8
0
6
CONTINUOUS
10
161.430360
20
8.036120
30
0.0
11
161.430340
21
7.578180
31
0.0
0
LINE
8
0
6
CONTINUOUS
10
161.430360
20
9.362460
30
0.0
11
161.430360
21
8.036120
31
0.0
0
LINE
8
0
6
CONTINUOUS
10
161.430360
20
11.407290
30
0.0
11
161.430360
21
9.362460
31
0.0
0
LINE
8
0
6
CONTINUOUS
10
161.430370
20
32.311740
30
0.0
11
161.430370
21
30.218150
31
0.0
0
LINE
8
0
6
CONTINUOUS
10
161.430370
20
33.694130
30
0.0
11
161.430370
21
32.311740
31
0.0
0
LINE
8
0
6
CONTINUOUS
10
161.725140
20
34.214370
30
0.0
11
161.430370
21
34.214370
31
0.0
0
LINE
8
0
6
CONTINUOUS
10
161.430370
20
34.214370
30
0.0
11
161.430370
21
33.694130
31
0.0
0
LINE
8
0
6
CONTINUOUS
10
192.188930
20
43.387970
30
0.0
11
191.101510
21
43.396550
31
0.0
0
LINE
8
0
6
CONTINUOUS
10
195.952810
20
48.640840
30
0.0
11
192.839410
21
49.278160
31
0.0
0
LINE
8
0
6
CONTINUOUS
10
192.839410
20
49.278160
30
0.0
11
188.948110
21
49.683720
31
0.0
0
LINE
8
0
6
CONTINUOUS
10
188.948110
20
49.683720
30
0.0
11
184.945270
21
49.828560
31
0.0
0
LINE
8
0
6
CONTINUOUS
10
184.945270
20
49.828560
30
0.0
11
180.942420
21
49.683710
31
0.0
0
LINE
8
0
6
CONTINUOUS
10
180.942420
20
49.683710
30
0.0
11
177.161650
21
49.278160
31
0.0
0
LINE
8
0
6
CONTINUOUS
10
177.161650
20
49.278160
30
0.0
11
173.826160
21
48.669820
31
0.0
0
LINE
8
0
6
CONTINUOUS
10
173.826160
20
48.669820
30
0.0
11
171.801130
21
48.030690
31
0.0
0
LINE
8
0
6
CONTINUOUS
10
171.801130
20
48.030690
30
0.0
11
169.868500
21
46.841100
31
0.0
0
LINE
8
0
6
CONTINUOUS
10
169.868500
20
46.841100
30
0.0
11
169.481620
21
45.691860
31
0.0
0
LINE
8
0
6
CONTINUOUS
10
193.284620
20
43.455490
30
0.0
11
192.909940
21
43.382290
31
0.0
0
LINE
8
0
6
CONTINUOUS
10
193.677560
20
43.455490
30
0.0
11
193.284620
21
43.455490
31
0.0
0
LINE
8
0
6
CONTINUOUS
10
188.247330
20
43.419050
30
0.0
11
185.059160
21
43.444170
31
0.0
0
LINE
8
0
6
CONTINUOUS
10
185.059160
20
43.444170
30
0.0
11
181.800740
21
43.469860
31
0.0
0
LINE
8
0
6
CONTINUOUS
10
181.800740
20
43.469860
30
0.0
11
178.766760
21
43.493780
31
0.0
0
LINE
8
0
6
CONTINUOUS
10
178.766760
20
43.493780
30
0.0
11
178.380640
21
43.513440
31
0.0
0
LINE
8
0
6
CONTINUOUS
10
178.380640
20
43.513440
30
0.0
11
176.600800
21
44.150730
31
0.0
0
LINE
8
0
6
CONTINUOUS
10
176.600800
20
44.150730
30
0.0
11
175.267220
21
44.932890
31
0.0
0
LINE
8
0
6
CONTINUOUS
10
175.267220
20
44.932890
30
0.0
11
174.822000
21
45.772970
31
0.0
0
LINE
8
0
6
CONTINUOUS
10
197.332910
20
48.185510
30
0.0
11
195.952810
21
48.640840
31
0.0
0
LINE
8
0
6
CONTINUOUS
10
192.909940
20
43.382290
30
0.0
11
192.188930
21
43.387970
31
0.0
0
LINE
8
0
6
CONTINUOUS
10
191.101510
20
43.396550
30
0.0
11
188.247330
21
43.419050
31
0.0
0
LINE
8
0
6
CONTINUOUS
10
197.621110
20
43.455490
30
0.0
11
196.948300
21
43.455490
31
0.0
0
LINE
8
0
6
CONTINUOUS
10
197.621090
20
48.090440
30
0.0
11
197.332910
21
48.185510
31
0.0
0
LINE
8
0
6
CONTINUOUS
10
196.948300
20
43.455490
30
0.0
11
193.677560
21
43.455490
31
0.0
0
LINE
8
0
6
CONTINUOUS
10
-195.309110
20
31.009210
30
0.0
11
-195.309110
21
32.784710
31
0.0
0
LINE
8
0
6
CONTINUOUS
10
-195.309110
20
32.784710
30
0.0
11
-195.309110
21
33.396510
31
0.0
0
LINE
8
0
6
CONTINUOUS
10
-195.309110
20
33.396510
30
0.0
11
-196.323510
21
33.396510
31
0.0
0
LINE
8
0
6
CONTINUOUS
10
-195.309110
20
10.783600
30
0.0
11
-195.309110
21
13.549020
31
0.0
0
LINE
8
0
6
CONTINUOUS
10
-195.309110
20
9.008090
30
0.0
11
-195.309110
21
10.783600
31
0.0
0
LINE
8
0
6
CONTINUOUS
10
-195.309110
20
28.243790
30
0.0
11
-195.309110
21
31.009210
31
0.0
0
LINE
8
0
6
CONTINUOUS
10
-195.309110
20
8.396290
30
0.0
11
-195.309110
21
9.008090
31
0.0
0
LINE
8
0
6
CONTINUOUS
10
-196.323510
20
8.396290
30
0.0
11
-195.309110
21
8.396290
31
0.0
0
LINE
8
0
6
CONTINUOUS
10
-195.309110
20
24.759160
30
0.0
11
-195.309110
21
28.243790
31
0.0
0
LINE
8
0
6
CONTINUOUS
10
-195.309110
20
20.896410
30
0.0
11
-195.309110
21
24.759160
31
0.0
0
LINE
8
0
6
CONTINUOUS
10
-195.309110
20
17.033660
30
0.0
11
-195.309110
21
20.896410
31
0.0
0
LINE
8
0
6
CONTINUOUS
10
-195.309110
20
13.549020
30
0.0
11
-195.309110
21
17.033660
31
0.0
0
LINE
8
0
6
CONTINUOUS
10
-197.202610
20
8.396290
30
0.0
11
-196.323510
21
8.396290
31
0.0
0
LINE
8
0
6
CONTINUOUS
10
-197.202610
20
9.008090
30
0.0
11
-197.202610
21
8.396290
31
0.0
0
LINE
8
0
6
CONTINUOUS
10
-197.202610
20
10.783600
30
0.0
11
-197.202610
21
9.008090
31
0.0
0
LINE
8
0
6
CONTINUOUS
10
-197.202610
20
13.549020
30
0.0
11
-197.202610
21
10.783600
31
0.0
0
LINE
8
0
6
CONTINUOUS
10
-197.202610
20
17.033660
30
0.0
11
-197.202610
21
13.549020
31
0.0
0
LINE
8
0
6
CONTINUOUS
10
-197.202610
20
20.896410
30
0.0
11
-197.202610
21
17.033660
31
0.0
0
LINE
8
0
6
CONTINUOUS
10
-197.202610
20
24.759160
30
0.0
11
-197.202610
21
20.896410
31
0.0
0
LINE
8
0
6
CONTINUOUS
10
-197.202610
20
28.243790
30
0.0
11
-197.202610
21
24.759160
31
0.0
0
LINE
8
0
6
CONTINUOUS
10
-197.202610
20
31.009210
30
0.0
11
-197.202610
21
28.243790
31
0.0
0
LINE
8
0
6
CONTINUOUS
10
-197.202610
20
32.784710
30
0.0
11
-197.202610
21
31.009210
31
0.0
0
LINE
8
0
6
CONTINUOUS
10
-196.323510
20
33.396510
30
0.0
11
-197.202610
21
33.396510
31
0.0
0
LINE
8
0
6
CONTINUOUS
10
-197.202610
20
33.396510
30
0.0
11
-197.202610
21
32.784710
31
0.0
0
LINE
8
0
6
CONTINUOUS
10
-195.309110
20
8.396290
30
0.0
11
-195.069620
21
8.502180
31
0.0
0
LINE
8
0
6
CONTINUOUS
10
-195.309110
20
9.008090
30
0.0
11
-195.309110
21
8.396290
31
0.0
0
LINE
8
0
6
CONTINUOUS
10
-194.830100
20
8.396290
30
0.0
11
-194.830100
21
9.008090
31
0.0
0
LINE
8
0
6
CONTINUOUS
10
-195.069620
20
8.502180
30
0.0
11
-194.830100
21
8.396290
31
0.0
0
LINE
8
0
6
CONTINUOUS
10
-195.069620
20
9.108800
30
0.0
11
-195.069620
21
8.502180
31
0.0
0
LINE
8
0
6
CONTINUOUS
10
-195.309110
20
10.783600
30
0.0
11
-195.309110
21
9.008090
31
0.0
0
LINE
8
0
6
CONTINUOUS
10
-194.830100
20
9.008090
30
0.0
11
-194.830100
21
10.783600
31
0.0
0
LINE
8
0
6
CONTINUOUS
10
-195.069620
20
10.869270
30
0.0
11
-195.069620
21
9.108800
31
0.0
0
LINE
8
0
6
CONTINUOUS
10
-195.309110
20
13.549020
30
0.0
11
-195.309110
21
10.783600
31
0.0
0
LINE
8
0
6
CONTINUOUS
10
-194.830100
20
10.783600
30
0.0
11
-194.830100
21
13.549020
31
0.0
0
LINE
8
0
6
CONTINUOUS
10
-195.069620
20
13.611270
30
0.0
11
-195.069620
21
10.869270
31
0.0
0
LINE
8
0
6
CONTINUOUS
10
-195.309110
20
17.033660
30
0.0
11
-195.309110
21
13.549020
31
0.0
0
LINE
8
0
6
CONTINUOUS
10
-194.830100
20
13.549020
30
0.0
11
-194.830100
21
17.033660
31
0.0
0
LINE
8
0
6
CONTINUOUS
10
-195.069620
20
17.066380
30
0.0
11
-195.069620
21
13.611270
31
0.0
0
LINE
8
0
6
CONTINUOUS
10
-195.309110
20
20.896410
30
0.0
11
-195.309110
21
17.033660
31
0.0
0
LINE
8
0
6
CONTINUOUS
10
-194.830100
20
17.033660
30
0.0
11
-194.830100
21
20.896410
31
0.0
0
LINE
8
0
6
CONTINUOUS
10
-195.069620
20
20.896410
30
0.0
11
-195.069620
21
17.066380
31
0.0
0
LINE
8
0
6
CONTINUOUS
10
-195.309110
20
24.759160
30
0.0
11
-195.309110
21
20.896410
31
0.0
0
LINE
8
0
6
CONTINUOUS
10
-194.830100
20
20.896410
30
0.0
11
-194.830100
21
24.759160
31
0.0
0
LINE
8
0
6
CONTINUOUS
10
-195.069620
20
24.726430
30
0.0
11
-195.069620
21
20.896410
31
0.0
0
LINE
8
0
6
CONTINUOUS
10
-195.309110
20
28.243790
30
0.0
11
-195.309110
21
24.759160
31
0.0
0
LINE
8
0
6
CONTINUOUS
10
-194.830100
20
24.759160
30
0.0
11
-194.830100
21
28.243790
31
0.0
0
LINE
8
0
6
CONTINUOUS
10
-195.069620
20
28.181550
30
0.0
11
-195.069620
21
24.726430
31
0.0
0
LINE
8
0
6
CONTINUOUS
10
-195.309110
20
31.009210
30
0.0
11
-195.309110
21
28.243790
31
0.0
0
LINE
8
0
6
CONTINUOUS
10
-194.830100
20
28.243790
30
0.0
11
-194.830100
21
31.009210
31
0.0
0
LINE
8
0
6
CONTINUOUS
10
-195.069620
20
30.923540
30
0.0
11
-195.069620
21
28.181550
31
0.0
0
LINE
8
0
6
CONTINUOUS
10
-195.309110
20
32.784710
30
0.0
11
-195.309110
21
31.009210
31
0.0
0
LINE
8
0
6
CONTINUOUS
10
-194.830100
20
31.009210
30
0.0
11
-194.830100
21
32.784710
31
0.0
0
LINE
8
0
6
CONTINUOUS
10
-195.069620
20
32.684000
30
0.0
11
-195.069620
21
30.923540
31
0.0
0
LINE
8
0
6
CONTINUOUS
10
-195.069620
20
33.290610
30
0.0
11
-195.309110
21
33.396510
31
0.0
0
LINE
8
0
6
CONTINUOUS
10
-195.309110
20
33.396510
30
0.0
11
-195.309110
21
32.784710
31
0.0
0
LINE
8
0
6
CONTINUOUS
10
-194.830100
20
33.396510
30
0.0
11
-195.069620
21
33.290610
31
0.0
0
LINE
8
0
6
CONTINUOUS
10
-194.830100
20
32.784710
30
0.0
11
-194.830100
21
33.396510
31
0.0
0
LINE
8
0
6
CONTINUOUS
10
-195.069620
20
33.290610
30
0.0
11
-195.069620
21
32.684000
31
0.0
0
LINE
8
0
6
CONTINUOUS
10
161.430370
20
33.396480
30
0.0
11
-194.830100
21
33.396510
31
0.0
0
LINE
8
0
6
CONTINUOUS
10
-194.830100
20
33.396510
30
0.0
11
-194.830100
21
32.784710
31
0.0
0
LINE
8
0
6
CONTINUOUS
10
-194.830100
20
17.033660
30
0.0
11
-194.830100
21
13.549020
31
0.0
0
LINE
8
0
6
CONTINUOUS
10
-194.830100
20
13.549020
30
0.0
11
-194.830100
21
10.783600
31
0.0
0
LINE
8
0
6
CONTINUOUS
10
-194.830100
20
32.784710
30
0.0
11
-194.830100
21
31.009210
31
0.0
0
LINE
8
0
6
CONTINUOUS
10
-194.830100
20
10.783600
30
0.0
11
-194.830100
21
9.008090
31
0.0
0
LINE
8
0
6
CONTINUOUS
10
-194.830100
20
31.009210
30
0.0
11
-194.830100
21
28.243790
31
0.0
0
LINE
8
0
6
CONTINUOUS
10
-194.830100
20
28.243790
30
0.0
11
-194.830100
21
24.759160
31
0.0
0
LINE
8
0
6
CONTINUOUS
10
-194.830100
20
8.396290
30
0.0
11
161.419430
21
8.396270
31
0.0
0
LINE
8
0
6
CONTINUOUS
10
-194.830100
20
9.008090
30
0.0
11
-194.830100
21
8.396290
31
0.0
0
LINE
8
0
6
CONTINUOUS
10
-194.830100
20
24.759160
30
0.0
11
-194.830100
21
20.896410
31
0.0
0
LINE
8
0
6
CONTINUOUS
10
-194.830100
20
20.896410
30
0.0
11
-194.830100
21
17.033660
31
0.0
0
LINE
8
0
6
CONTINUOUS
10
158.408980
20
3.771110
30
0.0
11
160.909393
21
8.396270
31
0.0
0
LINE
8
0
6
CONTINUOUS
10
154.555700
20
-0.866810
30
0.0
11
158.408980
21
3.771110
31
0.0
0
LINE
8
0
6
CONTINUOUS
10
149.898720
20
-4.690680
30
0.0
11
154.555700
21
-0.866810
31
0.0
0
LINE
8
0
6
CONTINUOUS
10
144.511640
20
-7.544880
30
0.0
11
149.898720
21
-4.690680
31
0.0
0
LINE
8
0
6
CONTINUOUS
10
138.736660
20
-9.229440
30
0.0
11
144.511640
21
-7.544880
31
0.0
0
LINE
8
0
6
CONTINUOUS
10
132.759430
20
-9.796810
30
0.0
11
138.736660
21
-9.229440
31
0.0
0
LINE
8
0
6
CONTINUOUS
10
126.704440
20
-9.191430
30
0.0
11
132.759430
21
-9.796810
31
0.0
0
LINE
8
0
6
CONTINUOUS
10
123.432233
20
-8.151029
30
0.0
11
126.704440
21
-9.191430
31
0.0
0
LINE
8
0
6
CONTINUOUS
10
115.735620
20
-4.531110
30
0.0
11
120.951428
21
-7.353033
31
0.0
0
LINE
8
0
6
CONTINUOUS
10
111.064570
20
-0.715020
30
0.0
11
115.735620
21
-4.531110
31
0.0
0
LINE
8
0
6
CONTINUOUS
10
107.310690
20
3.978500
30
0.0
11
111.064570
21
-0.715020
31
0.0
0
LINE
8
0
6
CONTINUOUS
10
104.974857
20
8.396273
30
0.0
11
107.310690
21
3.978500
31
0.0
0
LINE
8
0
6
CONTINUOUS
10
107.371710
20
37.918850
30
0.0
11
104.938363
21
33.396485
31
0.0
0
LINE
8
0
6
CONTINUOUS
10
111.144840
20
42.517200
30
0.0
11
107.371710
21
37.918850
31
0.0
0
LINE
8
0
6
CONTINUOUS
10
115.712420
20
46.341710
30
0.0
11
111.144840
21
42.517200
31
0.0
0
LINE
8
0
6
CONTINUOUS
10
121.057330
20
49.211580
30
0.0
11
115.712420
21
46.341710
31
0.0
0
LINE
8
0
6
CONTINUOUS
10
126.764280
20
50.954090
30
0.0
11
121.057330
21
49.211580
31
0.0
0
LINE
8
0
6
CONTINUOUS
10
132.706760
20
51.603700
30
0.0
11
126.764280
21
50.954090
31
0.0
0
LINE
8
0
6
CONTINUOUS
10
138.759380
20
51.043250
30
0.0
11
132.706760
21
51.603700
31
0.0
0
LINE
8
0
6
CONTINUOUS
10
144.497240
20
49.312580
30
0.0
11
138.759380
21
51.043250
31
0.0
0
LINE
8
0
6
CONTINUOUS
10
149.816280
20
46.532890
30
0.0
11
144.497240
21
49.312580
31
0.0
0
LINE
8
0
6
CONTINUOUS
10
154.557570
20
42.709670
30
0.0
11
149.816280
21
46.532890
31
0.0
0
LINE
8
0
6
CONTINUOUS
10
158.370220
20
38.052870
30
0.0
11
154.557570
21
42.709670
31
0.0
0
LINE
8
0
6
CONTINUOUS
10
160.891538
20
33.396480
30
0.0
11
158.370220
21
38.052870
31
0.0
0
LINE
8
0
6
CONTINUOUS
10
157.946030
20
4.104370
30
0.0
11
160.244008
21
8.396270
31
0.0
0
LINE
8
0
6
CONTINUOUS
10
154.170970
20
-0.487820
30
0.0
11
157.946030
21
4.104370
31
0.0
0
LINE
8
0
6
CONTINUOUS
10
149.574750
20
-4.257780
30
0.0
11
154.170970
21
-0.487820
31
0.0
0
LINE
8
0
6
CONTINUOUS
10
144.336700
20
-7.053610
30
0.0
11
149.574750
21
-4.257780
31
0.0
0
LINE
8
0
6
CONTINUOUS
10
138.646640
20
-8.771690
30
0.0
11
144.336700
21
-7.053610
31
0.0
0
LINE
8
0
6
CONTINUOUS
10
132.732390
20
-9.350730
30
0.0
11
138.646640
21
-8.771690
31
0.0
0
LINE
8
0
6
CONTINUOUS
10
126.824550
20
-8.767920
30
0.0
11
132.732390
21
-9.350730
31
0.0
0
LINE
8
0
6
CONTINUOUS
10
123.439063
20
-7.751714
30
0.0
11
126.824550
21
-8.767920
31
0.0
0
LINE
8
0
6
CONTINUOUS
10
115.899540
20
-4.241570
30
0.0
11
120.957977
21
-6.965476
31
0.0
0
LINE
8
0
6
CONTINUOUS
10
111.303060
20
-0.476900
30
0.0
11
115.899540
21
-4.241570
31
0.0
0
LINE
8
0
6
CONTINUOUS
10
107.571460
20
4.134700
30
0.0
11
111.303060
21
-0.476900
31
0.0
0
LINE
8
0
6
CONTINUOUS
10
105.307057
20
8.396273
30
0.0
11
107.571460
21
4.134700
31
0.0
0
LINE
8
0
6
CONTINUOUS
10
107.592670
20
37.736300
30
0.0
11
105.263719
21
33.396485
31
0.0
0
LINE
8
0
6
CONTINUOUS
10
111.350560
20
42.318640
30
0.0
11
107.592670
21
37.736300
31
0.0
0
LINE
8
0
6
CONTINUOUS
10
115.916960
20
46.103830
30
0.0
11
111.350560
21
42.318640
31
0.0
0
LINE
8
0
6
CONTINUOUS
10
121.146390
20
48.905930
30
0.0
11
115.916960
21
46.103830
31
0.0
0
LINE
8
0
6
CONTINUOUS
10
126.825260
20
50.638020
30
0.0
11
121.146390
21
48.905930
31
0.0
0
LINE
8
0
6
CONTINUOUS
10
132.736480
20
51.253830
30
0.0
11
126.825260
21
50.638020
31
0.0
0
LINE
8
0
6
CONTINUOUS
10
138.649630
20
50.691780
30
0.0
11
132.736480
21
51.253830
31
0.0
0
LINE
8
0
6
CONTINUOUS
10
144.348080
20
48.973580
30
0.0
11
138.649630
21
50.691780
31
0.0
0
LINE
8
0
6
CONTINUOUS
10
149.572770
20
46.131910
30
0.0
11
144.348080
21
48.973580
31
0.0
0
LINE
8
0
6
CONTINUOUS
10
154.166330
20
42.371560
30
0.0
11
149.572770
21
46.131910
31
0.0
0
LINE
8
0
6
CONTINUOUS
10
157.937750
20
37.778230
30
0.0
11
154.166330
21
42.371560
31
0.0
0
LINE
8
0
6
CONTINUOUS
10
160.284276
20
33.396480
30
0.0
11
157.937750
21
37.778230
31
0.0
0
LINE
8
0
6
CONTINUOUS
10
-197.761060
20
20.928420
30
0.0
11
-197.169250
21
14.925780
31
0.0
0
LINE
8
0
6
CONTINUOUS
10
-195.450120
20
9.138960
30
0.0
11
-192.548200
21
3.771110
31
0.0
0
LINE
8
0
6
CONTINUOUS
10
-192.548200
20
3.771110
30
0.0
11
-188.694920
21
-0.866810
31
0.0
0
LINE
8
0
6
CONTINUOUS
10
-188.694920
20
-0.866810
30
0.0
11
-184.037940
21
-4.690680
31
0.0
0
LINE
8
0
6
CONTINUOUS
10
-184.037940
20
-4.690680
30
0.0
11
-178.650860
21
-7.544880
31
0.0
0
LINE
8
0
6
CONTINUOUS
10
-178.650860
20
-7.544880
30
0.0
11
-172.875880
21
-9.229440
31
0.0
0
LINE
8
0
6
CONTINUOUS
10
-172.875880
20
-9.229440
30
0.0
11
-166.898650
21
-9.796810
31
0.0
0
LINE
8
0
6
CONTINUOUS
10
-166.898650
20
-9.796810
30
0.0
11
-160.843660
21
-9.191430
31
0.0
0
LINE
8
0
6
CONTINUOUS
10
-160.843660
20
-9.191430
30
0.0
11
-157.571453
21
-8.151029
31
0.0
0
LINE
8
0
6
CONTINUOUS
10
-155.090648
20
-7.353033
30
0.0
11
-149.874840
21
-4.531110
31
0.0
0
LINE
8
0
6
CONTINUOUS
10
-149.874840
20
-4.531110
30
0.0
11
-145.203790
21
-0.715020
31
0.0
0
LINE
8
0
6
CONTINUOUS
10
-145.203790
20
-0.715020
30
0.0
11
-141.449910
21
3.978500
31
0.0
0
LINE
8
0
6
CONTINUOUS
10
-141.449910
20
3.978500
30
0.0
11
-139.114070
21
8.396287
31
0.0
0
LINE
8
0
6
CONTINUOUS
10
-139.077594
20
33.396505
30
0.0
11
-141.510930
21
37.918850
31
0.0
0
LINE
8
0
6
CONTINUOUS
10
-141.510930
20
37.918850
30
0.0
11
-145.284060
21
42.517200
31
0.0
0
LINE
8
0
6
CONTINUOUS
10
-145.284060
20
42.517200
30
0.0
11
-149.851640
21
46.341710
31
0.0
0
LINE
8
0
6
CONTINUOUS
10
-149.851640
20
46.341710
30
0.0
11
-155.196550
21
49.211580
31
0.0
0
LINE
8
0
6
CONTINUOUS
10
-155.196550
20
49.211580
30
0.0
11
-160.903500
21
50.954090
31
0.0
0
LINE
8
0
6
CONTINUOUS
10
-160.903500
20
50.954090
30
0.0
11
-166.845980
21
51.603700
31
0.0
0
LINE
8
0
6
CONTINUOUS
10
-166.845980
20
51.603700
30
0.0
11
-172.898600
21
51.043250
31
0.0
0
LINE
8
0
6
CONTINUOUS
10
-172.898600
20
51.043250
30
0.0
11
-178.636460
21
49.312580
31
0.0
0
LINE
8
0
6
CONTINUOUS
10
-178.636460
20
49.312580
30
0.0
11
-183.955500
21
46.532890
31
0.0
0
LINE
8
0
6
CONTINUOUS
10
-183.955500
20
46.532890
30
0.0
11
-188.696790
21
42.709670
31
0.0
0
LINE
8
0
6
CONTINUOUS
10
-188.696790
20
42.709670
30
0.0
11
-192.509440
21
38.052870
31
0.0
0
LINE
8
0
6
CONTINUOUS
10
-192.509440
20
38.052870
30
0.0
11
-195.376490
21
32.757980
31
0.0
0
LINE
8
0
6
CONTINUOUS
10
-197.204080
20
26.945940
30
0.0
11
-197.761060
21
20.928420
31
0.0
0
LINE
8
0
6
CONTINUOUS
10
-194.383239
20
8.396290
30
0.0
11
-192.085250
21
4.104370
31
0.0
0
LINE
8
0
6
CONTINUOUS
10
-192.085250
20
4.104370
30
0.0
11
-188.310190
21
-0.487820
31
0.0
0
LINE
8
0
6
CONTINUOUS
10
-188.310190
20
-0.487820
30
0.0
11
-183.713970
21
-4.257780
31
0.0
0
LINE
8
0
6
CONTINUOUS
10
-183.713970
20
-4.257780
30
0.0
11
-178.475920
21
-7.053610
31
0.0
0
LINE
8
0
6
CONTINUOUS
10
-178.475920
20
-7.053610
30
0.0
11
-172.785860
21
-8.771690
31
0.0
0
LINE
8
0
6
CONTINUOUS
10
-172.785860
20
-8.771690
30
0.0
11
-166.871610
21
-9.350730
31
0.0
0
LINE
8
0
6
CONTINUOUS
10
-166.871610
20
-9.350730
30
0.0
11
-160.963770
21
-8.767920
31
0.0
0
LINE
8
0
6
CONTINUOUS
10
-160.963770
20
-8.767920
30
0.0
11
-157.578283
21
-7.751714
31
0.0
0
LINE
8
0
6
CONTINUOUS
10
-155.097197
20
-6.965476
30
0.0
11
-150.038760
21
-4.241570
31
0.0
0
LINE
8
0
6
CONTINUOUS
10
-150.038760
20
-4.241570
30
0.0
11
-145.442280
21
-0.476900
31
0.0
0
LINE
8
0
6
CONTINUOUS
10
-145.442280
20
-0.476900
30
0.0
11
-141.710680
21
4.134700
31
0.0
0
LINE
8
0
6
CONTINUOUS
10
-141.710680
20
4.134700
30
0.0
11
-139.446270
21
8.396287
31
0.0
0
LINE
8
0
6
CONTINUOUS
10
-139.402950
20
33.396505
30
0.0
11
-141.731890
21
37.736300
31
0.0
0
LINE
8
0
6
CONTINUOUS
10
-141.731890
20
37.736300
30
0.0
11
-145.489780
21
42.318640
31
0.0
0
LINE
8
0
6
CONTINUOUS
10
-145.489780
20
42.318640
30
0.0
11
-150.056180
21
46.103830
31
0.0
0
LINE
8
0
6
CONTINUOUS
10
-150.056180
20
46.103830
30
0.0
11
-155.285610
21
48.905930
31
0.0
0
LINE
8
0
6
CONTINUOUS
10
-155.285610
20
48.905930
30
0.0
11
-160.964480
21
50.638020
31
0.0
0
LINE
8
0
6
CONTINUOUS
10
-160.964480
20
50.638020
30
0.0
11
-166.875700
21
51.253830
31
0.0
0
LINE
8
0
6
CONTINUOUS
10
-166.875700
20
51.253830
30
0.0
11
-172.788850
21
50.691780
31
0.0
0
LINE
8
0
6
CONTINUOUS
10
-172.788850
20
50.691780
30
0.0
11
-178.487300
21
48.973580
31
0.0
0
LINE
8
0
6
CONTINUOUS
10
-178.487300
20
48.973580
30
0.0
11
-183.711990
21
46.131910
31
0.0
0
LINE
8
0
6
CONTINUOUS
10
-183.711990
20
46.131910
30
0.0
11
-188.305550
21
42.371560
31
0.0
0
LINE
8
0
6
CONTINUOUS
10
-188.305550
20
42.371560
30
0.0
11
-192.076970
21
37.778230
31
0.0
0
LINE
8
0
6
CONTINUOUS
10
-192.076970
20
37.778230
30
0.0
11
-194.423480
21
33.396510
31
0.0
0
LINE
8
0
6
CONTINUOUS
10
-157.029640
20
-39.827500
30
0.0
11
-157.019610
21
-40.413800
31
0.0
0
LINE
8
0
6
CONTINUOUS
10
-17.069610
20
-40.413800
30
0.0
11
-153.817580
21
-40.413800
31
0.0
0
LINE
8
0
6
CONTINUOUS
10
-153.817580
20
-51.603700
30
0.0
11
-17.069610
21
-51.603700
31
0.0
0
LINE
8
0
6
CONTINUOUS
10
-154.990780
20
-51.603700
30
0.0
11
-154.532010
21
-51.603700
31
0.0
0
LINE
8
0
6
CONTINUOUS
10
-154.532010
20
-51.603700
30
0.0
11
-153.817580
21
-51.603700
31
0.0
0
LINE
8
0
6
CONTINUOUS
10
-153.817580
20
-40.413800
30
0.0
11
-154.532000
21
-40.413800
31
0.0
0
LINE
8
0
6
CONTINUOUS
10
-157.854487
20
8.396288
30
0.0
11
-157.029640
21
-39.827500
31
0.0
0
LINE
8
0
6
CONTINUOUS
10
-157.019610
20
-41.016090
30
0.0
11
-157.019610
21
-51.044200
31
0.0
0
LINE
8
0
6
CONTINUOUS
10
-157.019610
20
-51.044200
30
0.0
11
-157.019610
21
-51.603700
31
0.0
0
LINE
8
0
6
CONTINUOUS
10
-157.019610
20
-51.603700
30
0.0
11
-156.665600
21
-51.603700
31
0.0
0
LINE
8
0
6
CONTINUOUS
10
-157.019610
20
-40.413800
30
0.0
11
-157.019610
21
-41.016090
31
0.0
0
LINE
8
0
6
CONTINUOUS
10
-154.532000
20
-40.413800
30
0.0
11
-154.541920
21
-39.827090
31
0.0
0
LINE
8
0
6
CONTINUOUS
10
-154.541920
20
-39.827090
30
0.0
11
-155.356771
21
8.396288
31
0.0
0
LINE
8
0
6
CONTINUOUS
10
-156.665600
20
-51.603700
30
0.0
11
-154.990780
21
-51.603700
31
0.0
0
LINE
8
0
6
CONTINUOUS
10
122.880390
20
-40.413800
30
0.0
11
122.890420
21
-39.827500
31
0.0
0
LINE
8
0
6
CONTINUOUS
10
119.678360
20
-40.413800
30
0.0
11
-17.069610
21
-40.413800
31
0.0
0
LINE
8
0
6
CONTINUOUS
10
-17.069610
20
-51.603700
30
0.0
11
119.678360
21
-51.603700
31
0.0
0
LINE
8
0
6
CONTINUOUS
10
120.392790
20
-51.603700
30
0.0
11
120.851560
21
-51.603700
31
0.0
0
LINE
8
0
6
CONTINUOUS
10
119.678360
20
-51.603700
30
0.0
11
120.392790
21
-51.603700
31
0.0
0
LINE
8
0
6
CONTINUOUS
10
120.392780
20
-40.413800
30
0.0
11
119.678360
21
-40.413800
31
0.0
0
LINE
8
0
6
CONTINUOUS
10
122.890420
20
-39.827500
30
0.0
11
123.715267
21
8.396272
31
0.0
0
LINE
8
0
6
CONTINUOUS
10
122.880390
20
-51.044200
30
0.0
11
122.880390
21
-41.016090
31
0.0
0
LINE
8
0
6
CONTINUOUS
10
122.526380
20
-51.603700
30
0.0
11
122.880390
21
-51.603700
31
0.0
0
LINE
8
0
6
CONTINUOUS
10
122.880390
20
-51.603700
30
0.0
11
122.880390
21
-51.044200
31
0.0
0
LINE
8
0
6
CONTINUOUS
10
122.880390
20
-41.016090
30
0.0
11
122.880390
21
-40.413800
31
0.0
0
LINE
8
0
6
CONTINUOUS
10
120.402700
20
-39.827090
30
0.0
11
120.392780
21
-40.413800
31
0.0
0
LINE
8
0
6
CONTINUOUS
10
121.217550
20
8.396272
30
0.0
11
120.402700
21
-39.827090
31
0.0
0
LINE
8
0
6
CONTINUOUS
10
120.851560
20
-51.603700
30
0.0
11
122.526380
21
-51.603700
31
0.0
0
LINE
8
0
6
CONTINUOUS
10
197.761040
20
-1.685630
30
0.0
11
197.758500
21
-0.779890
31
0.0
0
LINE
8
0
6
CONTINUOUS
10
196.948280
20
48.090440
30
0.0
11
193.677540
21
48.090440
31
0.0
0
LINE
8
0
6
CONTINUOUS
10
197.621090
20
48.090440
30
0.0
11
196.948280
21
48.090440
31
0.0
0
LINE
8
0
6
CONTINUOUS
10
197.622730
20
47.508180
30
0.0
11
197.621090
21
48.090440
31
0.0
0
LINE
8
0
6
CONTINUOUS
10
197.758500
20
-0.779890
30
0.0
11
197.622730
21
47.508180
31
0.0
0
LINE
8
0
6
CONTINUOUS
10
193.677540
20
48.090440
30
0.0
11
193.284600
21
48.090440
31
0.0
0
LINE
8
0
6
CONTINUOUS
10
191.101240
20
48.148350
30
0.0
11
188.246720
21
48.126050
31
0.0
0
LINE
8
0
6
CONTINUOUS
10
188.246720
20
48.126050
30
0.0
11
185.058420
21
48.101140
31
0.0
0
LINE
8
0
6
CONTINUOUS
10
185.058420
20
48.101140
30
0.0
11
181.800060
21
48.075690
31
0.0
0
LINE
8
0
6
CONTINUOUS
10
181.800060
20
48.075690
30
0.0
11
178.766340
21
48.051980
31
0.0
0
LINE
8
0
6
CONTINUOUS
10
178.766340
20
48.051980
30
0.0
11
178.380620
21
48.032500
31
0.0
0
LINE
8
0
6
CONTINUOUS
10
178.380620
20
48.032500
30
0.0
11
176.600800
21
47.395200
31
0.0
0
LINE
8
0
6
CONTINUOUS
10
178.382260
20
47.450230
30
0.0
11
178.380620
21
48.032500
31
0.0
0
LINE
8
0
6
CONTINUOUS
10
176.600800
20
47.395200
30
0.0
11
175.267220
21
46.613040
31
0.0
0
LINE
8
0
6
CONTINUOUS
10
175.267220
20
46.613040
30
0.0
11
174.822000
21
45.772970
31
0.0
0
LINE
8
0
6
CONTINUOUS
10
197.761060
20
-6.320570
30
0.0
11
197.758520
21
-5.414840
31
0.0
0
LINE
8
0
6
CONTINUOUS
10
197.468410
20
-6.417120
30
0.0
11
197.761060
21
-6.320570
31
0.0
0
LINE
8
0
6
CONTINUOUS
10
195.952830
20
42.905100
30
0.0
11
192.839430
21
42.267780
31
0.0
0
LINE
8
0
6
CONTINUOUS
10
192.839430
20
42.267780
30
0.0
11
188.948150
21
41.862220
31
0.0
0
LINE
8
0
6
CONTINUOUS
10
188.948150
20
41.862220
30
0.0
11
184.945290
21
41.717380
31
0.0
0
LINE
8
0
6
CONTINUOUS
10
184.945290
20
41.717380
30
0.0
11
180.942440
21
41.862220
31
0.0
0
LINE
8
0
6
CONTINUOUS
10
180.942440
20
41.862220
30
0.0
11
177.161690
21
42.267780
31
0.0
0
LINE
8
0
6
CONTINUOUS
10
177.161690
20
42.267780
30
0.0
11
173.826160
21
42.876120
31
0.0
0
LINE
8
0
6
CONTINUOUS
10
173.826160
20
42.876120
30
0.0
11
171.646360
21
43.695750
31
0.0
0
LINE
8
0
6
CONTINUOUS
10
171.646360
20
43.695750
30
0.0
11
170.023290
21
44.603070
31
0.0
0
LINE
8
0
6
CONTINUOUS
10
169.481620
20
45.691860
30
0.0
11
169.483260
21
45.110540
31
0.0
0
LINE
8
0
6
CONTINUOUS
10
170.023290
20
44.603070
30
0.0
11
169.481620
21
45.691860
31
0.0
0
LINE
8
0
6
CONTINUOUS
10
197.328470
20
43.358950
30
0.0
11
195.952830
21
42.905100
31
0.0
0
LINE
8
0
6
CONTINUOUS
10
192.188890
20
48.156850
30
0.0
11
191.101240
21
48.148350
31
0.0
0
LINE
8
0
6
CONTINUOUS
10
178.393331
20
43.512794
30
0.0
11
178.382260
21
47.450230
31
0.0
0
LINE
8
0
6
CONTINUOUS
10
197.621110
20
43.455490
30
0.0
11
197.328470
21
43.358950
31
0.0
0
LINE
8
0
6
CONTINUOUS
10
197.622730
20
42.873230
30
0.0
11
197.621110
21
43.455490
31
0.0
0
LINE
8
0
6
CONTINUOUS
10
169.483260
20
45.110540
30
0.0
11
169.513939
21
34.214364
31
0.0
0
LINE
8
0
6
CONTINUOUS
10
169.588936
20
7.578174
30
0.0
11
169.619000
21
-3.099290
31
0.0
0
LINE
8
0
6
CONTINUOUS
10
193.284600
20
48.090440
30
0.0
11
192.915650
21
48.162530
31
0.0
0
LINE
8
0
6
CONTINUOUS
10
193.286240
20
47.508180
30
0.0
11
193.284600
21
48.090440
31
0.0
0
LINE
8
0
6
CONTINUOUS
10
192.915650
20
48.162530
30
0.0
11
192.188890
21
48.156850
31
0.0
0
LINE
8
0
6
CONTINUOUS
10
192.917290
20
47.580270
30
0.0
11
192.915650
21
48.162530
31
0.0
0
LINE
8
0
6
CONTINUOUS
10
197.758520
20
-5.414840
30
0.0
11
197.622730
21
42.873230
31
0.0
0
LINE
8
0
6
CONTINUOUS
10
193.297635
20
43.455490
30
0.0
11
193.286240
21
47.508180
31
0.0
0
LINE
8
0
6
CONTINUOUS
10
192.929082
20
43.386030
30
0.0
11
192.917290
21
47.580270
31
0.0
0
LINE
8
0
6
CONTINUOUS
10
192.979370
20
-7.508290
30
0.0
11
196.092770
21
-6.870960
31
0.0
0
LINE
8
0
6
CONTINUOUS
10
189.088070
20
-7.913850
30
0.0
11
192.979370
21
-7.508290
31
0.0
0
LINE
8
0
6
CONTINUOUS
10
185.085240
20
-8.058690
30
0.0
11
189.088070
21
-7.913850
31
0.0
0
LINE
8
0
6
CONTINUOUS
10
181.082400
20
-7.913850
30
0.0
11
185.085240
21
-8.058690
31
0.0
0
LINE
8
0
6
CONTINUOUS
10
177.301630
20
-7.508290
30
0.0
11
181.082400
21
-7.913850
31
0.0
0
LINE
8
0
6
CONTINUOUS
10
173.966120
20
-6.899950
30
0.0
11
177.301630
21
-7.508290
31
0.0
0
LINE
8
0
6
CONTINUOUS
10
171.555130
20
-5.979500
30
0.0
11
173.966120
21
-6.899950
31
0.0
0
LINE
8
0
6
CONTINUOUS
10
170.163230
20
-5.072180
30
0.0
11
171.555130
21
-5.979500
31
0.0
0
LINE
8
0
6
CONTINUOUS
10
169.619000
20
-3.099290
30
0.0
11
169.621560
21
-4.003560
31
0.0
0
LINE
8
0
6
CONTINUOUS
10
169.621560
20
-4.003560
30
0.0
11
170.163230
21
-5.072180
31
0.0
0
LINE
8
0
6
CONTINUOUS
10
196.092770
20
-6.870960
30
0.0
11
197.468410
21
-6.417120
31
0.0
0
ENDSEC
0
EOF
