999
Erzeugt mit innoplus bad 
0
SECTION
2
HEADER
9
$ACADVER
1
AC1009
9
$DWGCODEPAGE
3
ISO8859-1
0
ENDSEC
0
SECTION
2
TABLES
0
TABLE
2
LAYER
70
1
0
LAYER
2
0
70
0
62
7
6
CONTINUOUS
0
ENDTAB
0
ENDSEC
0
SECTION
2
ENTITIES
0
LINE
8
0
6
CONTINUOUS
10
84.045165
20
726.488040
30
0.0
11
84.687095
21
726.488040
31
0.0
0
LINE
8
0
6
CONTINUOUS
10
84.687085
20
787.888560
30
0.0
11
84.045145
21
787.888560
31
0.0
0
LINE
8
0
6
CONTINUOUS
10
84.045115
20
751.210630
30
0.0
11
84.045115
21
757.213290
31
0.0
0
LINE
8
0
6
CONTINUOUS
10
83.086325
20
757.228770
30
0.0
11
83.086325
21
751.313090
31
0.0
0
LINE
8
0
6
CONTINUOUS
10
84.045115
20
745.423810
30
0.0
11
84.045115
21
751.210630
31
0.0
0
LINE
8
0
6
CONTINUOUS
10
83.086325
20
751.313090
30
0.0
11
83.086325
21
745.623400
31
0.0
0
LINE
8
0
6
CONTINUOUS
10
84.045115
20
740.056000
30
0.0
11
84.045115
21
745.423810
31
0.0
0
LINE
8
0
6
CONTINUOUS
10
83.086325
20
745.623400
30
0.0
11
83.086335
21
740.389250
31
0.0
0
LINE
8
0
6
CONTINUOUS
10
84.045155
20
735.418090
30
0.0
11
84.045115
21
740.056000
31
0.0
0
LINE
8
0
6
CONTINUOUS
10
83.086335
20
740.389250
30
0.0
11
83.086335
21
735.797040
31
0.0
0
LINE
8
0
6
CONTINUOUS
10
84.045165
20
731.594160
30
0.0
11
84.045155
21
735.418090
31
0.0
0
LINE
8
0
6
CONTINUOUS
10
83.086335
20
735.797040
30
0.0
11
83.086335
21
732.027130
31
0.0
0
LINE
8
0
6
CONTINUOUS
10
84.045165
20
728.740010
30
0.0
11
84.045165
21
731.594160
31
0.0
0
LINE
8
0
6
CONTINUOUS
10
83.086335
20
732.027130
30
0.0
11
83.086335
21
729.231260
31
0.0
0
LINE
8
0
6
CONTINUOUS
10
84.045165
20
727.055430
30
0.0
11
84.045165
21
728.740010
31
0.0
0
LINE
8
0
6
CONTINUOUS
10
83.086335
20
729.231260
30
0.0
11
83.086335
21
727.513200
31
0.0
0
LINE
8
0
6
CONTINUOUS
10
84.045165
20
726.488040
30
0.0
11
84.045165
21
727.055430
31
0.0
0
LINE
8
0
6
CONTINUOUS
10
83.086335
20
726.934130
30
0.0
11
84.045165
21
726.488040
31
0.0
0
LINE
8
0
6
CONTINUOUS
10
83.086335
20
727.513200
30
0.0
11
83.086335
21
726.934130
31
0.0
0
LINE
8
0
6
CONTINUOUS
10
84.045145
20
787.888560
30
0.0
11
83.086335
21
787.538680
31
0.0
0
LINE
8
0
6
CONTINUOUS
10
83.086335
20
787.538680
30
0.0
11
83.086335
21
786.976620
31
0.0
0
LINE
8
0
6
CONTINUOUS
10
83.086335
20
786.976620
30
0.0
11
83.086335
21
785.258480
31
0.0
0
LINE
8
0
6
CONTINUOUS
10
83.086335
20
785.258480
30
0.0
11
83.086335
21
782.416760
31
0.0
0
LINE
8
0
6
CONTINUOUS
10
84.045145
20
778.994520
30
0.0
11
84.045145
21
782.817760
31
0.0
0
LINE
8
0
6
CONTINUOUS
10
83.086335
20
782.416760
30
0.0
11
83.086335
21
778.656460
31
0.0
0
LINE
8
0
6
CONTINUOUS
10
84.045105
20
774.337770
30
0.0
11
84.045145
21
778.994520
31
0.0
0
LINE
8
0
6
CONTINUOUS
10
83.086335
20
778.656460
30
0.0
11
83.086335
21
774.063110
31
0.0
0
LINE
8
0
6
CONTINUOUS
10
84.045105
20
769.042890
30
0.0
11
84.045105
21
774.337770
31
0.0
0
LINE
8
0
6
CONTINUOUS
10
83.086335
20
774.063110
30
0.0
11
83.086325
21
768.823780
31
0.0
0
LINE
8
0
6
CONTINUOUS
10
84.045115
20
763.230820
30
0.0
11
84.045105
21
769.042890
31
0.0
0
LINE
8
0
6
CONTINUOUS
10
83.086325
20
768.823780
30
0.0
11
83.086325
21
763.145140
31
0.0
0
LINE
8
0
6
CONTINUOUS
10
84.045115
20
757.213290
30
0.0
11
84.045115
21
763.230820
31
0.0
0
LINE
8
0
6
CONTINUOUS
10
83.086325
20
763.145140
30
0.0
11
83.086325
21
757.228770
31
0.0
0
LINE
8
0
6
CONTINUOUS
10
84.687095
20
726.488040
30
0.0
11
98.090915
21
726.488040
31
0.0
0
LINE
8
0
6
CONTINUOUS
10
98.090905
20
787.888560
30
0.0
11
84.687085
21
787.888560
31
0.0
0
LINE
8
0
6
CONTINUOUS
10
99.157835
20
751.210630
30
0.0
11
99.157795
21
757.213290
31
0.0
0
LINE
8
0
6
CONTINUOUS
10
99.157795
20
745.423890
30
0.0
11
99.157835
21
751.210630
31
0.0
0
LINE
8
0
6
CONTINUOUS
10
99.157795
20
740.056000
30
0.0
11
99.157795
21
745.423890
31
0.0
0
LINE
8
0
6
CONTINUOUS
10
99.157835
20
731.594160
30
0.0
11
99.157835
21
735.418090
31
0.0
0
LINE
8
0
6
CONTINUOUS
10
99.157835
20
728.740010
30
0.0
11
99.157835
21
731.594160
31
0.0
0
LINE
8
0
6
CONTINUOUS
10
99.157835
20
727.055430
30
0.0
11
99.157835
21
728.740010
31
0.0
0
LINE
8
0
6
CONTINUOUS
10
99.157835
20
726.488040
30
0.0
11
99.157835
21
727.055430
31
0.0
0
LINE
8
0
6
CONTINUOUS
10
98.090915
20
726.488040
30
0.0
11
99.157835
21
726.488040
31
0.0
0
LINE
8
0
6
CONTINUOUS
10
99.157825
20
787.328110
30
0.0
11
99.157825
21
787.888560
31
0.0
0
LINE
8
0
6
CONTINUOUS
10
99.157825
20
787.888560
30
0.0
11
98.090905
21
787.888560
31
0.0
0
LINE
8
0
6
CONTINUOUS
10
99.157825
20
785.597460
30
0.0
11
99.157825
21
787.328110
31
0.0
0
LINE
8
0
6
CONTINUOUS
10
99.157825
20
782.817760
30
0.0
11
99.157825
21
785.597460
31
0.0
0
LINE
8
0
6
CONTINUOUS
10
99.157825
20
778.994520
30
0.0
11
99.157825
21
782.817760
31
0.0
0
LINE
8
0
6
CONTINUOUS
10
99.157825
20
769.042820
30
0.0
11
99.157785
21
774.337690
31
0.0
0
LINE
8
0
6
CONTINUOUS
10
99.157795
20
757.213290
30
0.0
11
99.157795
21
763.230820
31
0.0
0
LINE
8
0
6
CONTINUOUS
10
99.157795
20
740.056000
30
0.0
11
99.157835
21
735.418090
31
0.0
0
LINE
8
0
6
CONTINUOUS
10
99.157825
20
778.994520
30
0.0
11
99.157785
21
774.337690
31
0.0
0
LINE
8
0
6
CONTINUOUS
10
99.157825
20
769.042820
30
0.0
11
99.157795
21
763.230820
31
0.0
0
LINE
8
0
6
CONTINUOUS
10
83.086335
20
766.819460
30
0.0
11
15.083045
21
766.819460
31
0.0
0
LINE
8
0
6
CONTINUOUS
10
15.083045
20
747.649610
30
0.0
11
83.086325
21
747.649610
31
0.0
0
LINE
8
0
6
CONTINUOUS
10
15.083045
20
748.377380
30
0.0
11
83.086325
21
748.377380
31
0.0
0
LINE
8
0
6
CONTINUOUS
10
83.086335
20
766.129150
30
0.0
11
15.083045
21
766.129150
31
0.0
0
LINE
8
0
6
CONTINUOUS
10
83.086335
20
753.553700
30
0.0
11
15.083045
21
753.553700
31
0.0
0
LINE
8
0
6
CONTINUOUS
10
-4.764445
20
-352.931400
30
0.0
11
-1.279815
21
-354.706910
31
0.0
0
LINE
8
0
6
CONTINUOUS
10
-9.917165
20
-342.059100
30
0.0
11
-9.917165
21
-342.818590
31
0.0
0
LINE
8
0
6
CONTINUOUS
10
-9.917165
20
-342.818590
30
0.0
11
-9.305375
21
-346.681340
31
0.0
0
LINE
8
0
6
CONTINUOUS
10
-1.279815
20
-354.706910
30
0.0
11
2.582945
21
-355.318710
31
0.0
0
LINE
8
0
6
CONTINUOUS
10
-7.529855
20
-350.165980
30
0.0
11
-4.764445
21
-352.931400
31
0.0
0
LINE
8
0
6
CONTINUOUS
10
-9.305375
20
-346.681340
30
0.0
11
-7.529855
21
-350.165980
31
0.0
0
LINE
8
0
6
CONTINUOUS
10
6.445685
20
-354.706910
30
0.0
11
8.151838
21
-353.837588
31
0.0
0
LINE
8
0
6
CONTINUOUS
10
2.582945
20
-355.318710
30
0.0
11
6.445685
21
-354.706910
31
0.0
0
LINE
8
0
6
CONTINUOUS
10
-9.917165
20
-339.803490
30
0.0
11
-9.917165
21
-342.059100
31
0.0
0
LINE
8
0
6
CONTINUOUS
10
-9.917165
20
-336.120300
30
0.0
11
-9.917165
21
-339.803490
31
0.0
0
LINE
8
0
6
CONTINUOUS
10
-9.917165
20
-331.121430
30
0.0
11
-9.917165
21
-336.120300
31
0.0
0
LINE
8
0
6
CONTINUOUS
10
-9.917165
20
-324.958780
30
0.0
11
-9.917165
21
-331.121430
31
0.0
0
LINE
8
0
6
CONTINUOUS
10
-9.917165
20
-317.819600
30
0.0
11
-9.917165
21
-324.958780
31
0.0
0
LINE
8
0
6
CONTINUOUS
10
-9.917165
20
-309.920800
30
0.0
11
-9.917165
21
-317.819600
31
0.0
0
LINE
8
0
6
CONTINUOUS
10
-9.917165
20
-301.502390
30
0.0
11
-9.917165
21
-309.920800
31
0.0
0
LINE
8
0
6
CONTINUOUS
10
-9.917165
20
-292.820150
30
0.0
11
-9.917165
21
-301.502390
31
0.0
0
LINE
8
0
6
CONTINUOUS
10
6.445685
20
792.929690
30
0.0
11
9.930325
21
792.929690
31
0.0
0
LINE
8
0
6
CONTINUOUS
10
12.695745
20
792.929690
30
0.0
11
14.471245
21
792.929690
31
0.0
0
LINE
8
0
6
CONTINUOUS
10
15.083045
20
792.929690
30
0.0
11
15.083055
21
793.681260
31
0.0
0
LINE
8
0
6
CONTINUOUS
10
14.471245
20
792.929690
30
0.0
11
15.083045
21
792.929690
31
0.0
0
LINE
8
0
6
CONTINUOUS
10
2.582945
20
792.929760
30
0.0
11
6.445685
21
792.929690
31
0.0
0
LINE
8
0
6
CONTINUOUS
10
-7.529855
20
792.929690
30
0.0
11
-4.764445
21
792.929690
31
0.0
0
LINE
8
0
6
CONTINUOUS
10
9.930325
20
792.929690
30
0.0
11
12.695745
21
792.929690
31
0.0
0
LINE
8
0
6
CONTINUOUS
10
-9.917165
20
792.929690
30
0.0
11
-9.305375
21
792.929690
31
0.0
0
LINE
8
0
6
CONTINUOUS
10
-9.917175
20
793.681260
30
0.0
11
-9.917165
21
792.929690
31
0.0
0
LINE
8
0
6
CONTINUOUS
10
-1.279815
20
792.929690
30
0.0
11
2.582945
21
792.929760
31
0.0
0
LINE
8
0
6
CONTINUOUS
10
-4.764445
20
792.929690
30
0.0
11
-1.279815
21
792.929690
31
0.0
0
LINE
8
0
6
CONTINUOUS
10
-9.305375
20
792.929690
30
0.0
11
-7.529855
21
792.929690
31
0.0
0
LINE
8
0
6
CONTINUOUS
10
-9.917165
20
792.432860
30
0.0
11
-9.917165
21
280.485702
31
0.0
0
LINE
8
0
6
CONTINUOUS
10
-9.917165
20
155.181310
30
0.0
11
-9.917165
21
-292.820150
31
0.0
0
LINE
8
0
6
CONTINUOUS
10
-9.305375
20
792.432860
30
0.0
11
-9.917165
21
792.432860
31
0.0
0
LINE
8
0
6
CONTINUOUS
10
-1.279815
20
792.432860
30
0.0
11
-4.764445
21
792.432860
31
0.0
0
LINE
8
0
6
CONTINUOUS
10
9.930325
20
792.432860
30
0.0
11
6.445685
21
792.432860
31
0.0
0
LINE
8
0
6
CONTINUOUS
10
15.083045
20
792.432860
30
0.0
11
14.471245
21
792.432860
31
0.0
0
LINE
8
0
6
CONTINUOUS
10
15.083045
20
207.181280
30
0.0
11
15.083045
21
747.649610
31
0.0
0
LINE
8
0
6
CONTINUOUS
10
15.083045
20
766.819460
30
0.0
11
15.083045
21
792.432860
31
0.0
0
LINE
8
0
6
CONTINUOUS
10
6.445685
20
792.432860
30
0.0
11
2.582945
21
792.432940
31
0.0
0
LINE
8
0
6
CONTINUOUS
10
-4.764445
20
792.432860
30
0.0
11
-7.529855
21
792.432860
31
0.0
0
LINE
8
0
6
CONTINUOUS
10
14.471245
20
792.432860
30
0.0
11
12.695745
21
792.432860
31
0.0
0
LINE
8
0
6
CONTINUOUS
10
-7.529855
20
792.432860
30
0.0
11
-9.305375
21
792.432860
31
0.0
0
LINE
8
0
6
CONTINUOUS
10
2.582945
20
792.432940
30
0.0
11
-1.279815
21
792.432860
31
0.0
0
LINE
8
0
6
CONTINUOUS
10
12.695745
20
792.432860
30
0.0
11
9.930325
21
792.432860
31
0.0
0
LINE
8
0
6
CONTINUOUS
10
12.695745
20
794.861600
30
0.0
11
9.930325
21
794.861600
31
0.0
0
LINE
8
0
6
CONTINUOUS
10
2.582945
20
794.861680
30
0.0
11
-1.279815
21
794.861680
31
0.0
0
LINE
8
0
6
CONTINUOUS
10
-7.529845
20
794.861600
30
0.0
11
-9.305375
21
794.861600
31
0.0
0
LINE
8
0
6
CONTINUOUS
10
14.471245
20
794.861600
30
0.0
11
12.695745
21
794.861600
31
0.0
0
LINE
8
0
6
CONTINUOUS
10
-4.764445
20
794.861600
30
0.0
11
-7.529845
21
794.861600
31
0.0
0
LINE
8
0
6
CONTINUOUS
10
6.445685
20
794.861680
30
0.0
11
2.582945
21
794.861680
31
0.0
0
LINE
8
0
6
CONTINUOUS
10
15.083055
20
793.681260
30
0.0
11
15.083055
21
794.861600
31
0.0
0
LINE
8
0
6
CONTINUOUS
10
15.083055
20
794.861600
30
0.0
11
14.471245
21
794.861600
31
0.0
0
LINE
8
0
6
CONTINUOUS
10
9.930325
20
794.861600
30
0.0
11
6.445685
21
794.861680
31
0.0
0
LINE
8
0
6
CONTINUOUS
10
-1.279815
20
794.861680
30
0.0
11
-4.764445
21
794.861600
31
0.0
0
LINE
8
0
6
CONTINUOUS
10
-9.917175
20
794.861600
30
0.0
11
-9.917175
21
793.681260
31
0.0
0
LINE
8
0
6
CONTINUOUS
10
-9.305375
20
794.861600
30
0.0
11
-9.917175
21
794.861600
31
0.0
0
LINE
8
0
6
CONTINUOUS
10
-9.678025
20
792.681270
30
0.0
11
-9.917165
21
792.432860
31
0.0
0
LINE
8
0
6
CONTINUOUS
10
-9.917165
20
792.432860
30
0.0
11
-9.305375
21
792.432860
31
0.0
0
LINE
8
0
6
CONTINUOUS
10
-9.917165
20
792.929690
30
0.0
11
-9.678025
21
792.681270
31
0.0
0
LINE
8
0
6
CONTINUOUS
10
-9.305375
20
792.929690
30
0.0
11
-9.917165
21
792.929690
31
0.0
0
LINE
8
0
6
CONTINUOUS
10
-9.678025
20
792.681270
30
0.0
11
-9.077935
21
792.681270
31
0.0
0
LINE
8
0
6
CONTINUOUS
10
-4.764445
20
792.432860
30
0.0
11
-1.279815
21
792.432860
31
0.0
0
LINE
8
0
6
CONTINUOUS
10
-1.279815
20
792.929690
30
0.0
11
-4.764445
21
792.929690
31
0.0
0
LINE
8
0
6
CONTINUOUS
10
-4.623875
20
792.681270
30
0.0
11
-1.205915
21
792.681270
31
0.0
0
LINE
8
0
6
CONTINUOUS
10
6.445685
20
792.432860
30
0.0
11
9.930325
21
792.432860
31
0.0
0
LINE
8
0
6
CONTINUOUS
10
9.930325
20
792.929690
30
0.0
11
6.445685
21
792.929690
31
0.0
0
LINE
8
0
6
CONTINUOUS
10
6.371785
20
792.681270
30
0.0
11
9.789755
21
792.681270
31
0.0
0
LINE
8
0
6
CONTINUOUS
10
15.083045
20
792.432860
30
0.0
11
14.843905
21
792.681270
31
0.0
0
LINE
8
0
6
CONTINUOUS
10
14.471245
20
792.432860
30
0.0
11
15.083045
21
792.432860
31
0.0
0
LINE
8
0
6
CONTINUOUS
10
15.083045
20
792.929690
30
0.0
11
14.471245
21
792.929690
31
0.0
0
LINE
8
0
6
CONTINUOUS
10
14.843905
20
792.681270
30
0.0
11
15.083045
21
792.929690
31
0.0
0
LINE
8
0
6
CONTINUOUS
10
14.243805
20
792.681270
30
0.0
11
14.843905
21
792.681270
31
0.0
0
LINE
8
0
6
CONTINUOUS
10
2.582945
20
792.432940
30
0.0
11
6.445685
21
792.432860
31
0.0
0
LINE
8
0
6
CONTINUOUS
10
6.445685
20
792.929690
30
0.0
11
2.582945
21
792.929760
31
0.0
0
LINE
8
0
6
CONTINUOUS
10
2.582945
20
792.681350
30
0.0
11
6.371785
21
792.681270
31
0.0
0
LINE
8
0
6
CONTINUOUS
10
-7.529855
20
792.432860
30
0.0
11
-4.764445
21
792.432860
31
0.0
0
LINE
8
0
6
CONTINUOUS
10
-4.764445
20
792.929690
30
0.0
11
-7.529855
21
792.929690
31
0.0
0
LINE
8
0
6
CONTINUOUS
10
-7.336385
20
792.681270
30
0.0
11
-4.623875
21
792.681270
31
0.0
0
LINE
8
0
6
CONTINUOUS
10
12.695745
20
792.432860
30
0.0
11
14.471245
21
792.432860
31
0.0
0
LINE
8
0
6
CONTINUOUS
10
14.471245
20
792.929690
30
0.0
11
12.695745
21
792.929690
31
0.0
0
LINE
8
0
6
CONTINUOUS
10
12.502265
20
792.681270
30
0.0
11
14.243805
21
792.681270
31
0.0
0
LINE
8
0
6
CONTINUOUS
10
-9.305375
20
792.432860
30
0.0
11
-7.529855
21
792.432860
31
0.0
0
LINE
8
0
6
CONTINUOUS
10
-7.529855
20
792.929690
30
0.0
11
-9.305375
21
792.929690
31
0.0
0
LINE
8
0
6
CONTINUOUS
10
-9.077935
20
792.681270
30
0.0
11
-7.336385
21
792.681270
31
0.0
0
LINE
8
0
6
CONTINUOUS
10
-1.279815
20
792.432860
30
0.0
11
2.582945
21
792.432940
31
0.0
0
LINE
8
0
6
CONTINUOUS
10
2.582945
20
792.929760
30
0.0
11
-1.279815
21
792.929690
31
0.0
0
LINE
8
0
6
CONTINUOUS
10
-1.205915
20
792.681270
30
0.0
11
2.582945
21
792.681350
31
0.0
0
LINE
8
0
6
CONTINUOUS
10
9.930325
20
792.432860
30
0.0
11
12.695745
21
792.432860
31
0.0
0
LINE
8
0
6
CONTINUOUS
10
12.695745
20
792.929690
30
0.0
11
9.930325
21
792.929690
31
0.0
0
LINE
8
0
6
CONTINUOUS
10
9.789755
20
792.681270
30
0.0
11
12.502265
21
792.681270
31
0.0
0
LINE
8
0
6
CONTINUOUS
10
80.545165
20
-373.511790
30
0.0
11
81.187105
21
-373.511790
31
0.0
0
LINE
8
0
6
CONTINUOUS
10
81.187085
20
-312.111280
30
0.0
11
80.545155
21
-312.111280
31
0.0
0
LINE
8
0
6
CONTINUOUS
10
80.545115
20
-348.789200
30
0.0
11
80.545115
21
-342.786560
31
0.0
0
LINE
8
0
6
CONTINUOUS
10
79.586335
20
-342.771090
30
0.0
11
79.586335
21
-348.686750
31
0.0
0
LINE
8
0
6
CONTINUOUS
10
80.545115
20
-354.576020
30
0.0
11
80.545115
21
-348.789200
31
0.0
0
LINE
8
0
6
CONTINUOUS
10
79.586335
20
-348.686750
30
0.0
11
79.586335
21
-354.376440
31
0.0
0
LINE
8
0
6
CONTINUOUS
10
80.545125
20
-359.943870
30
0.0
11
80.545115
21
-354.576020
31
0.0
0
LINE
8
0
6
CONTINUOUS
10
79.586335
20
-354.376440
30
0.0
11
79.586335
21
-359.610610
31
0.0
0
LINE
8
0
6
CONTINUOUS
10
80.545165
20
-364.581790
30
0.0
11
80.545125
21
-359.943870
31
0.0
0
LINE
8
0
6
CONTINUOUS
10
79.586335
20
-359.610610
30
0.0
11
79.586335
21
-364.202800
31
0.0
0
LINE
8
0
6
CONTINUOUS
10
80.545165
20
-368.405660
30
0.0
11
80.545165
21
-364.581790
31
0.0
0
LINE
8
0
6
CONTINUOUS
10
79.586335
20
-364.202800
30
0.0
11
79.586335
21
-367.972760
31
0.0
0
LINE
8
0
6
CONTINUOUS
10
80.545165
20
-371.259860
30
0.0
11
80.545165
21
-368.405660
31
0.0
0
LINE
8
0
6
CONTINUOUS
10
79.586335
20
-367.972760
30
0.0
11
79.586335
21
-370.768590
31
0.0
0
LINE
8
0
6
CONTINUOUS
10
80.545165
20
-372.944420
30
0.0
11
80.545165
21
-371.259860
31
0.0
0
LINE
8
0
6
CONTINUOUS
10
79.586335
20
-370.768590
30
0.0
11
79.586335
21
-372.486670
31
0.0
0
LINE
8
0
6
CONTINUOUS
10
80.545165
20
-373.511790
30
0.0
11
80.545165
21
-372.944420
31
0.0
0
LINE
8
0
6
CONTINUOUS
10
79.586335
20
-373.065710
30
0.0
11
80.545165
21
-373.511790
31
0.0
0
LINE
8
0
6
CONTINUOUS
10
79.586335
20
-372.486670
30
0.0
11
79.586335
21
-373.065710
31
0.0
0
LINE
8
0
6
CONTINUOUS
10
80.545155
20
-312.111280
30
0.0
11
79.586335
21
-312.461150
31
0.0
0
LINE
8
0
6
CONTINUOUS
10
79.586335
20
-312.461150
30
0.0
11
79.586335
21
-313.023200
31
0.0
0
LINE
8
0
6
CONTINUOUS
10
79.586335
20
-313.023200
30
0.0
11
79.586335
21
-314.741400
31
0.0
0
LINE
8
0
6
CONTINUOUS
10
79.586335
20
-314.741400
30
0.0
11
79.586335
21
-317.583070
31
0.0
0
LINE
8
0
6
CONTINUOUS
10
80.545155
20
-321.005310
30
0.0
11
80.545155
21
-317.182090
31
0.0
0
LINE
8
0
6
CONTINUOUS
10
79.586335
20
-317.583070
30
0.0
11
79.586335
21
-321.343420
31
0.0
0
LINE
8
0
6
CONTINUOUS
10
80.545115
20
-325.662110
30
0.0
11
80.545155
21
-321.005310
31
0.0
0
LINE
8
0
6
CONTINUOUS
10
79.586335
20
-321.343420
30
0.0
11
79.586335
21
-325.936750
31
0.0
0
LINE
8
0
6
CONTINUOUS
10
80.545115
20
-330.957000
30
0.0
11
80.545115
21
-325.662110
31
0.0
0
LINE
8
0
6
CONTINUOUS
10
79.586335
20
-325.936750
30
0.0
11
79.586335
21
-331.176100
31
0.0
0
LINE
8
0
6
CONTINUOUS
10
80.545115
20
-336.769040
30
0.0
11
80.545115
21
-330.957000
31
0.0
0
LINE
8
0
6
CONTINUOUS
10
79.586335
20
-331.176100
30
0.0
11
79.586335
21
-336.854730
31
0.0
0
LINE
8
0
6
CONTINUOUS
10
80.545115
20
-342.786560
30
0.0
11
80.545115
21
-336.769040
31
0.0
0
LINE
8
0
6
CONTINUOUS
10
79.586335
20
-336.854730
30
0.0
11
79.586335
21
-342.771090
31
0.0
0
LINE
8
0
6
CONTINUOUS
10
81.187105
20
-373.511790
30
0.0
11
94.590915
21
-373.511800
31
0.0
0
LINE
8
0
6
CONTINUOUS
10
94.590905
20
-312.111300
30
0.0
11
81.187085
21
-312.111280
31
0.0
0
LINE
8
0
6
CONTINUOUS
10
95.657835
20
-348.789210
30
0.0
11
95.657795
21
-342.786560
31
0.0
0
LINE
8
0
6
CONTINUOUS
10
95.657795
20
-354.576000
30
0.0
11
95.657835
21
-348.789210
31
0.0
0
LINE
8
0
6
CONTINUOUS
10
95.657795
20
-359.943850
30
0.0
11
95.657795
21
-354.576000
31
0.0
0
LINE
8
0
6
CONTINUOUS
10
95.657845
20
-371.259850
30
0.0
11
95.657845
21
-368.405660
31
0.0
0
LINE
8
0
6
CONTINUOUS
10
95.657845
20
-372.944420
30
0.0
11
95.657845
21
-371.259850
31
0.0
0
LINE
8
0
6
CONTINUOUS
10
95.657845
20
-373.511800
30
0.0
11
95.657845
21
-372.944420
31
0.0
0
LINE
8
0
6
CONTINUOUS
10
94.590915
20
-373.511800
30
0.0
11
95.657845
21
-373.511800
31
0.0
0
LINE
8
0
6
CONTINUOUS
10
95.657825
20
-312.671740
30
0.0
11
95.657825
21
-312.111300
31
0.0
0
LINE
8
0
6
CONTINUOUS
10
95.657825
20
-312.111300
30
0.0
11
94.590905
21
-312.111300
31
0.0
0
LINE
8
0
6
CONTINUOUS
10
95.657825
20
-314.402420
30
0.0
11
95.657825
21
-312.671740
31
0.0
0
LINE
8
0
6
CONTINUOUS
10
95.657825
20
-317.182120
30
0.0
11
95.657825
21
-314.402420
31
0.0
0
LINE
8
0
6
CONTINUOUS
10
95.657825
20
-321.005340
30
0.0
11
95.657825
21
-317.182120
31
0.0
0
LINE
8
0
6
CONTINUOUS
10
95.657825
20
-330.957060
30
0.0
11
95.657795
21
-325.662130
31
0.0
0
LINE
8
0
6
CONTINUOUS
10
95.657795
20
-342.786560
30
0.0
11
95.657795
21
-336.769050
31
0.0
0
LINE
8
0
6
CONTINUOUS
10
95.657795
20
-359.943850
30
0.0
11
95.657835
21
-364.581770
31
0.0
0
LINE
8
0
6
CONTINUOUS
10
95.657835
20
-364.581770
30
0.0
11
95.657845
21
-368.405660
31
0.0
0
LINE
8
0
6
CONTINUOUS
10
95.657825
20
-321.005340
30
0.0
11
95.657795
21
-325.662130
31
0.0
0
LINE
8
0
6
CONTINUOUS
10
95.657825
20
-330.957060
30
0.0
11
95.657795
21
-336.769050
31
0.0
0
LINE
8
0
6
CONTINUOUS
10
79.586335
20
-333.180380
30
0.0
11
75.115785
21
-333.180380
31
0.0
0
LINE
8
0
6
CONTINUOUS
10
22.901307
20
-352.350210
30
0.0
11
79.586335
21
-352.350210
31
0.0
0
LINE
8
0
6
CONTINUOUS
10
22.901960
20
-351.622490
30
0.0
11
79.586335
21
-351.622490
31
0.0
0
LINE
8
0
6
CONTINUOUS
10
79.586335
20
-333.870700
30
0.0
11
75.115785
21
-333.870700
31
0.0
0
LINE
8
0
6
CONTINUOUS
10
79.586335
20
-346.446190
30
0.0
11
75.115785
21
-346.446190
31
0.0
0
LINE
8
0
6
CONTINUOUS
10
81.187085
20
-312.111280
30
0.0
11
80.545155
21
-312.111280
31
0.0
0
LINE
8
0
6
CONTINUOUS
10
79.586335
20
-373.065710
30
0.0
11
80.545165
21
-373.511790
31
0.0
0
LINE
8
0
6
CONTINUOUS
10
75.115785
20
-331.330860
30
0.0
11
74.694655
21
-331.330860
31
0.0
0
LINE
8
0
6
CONTINUOUS
10
74.694655
20
-331.330860
30
0.0
11
22.920170
21
-331.330860
31
0.0
0
LINE
8
0
6
CONTINUOUS
10
75.115785
20
-338.224720
30
0.0
11
75.115785
21
-335.301550
31
0.0
0
LINE
8
0
6
CONTINUOUS
10
75.115785
20
-335.301550
30
0.0
11
75.115785
21
-333.056390
31
0.0
0
LINE
8
0
6
CONTINUOUS
10
75.115785
20
-404.128790
30
0.0
11
75.115785
21
-403.542490
31
0.0
0
LINE
8
0
6
CONTINUOUS
10
75.115785
20
-349.921130
30
0.0
11
75.115785
21
-349.403360
31
0.0
0
LINE
8
0
6
CONTINUOUS
10
74.694645
20
-349.921120
30
0.0
11
75.115785
21
-349.921130
31
0.0
0
LINE
8
0
6
CONTINUOUS
10
75.115785
20
-345.012990
30
0.0
11
75.115785
21
-341.562180
31
0.0
0
LINE
8
0
6
CONTINUOUS
10
75.115785
20
-415.318680
30
0.0
11
75.115785
21
-414.759190
31
0.0
0
LINE
8
0
6
CONTINUOUS
10
74.694655
20
-415.318680
30
0.0
11
75.115785
21
-415.318680
31
0.0
0
LINE
8
0
6
CONTINUOUS
10
75.115785
20
-341.562180
30
0.0
11
75.115785
21
-338.224720
31
0.0
0
LINE
8
0
6
CONTINUOUS
10
75.115785
20
-331.330860
30
0.0
11
74.694655
21
-331.330860
31
0.0
0
LINE
8
0
6
CONTINUOUS
10
75.115785
20
-331.691820
30
0.0
11
75.115785
21
-331.330860
31
0.0
0
LINE
8
0
6
CONTINUOUS
10
75.115785
20
-333.056390
30
0.0
11
75.115785
21
-331.691820
31
0.0
0
LINE
8
0
6
CONTINUOUS
10
74.694655
20
-331.330860
30
0.0
11
22.920170
21
-331.330860
31
0.0
0
LINE
8
0
6
CONTINUOUS
10
22.899247
20
-415.318680
30
0.0
11
74.694655
21
-415.318680
31
0.0
0
LINE
8
0
6
CONTINUOUS
10
22.903487
20
-349.921120
30
0.0
11
74.694645
21
-349.921120
31
0.0
0
LINE
8
0
6
CONTINUOUS
10
75.115785
20
-414.759190
30
0.0
11
75.115785
21
-404.731080
31
0.0
0
LINE
8
0
6
CONTINUOUS
10
75.115785
20
-404.731080
30
0.0
11
75.115785
21
-404.128790
31
0.0
0
LINE
8
0
6
CONTINUOUS
10
75.115785
20
-403.542490
30
0.0
11
75.115785
21
-352.350210
31
0.0
0
LINE
8
0
6
CONTINUOUS
10
75.115785
20
-349.403360
30
0.0
11
75.115785
21
-345.012990
31
0.0
0
LINE
8
0
6
CONTINUOUS
10
-12.929515
20
203.889389
30
0.0
11
-13.035445
21
203.861010
31
0.0
0
LINE
8
0
6
CONTINUOUS
10
4.256345
20
208.494300
30
0.0
11
4.425115
21
208.539540
31
0.0
0
LINE
8
0
6
CONTINUOUS
10
18.149415
20
206.434210
30
0.0
11
18.149415
21
206.586530
31
0.0
0
LINE
8
0
6
CONTINUOUS
10
18.149415
20
155.776020
30
0.0
11
18.149415
21
155.971370
31
0.0
0
LINE
8
0
6
CONTINUOUS
10
-13.834145
20
183.532353
30
0.0
11
-13.834145
21
155.971370
31
0.0
0
LINE
8
0
6
CONTINUOUS
10
18.149415
20
155.971370
30
0.0
11
18.149415
21
158.709598
31
0.0
0
LINE
8
0
6
CONTINUOUS
10
18.149415
20
180.664278
30
0.0
11
18.149415
21
206.434210
31
0.0
0
LINE
8
0
6
CONTINUOUS
10
-13.834145
20
155.971370
30
0.0
11
-13.834145
21
155.776020
31
0.0
0
LINE
8
0
6
CONTINUOUS
10
18.149415
20
206.586530
30
0.0
11
17.765605
21
207.181280
31
0.0
0
LINE
8
0
6
CONTINUOUS
10
17.573695
20
206.586530
30
0.0
11
18.149415
21
206.586530
31
0.0
0
LINE
8
0
6
CONTINUOUS
10
17.765605
20
207.181280
30
0.0
11
17.189905
21
207.181280
31
0.0
0
LINE
8
0
6
CONTINUOUS
10
16.038495
20
206.586530
30
0.0
11
17.573695
21
206.586530
31
0.0
0
LINE
8
0
6
CONTINUOUS
10
17.189905
20
207.181280
30
0.0
11
15.654685
21
207.181280
31
0.0
0
LINE
8
0
6
CONTINUOUS
10
13.479805
20
206.586530
30
0.0
11
16.038495
21
206.586530
31
0.0
0
LINE
8
0
6
CONTINUOUS
10
15.654685
20
207.181280
30
0.0
11
13.159965
21
207.181280
31
0.0
0
LINE
8
0
6
CONTINUOUS
10
11.198571
20
206.586530
30
0.0
11
13.479805
21
206.586530
31
0.0
0
LINE
8
0
6
CONTINUOUS
10
13.159965
20
207.181280
30
0.0
11
11.039094
21
207.181280
31
0.0
0
LINE
8
0
6
CONTINUOUS
10
17.765605
20
155.181310
30
0.0
11
18.149415
21
155.776020
31
0.0
0
LINE
8
0
6
CONTINUOUS
10
17.189905
20
155.181310
30
0.0
11
17.765605
21
155.181310
31
0.0
0
LINE
8
0
6
CONTINUOUS
10
18.149415
20
155.776020
30
0.0
11
17.573695
21
155.776020
31
0.0
0
LINE
8
0
6
CONTINUOUS
10
16.054899
20
155.181310
30
0.0
11
17.189905
21
155.181310
31
0.0
0
LINE
8
0
6
CONTINUOUS
10
17.573695
20
155.776020
30
0.0
11
16.038495
21
155.776020
31
0.0
0
LINE
8
0
6
CONTINUOUS
10
16.038495
20
155.776020
30
0.0
11
15.941906
21
155.776020
31
0.0
0
LINE
8
0
6
CONTINUOUS
10
-13.834145
20
155.776020
30
0.0
11
-13.450335
21
155.181310
31
0.0
0
LINE
8
0
6
CONTINUOUS
10
-13.258445
20
155.776020
30
0.0
11
-13.834145
21
155.776020
31
0.0
0
LINE
8
0
6
CONTINUOUS
10
-13.450335
20
155.181310
30
0.0
11
-12.874645
21
155.181310
31
0.0
0
LINE
8
0
6
CONTINUOUS
10
-11.723235
20
155.776020
30
0.0
11
-13.258445
21
155.776020
31
0.0
0
LINE
8
0
6
CONTINUOUS
10
-12.874645
20
155.181310
30
0.0
11
-11.339425
21
155.181310
31
0.0
0
LINE
8
0
6
CONTINUOUS
10
-9.164555
20
155.776020
30
0.0
11
-11.723235
21
155.776020
31
0.0
0
LINE
8
0
6
CONTINUOUS
10
-11.339425
20
155.181310
30
0.0
11
-8.844715
21
155.181310
31
0.0
0
LINE
8
0
6
CONTINUOUS
10
-6.391502
20
155.776020
30
0.0
11
-9.164555
21
155.776020
31
0.0
0
LINE
8
0
6
CONTINUOUS
10
-8.844715
20
155.181310
30
0.0
11
-6.232036
21
155.181310
31
0.0
0
LINE
8
0
6
CONTINUOUS
10
0.813095
20
154.064370
30
0.0
11
0.898205
21
154.087180
31
0.0
0
LINE
8
0
6
CONTINUOUS
10
0.898205
20
154.087180
30
0.0
11
0.968175
21
154.105910
31
0.0
0
LINE
8
0
6
CONTINUOUS
10
0.968175
20
154.105910
30
0.0
11
1.224106
21
154.174486
31
0.0
0
LINE
8
0
6
CONTINUOUS
10
0.811585
20
154.689860
30
0.0
11
0.968175
21
154.105910
31
0.0
0
LINE
8
0
6
CONTINUOUS
10
-12.625725
20
203.970790
30
0.0
11
-12.967085
21
203.879320
31
0.0
0
LINE
8
0
6
CONTINUOUS
10
-12.382155
20
203.062400
30
0.0
11
-12.625725
21
203.970790
31
0.0
0
LINE
8
0
6
CONTINUOUS
10
-18.866185
20
202.298620
30
0.0
11
-18.622605
21
201.390270
31
0.0
0
LINE
8
0
6
CONTINUOUS
10
-18.346155
20
202.437970
30
0.0
11
-18.866185
21
202.298620
31
0.0
0
LINE
8
0
6
CONTINUOUS
10
4.015435
20
208.429760
30
0.0
11
4.259005
21
207.521400
31
0.0
0
LINE
8
0
6
CONTINUOUS
10
4.362075
20
208.522640
30
0.0
11
4.015435
21
208.429760
31
0.0
0
LINE
8
0
6
CONTINUOUS
10
19.377385
20
159.038660
30
0.0
11
21.665625
21
159.651790
31
0.0
0
LINE
8
0
6
CONTINUOUS
10
21.665625
20
159.651790
30
0.0
11
23.121725
21
160.041960
31
0.0
0
LINE
8
0
6
CONTINUOUS
10
23.641765
20
160.181310
30
0.0
11
23.485185
21
160.765230
31
0.0
0
LINE
8
0
6
CONTINUOUS
10
23.121725
20
160.041960
30
0.0
11
23.641765
21
160.181310
31
0.0
0
LINE
8
0
6
CONTINUOUS
10
-14.601855
20
203.441280
30
0.0
11
-16.890065
21
202.828140
31
0.0
0
LINE
8
0
6
CONTINUOUS
10
-16.890065
20
202.828140
30
0.0
11
-18.346155
21
202.437970
31
0.0
0
LINE
8
0
6
CONTINUOUS
10
-12.967085
20
203.879320
30
0.0
11
-14.601855
21
203.441280
31
0.0
0
LINE
8
0
6
CONTINUOUS
10
17.747895
20
158.602070
30
0.0
11
19.377385
21
159.038660
31
0.0
0
LINE
8
0
6
CONTINUOUS
10
-5.984483
20
180.034881
30
0.0
11
0.811585
21
154.689860
31
0.0
0
LINE
8
0
6
CONTINUOUS
10
0.418725
20
153.958700
30
0.0
11
0.760085
21
154.050180
31
0.0
0
LINE
8
0
6
CONTINUOUS
10
0.760085
20
154.050180
30
0.0
11
0.603505
21
154.634130
31
0.0
0
LINE
8
0
6
CONTINUOUS
10
-5.480375
20
152.378040
30
0.0
11
-4.960355
21
152.517390
31
0.0
0
LINE
8
0
6
CONTINUOUS
10
-5.636945
20
152.962000
30
0.0
11
-5.480375
21
152.378040
31
0.0
0
LINE
8
0
6
CONTINUOUS
10
17.263875
20
158.472330
30
0.0
11
17.349725
21
158.495330
31
0.0
0
LINE
8
0
6
CONTINUOUS
10
17.193275
20
158.453410
30
0.0
11
17.263875
21
158.472330
31
0.0
0
LINE
8
0
6
CONTINUOUS
10
15.498289
20
157.999240
30
0.0
11
17.193275
21
158.453410
31
0.0
0
LINE
8
0
6
CONTINUOUS
10
17.193275
20
158.453410
30
0.0
11
17.036695
21
159.037360
31
0.0
0
LINE
8
0
6
CONTINUOUS
10
17.401255
20
158.509180
30
0.0
11
17.747895
21
158.602070
31
0.0
0
LINE
8
0
6
CONTINUOUS
10
17.244665
20
159.093130
30
0.0
11
17.401255
21
158.509180
31
0.0
0
LINE
8
0
6
CONTINUOUS
10
23.485185
20
160.765230
30
0.0
11
10.499525
21
209.193530
31
0.0
0
LINE
8
0
6
CONTINUOUS
10
-3.504255
20
152.907560
30
0.0
11
-1.216035
21
153.520660
31
0.0
0
LINE
8
0
6
CONTINUOUS
10
-4.960355
20
152.517390
30
0.0
11
-3.504255
21
152.907560
31
0.0
0
LINE
8
0
6
CONTINUOUS
10
-1.216035
20
153.520660
30
0.0
11
0.418725
21
153.958700
31
0.0
0
LINE
8
0
6
CONTINUOUS
10
0.603505
20
154.634130
30
0.0
11
-12.382155
21
203.062400
31
0.0
0
LINE
8
0
6
CONTINUOUS
10
-18.622605
20
201.390270
30
0.0
11
-5.636945
21
152.962000
31
0.0
0
LINE
8
0
6
CONTINUOUS
10
17.036695
20
159.037360
30
0.0
11
10.240663
21
184.382265
31
0.0
0
LINE
8
0
6
CONTINUOUS
10
4.259005
20
207.521400
30
0.0
11
17.244665
21
159.093130
31
0.0
0
LINE
8
0
6
CONTINUOUS
10
8.279805
20
209.572410
30
0.0
11
5.991565
21
208.959270
31
0.0
0
LINE
8
0
6
CONTINUOUS
10
9.735915
20
209.962540
30
0.0
11
8.279805
21
209.572410
31
0.0
0
LINE
8
0
6
CONTINUOUS
10
10.499525
20
209.193530
30
0.0
11
10.255955
21
210.101890
31
0.0
0
LINE
8
0
6
CONTINUOUS
10
10.255955
20
210.101890
30
0.0
11
9.735915
21
209.962540
31
0.0
0
LINE
8
0
6
CONTINUOUS
10
5.991565
20
208.959270
30
0.0
11
4.362075
21
208.522640
31
0.0
0
LINE
8
0
6
CONTINUOUS
10
-72.419765
20
347.776962
30
0.0
11
-72.659745
21
347.383960
31
0.0
0
LINE
8
0
6
CONTINUOUS
10
-67.987775
20
340.261310
30
0.0
11
-67.915565
21
340.149000
31
0.0
0
LINE
8
0
6
CONTINUOUS
10
-77.474905
20
354.728160
30
0.0
11
-77.017165
21
354.789331
31
0.0
0
LINE
8
0
6
CONTINUOUS
10
-77.556395
20
354.852220
30
0.0
11
-77.474905
21
354.728160
31
0.0
0
LINE
8
0
6
CONTINUOUS
10
-77.794275
20
355.214160
30
0.0
11
-77.556395
21
354.852220
31
0.0
0
LINE
8
0
6
CONTINUOUS
10
-78.186315
20
355.814590
30
0.0
11
-77.794275
21
355.214160
31
0.0
0
LINE
8
0
6
CONTINUOUS
10
-78.660665
20
356.537550
30
0.0
11
-78.186315
21
355.814590
31
0.0
0
LINE
8
0
6
CONTINUOUS
10
-79.217085
20
357.386700
30
0.0
11
-78.660665
21
356.537550
31
0.0
0
LINE
8
0
6
CONTINUOUS
10
-79.846545
20
358.346790
30
0.0
11
-79.217085
21
357.386700
31
0.0
0
LINE
8
0
6
CONTINUOUS
10
-82.221265
20
361.966630
30
0.0
11
-82.138265
21
361.841810
31
0.0
0
LINE
8
0
6
CONTINUOUS
10
-81.983076
20
362.361381
30
0.0
11
-82.221265
21
361.966630
31
0.0
0
LINE
8
0
6
CONTINUOUS
10
-82.138265
20
361.841810
30
0.0
11
-81.902625
21
361.479420
31
0.0
0
LINE
8
0
6
CONTINUOUS
10
-81.902625
20
361.479420
30
0.0
11
-81.508345
21
360.879590
31
0.0
0
LINE
8
0
6
CONTINUOUS
10
-81.508345
20
360.879590
30
0.0
11
-81.033755
21
360.156780
31
0.0
0
LINE
8
0
6
CONTINUOUS
10
-81.033755
20
360.156780
30
0.0
11
-80.477455
21
359.307630
31
0.0
0
LINE
8
0
6
CONTINUOUS
10
-80.477455
20
359.307630
30
0.0
11
-79.846545
21
358.346790
31
0.0
0
LINE
8
0
6
CONTINUOUS
10
-69.094685
20
341.950000
30
0.0
11
-68.590685
21
341.180950
31
0.0
0
LINE
8
0
6
CONTINUOUS
10
-68.590685
20
341.180950
30
0.0
11
-68.226865
21
340.625840
31
0.0
0
LINE
8
0
6
CONTINUOUS
10
-68.226865
20
340.625840
30
0.0
11
-68.012265
21
340.300060
31
0.0
0
LINE
8
0
6
CONTINUOUS
10
-68.012265
20
340.300060
30
0.0
11
-67.909635
21
340.143050
31
0.0
0
LINE
8
0
6
CONTINUOUS
10
-67.909635
20
340.143050
30
0.0
11
-67.455253
21
340.206309
31
0.0
0
LINE
8
0
6
CONTINUOUS
10
-69.680925
20
342.845540
30
0.0
11
-69.094685
21
341.950000
31
0.0
0
LINE
8
0
6
CONTINUOUS
10
-70.281245
20
343.761670
30
0.0
11
-69.680925
21
342.845540
31
0.0
0
LINE
8
0
6
CONTINUOUS
10
-70.889425
20
344.688490
30
0.0
11
-70.281245
21
343.761670
31
0.0
0
LINE
8
0
6
CONTINUOUS
10
-71.467775
20
345.569230
30
0.0
11
-70.889425
21
344.688490
31
0.0
0
LINE
8
0
6
CONTINUOUS
10
-71.949965
20
346.306840
30
0.0
11
-71.467775
21
345.569230
31
0.0
0
LINE
8
0
6
CONTINUOUS
10
-72.337315
20
346.894300
30
0.0
11
-71.949965
21
346.306840
31
0.0
0
LINE
8
0
6
CONTINUOUS
10
-72.653835
20
347.378160
30
0.0
11
-72.580915
21
347.267530
31
0.0
0
LINE
8
0
6
CONTINUOUS
10
-72.412768
20
347.772907
30
0.0
11
-72.653835
21
347.378160
31
0.0
0
LINE
8
0
6
CONTINUOUS
10
-72.580915
20
347.267530
30
0.0
11
-72.337315
21
346.894300
31
0.0
0
LINE
8
0
6
CONTINUOUS
10
-98.497305
20
398.203200
30
0.0
11
-97.915775
21
397.316360
31
0.0
0
LINE
8
0
6
CONTINUOUS
10
-96.876368
20
399.266088
30
0.0
11
-98.497305
21
398.203200
31
0.0
0
LINE
8
0
6
CONTINUOUS
10
-97.915775
20
397.316360
30
0.0
11
-96.752695
21
395.542680
31
0.0
0
LINE
8
0
6
CONTINUOUS
10
-96.752695
20
395.542680
30
0.0
11
-96.171175
21
394.655840
31
0.0
0
LINE
8
0
6
CONTINUOUS
10
-96.171175
20
394.655840
30
0.0
11
-96.752695
21
395.542680
31
0.0
0
LINE
8
0
6
CONTINUOUS
10
-97.915775
20
397.316360
30
0.0
11
-98.497305
21
398.203200
31
0.0
0
LINE
8
0
6
CONTINUOUS
10
-96.752695
20
395.542680
30
0.0
11
-97.915775
21
397.316360
31
0.0
0
LINE
8
0
6
CONTINUOUS
10
-97.868035
20
397.356190
30
0.0
11
-97.107515
21
396.196370
31
0.0
0
LINE
8
0
6
CONTINUOUS
10
-96.281676
20
398.396403
30
0.0
11
-97.868035
21
397.356190
31
0.0
0
LINE
8
0
6
CONTINUOUS
10
-97.107515
20
396.196370
30
0.0
11
-96.148615
21
394.734009
31
0.0
0
LINE
8
0
6
CONTINUOUS
10
-95.757984
20
397.081261
30
0.0
11
-97.107515
21
396.196370
31
0.0
0
LINE
8
0
6
CONTINUOUS
10
-96.167895
20
394.721300
30
0.0
11
-95.253665
21
393.327100
31
0.0
0
LINE
8
0
6
CONTINUOUS
10
-94.587211
20
395.757790
30
0.0
11
-96.167895
21
394.721300
31
0.0
0
LINE
8
0
6
CONTINUOUS
10
-95.253665
20
393.327100
30
0.0
11
-94.173915
21
391.680370
31
0.0
0
LINE
8
0
6
CONTINUOUS
10
-93.876274
20
394.230261
30
0.0
11
-95.253665
21
393.327100
31
0.0
0
LINE
8
0
6
CONTINUOUS
10
-94.008395
20
391.427990
30
0.0
11
-93.350688
21
391.859249
31
0.0
0
LINE
8
0
6
CONTINUOUS
10
-94.173915
20
391.680370
30
0.0
11
-94.008395
21
391.427990
31
0.0
0
LINE
8
0
6
CONTINUOUS
10
-93.258001
20
392.280957
30
0.0
11
-94.173915
21
391.680370
31
0.0
0
LINE
8
0
6
CONTINUOUS
10
-93.351735
20
390.458140
30
0.0
11
-92.317595
21
388.881000
31
0.0
0
LINE
8
0
6
CONTINUOUS
10
-91.339555
20
387.389450
30
0.0
11
-90.465081
21
387.962862
31
0.0
0
LINE
8
0
6
CONTINUOUS
10
-92.317595
20
388.881000
30
0.0
11
-91.339579
21
387.389487
31
0.0
0
LINE
8
0
6
CONTINUOUS
10
-90.980782
20
389.757578
30
0.0
11
-92.317595
21
388.881000
31
0.0
0
LINE
8
0
6
CONTINUOUS
10
-93.351735
20
390.458140
30
0.0
11
-91.784326
21
391.485891
31
0.0
0
LINE
8
0
6
CONTINUOUS
10
-93.407855
20
390.543750
30
0.0
11
-93.351735
21
390.458140
31
0.0
0
LINE
8
0
6
CONTINUOUS
10
-92.072191
20
391.419544
30
0.0
11
-93.407855
21
390.543750
31
0.0
0
LINE
8
0
6
CONTINUOUS
10
-89.556745
20
384.534530
30
0.0
11
-88.440735
21
382.832720
31
0.0
0
LINE
8
0
6
CONTINUOUS
10
-87.599075
20
381.549000
30
0.0
11
-86.740337
21
382.112094
31
0.0
0
LINE
8
0
6
CONTINUOUS
10
-88.440735
20
382.832720
30
0.0
11
-87.599075
21
381.549000
31
0.0
0
LINE
8
0
6
CONTINUOUS
10
-87.120760
20
383.698229
30
0.0
11
-88.440735
21
382.832720
31
0.0
0
LINE
8
0
6
CONTINUOUS
10
-89.556745
20
384.534530
30
0.0
11
-89.831075
21
384.952930
31
0.0
0
LINE
8
0
6
CONTINUOUS
10
-88.440735
20
382.832720
30
0.0
11
-89.556745
21
384.534530
31
0.0
0
LINE
8
0
6
CONTINUOUS
10
-87.599075
20
381.549000
30
0.0
11
-88.440735
21
382.832720
31
0.0
0
LINE
8
0
6
CONTINUOUS
10
-89.556745
20
384.534530
30
0.0
11
-88.021680
21
385.541106
31
0.0
0
LINE
8
0
6
CONTINUOUS
10
-89.831075
20
384.952930
30
0.0
11
-89.556745
21
384.534530
31
0.0
0
LINE
8
0
6
CONTINUOUS
10
-88.512585
20
385.817492
30
0.0
11
-89.831075
21
384.952930
31
0.0
0
LINE
8
0
6
CONTINUOUS
10
-85.019085
20
377.722400
30
0.0
11
-83.861345
21
375.956800
31
0.0
0
LINE
8
0
6
CONTINUOUS
10
-83.186125
20
374.927140
30
0.0
11
-82.344919
21
375.478718
31
0.0
0
LINE
8
0
6
CONTINUOUS
10
-83.861345
20
375.956800
30
0.0
11
-83.186125
21
374.927140
31
0.0
0
LINE
8
0
6
CONTINUOUS
10
-82.558405
20
376.811163
30
0.0
11
-83.861345
21
375.956800
31
0.0
0
LINE
8
0
6
CONTINUOUS
10
-85.019085
20
377.722400
30
0.0
11
-83.490354
21
378.724821
31
0.0
0
LINE
8
0
6
CONTINUOUS
10
-85.501565
20
378.458330
30
0.0
11
-85.019085
21
377.722400
31
0.0
0
LINE
8
0
6
CONTINUOUS
10
-84.211406
20
379.304290
30
0.0
11
-85.501565
21
378.458330
31
0.0
0
LINE
8
0
6
CONTINUOUS
10
-79.826045
20
369.729540
30
0.0
11
-78.668205
21
367.963790
31
0.0
0
LINE
8
0
6
CONTINUOUS
10
-78.184785
20
367.226490
30
0.0
11
-77.383102
21
367.752172
31
0.0
0
LINE
8
0
6
CONTINUOUS
10
-78.668205
20
367.963790
30
0.0
11
-78.184785
21
367.226490
31
0.0
0
LINE
8
0
6
CONTINUOUS
10
-77.409013
20
368.789472
30
0.0
11
-78.668205
21
367.963790
31
0.0
0
LINE
8
0
6
CONTINUOUS
10
-79.826045
20
369.729540
30
0.0
11
-78.332784
21
370.708674
31
0.0
0
LINE
8
0
6
CONTINUOUS
10
-80.500455
20
370.758130
30
0.0
11
-79.826045
21
369.729540
31
0.0
0
LINE
8
0
6
CONTINUOUS
10
-79.218228
20
371.598889
30
0.0
11
-80.500455
21
370.758130
31
0.0
0
LINE
8
0
6
CONTINUOUS
10
-74.104905
20
361.106490
30
0.0
11
-72.989285
21
359.405140
31
0.0
0
LINE
8
0
6
CONTINUOUS
10
-72.716325
20
358.988880
30
0.0
11
-72.054912
21
359.422568
31
0.0
0
LINE
8
0
6
CONTINUOUS
10
-72.989285
20
359.405140
30
0.0
11
-72.716325
21
358.988880
31
0.0
0
LINE
8
0
6
CONTINUOUS
10
-71.815429
20
360.174837
30
0.0
11
-72.989285
21
359.405140
31
0.0
0
LINE
8
0
6
CONTINUOUS
10
-74.104905
20
361.106490
30
0.0
11
-74.947514
21
362.391588
31
0.0
0
LINE
8
0
6
CONTINUOUS
10
-72.989285
20
359.405140
30
0.0
11
-74.104905
21
361.106490
31
0.0
0
LINE
8
0
6
CONTINUOUS
10
-72.716325
20
358.988880
30
0.0
11
-72.989285
21
359.405140
31
0.0
0
LINE
8
0
6
CONTINUOUS
10
-74.104905
20
361.106490
30
0.0
11
-72.695707
21
362.030502
31
0.0
0
LINE
8
0
6
CONTINUOUS
10
-74.947515
20
362.391590
30
0.0
11
-74.104905
21
361.106490
31
0.0
0
LINE
8
0
6
CONTINUOUS
10
-73.795324
20
363.147080
30
0.0
11
-74.947515
21
362.391590
31
0.0
0
LINE
8
0
6
CONTINUOUS
10
-68.197525
20
351.946180
30
0.0
11
-67.164045
21
350.369950
31
0.0
0
LINE
8
0
6
CONTINUOUS
10
-67.109385
20
350.286640
30
0.0
11
-66.379068
21
350.765508
31
0.0
0
LINE
8
0
6
CONTINUOUS
10
-67.164045
20
350.369950
30
0.0
11
-67.109385
21
350.286640
31
0.0
0
LINE
8
0
6
CONTINUOUS
10
-65.929981
20
351.179154
30
0.0
11
-67.164045
21
350.369950
31
0.0
0
LINE
8
0
6
CONTINUOUS
10
-68.197525
20
351.946180
30
0.0
11
-66.761398
21
352.887851
31
0.0
0
LINE
8
0
6
CONTINUOUS
10
-69.176325
20
353.438800
30
0.0
11
-68.197525
21
351.946180
31
0.0
0
LINE
8
0
6
CONTINUOUS
10
-67.988344
20
354.217785
30
0.0
11
-69.176325
21
353.438800
31
0.0
0
LINE
8
0
6
CONTINUOUS
10
-61.764365
20
342.252430
30
0.0
11
-60.583177
21
343.026959
31
0.0
0
LINE
8
0
6
CONTINUOUS
10
-62.679665
20
343.648450
30
0.0
11
-61.764365
21
342.252430
31
0.0
0
LINE
8
0
6
CONTINUOUS
10
-63.758785
20
345.294110
30
0.0
11
-63.922585
21
345.543900
31
0.0
0
LINE
8
0
6
CONTINUOUS
10
-62.679665
20
343.648450
30
0.0
11
-63.758785
21
345.294110
31
0.0
0
LINE
8
0
6
CONTINUOUS
10
-61.764365
20
342.252430
30
0.0
11
-62.679665
21
343.648450
31
0.0
0
LINE
8
0
6
CONTINUOUS
10
-62.679665
20
343.648450
30
0.0
11
-61.267348
21
344.574508
31
0.0
0
LINE
8
0
6
CONTINUOUS
10
-63.758785
20
345.294110
30
0.0
11
-62.679665
21
343.648450
31
0.0
0
LINE
8
0
6
CONTINUOUS
10
-63.758785
20
345.294110
30
0.0
11
-62.605851
21
346.050090
31
0.0
0
LINE
8
0
6
CONTINUOUS
10
-63.922585
20
345.543900
30
0.0
11
-63.758785
21
345.294110
31
0.0
0
LINE
8
0
6
CONTINUOUS
10
-63.262496
20
345.976721
30
0.0
11
-63.922585
21
345.543900
31
0.0
0
LINE
8
0
6
CONTINUOUS
10
-56.610015
20
334.303660
30
0.0
11
-55.458652
21
335.058611
31
0.0
0
LINE
8
0
6
CONTINUOUS
10
-57.372005
20
335.465620
30
0.0
11
-56.610026
21
334.303677
31
0.0
0
LINE
8
0
6
CONTINUOUS
10
-57.372005
20
335.465620
30
0.0
11
-55.993356
21
336.369631
31
0.0
0
LINE
8
0
6
CONTINUOUS
10
-58.513965
20
337.207260
30
0.0
11
-57.372005
21
335.465620
31
0.0
0
LINE
8
0
6
CONTINUOUS
10
-58.513965
20
337.207260
30
0.0
11
-57.369984
21
337.957372
31
0.0
0
LINE
8
0
6
CONTINUOUS
10
-58.893935
20
337.786790
30
0.0
11
-58.513965
21
337.207260
31
0.0
0
LINE
8
0
6
CONTINUOUS
10
-58.239532
20
338.215884
30
0.0
11
-58.893935
21
337.786790
31
0.0
0
LINE
8
0
6
CONTINUOUS
10
-51.757535
20
327.039260
30
0.0
11
-50.585474
21
327.807785
31
0.0
0
LINE
8
0
6
CONTINUOUS
10
-52.338395
20
327.925030
30
0.0
11
-51.757535
21
327.039260
31
0.0
0
LINE
8
0
6
CONTINUOUS
10
-52.338395
20
327.925030
30
0.0
11
-50.947087
21
328.837341
31
0.0
0
LINE
8
0
6
CONTINUOUS
10
-53.501465
20
329.698720
30
0.0
11
-52.338395
21
327.925030
31
0.0
0
LINE
8
0
6
CONTINUOUS
10
-53.501465
20
329.698720
30
0.0
11
-52.372117
21
330.439258
31
0.0
0
LINE
8
0
6
CONTINUOUS
10
-54.083685
20
330.586780
30
0.0
11
-53.501465
21
329.698720
31
0.0
0
LINE
8
0
6
CONTINUOUS
10
-53.441819
20
331.007653
30
0.0
11
-54.083685
21
330.586780
31
0.0
0
LINE
8
0
6
CONTINUOUS
10
-47.444985
20
320.446240
30
0.0
11
-46.307725
21
321.191943
31
0.0
0
LINE
8
0
6
CONTINUOUS
10
-47.825045
20
321.025770
30
0.0
11
-47.444985
21
320.446240
31
0.0
0
LINE
8
0
6
CONTINUOUS
10
-48.966995
20
322.767410
30
0.0
11
-49.728955
21
323.929370
31
0.0
0
LINE
8
0
6
CONTINUOUS
10
-47.825045
20
321.025770
30
0.0
11
-48.966995
21
322.767410
31
0.0
0
LINE
8
0
6
CONTINUOUS
10
-47.444985
20
320.446240
30
0.0
11
-47.825045
21
321.025770
31
0.0
0
LINE
8
0
6
CONTINUOUS
10
-47.825045
20
321.025770
30
0.0
11
-46.445002
21
321.930693
31
0.0
0
LINE
8
0
6
CONTINUOUS
10
-48.966995
20
322.767410
30
0.0
11
-47.825045
21
321.025770
31
0.0
0
LINE
8
0
6
CONTINUOUS
10
-48.966995
20
322.767410
30
0.0
11
-47.832678
21
323.511187
31
0.0
0
LINE
8
0
6
CONTINUOUS
10
-49.728955
20
323.929370
30
0.0
11
-48.966995
21
322.767410
31
0.0
0
LINE
8
0
6
CONTINUOUS
10
-49.083039
20
324.352899
30
0.0
11
-49.728955
21
323.929370
31
0.0
0
LINE
8
0
6
CONTINUOUS
10
-43.919615
20
314.974900
30
0.0
11
-42.764743
21
315.732176
31
0.0
0
LINE
8
0
6
CONTINUOUS
10
-44.085745
20
315.228200
30
0.0
11
-43.919615
21
314.974900
31
0.0
0
LINE
8
0
6
CONTINUOUS
10
-44.085745
20
315.228200
30
0.0
11
-42.714918
21
316.127085
31
0.0
0
LINE
8
0
6
CONTINUOUS
10
-45.165745
20
316.875230
30
0.0
11
-44.085745
21
315.228200
31
0.0
0
LINE
8
0
6
CONTINUOUS
10
-45.165745
20
316.875230
30
0.0
11
-44.025774
21
317.622737
31
0.0
0
LINE
8
0
6
CONTINUOUS
10
-46.079585
20
318.268970
30
0.0
11
-45.165745
21
316.875230
31
0.0
0
LINE
8
0
6
CONTINUOUS
10
-45.423383
20
318.699258
30
0.0
11
-46.079585
21
318.268970
31
0.0
0
LINE
8
0
6
CONTINUOUS
10
-95.649575
20
389.765850
30
0.0
11
-95.068025
21
388.879010
31
0.0
0
LINE
8
0
6
CONTINUOUS
10
-93.971322
20
390.866321
30
0.0
11
-95.649575
21
389.765850
31
0.0
0
LINE
8
0
6
CONTINUOUS
10
-95.068025
20
388.879010
30
0.0
11
-93.904985
21
387.105330
31
0.0
0
LINE
8
0
6
CONTINUOUS
10
-93.572518
20
389.859650
30
0.0
11
-95.068025
21
388.879010
31
0.0
0
LINE
8
0
6
CONTINUOUS
10
-93.904985
20
387.105330
30
0.0
11
-93.323435
21
386.218490
31
0.0
0
LINE
8
0
6
CONTINUOUS
10
-94.874165
20
388.617320
30
0.0
11
-94.069335
21
387.389910
31
0.0
0
LINE
8
0
6
CONTINUOUS
10
-93.217147
20
389.703828
30
0.0
11
-94.874165
21
388.617320
31
0.0
0
LINE
8
0
6
CONTINUOUS
10
-94.069335
20
387.389910
30
0.0
11
-92.939785
21
385.667340
31
0.0
0
LINE
8
0
6
CONTINUOUS
10
-92.610629
20
388.346416
30
0.0
11
-94.069335
21
387.389910
31
0.0
0
LINE
8
0
6
CONTINUOUS
10
-92.939785
20
385.667340
30
0.0
11
-92.615025
21
385.172040
31
0.0
0
LINE
8
0
6
CONTINUOUS
10
-91.895244
20
386.352246
30
0.0
11
-92.939785
21
385.667340
31
0.0
0
LINE
8
0
6
CONTINUOUS
10
-92.675795
20
385.261760
30
0.0
11
-91.692455
21
383.762280
31
0.0
0
LINE
8
0
6
CONTINUOUS
10
-91.042447
20
386.332781
30
0.0
11
-92.675795
21
385.261760
31
0.0
0
LINE
8
0
6
CONTINUOUS
10
-91.692455
20
383.762280
30
0.0
11
-90.662885
21
382.192000
31
0.0
0
LINE
8
0
6
CONTINUOUS
10
-90.273651
20
384.692593
30
0.0
11
-91.692455
21
383.762280
31
0.0
0
LINE
8
0
6
CONTINUOUS
10
-90.616635
20
382.121510
30
0.0
11
-89.806045
21
382.653034
31
0.0
0
LINE
8
0
6
CONTINUOUS
10
-90.662885
20
382.192000
30
0.0
11
-90.616635
21
382.121510
31
0.0
0
LINE
8
0
6
CONTINUOUS
10
-89.654799
20
382.853025
30
0.0
11
-90.662885
21
382.192000
31
0.0
0
LINE
8
0
6
CONTINUOUS
10
-90.616635
20
382.121510
30
0.0
11
-90.662885
21
382.192000
31
0.0
0
LINE
8
0
6
CONTINUOUS
10
-91.692455
20
383.762280
30
0.0
11
-92.675795
21
385.261760
31
0.0
0
LINE
8
0
6
CONTINUOUS
10
-90.662885
20
382.192000
30
0.0
11
-91.692455
21
383.762280
31
0.0
0
LINE
8
0
6
CONTINUOUS
10
-89.162545
20
379.930800
30
0.0
11
-88.059225
21
378.248210
31
0.0
0
LINE
8
0
6
CONTINUOUS
10
-87.188885
20
376.920850
30
0.0
11
-86.213192
21
377.560613
31
0.0
0
LINE
8
0
6
CONTINUOUS
10
-88.059225
20
378.248210
30
0.0
11
-87.188885
21
376.920850
31
0.0
0
LINE
8
0
6
CONTINUOUS
10
-86.672171
20
379.157707
30
0.0
11
-88.059225
21
378.248210
31
0.0
0
LINE
8
0
6
CONTINUOUS
10
-89.162545
20
379.930800
30
0.0
11
-89.395515
21
380.286030
31
0.0
0
LINE
8
0
6
CONTINUOUS
10
-88.059225
20
378.248210
30
0.0
11
-89.162545
21
379.930800
31
0.0
0
LINE
8
0
6
CONTINUOUS
10
-87.188885
20
376.920850
30
0.0
11
-88.059225
21
378.248210
31
0.0
0
LINE
8
0
6
CONTINUOUS
10
-89.162545
20
379.930800
30
0.0
11
-87.564275
21
380.978790
31
0.0
0
LINE
8
0
6
CONTINUOUS
10
-89.395515
20
380.286030
30
0.0
11
-89.162545
21
379.930800
31
0.0
0
LINE
8
0
6
CONTINUOUS
10
-87.997399
20
381.202775
30
0.0
11
-89.395515
21
380.286030
31
0.0
0
LINE
8
0
6
CONTINUOUS
10
-84.567095
20
372.907940
30
0.0
11
-83.407855
21
371.140060
31
0.0
0
LINE
8
0
6
CONTINUOUS
10
-82.746575
20
370.131610
30
0.0
11
-81.776522
21
370.767673
31
0.0
0
LINE
8
0
6
CONTINUOUS
10
-83.407855
20
371.140060
30
0.0
11
-82.746575
21
370.131610
31
0.0
0
LINE
8
0
6
CONTINUOUS
10
-82.030183
20
372.043432
30
0.0
11
-83.407855
21
371.140060
31
0.0
0
LINE
8
0
6
CONTINUOUS
10
-84.567095
20
372.907940
30
0.0
11
-83.002056
21
373.934171
31
0.0
0
LINE
8
0
6
CONTINUOUS
10
-85.065055
20
373.667370
30
0.0
11
-84.567095
21
372.907940
31
0.0
0
LINE
8
0
6
CONTINUOUS
10
-83.714999
20
374.552631
30
0.0
11
-85.065055
21
373.667370
31
0.0
0
LINE
8
0
6
CONTINUOUS
10
-79.112925
20
364.581990
30
0.0
11
-77.964925
21
362.831190
31
0.0
0
LINE
8
0
6
CONTINUOUS
10
-77.552675
20
362.202530
30
0.0
11
-76.667101
21
362.783201
31
0.0
0
LINE
8
0
6
CONTINUOUS
10
-77.964925
20
362.831190
30
0.0
11
-77.552675
21
362.202530
31
0.0
0
LINE
8
0
6
CONTINUOUS
10
-76.672372
20
363.678746
30
0.0
11
-77.964925
21
362.831190
31
0.0
0
LINE
8
0
6
CONTINUOUS
10
-79.112925
20
364.581990
30
0.0
11
-77.581275
21
365.586290
31
0.0
0
LINE
8
0
6
CONTINUOUS
10
-79.848625
20
365.703960
30
0.0
11
-79.112925
21
364.581990
31
0.0
0
LINE
8
0
6
CONTINUOUS
10
-78.483693
20
366.598978
30
0.0
11
-79.848625
21
365.703960
31
0.0
0
LINE
8
0
6
CONTINUOUS
10
-73.265635
20
355.838240
30
0.0
11
-72.196285
21
354.207530
31
0.0
0
LINE
8
0
6
CONTINUOUS
10
-72.057775
20
353.996200
30
0.0
11
-71.210310
21
354.551883
31
0.0
0
LINE
8
0
6
CONTINUOUS
10
-72.196285
20
354.207530
30
0.0
11
-72.057775
21
353.996200
31
0.0
0
LINE
8
0
6
CONTINUOUS
10
-70.974957
20
355.008356
30
0.0
11
-72.196285
21
354.207530
31
0.0
0
LINE
8
0
6
CONTINUOUS
10
-73.265635
20
355.838240
30
0.0
11
-74.196445
21
357.257770
31
0.0
0
LINE
8
0
6
CONTINUOUS
10
-72.196285
20
354.207530
30
0.0
11
-73.265635
21
355.838240
31
0.0
0
LINE
8
0
6
CONTINUOUS
10
-72.057775
20
353.996200
30
0.0
11
-72.196285
21
354.207530
31
0.0
0
LINE
8
0
6
CONTINUOUS
10
-73.265635
20
355.838240
30
0.0
11
-71.869376
21
356.753798
31
0.0
0
LINE
8
0
6
CONTINUOUS
10
-74.196445
20
357.257770
30
0.0
11
-73.265635
21
355.838240
31
0.0
0
LINE
8
0
6
CONTINUOUS
10
-72.962286
20
358.067036
30
0.0
11
-74.196445
21
357.257770
31
0.0
0
LINE
8
0
6
CONTINUOUS
10
-66.048055
20
344.669270
30
0.0
11
-64.835454
21
345.464374
31
0.0
0
LINE
8
0
6
CONTINUOUS
10
-66.978865
20
346.088790
30
0.0
11
-66.048055
21
344.669270
31
0.0
0
LINE
8
0
6
CONTINUOUS
10
-66.978865
20
346.088790
30
0.0
11
-65.593832
21
346.996959
31
0.0
0
LINE
8
0
6
CONTINUOUS
10
-68.048205
20
347.719500
30
0.0
11
-66.978865
21
346.088790
31
0.0
0
LINE
8
0
6
CONTINUOUS
10
-68.048205
20
347.719500
30
0.0
11
-66.826371
21
348.520683
31
0.0
0
LINE
8
0
6
CONTINUOUS
10
-68.186715
20
347.930830
30
0.0
11
-68.048205
21
347.719500
31
0.0
0
LINE
8
0
6
CONTINUOUS
10
-67.336745
20
348.488160
30
0.0
11
-68.186715
21
347.930830
31
0.0
0
LINE
8
0
6
CONTINUOUS
10
-60.246855
20
335.826030
30
0.0
11
-59.057697
21
336.605790
31
0.0
0
LINE
8
0
6
CONTINUOUS
10
-60.982585
20
336.948010
30
0.0
11
-60.246888
21
335.826081
31
0.0
0
LINE
8
0
6
CONTINUOUS
10
-60.982585
20
336.948010
30
0.0
11
-59.602533
21
337.852943
31
0.0
0
LINE
8
0
6
CONTINUOUS
10
-62.130555
20
338.698810
30
0.0
11
-60.982585
21
336.948010
31
0.0
0
LINE
8
0
6
CONTINUOUS
10
-62.130555
20
338.698810
30
0.0
11
-60.923055
21
339.490570
31
0.0
0
LINE
8
0
6
CONTINUOUS
10
-62.542825
20
339.327470
30
0.0
11
-62.130555
21
338.698810
31
0.0
0
LINE
8
0
6
CONTINUOUS
10
-61.709399
20
339.873966
30
0.0
11
-62.542825
21
339.327470
31
0.0
0
LINE
8
0
6
CONTINUOUS
10
-55.029865
20
327.863080
30
0.0
11
-53.855880
21
328.632865
31
0.0
0
LINE
8
0
6
CONTINUOUS
10
-55.527815
20
328.622360
30
0.0
11
-55.029865
21
327.863080
31
0.0
0
LINE
8
0
6
CONTINUOUS
10
-56.687055
20
330.390400
30
0.0
11
-57.348355
21
331.398850
31
0.0
0
LINE
8
0
6
CONTINUOUS
10
-55.527815
20
328.622360
30
0.0
11
-56.687055
21
330.390400
31
0.0
0
LINE
8
0
6
CONTINUOUS
10
-55.029865
20
327.863080
30
0.0
11
-55.527815
21
328.622360
31
0.0
0
LINE
8
0
6
CONTINUOUS
10
-55.691175
20
328.871540
30
0.0
11
-55.345281
21
328.344071
31
0.0
0
LINE
8
0
6
CONTINUOUS
10
-55.527815
20
328.622360
30
0.0
11
-54.158984
21
329.519934
31
0.0
0
LINE
8
0
6
CONTINUOUS
10
-56.687055
20
330.390400
30
0.0
11
-55.527815
21
328.622360
31
0.0
0
LINE
8
0
6
CONTINUOUS
10
-56.687055
20
330.390400
30
0.0
11
-55.496818
21
331.170840
31
0.0
0
LINE
8
0
6
CONTINUOUS
10
-57.348355
20
331.398850
30
0.0
11
-56.687055
21
330.390400
31
0.0
0
LINE
8
0
6
CONTINUOUS
10
-56.531420
20
331.934535
30
0.0
11
-57.348355
21
331.398850
31
0.0
0
LINE
8
0
6
CONTINUOUS
10
-51.637345
20
322.552870
30
0.0
11
-50.452776
21
323.329595
31
0.0
0
LINE
8
0
6
CONTINUOUS
10
-51.870275
20
322.908100
30
0.0
11
-51.637345
21
322.552870
31
0.0
0
LINE
8
0
6
CONTINUOUS
10
-51.870275
20
322.908100
30
0.0
11
-50.498807
21
323.807407
31
0.0
0
LINE
8
0
6
CONTINUOUS
10
-52.973605
20
324.590680
30
0.0
11
-51.870275
21
322.908100
31
0.0
0
LINE
8
0
6
CONTINUOUS
10
-52.973605
20
324.590680
30
0.0
11
-51.766794
21
325.382014
31
0.0
0
LINE
8
0
6
CONTINUOUS
10
-53.843965
20
325.918040
30
0.0
11
-52.973605
21
324.590680
31
0.0
0
LINE
8
0
6
CONTINUOUS
10
-53.007159
20
326.466754
30
0.0
11
-53.843965
21
325.918040
31
0.0
0
LINE
8
0
6
CONTINUOUS
10
-50.480905
20
320.803150
30
0.0
11
-50.434655
21
320.732650
31
0.0
0
LINE
8
0
6
CONTINUOUS
10
-49.870418
20
321.203460
30
0.0
11
-50.480905
21
320.803150
31
0.0
0
LINE
8
0
6
CONTINUOUS
10
-50.434655
20
320.732650
30
0.0
11
-50.480905
21
320.803150
31
0.0
0
LINE
8
0
6
CONTINUOUS
10
-49.405085
20
319.162520
30
0.0
11
-50.434655
21
320.732650
31
0.0
0
LINE
8
0
6
CONTINUOUS
10
-48.421755
20
317.662890
30
0.0
11
-49.405085
21
319.162520
31
0.0
0
LINE
8
0
6
CONTINUOUS
10
-48.421755
20
317.662890
30
0.0
11
-47.062704
21
318.554053
31
0.0
0
LINE
8
0
6
CONTINUOUS
10
-49.405085
20
319.162520
30
0.0
11
-48.421755
21
317.662890
31
0.0
0
LINE
8
0
6
CONTINUOUS
10
-49.405085
20
319.162520
30
0.0
11
-48.190136
21
319.959192
31
0.0
0
LINE
8
0
6
CONTINUOUS
10
-50.434655
20
320.732650
30
0.0
11
-49.405085
21
319.162520
31
0.0
0
LINE
8
0
6
CONTINUOUS
10
-49.590394
20
321.286253
30
0.0
11
-50.434655
21
320.732650
31
0.0
0
LINE
8
0
6
CONTINUOUS
10
-92.145605
20
381.362530
30
0.0
11
-91.564055
21
380.475690
31
0.0
0
LINE
8
0
6
CONTINUOUS
10
-90.794942
20
382.248188
30
0.0
11
-92.145605
21
381.362530
31
0.0
0
LINE
8
0
6
CONTINUOUS
10
-91.564055
20
380.475690
30
0.0
11
-90.400995
21
378.702010
31
0.0
0
LINE
8
0
6
CONTINUOUS
10
-90.353963
20
381.269174
30
0.0
11
-91.564055
21
380.475690
31
0.0
0
LINE
8
0
6
CONTINUOUS
10
-90.400995
20
378.702010
30
0.0
11
-89.819455
21
377.815020
31
0.0
0
LINE
8
0
6
CONTINUOUS
10
-89.819455
20
377.815020
30
0.0
11
-90.400995
21
378.702010
31
0.0
0
LINE
8
0
6
CONTINUOUS
10
-91.564055
20
380.475690
30
0.0
11
-92.145605
21
381.362530
31
0.0
0
LINE
8
0
6
CONTINUOUS
10
-90.400995
20
378.702010
30
0.0
11
-91.564055
21
380.475690
31
0.0
0
LINE
8
0
6
CONTINUOUS
10
-86.788395
20
370.702290
30
0.0
11
-85.827165
21
369.236370
31
0.0
0
LINE
8
0
6
CONTINUOUS
10
-86.028482
20
371.200565
30
0.0
11
-86.788395
21
370.702290
31
0.0
0
LINE
8
0
6
CONTINUOUS
10
-85.827165
20
369.236370
30
0.0
11
-84.779465
21
367.638630
31
0.0
0
LINE
8
0
6
CONTINUOUS
10
-84.830624
20
369.889826
30
0.0
11
-85.827165
21
369.236370
31
0.0
0
LINE
8
0
6
CONTINUOUS
10
-84.692945
20
367.506640
30
0.0
11
-84.124511
21
367.879365
31
0.0
0
LINE
8
0
6
CONTINUOUS
10
-84.779465
20
367.638630
30
0.0
11
-84.692945
21
367.506640
31
0.0
0
LINE
8
0
6
CONTINUOUS
10
-84.069654
20
368.104053
30
0.0
11
-84.779465
21
367.638630
31
0.0
0
LINE
8
0
6
CONTINUOUS
10
-82.430205
20
364.060750
30
0.0
11
-81.280225
21
362.306900
31
0.0
0
LINE
8
0
6
CONTINUOUS
10
-80.554575
20
361.200330
30
0.0
11
-79.850943
21
361.661704
31
0.0
0
LINE
8
0
6
CONTINUOUS
10
-81.280225
20
362.306900
30
0.0
11
-80.554575
21
361.200330
31
0.0
0
LINE
8
0
6
CONTINUOUS
10
-80.294119
20
362.953511
30
0.0
11
-81.280225
21
362.306900
31
0.0
0
LINE
8
0
6
CONTINUOUS
10
-82.430205
20
364.060750
30
0.0
11
-82.854585
21
364.707870
31
0.0
0
LINE
8
0
6
CONTINUOUS
10
-81.280225
20
362.306900
30
0.0
11
-82.430205
21
364.060750
31
0.0
0
LINE
8
0
6
CONTINUOUS
10
-80.554575
20
361.200330
30
0.0
11
-81.280225
21
362.306900
31
0.0
0
LINE
8
0
6
CONTINUOUS
10
-82.430205
20
364.060750
30
0.0
11
-81.313453
21
364.793005
31
0.0
0
LINE
8
0
6
CONTINUOUS
10
-82.854585
20
364.707870
30
0.0
11
-82.430205
21
364.060750
31
0.0
0
LINE
8
0
6
CONTINUOUS
10
-81.864433
20
365.357113
30
0.0
11
-82.854585
21
364.707870
31
0.0
0
LINE
8
0
6
CONTINUOUS
10
-76.111595
20
354.425580
30
0.0
11
-75.000585
21
352.731250
31
0.0
0
LINE
8
0
6
CONTINUOUS
10
-74.743055
20
352.338490
30
0.0
11
-74.064165
21
352.783653
31
0.0
0
LINE
8
0
6
CONTINUOUS
10
-75.000585
20
352.731250
30
0.0
11
-74.743055
21
352.338490
31
0.0
0
LINE
8
0
6
CONTINUOUS
10
-74.040335
20
353.360887
30
0.0
11
-75.000585
21
352.731250
31
0.0
0
LINE
8
0
6
CONTINUOUS
10
-76.111595
20
354.425580
30
0.0
11
-76.965075
21
355.727160
31
0.0
0
LINE
8
0
6
CONTINUOUS
10
-75.000585
20
352.731250
30
0.0
11
-76.111595
21
354.425580
31
0.0
0
LINE
8
0
6
CONTINUOUS
10
-74.743055
20
352.338490
30
0.0
11
-75.000585
21
352.731250
31
0.0
0
LINE
8
0
6
CONTINUOUS
10
-76.111595
20
354.425580
30
0.0
11
-75.295009
21
354.961017
31
0.0
0
LINE
8
0
6
CONTINUOUS
10
-76.965075
20
355.727160
30
0.0
11
-76.111595
21
354.425580
31
0.0
0
LINE
8
0
6
CONTINUOUS
10
-76.000392
20
356.359723
30
0.0
11
-76.965075
21
355.727160
31
0.0
0
LINE
8
0
6
CONTINUOUS
10
-68.254725
20
342.442700
30
0.0
11
-67.317161
21
343.057482
31
0.0
0
LINE
8
0
6
CONTINUOUS
10
-69.108205
20
343.744430
30
0.0
11
-68.254725
21
342.442700
31
0.0
0
LINE
8
0
6
CONTINUOUS
10
-69.108205
20
343.744430
30
0.0
11
-68.293939
21
344.278348
31
0.0
0
LINE
8
0
6
CONTINUOUS
10
-70.219245
20
345.438770
30
0.0
11
-69.108205
21
343.744430
31
0.0
0
LINE
8
0
6
CONTINUOUS
10
-70.219245
20
345.438770
30
0.0
11
-69.273186
21
346.059102
31
0.0
0
LINE
8
0
6
CONTINUOUS
10
-70.476755
20
345.831530
30
0.0
11
-70.219245
21
345.438770
31
0.0
0
LINE
8
0
6
CONTINUOUS
10
-69.812317
20
346.267203
30
0.0
11
-70.476755
21
345.831530
31
0.0
0
LINE
8
0
6
CONTINUOUS
10
-62.367085
20
333.460920
30
0.0
11
-61.434375
21
334.072502
31
0.0
0
LINE
8
0
6
CONTINUOUS
10
-62.791475
20
334.108050
30
0.0
11
-62.367085
21
333.460920
31
0.0
0
LINE
8
0
6
CONTINUOUS
10
-62.791475
20
334.108050
30
0.0
11
-61.729335
21
334.804520
31
0.0
0
LINE
8
0
6
CONTINUOUS
10
-63.941455
20
335.861890
30
0.0
11
-62.791475
21
334.108050
31
0.0
0
LINE
8
0
6
CONTINUOUS
10
-63.941455
20
335.861890
30
0.0
11
-63.010351
21
336.472418
31
0.0
0
LINE
8
0
6
CONTINUOUS
10
-64.667085
20
336.968460
30
0.0
11
-63.941455
21
335.861890
31
0.0
0
LINE
8
0
6
CONTINUOUS
10
-64.016717
20
337.394920
30
0.0
11
-64.667085
21
336.968460
31
0.0
0
LINE
8
0
6
CONTINUOUS
10
-60.530785
20
330.660780
30
0.0
11
-60.444255
21
330.528790
31
0.0
0
LINE
8
0
6
CONTINUOUS
10
-60.049786
20
330.976183
30
0.0
11
-60.530785
21
330.660780
31
0.0
0
LINE
8
0
6
CONTINUOUS
10
-60.444255
20
330.528790
30
0.0
11
-60.530785
21
330.660780
31
0.0
0
LINE
8
0
6
CONTINUOUS
10
-59.396545
20
328.931050
30
0.0
11
-60.444255
21
330.528790
31
0.0
0
LINE
8
0
6
CONTINUOUS
10
-58.435355
20
327.465130
30
0.0
11
-59.396545
21
328.931050
31
0.0
0
LINE
8
0
6
CONTINUOUS
10
-58.435355
20
327.465130
30
0.0
11
-57.421381
21
328.130018
31
0.0
0
LINE
8
0
6
CONTINUOUS
10
-59.396545
20
328.931050
30
0.0
11
-58.435355
21
327.465130
31
0.0
0
LINE
8
0
6
CONTINUOUS
10
-59.396545
20
328.931050
30
0.0
11
-58.485640
21
329.528353
31
0.0
0
LINE
8
0
6
CONTINUOUS
10
-60.444255
20
330.528790
30
0.0
11
-59.396545
21
328.931050
31
0.0
0
LINE
8
0
6
CONTINUOUS
10
-59.810272
20
330.944509
30
0.0
11
-60.444255
21
330.528790
31
0.0
0
LINE
8
0
6
CONTINUOUS
10
-59.302585
20
328.497240
30
0.0
11
-58.721075
21
327.610400
31
0.0
0
LINE
8
0
6
CONTINUOUS
10
-56.976455
20
324.949720
30
0.0
11
-56.252253
21
325.424586
31
0.0
0
LINE
8
0
6
CONTINUOUS
10
-57.557995
20
325.836560
30
0.0
11
-56.976455
21
324.949720
31
0.0
0
LINE
8
0
6
CONTINUOUS
10
-57.557995
20
325.836560
30
0.0
11
-56.865020
21
326.290963
31
0.0
0
LINE
8
0
6
CONTINUOUS
10
-58.721075
20
327.610400
30
0.0
11
-57.557995
21
325.836560
31
0.0
0
LINE
8
0
6
CONTINUOUS
10
-91.093795
20
379.778670
30
0.0
11
-90.229885
21
378.461230
31
0.0
0
LINE
8
0
6
CONTINUOUS
10
-89.759131
20
380.653840
30
0.0
11
-91.093795
21
379.778670
31
0.0
0
LINE
8
0
6
CONTINUOUS
10
-90.229885
20
378.461230
30
0.0
11
-89.123545
21
376.773910
31
0.0
0
LINE
8
0
6
CONTINUOUS
10
-89.054378
20
379.232012
30
0.0
11
-90.229885
21
378.461230
31
0.0
0
LINE
8
0
6
CONTINUOUS
10
-88.881125
20
376.404190
30
0.0
11
-88.187063
21
376.859302
31
0.0
0
LINE
8
0
6
CONTINUOUS
10
-89.123545
20
376.773910
30
0.0
11
-88.881125
21
376.404190
31
0.0
0
LINE
8
0
6
CONTINUOUS
10
-88.268325
20
377.334697
30
0.0
11
-89.123545
21
376.773910
31
0.0
0
LINE
8
0
6
CONTINUOUS
10
-88.881125
20
376.404190
30
0.0
11
-89.123545
21
376.773910
31
0.0
0
LINE
8
0
6
CONTINUOUS
10
-90.229885
20
378.461230
30
0.0
11
-91.093795
21
379.778670
31
0.0
0
LINE
8
0
6
CONTINUOUS
10
-89.123545
20
376.773910
30
0.0
11
-90.229885
21
378.461230
31
0.0
0
LINE
8
0
6
CONTINUOUS
10
-88.167205
20
375.314250
30
0.0
11
-87.104385
21
373.693470
31
0.0
0
LINE
8
0
6
CONTINUOUS
10
-86.163855
20
372.259140
30
0.0
11
-85.325774
21
372.808670
31
0.0
0
LINE
8
0
6
CONTINUOUS
10
-87.104385
20
373.693470
30
0.0
11
-86.163861
21
372.259150
31
0.0
0
LINE
8
0
6
CONTINUOUS
10
-85.948976
20
374.451071
30
0.0
11
-87.104385
21
373.693470
31
0.0
0
LINE
8
0
6
CONTINUOUS
10
-88.167205
20
375.314250
30
0.0
11
-88.289485
21
375.500720
31
0.0
0
LINE
8
0
6
CONTINUOUS
10
-87.104385
20
373.693470
30
0.0
11
-88.167205
21
375.314250
31
0.0
0
LINE
8
0
6
CONTINUOUS
10
-86.163855
20
372.259140
30
0.0
11
-87.104385
21
373.693470
31
0.0
0
LINE
8
0
6
CONTINUOUS
10
-88.167205
20
375.314250
30
0.0
11
-86.849023
21
376.178610
31
0.0
0
LINE
8
0
6
CONTINUOUS
10
-88.289485
20
375.500720
30
0.0
11
-88.167205
21
375.314250
31
0.0
0
LINE
8
0
6
CONTINUOUS
10
-87.116659
20
376.269767
30
0.0
11
-88.289485
21
375.500720
31
0.0
0
LINE
8
0
6
CONTINUOUS
10
-83.604075
20
368.355180
30
0.0
11
-82.447465
21
366.591420
31
0.0
0
LINE
8
0
6
CONTINUOUS
10
-81.763235
20
365.547870
30
0.0
11
-80.939900
21
366.087749
31
0.0
0
LINE
8
0
6
CONTINUOUS
10
-82.447465
20
366.591420
30
0.0
11
-81.763235
21
365.547870
31
0.0
0
LINE
8
0
6
CONTINUOUS
10
-81.305743
20
367.340045
30
0.0
11
-82.447465
21
366.591420
31
0.0
0
LINE
8
0
6
CONTINUOUS
10
-83.604075
20
368.355180
30
0.0
11
-82.312152
21
369.202321
31
0.0
0
LINE
8
0
6
CONTINUOUS
10
-84.076495
20
369.075700
30
0.0
11
-83.604075
21
368.355180
31
0.0
0
LINE
8
0
6
CONTINUOUS
10
-82.934353
20
369.824627
30
0.0
11
-84.076495
21
369.075700
31
0.0
0
LINE
8
0
6
CONTINUOUS
10
-77.838015
20
359.560320
30
0.0
11
-76.700485
21
357.825550
31
0.0
0
LINE
8
0
6
CONTINUOUS
10
-76.341675
20
357.278370
30
0.0
11
-75.553694
21
357.795067
31
0.0
0
LINE
8
0
6
CONTINUOUS
10
-76.700485
20
357.825550
30
0.0
11
-76.341675
21
357.278370
31
0.0
0
LINE
8
0
6
CONTINUOUS
10
-75.595197
20
358.550312
30
0.0
11
-76.700485
21
357.825550
31
0.0
0
LINE
8
0
6
CONTINUOUS
10
-77.838015
20
359.560320
30
0.0
11
-76.565639
21
360.394644
31
0.0
0
LINE
8
0
6
CONTINUOUS
10
-78.616725
20
360.747910
30
0.0
11
-77.838015
21
359.560320
31
0.0
0
LINE
8
0
6
CONTINUOUS
10
-77.494235
20
361.483952
30
0.0
11
-78.616725
21
360.747910
31
0.0
0
LINE
8
0
6
CONTINUOUS
10
-70.462405
20
348.296580
30
0.0
11
-69.309458
21
349.052572
31
0.0
0
LINE
8
0
6
CONTINUOUS
10
-71.469675
20
349.832690
30
0.0
11
-70.462417
21
348.296598
31
0.0
0
LINE
8
0
6
CONTINUOUS
10
-71.469675
20
349.832690
30
0.0
11
-70.138275
21
350.705692
31
0.0
0
LINE
8
0
6
CONTINUOUS
10
-72.476935
20
351.368790
30
0.0
11
-71.469675
21
349.832690
31
0.0
0
LINE
8
0
6
CONTINUOUS
10
-72.476935
20
351.368790
30
0.0
11
-71.308596
21
352.134869
31
0.0
0
LINE
8
0
6
CONTINUOUS
10
-64.306175
20
338.928150
30
0.0
11
-63.228927
21
339.634502
31
0.0
0
LINE
8
0
6
CONTINUOUS
10
-65.084885
20
340.115740
30
0.0
11
-64.306199
21
338.928186
31
0.0
0
LINE
8
0
6
CONTINUOUS
10
-66.222415
20
341.850510
30
0.0
11
-66.581225
21
342.397690
31
0.0
0
LINE
8
0
6
CONTINUOUS
10
-65.084885
20
340.115740
30
0.0
11
-66.222415
21
341.850510
31
0.0
0
LINE
8
0
6
CONTINUOUS
10
-64.306175
20
338.928150
30
0.0
11
-65.084885
21
340.115740
31
0.0
0
LINE
8
0
6
CONTINUOUS
10
-65.084885
20
340.115740
30
0.0
11
-63.852892
21
340.923561
31
0.0
0
LINE
8
0
6
CONTINUOUS
10
-66.222415
20
341.850510
30
0.0
11
-65.084885
21
340.115740
31
0.0
0
LINE
8
0
6
CONTINUOUS
10
-66.222415
20
341.850510
30
0.0
11
-65.150743
21
342.553206
31
0.0
0
LINE
8
0
6
CONTINUOUS
10
-66.581225
20
342.397690
30
0.0
11
-66.222415
21
341.850510
31
0.0
0
LINE
8
0
6
CONTINUOUS
10
-65.824527
20
342.893858
30
0.0
11
-66.581225
21
342.397690
31
0.0
0
LINE
8
0
6
CONTINUOUS
10
-58.847415
20
330.599750
30
0.0
11
-57.780215
21
331.299517
31
0.0
0
LINE
8
0
6
CONTINUOUS
10
-59.319825
20
331.320110
30
0.0
11
-58.847415
21
330.599750
31
0.0
0
LINE
8
0
6
CONTINUOUS
10
-59.319825
20
331.320110
30
0.0
11
-58.099351
21
332.120405
31
0.0
0
LINE
8
0
6
CONTINUOUS
10
-60.476445
20
333.084030
30
0.0
11
-59.319825
21
331.320110
31
0.0
0
LINE
8
0
6
CONTINUOUS
10
-60.476445
20
333.084030
30
0.0
11
-59.399326
21
333.790323
31
0.0
0
LINE
8
0
6
CONTINUOUS
10
-61.160655
20
334.127580
30
0.0
11
-60.476445
21
333.084030
31
0.0
0
LINE
8
0
6
CONTINUOUS
10
-60.398111
20
334.627583
30
0.0
11
-61.160655
21
334.127580
31
0.0
0
LINE
8
0
6
CONTINUOUS
10
-54.634755
20
324.174420
30
0.0
11
-53.582117
21
324.864660
31
0.0
0
LINE
8
0
6
CONTINUOUS
10
-54.757015
20
324.360890
30
0.0
11
-54.634755
21
324.174420
31
0.0
0
LINE
8
0
6
CONTINUOUS
10
-54.757015
20
324.360890
30
0.0
11
-53.547944
21
325.153709
31
0.0
0
LINE
8
0
6
CONTINUOUS
10
-55.819845
20
325.981830
30
0.0
11
-54.757015
21
324.360890
31
0.0
0
LINE
8
0
6
CONTINUOUS
10
-55.819845
20
325.981830
30
0.0
11
-54.750681
21
326.682885
31
0.0
0
LINE
8
0
6
CONTINUOUS
10
-56.760355
20
327.416150
30
0.0
11
-55.819845
21
325.981830
31
0.0
0
LINE
8
0
6
CONTINUOUS
10
-56.003134
20
327.912678
30
0.0
11
-56.760355
21
327.416150
31
0.0
0
LINE
8
0
6
CONTINUOUS
10
-54.291515
20
323.108140
30
0.0
11
-54.049085
21
322.738420
31
0.0
0
LINE
8
0
6
CONTINUOUS
10
-53.912602
20
323.356599
30
0.0
11
-54.291515
21
323.108140
31
0.0
0
LINE
8
0
6
CONTINUOUS
10
-52.078835
20
319.733660
30
0.0
11
-51.336577
21
320.220369
31
0.0
0
LINE
8
0
6
CONTINUOUS
10
-52.942745
20
321.051250
30
0.0
11
-52.078835
21
319.733660
31
0.0
0
LINE
8
0
6
CONTINUOUS
10
-52.942745
20
321.051250
30
0.0
11
-52.086770
21
321.612525
31
0.0
0
LINE
8
0
6
CONTINUOUS
10
-54.049085
20
322.738420
30
0.0
11
-52.942745
21
321.051250
31
0.0
0
LINE
8
0
6
CONTINUOUS
10
-53.417814
20
323.152353
30
0.0
11
-54.049085
21
322.738420
31
0.0
0
LINE
8
0
6
CONTINUOUS
10
-54.019955
20
321.260150
30
0.0
11
-53.438415
21
320.373310
31
0.0
0
LINE
8
0
6
CONTINUOUS
10
-53.414123
20
321.657406
30
0.0
11
-54.019955
21
321.260150
31
0.0
0
LINE
8
0
6
CONTINUOUS
10
-51.693815
20
317.712630
30
0.0
11
-51.476637
21
317.855038
31
0.0
0
LINE
8
0
6
CONTINUOUS
10
-52.275355
20
318.599470
30
0.0
11
-51.693815
21
317.712630
31
0.0
0
LINE
8
0
6
CONTINUOUS
10
-52.275355
20
318.599470
30
0.0
11
-51.896867
21
318.847651
31
0.0
0
LINE
8
0
6
CONTINUOUS
10
-53.438415
20
320.373310
30
0.0
11
-52.275355
21
318.599470
31
0.0
0
LINE
8
0
6
CONTINUOUS
10
-52.865638
20
320.748890
30
0.0
11
-53.438415
21
320.373310
31
0.0
0
LINE
8
0
6
CONTINUOUS
10
-88.382425
20
373.129200
30
0.0
11
-87.800895
21
372.242200
31
0.0
0
LINE
8
0
6
CONTINUOUS
10
-87.225634
20
373.887709
30
0.0
11
-88.382425
21
373.129200
31
0.0
0
LINE
8
0
6
CONTINUOUS
10
-87.800895
20
372.242200
30
0.0
11
-86.637835
21
370.468520
31
0.0
0
LINE
8
0
6
CONTINUOUS
10
-86.770418
20
372.917908
30
0.0
11
-87.800895
21
372.242200
31
0.0
0
LINE
8
0
6
CONTINUOUS
10
-45.881605
20
296.324350
30
0.0
11
-44.303915
21
291.542550
31
0.0
0
LINE
8
0
6
CONTINUOUS
10
-47.164675
20
301.191940
30
0.0
11
-45.881605
21
296.324350
31
0.0
0
LINE
8
0
6
CONTINUOUS
10
-47.383714
20
306.378100
30
0.0
11
-48.020535
21
306.186140
31
0.0
0
LINE
8
0
6
CONTINUOUS
10
-48.184935
20
305.336230
30
0.0
11
-47.164675
21
301.191940
31
0.0
0
LINE
8
0
6
CONTINUOUS
10
-42.301545
20
286.893200
30
0.0
11
-41.663121
21
287.085643
31
0.0
0
LINE
8
0
6
CONTINUOUS
10
-44.303915
20
291.542550
30
0.0
11
-42.852675
21
287.372320
31
0.0
0
LINE
8
0
6
CONTINUOUS
10
-41.373775
20
291.038250
30
0.0
11
-42.016685
21
288.761250
31
0.0
0
LINE
8
0
6
CONTINUOUS
10
-42.811195
20
287.253150
30
0.0
11
-42.594825
21
286.954920
31
0.0
0
LINE
8
0
6
CONTINUOUS
10
-42.301545
20
286.893200
30
0.0
11
-42.126075
21
287.331580
31
0.0
0
LINE
8
0
6
CONTINUOUS
10
-42.594825
20
286.954920
30
0.0
11
-42.301545
21
286.893200
31
0.0
0
LINE
8
0
6
CONTINUOUS
10
-42.418295
20
287.394980
30
0.0
11
-42.594825
21
286.954920
31
0.0
0
LINE
8
0
6
CONTINUOUS
10
-41.373775
20
291.038250
30
0.0
11
-41.143005
21
293.736840
31
0.0
0
LINE
8
0
6
CONTINUOUS
10
-42.209255
20
299.019240
30
0.0
11
-44.498105
21
302.335430
31
0.0
0
LINE
8
0
6
CONTINUOUS
10
-42.209255
20
299.019240
30
0.0
11
-41.241105
21
296.606940
31
0.0
0
LINE
8
0
6
CONTINUOUS
10
-46.592065
20
304.876330
30
0.0
11
-47.763055
21
305.941700
31
0.0
0
LINE
8
0
6
CONTINUOUS
10
-46.753545
20
304.615860
30
0.0
11
-47.952615
21
305.680920
31
0.0
0
LINE
8
0
6
CONTINUOUS
10
-48.020535
20
306.186140
30
0.0
11
-48.221545
21
305.929340
31
0.0
0
LINE
8
0
6
CONTINUOUS
10
-47.763055
20
305.941700
30
0.0
11
-48.020535
21
306.186140
31
0.0
0
LINE
8
0
6
CONTINUOUS
10
-48.221545
20
305.929340
30
0.0
11
-48.215145
21
305.458910
31
0.0
0
LINE
8
0
6
CONTINUOUS
10
-47.952615
20
305.680920
30
0.0
11
-48.221545
21
305.929340
31
0.0
0
LINE
8
0
6
CONTINUOUS
10
-46.753545
20
304.615860
30
0.0
11
-46.651735
21
304.136120
31
0.0
0
LINE
8
0
6
CONTINUOUS
10
-44.498105
20
302.335430
30
0.0
11
-46.753545
21
304.615860
31
0.0
0
LINE
8
0
6
CONTINUOUS
10
-41.143005
20
293.736840
30
0.0
11
-41.241105
21
296.606940
31
0.0
0
LINE
8
0
6
CONTINUOUS
10
-42.126075
20
287.331580
30
0.0
11
-41.734475
21
288.680610
31
0.0
0
LINE
8
0
6
CONTINUOUS
10
-42.016685
20
288.761250
30
0.0
11
-42.418295
21
287.394980
31
0.0
0
LINE
8
0
6
CONTINUOUS
10
-46.550995
20
303.914110
30
0.0
11
-44.829265
21
300.118790
31
0.0
0
LINE
8
0
6
CONTINUOUS
10
-42.852675
20
287.372320
30
0.0
11
-42.811195
21
287.253150
31
0.0
0
LINE
8
0
6
CONTINUOUS
10
-48.215145
20
305.458910
30
0.0
11
-48.184935
21
305.336230
31
0.0
0
LINE
8
0
6
CONTINUOUS
10
-36.479785
20
309.587170
30
0.0
11
-39.023895
21
313.443530
31
0.0
0
LINE
8
0
6
CONTINUOUS
10
-39.023895
20
313.443530
30
0.0
11
-41.700475
21
317.622150
31
0.0
0
LINE
8
0
6
CONTINUOUS
10
-98.633265
20
404.961620
30
0.0
11
-97.768645
21
401.938710
31
0.0
0
LINE
8
0
6
CONTINUOUS
10
-98.326765
20
404.494250
30
0.0
11
-98.633265
21
404.961620
31
0.0
0
LINE
8
0
6
CONTINUOUS
10
-86.146765
20
385.579300
30
0.0
11
-89.206835
21
390.276870
31
0.0
0
LINE
8
0
6
CONTINUOUS
10
-82.405885
20
379.880900
30
0.0
11
-86.146765
21
385.579300
31
0.0
0
LINE
8
0
6
CONTINUOUS
10
-78.588895
20
374.054640
30
0.0
11
-82.405885
21
379.880900
31
0.0
0
LINE
8
0
6
CONTINUOUS
10
-74.048795
20
367.072220
30
0.0
11
-78.588895
21
374.054640
31
0.0
0
LINE
8
0
6
CONTINUOUS
10
-70.121395
20
361.081620
30
0.0
11
-74.048795
21
367.072220
31
0.0
0
LINE
8
0
6
CONTINUOUS
10
-65.767965
20
354.453200
30
0.0
11
-70.121395
21
361.081620
31
0.0
0
LINE
8
0
6
CONTINUOUS
10
-55.535725
20
324.506450
30
0.0
11
-54.243499
21
323.139625
31
0.0
0
LINE
8
0
6
CONTINUOUS
10
-88.438678
20
376.694381
30
0.0
11
-88.009991
21
375.683990
31
0.0
0
LINE
8
0
6
CONTINUOUS
10
-35.472955
20
308.042680
30
0.0
11
-36.479785
21
309.587170
31
0.0
0
LINE
8
0
6
CONTINUOUS
10
-34.944645
20
296.256600
30
0.0
11
-34.623275
21
297.659230
31
0.0
0
LINE
8
0
6
CONTINUOUS
10
-35.628035
20
293.447530
30
0.0
11
-34.944645
21
296.256600
31
0.0
0
LINE
8
0
6
CONTINUOUS
10
-36.336885
20
291.717110
30
0.0
11
-35.628035
21
293.447530
31
0.0
0
LINE
8
0
6
CONTINUOUS
10
-33.739225
20
302.800980
30
0.0
11
-33.986535
21
304.319990
31
0.0
0
LINE
8
0
6
CONTINUOUS
10
-48.092245
20
308.693770
30
0.0
11
-47.507675
21
306.881640
31
0.0
0
LINE
8
0
6
CONTINUOUS
10
-34.289065
20
305.738600
30
0.0
11
-34.794095
21
306.937790
31
0.0
0
LINE
8
0
6
CONTINUOUS
10
-49.304975
20
312.303540
30
0.0
11
-48.689715
21
310.501940
31
0.0
0
LINE
8
0
6
CONTINUOUS
10
-39.602825
20
283.895000
30
0.0
11
-38.794185
21
285.797310
31
0.0
0
LINE
8
0
6
CONTINUOUS
10
-41.663121
20
287.085643
30
0.0
11
-41.504255
21
286.629140
31
0.0
0
LINE
8
0
6
CONTINUOUS
10
-41.504255
20
286.629140
30
0.0
11
-40.366575
21
282.694280
31
0.0
0
LINE
8
0
6
CONTINUOUS
10
-40.366575
20
282.694280
30
0.0
11
-40.165915
21
282.949560
31
0.0
0
LINE
8
0
6
CONTINUOUS
10
-40.165915
20
282.949560
30
0.0
11
-39.602825
21
283.895000
31
0.0
0
LINE
8
0
6
CONTINUOUS
10
-34.623275
20
297.659230
30
0.0
11
-34.301905
21
299.061810
31
0.0
0
LINE
8
0
6
CONTINUOUS
10
-52.798375
20
334.581830
30
0.0
11
-57.325315
21
341.464920
31
0.0
0
LINE
8
0
6
CONTINUOUS
10
-48.733915
20
328.365710
30
0.0
11
-52.791190
21
334.570841
31
0.0
0
LINE
8
0
6
CONTINUOUS
10
-96.236715
20
401.008070
30
0.0
11
-97.690175
21
403.272020
31
0.0
0
LINE
8
0
6
CONTINUOUS
10
-89.206835
20
390.276870
30
0.0
11
-92.022585
21
394.570850
31
0.0
0
LINE
8
0
6
CONTINUOUS
10
-92.022585
20
394.570850
30
0.0
11
-94.392405
21
398.201980
31
0.0
0
LINE
8
0
6
CONTINUOUS
10
-94.392405
20
398.201980
30
0.0
11
-96.236715
21
401.008070
31
0.0
0
LINE
8
0
6
CONTINUOUS
10
-97.690175
20
403.272020
30
0.0
11
-98.326765
21
404.494250
31
0.0
0
LINE
8
0
6
CONTINUOUS
10
-97.768645
20
401.938710
30
0.0
11
-96.874346
21
399.267414
31
0.0
0
LINE
8
0
6
CONTINUOUS
10
-41.700475
20
317.622150
30
0.0
11
-45.163035
21
322.844160
31
0.0
0
LINE
8
0
6
CONTINUOUS
10
-45.163035
20
322.844160
30
0.0
11
-48.733915
21
328.365710
31
0.0
0
LINE
8
0
6
CONTINUOUS
10
-57.325315
20
341.464920
30
0.0
11
-61.378065
21
347.715230
31
0.0
0
LINE
8
0
6
CONTINUOUS
10
-61.378065
20
347.715230
30
0.0
11
-65.767965
21
354.453200
31
0.0
0
LINE
8
0
6
CONTINUOUS
10
-51.476509
20
317.855139
30
0.0
11
-51.363875
21
317.633740
31
0.0
0
LINE
8
0
6
CONTINUOUS
10
-33.986535
20
304.319990
30
0.0
11
-34.289065
21
305.738600
31
0.0
0
LINE
8
0
6
CONTINUOUS
10
-48.689715
20
310.501940
30
0.0
11
-48.092245
21
308.693770
31
0.0
0
LINE
8
0
6
CONTINUOUS
10
-56.252742
20
325.424266
30
0.0
11
-55.535725
21
324.506450
31
0.0
0
LINE
8
0
6
CONTINUOUS
10
-33.980535
20
300.464400
30
0.0
11
-33.739225
21
302.800980
31
0.0
0
LINE
8
0
6
CONTINUOUS
10
-47.181226
20
306.439137
30
0.0
11
-47.237385
21
306.624980
31
0.0
0
LINE
8
0
6
CONTINUOUS
10
-47.507675
20
306.881640
30
0.0
11
-47.383714
21
306.378100
31
0.0
0
LINE
8
0
6
CONTINUOUS
10
-41.052165
20
299.392930
30
0.0
11
-43.587725
21
303.014450
31
0.0
0
LINE
8
0
6
CONTINUOUS
10
-55.652675
20
324.832990
30
0.0
11
-54.285299
21
323.112216
31
0.0
0
LINE
8
0
6
CONTINUOUS
10
-51.764488
20
319.939905
30
0.0
11
-51.531245
21
319.646380
31
0.0
0
LINE
8
0
6
CONTINUOUS
10
-51.363875
20
317.633740
30
0.0
11
-50.697705
21
315.848460
31
0.0
0
LINE
8
0
6
CONTINUOUS
10
-50.697705
20
315.848460
30
0.0
11
-50.005245
21
314.074780
31
0.0
0
LINE
8
0
6
CONTINUOUS
10
-50.005245
20
314.074780
30
0.0
11
-49.304975
21
312.303540
31
0.0
0
LINE
8
0
6
CONTINUOUS
10
-34.794095
20
306.937790
30
0.0
11
-35.472955
21
308.042680
31
0.0
0
LINE
8
0
6
CONTINUOUS
10
-37.602815
20
288.553350
30
0.0
11
-36.336885
21
291.717110
31
0.0
0
LINE
8
0
6
CONTINUOUS
10
-38.794185
20
285.797310
30
0.0
11
-37.602815
21
288.553350
31
0.0
0
LINE
8
0
6
CONTINUOUS
10
-34.301905
20
299.061810
30
0.0
11
-33.980535
21
300.464400
31
0.0
0
LINE
8
0
6
CONTINUOUS
10
-74.038785
20
367.997820
30
0.0
11
-69.698685
21
361.381000
31
0.0
0
LINE
8
0
6
CONTINUOUS
10
-36.481595
20
347.131730
30
0.0
11
-43.234035
21
357.876360
31
0.0
0
LINE
8
0
6
CONTINUOUS
10
-85.270095
20
416.023940
30
0.0
11
-85.740025
21
416.070170
31
0.0
0
LINE
8
0
6
CONTINUOUS
10
-50.960915
20
369.660260
30
0.0
11
-51.442845
21
370.395130
31
0.0
0
LINE
8
0
6
CONTINUOUS
10
-50.454185
20
368.887410
30
0.0
11
-50.960915
21
369.660260
31
0.0
0
LINE
8
0
6
CONTINUOUS
10
-44.226845
20
359.390330
30
0.0
11
-44.628215
21
360.002520
31
0.0
0
LINE
8
0
6
CONTINUOUS
10
-43.633205
20
358.485030
30
0.0
11
-43.756605
21
358.673320
31
0.0
0
LINE
8
0
6
CONTINUOUS
10
-48.035455
20
365.198750
30
0.0
11
-48.661855
21
366.153950
31
0.0
0
LINE
8
0
6
CONTINUOUS
10
-49.905135
20
368.050160
30
0.0
11
-50.454185
21
368.887410
31
0.0
0
LINE
8
0
6
CONTINUOUS
10
-87.122465
20
415.590590
30
0.0
11
-87.643365
21
415.264660
31
0.0
0
LINE
8
0
6
CONTINUOUS
10
-92.022485
20
394.570850
30
0.0
11
-89.206745
21
390.276870
31
0.0
0
LINE
8
0
6
CONTINUOUS
10
-94.392325
20
398.201980
30
0.0
11
-93.304655
21
396.535424
31
0.0
0
LINE
8
0
6
CONTINUOUS
10
-92.770234
20
395.716570
30
0.0
11
-92.022485
21
394.570850
31
0.0
0
LINE
8
0
6
CONTINUOUS
10
-96.236615
20
401.008070
30
0.0
11
-94.392325
21
398.201980
31
0.0
0
LINE
8
0
6
CONTINUOUS
10
-97.690095
20
403.272020
30
0.0
11
-96.236615
21
401.008070
31
0.0
0
LINE
8
0
6
CONTINUOUS
10
-98.326695
20
404.494250
30
0.0
11
-97.690095
21
403.272020
31
0.0
0
LINE
8
0
6
CONTINUOUS
10
-98.633165
20
404.961780
30
0.0
11
-98.326695
21
404.494250
31
0.0
0
LINE
8
0
6
CONTINUOUS
10
-98.166585
20
408.682170
30
0.0
11
-99.078795
21
407.642900
31
0.0
0
LINE
8
0
6
CONTINUOUS
10
-85.862665
20
387.467270
30
0.0
11
-89.237945
21
392.611160
31
0.0
0
LINE
8
0
6
CONTINUOUS
10
-89.412205
20
391.503980
30
0.0
11
-86.116075
21
386.485820
31
0.0
0
LINE
8
0
6
CONTINUOUS
10
-82.128725
20
381.760330
30
0.0
11
-85.862665
21
387.467270
31
0.0
0
LINE
8
0
6
CONTINUOUS
10
-86.116075
20
386.485820
30
0.0
11
-82.431805
21
380.798720
31
0.0
0
LINE
8
0
6
CONTINUOUS
10
-82.431805
20
380.798720
30
0.0
11
-78.533185
21
374.842760
31
0.0
0
LINE
8
0
6
CONTINUOUS
10
-78.533185
20
374.842760
30
0.0
11
-74.038785
21
367.997820
31
0.0
0
LINE
8
0
6
CONTINUOUS
10
-69.698685
20
361.381000
30
0.0
11
-65.364675
21
354.689860
31
0.0
0
LINE
8
0
6
CONTINUOUS
10
-82.128725
20
381.760330
30
0.0
11
-78.109335
21
375.428240
31
0.0
0
LINE
8
0
6
CONTINUOUS
10
-78.109335
20
375.428240
30
0.0
11
-73.703295
21
368.573990
31
0.0
0
LINE
8
0
6
CONTINUOUS
10
-73.703295
20
368.573990
30
0.0
11
-69.237225
21
361.795430
31
0.0
0
LINE
8
0
6
CONTINUOUS
10
-69.237225
20
361.795430
30
0.0
11
-64.671625
21
354.903340
31
0.0
0
LINE
8
0
6
CONTINUOUS
10
-43.395915
20
358.123090
30
0.0
11
-43.514555
21
358.304060
31
0.0
0
LINE
8
0
6
CONTINUOUS
10
-45.162955
20
322.844310
30
0.0
11
-41.700395
21
317.622150
31
0.0
0
LINE
8
0
6
CONTINUOUS
10
-48.733815
20
328.365710
30
0.0
11
-45.162955
21
322.844310
31
0.0
0
LINE
8
0
6
CONTINUOUS
10
-52.798295
20
334.581990
30
0.0
11
-48.733815
21
328.365710
31
0.0
0
LINE
8
0
6
CONTINUOUS
10
-57.325225
20
341.465070
30
0.0
11
-52.798295
21
334.581990
31
0.0
0
LINE
8
0
6
CONTINUOUS
10
-61.377975
20
347.715230
30
0.0
11
-57.325225
21
341.465070
31
0.0
0
LINE
8
0
6
CONTINUOUS
10
-65.767885
20
354.453200
30
0.0
11
-61.385430
21
347.726673
31
0.0
0
LINE
8
0
6
CONTINUOUS
10
-40.841345
20
317.134020
30
0.0
11
-37.848525
21
312.628250
31
0.0
0
LINE
8
0
6
CONTINUOUS
10
-37.848525
20
312.628250
30
0.0
11
-35.467675
21
308.891830
31
0.0
0
LINE
8
0
6
CONTINUOUS
10
-35.467675
20
308.891830
30
0.0
11
-34.433485
21
307.308580
31
0.0
0
LINE
8
0
6
CONTINUOUS
10
-39.724635
20
316.790240
30
0.0
11
-36.536345
21
312.243580
31
0.0
0
LINE
8
0
6
CONTINUOUS
10
-36.536345
20
312.243580
30
0.0
11
-34.207295
21
308.413160
31
0.0
0
LINE
8
0
6
CONTINUOUS
10
-47.408795
20
364.243090
30
0.0
11
-48.035455
21
365.198750
31
0.0
0
LINE
8
0
6
CONTINUOUS
10
-52.437415
20
371.912000
30
0.0
11
-52.674495
21
372.273480
31
0.0
0
LINE
8
0
6
CONTINUOUS
10
-75.392195
20
403.714520
30
0.0
11
-85.015845
21
415.707170
31
0.0
0
LINE
8
0
6
CONTINUOUS
10
-46.165095
20
362.346270
30
0.0
11
-46.817325
21
363.340990
31
0.0
0
LINE
8
0
6
CONTINUOUS
10
-16.455825
20
311.149060
30
0.0
11
-23.621935
21
324.753490
31
0.0
0
LINE
8
0
6
CONTINUOUS
10
-46.817325
20
363.340990
30
0.0
11
-47.408795
21
364.243090
31
0.0
0
LINE
8
0
6
CONTINUOUS
10
-52.674495
20
372.273480
30
0.0
11
-52.782375
21
372.437970
31
0.0
0
LINE
8
0
6
CONTINUOUS
10
-45.110585
20
360.738140
30
0.0
11
-45.616785
21
361.510090
31
0.0
0
LINE
8
0
6
CONTINUOUS
10
-52.836885
20
372.521130
30
0.0
11
-59.997345
21
382.998280
31
0.0
0
LINE
8
0
6
CONTINUOUS
10
-52.782375
20
372.437970
30
0.0
11
-52.836885
21
372.521130
31
0.0
0
LINE
8
0
6
CONTINUOUS
10
-59.997345
20
382.998280
30
0.0
11
-67.558695
21
393.408130
31
0.0
0
LINE
8
0
6
CONTINUOUS
10
-67.558695
20
393.408130
30
0.0
11
-75.392195
21
403.714520
31
0.0
0
LINE
8
0
6
CONTINUOUS
10
-92.175725
20
395.703960
30
0.0
11
-89.412205
21
391.503980
31
0.0
0
LINE
8
0
6
CONTINUOUS
10
-89.237945
20
392.611160
30
0.0
11
-92.157225
21
396.785960
31
0.0
0
LINE
8
0
6
CONTINUOUS
10
-94.708075
20
399.643330
30
0.0
11
-92.175725
21
395.703960
31
0.0
0
LINE
8
0
6
CONTINUOUS
10
-92.157225
20
396.785960
30
0.0
11
-94.582415
21
400.685200
31
0.0
0
LINE
8
0
6
CONTINUOUS
10
-96.525275
20
402.356800
30
0.0
11
-94.708075
21
399.643330
31
0.0
0
LINE
8
0
6
CONTINUOUS
10
-94.582415
20
400.685200
30
0.0
11
-96.559265
21
403.623890
31
0.0
0
LINE
8
0
6
CONTINUOUS
10
-97.940115
20
404.469830
30
0.0
11
-96.525275
21
402.356800
31
0.0
0
LINE
8
0
6
CONTINUOUS
10
-96.559265
20
403.623890
30
0.0
11
-98.042805
21
405.929950
31
0.0
0
LINE
8
0
6
CONTINUOUS
10
-98.708235
20
405.732500
30
0.0
11
-97.940115
21
404.469830
31
0.0
0
LINE
8
0
6
CONTINUOUS
10
-98.042805
20
405.929950
30
0.0
11
-98.814405
21
407.099230
31
0.0
0
LINE
8
0
6
CONTINUOUS
10
-99.078795
20
407.642900
30
0.0
11
-99.157875
21
406.214680
31
0.0
0
LINE
8
0
6
CONTINUOUS
10
-99.157875
20
406.214680
30
0.0
11
-98.708235
21
405.732500
31
0.0
0
LINE
8
0
6
CONTINUOUS
10
-98.814405
20
407.099230
30
0.0
11
-99.078795
21
407.642900
31
0.0
0
LINE
8
0
6
CONTINUOUS
10
-44.269585
20
322.394940
30
0.0
11
-40.841345
21
317.134020
31
0.0
0
LINE
8
0
6
CONTINUOUS
10
-39.724635
20
316.790240
30
0.0
11
-43.170615
21
322.099840
31
0.0
0
LINE
8
0
6
CONTINUOUS
10
-47.875865
20
327.917250
30
0.0
11
-44.269585
21
322.394940
31
0.0
0
LINE
8
0
6
CONTINUOUS
10
-43.170615
20
322.099840
30
0.0
11
-46.859885
21
327.811970
31
0.0
0
LINE
8
0
6
CONTINUOUS
10
-52.254425
20
334.634780
30
0.0
11
-47.875865
21
327.917250
31
0.0
0
LINE
8
0
6
CONTINUOUS
10
-46.859885
20
327.811970
30
0.0
11
-51.201045
21
334.393390
31
0.0
0
LINE
8
0
6
CONTINUOUS
10
-56.523005
20
341.123430
30
0.0
11
-52.254425
21
334.634780
31
0.0
0
LINE
8
0
6
CONTINUOUS
10
-51.201045
20
334.393390
30
0.0
11
-55.464905
21
340.980760
31
0.0
0
LINE
8
0
6
CONTINUOUS
10
-60.823975
20
347.672810
30
0.0
11
-56.523005
21
341.123430
31
0.0
0
LINE
8
0
6
CONTINUOUS
10
-55.464905
20
340.980760
30
0.0
11
-60.009315
21
347.783430
31
0.0
0
LINE
8
0
6
CONTINUOUS
10
-65.364675
20
354.689860
30
0.0
11
-60.823975
21
347.672810
31
0.0
0
LINE
8
0
6
CONTINUOUS
10
-60.009315
20
347.783430
30
0.0
11
-64.671625
21
354.903340
31
0.0
0
LINE
8
0
6
CONTINUOUS
10
-19.121155
20
313.794780
30
0.0
11
-18.390515
21
312.679820
31
0.0
0
LINE
8
0
6
CONTINUOUS
10
-21.071005
20
316.767810
30
0.0
11
-20.096085
21
315.281300
31
0.0
0
LINE
8
0
6
CONTINUOUS
10
-23.636275
20
320.679860
30
0.0
11
-21.071005
21
316.767810
31
0.0
0
LINE
8
0
6
CONTINUOUS
10
-43.061225
20
348.396380
30
0.0
11
-38.716755
21
341.771010
31
0.0
0
LINE
8
0
6
CONTINUOUS
10
-38.716755
20
341.771010
30
0.0
11
-34.678735
21
335.612720
31
0.0
0
LINE
8
0
6
CONTINUOUS
10
-34.678735
20
335.612720
30
0.0
11
-30.844695
21
329.766310
31
0.0
0
LINE
8
0
6
CONTINUOUS
10
-30.844695
20
329.766310
30
0.0
11
-27.368565
21
324.465710
31
0.0
0
LINE
8
0
6
CONTINUOUS
10
-86.175205
20
416.053850
30
0.0
11
-87.122465
21
415.590590
31
0.0
0
LINE
8
0
6
CONTINUOUS
10
-86.175205
20
416.053850
30
0.0
11
-85.814825
21
415.506970
31
0.0
0
LINE
8
0
6
CONTINUOUS
10
-85.740025
20
416.070170
30
0.0
11
-86.175205
21
416.053850
31
0.0
0
LINE
8
0
6
CONTINUOUS
10
-85.814825
20
415.506970
30
0.0
11
-84.917425
21
414.137340
31
0.0
0
LINE
8
0
6
CONTINUOUS
10
6.817355
20
215.298040
30
0.0
11
-11.707065
21
287.458080
31
0.0
0
LINE
8
0
6
CONTINUOUS
10
-39.584055
20
279.962730
30
0.0
11
-18.809115
21
208.431430
31
0.0
0
LINE
8
0
6
CONTINUOUS
10
3.251165
20
213.765830
30
0.0
11
4.834255
21
214.191090
31
0.0
0
LINE
8
0
6
CONTINUOUS
10
6.031685
20
214.513130
30
0.0
11
6.743755
21
214.705240
31
0.0
0
LINE
8
0
6
CONTINUOUS
10
-18.422325
20
207.962000
30
0.0
11
-17.748745
21
208.141140
31
0.0
0
LINE
8
0
6
CONTINUOUS
10
6.959275
20
214.764370
30
0.0
11
6.817355
21
215.298040
31
0.0
0
LINE
8
0
6
CONTINUOUS
10
6.743755
20
214.705240
30
0.0
11
6.959275
21
214.764370
31
0.0
0
LINE
8
0
6
CONTINUOUS
10
-18.809115
20
208.431430
30
0.0
11
-18.664215
21
207.898600
31
0.0
0
LINE
8
0
6
CONTINUOUS
10
-18.664215
20
207.898600
30
0.0
11
-18.422325
21
207.962000
31
0.0
0
LINE
8
0
6
CONTINUOUS
10
-8.367465
20
210.650670
30
0.0
11
-5.853745
21
211.324120
31
0.0
0
LINE
8
0
6
CONTINUOUS
10
-17.748745
20
208.141140
30
0.0
11
-16.552275
21
208.460580
31
0.0
0
LINE
8
0
6
CONTINUOUS
10
-14.952285
20
208.888210
30
0.0
11
-13.009005
21
209.408000
31
0.0
0
LINE
8
0
6
CONTINUOUS
10
1.304395
20
213.243290
30
0.0
11
3.251165
21
213.765830
31
0.0
0
LINE
8
0
6
CONTINUOUS
10
-10.785115
20
210.003240
30
0.0
11
-9.576295
21
210.326960
31
0.0
0
LINE
8
0
6
CONTINUOUS
10
-0.932915
20
212.643170
30
0.0
11
1.304395
21
213.243290
31
0.0
0
LINE
8
0
6
CONTINUOUS
10
-13.009005
20
209.408000
30
0.0
11
-10.785115
21
210.003240
31
0.0
0
LINE
8
0
6
CONTINUOUS
10
-16.552275
20
208.460580
30
0.0
11
-14.952285
21
208.888210
31
0.0
0
LINE
8
0
6
CONTINUOUS
10
4.834255
20
214.191090
30
0.0
11
6.031685
21
214.513130
31
0.0
0
LINE
8
0
6
CONTINUOUS
10
-35.472895
20
308.042680
30
0.0
11
-34.794035
21
306.937790
31
0.0
0
LINE
8
0
6
CONTINUOUS
10
-35.627965
20
293.447610
30
0.0
11
-36.336835
21
291.717190
31
0.0
0
LINE
8
0
6
CONTINUOUS
10
-37.602755
20
288.553430
30
0.0
11
-38.794105
21
285.797390
31
0.0
0
LINE
8
0
6
CONTINUOUS
10
-34.301825
20
299.061810
30
0.0
11
-34.623215
21
297.659230
31
0.0
0
LINE
8
0
6
CONTINUOUS
10
-34.623215
20
297.659230
30
0.0
11
-34.944585
21
296.256600
31
0.0
0
LINE
8
0
6
CONTINUOUS
10
-39.602745
20
283.895070
30
0.0
11
-40.165825
21
282.949560
31
0.0
0
LINE
8
0
6
CONTINUOUS
10
-40.165825
20
282.949560
30
0.0
11
-40.366505
21
282.694360
31
0.0
0
LINE
8
0
6
CONTINUOUS
10
-40.366505
20
282.694360
30
0.0
11
-39.627565
21
282.255360
31
0.0
0
LINE
8
0
6
CONTINUOUS
10
-38.794105
20
285.797390
30
0.0
11
-39.602745
21
283.895070
31
0.0
0
LINE
8
0
6
CONTINUOUS
10
-36.336835
20
291.717190
30
0.0
11
-37.602755
21
288.553430
31
0.0
0
LINE
8
0
6
CONTINUOUS
10
-15.567635
20
303.115620
30
0.0
11
-16.115045
21
305.345380
31
0.0
0
LINE
8
0
6
CONTINUOUS
10
-34.944585
20
296.256600
30
0.0
11
-35.627965
21
293.447610
31
0.0
0
LINE
8
0
6
CONTINUOUS
10
-16.330775
20
308.572310
30
0.0
11
-16.402675
21
309.648060
31
0.0
0
LINE
8
0
6
CONTINUOUS
10
-16.402675
20
309.648060
30
0.0
11
-16.309195
21
310.184860
31
0.0
0
LINE
8
0
6
CONTINUOUS
10
-30.807575
20
302.532580
30
0.0
11
-31.253395
21
303.999560
31
0.0
0
LINE
8
0
6
CONTINUOUS
10
-32.901965
20
303.794780
30
0.0
11
-32.578895
21
302.239460
31
0.0
0
LINE
8
0
6
CONTINUOUS
10
-33.986455
20
304.319990
30
0.0
11
-33.739155
21
302.800980
31
0.0
0
LINE
8
0
6
CONTINUOUS
10
-18.241715
20
308.605270
30
0.0
11
-18.374175
21
310.746080
31
0.0
0
LINE
8
0
6
CONTINUOUS
10
-31.829995
20
304.912800
30
0.0
11
-32.467475
21
305.966110
31
0.0
0
LINE
8
0
6
CONTINUOUS
10
-33.830535
20
306.286090
30
0.0
11
-33.363045
21
305.239790
31
0.0
0
LINE
8
0
6
CONTINUOUS
10
-33.363045
20
305.239790
30
0.0
11
-32.901965
21
303.794780
31
0.0
0
LINE
8
0
6
CONTINUOUS
10
-34.794035
20
306.937790
30
0.0
11
-34.289005
21
305.738600
31
0.0
0
LINE
8
0
6
CONTINUOUS
10
-16.966845
20
309.030530
30
0.0
11
-17.210875
21
310.880360
31
0.0
0
LINE
8
0
6
CONTINUOUS
10
-34.207295
20
308.413160
30
0.0
11
-33.058635
21
306.735610
31
0.0
0
LINE
8
0
6
CONTINUOUS
10
-20.096085
20
315.281300
30
0.0
11
-19.121155
21
313.794780
31
0.0
0
LINE
8
0
6
CONTINUOUS
10
-32.467475
20
305.966110
30
0.0
11
-33.058635
21
306.735610
31
0.0
0
LINE
8
0
6
CONTINUOUS
10
-34.433485
20
307.308580
30
0.0
11
-33.830535
21
306.286090
31
0.0
0
LINE
8
0
6
CONTINUOUS
10
-43.514555
20
358.304060
30
0.0
11
-43.633205
21
358.485030
31
0.0
0
LINE
8
0
6
CONTINUOUS
10
-18.390515
20
312.679820
30
0.0
11
-17.659885
21
311.564860
31
0.0
0
LINE
8
0
6
CONTINUOUS
10
-34.289005
20
305.738600
30
0.0
11
-33.986455
21
304.319990
31
0.0
0
LINE
8
0
6
CONTINUOUS
10
-32.974865
20
304.656450
30
0.0
11
-34.289005
21
305.738600
31
0.0
0
LINE
8
0
6
CONTINUOUS
10
-97.697385
20
408.975750
30
0.0
11
-98.166585
21
408.682170
31
0.0
0
LINE
8
0
6
CONTINUOUS
10
-87.643365
20
415.264660
30
0.0
11
-97.697385
21
408.975750
31
0.0
0
LINE
8
0
6
CONTINUOUS
10
-18.374175
20
310.746080
30
0.0
11
-17.913685
21
310.044630
31
0.0
0
LINE
8
0
6
CONTINUOUS
10
-17.210875
20
310.880360
30
0.0
11
-17.659885
21
311.564860
31
0.0
0
LINE
8
0
6
CONTINUOUS
10
-23.621935
20
324.753490
30
0.0
11
-29.950015
21
336.046830
31
0.0
0
LINE
8
0
6
CONTINUOUS
10
-29.950015
20
336.046830
30
0.0
11
-36.481595
21
347.131730
31
0.0
0
LINE
8
0
6
CONTINUOUS
10
-31.829995
20
304.912800
30
0.0
11
-31.253395
21
303.999560
31
0.0
0
LINE
8
0
6
CONTINUOUS
10
-16.309195
20
310.184860
30
0.0
11
-16.266505
21
310.789720
31
0.0
0
LINE
8
0
6
CONTINUOUS
10
-16.115045
20
305.345380
30
0.0
11
-16.186965
21
306.420970
31
0.0
0
LINE
8
0
6
CONTINUOUS
10
-16.186965
20
306.420970
30
0.0
11
-16.258865
21
307.496720
31
0.0
0
LINE
8
0
6
CONTINUOUS
10
-16.258865
20
307.496720
30
0.0
11
-16.330775
21
308.572310
31
0.0
0
LINE
8
0
6
CONTINUOUS
10
-16.966845
20
309.030530
30
0.0
11
-17.913685
21
310.044630
31
0.0
0
LINE
8
0
6
CONTINUOUS
10
-18.241715
20
308.605270
30
0.0
11
-19.444035
21
309.927750
31
0.0
0
LINE
8
0
6
CONTINUOUS
10
-18.569725
20
307.165760
30
0.0
11
-19.444035
21
309.927750
31
0.0
0
LINE
8
0
6
CONTINUOUS
10
-30.361725
20
301.065600
30
0.0
11
-30.807575
21
302.532580
31
0.0
0
LINE
8
0
6
CONTINUOUS
10
-32.578895
20
302.239460
30
0.0
11
-32.610235
21
300.789720
31
0.0
0
LINE
8
0
6
CONTINUOUS
10
-33.739155
20
302.800980
30
0.0
11
-33.980455
21
300.464400
31
0.0
0
LINE
8
0
6
CONTINUOUS
10
-18.897755
20
305.726240
30
0.0
11
-17.581775
21
305.534900
31
0.0
0
LINE
8
0
6
CONTINUOUS
10
-34.959605
20
292.113380
30
0.0
11
-35.768155
21
290.368390
31
0.0
0
LINE
8
0
6
CONTINUOUS
10
-37.089665
20
286.793710
30
0.0
11
-38.286355
21
284.223590
31
0.0
0
LINE
8
0
6
CONTINUOUS
10
-11.707065
20
287.458080
30
0.0
11
-15.020205
21
300.885850
31
0.0
0
LINE
8
0
6
CONTINUOUS
10
-39.199175
20
282.594490
30
0.0
11
-39.719995
21
281.644170
31
0.0
0
LINE
8
0
6
CONTINUOUS
10
-39.719995
20
281.644170
30
0.0
11
-39.827895
21
281.200520
31
0.0
0
LINE
8
0
6
CONTINUOUS
10
-39.827895
20
281.200520
30
0.0
11
-39.584055
21
279.962730
31
0.0
0
LINE
8
0
6
CONTINUOUS
10
-38.286355
20
284.223590
30
0.0
11
-39.199175
21
282.594490
31
0.0
0
LINE
8
0
6
CONTINUOUS
10
-35.768155
20
290.368390
30
0.0
11
-37.089665
21
286.793710
31
0.0
0
LINE
8
0
6
CONTINUOUS
10
-33.999545
20
294.909630
30
0.0
11
-34.959605
21
292.113380
31
0.0
0
LINE
8
0
6
CONTINUOUS
10
-33.245915
20
297.499620
30
0.0
11
-33.999545
21
294.909630
31
0.0
0
LINE
8
0
6
CONTINUOUS
10
-15.020205
20
300.885850
30
0.0
11
-15.567635
21
303.115620
31
0.0
0
LINE
8
0
6
CONTINUOUS
10
-29.582965
20
299.478530
30
0.0
11
-30.361725
21
301.065600
31
0.0
0
LINE
8
0
6
CONTINUOUS
10
-32.610235
20
300.789720
30
0.0
11
-32.734485
21
299.451060
31
0.0
0
LINE
8
0
6
CONTINUOUS
10
-28.804215
20
297.891460
30
0.0
11
-29.582965
21
299.478530
31
0.0
0
LINE
8
0
6
CONTINUOUS
10
-32.734485
20
299.451060
30
0.0
11
-33.245915
21
297.499620
31
0.0
0
LINE
8
0
6
CONTINUOUS
10
-9.576295
20
210.326960
30
0.0
11
-8.367465
21
210.650670
31
0.0
0
LINE
8
0
6
CONTINUOUS
10
-33.980455
20
300.464400
30
0.0
11
-34.301825
21
299.061810
31
0.0
0
LINE
8
0
6
CONTINUOUS
10
-74.048705
20
367.072220
30
0.0
11
-70.121315
21
361.081620
31
0.0
0
LINE
8
0
6
CONTINUOUS
10
-89.206745
20
390.276870
30
0.0
11
-86.146665
21
385.579300
31
0.0
0
LINE
8
0
6
CONTINUOUS
10
-86.146665
20
385.579300
30
0.0
11
-82.405785
21
379.880900
31
0.0
0
LINE
8
0
6
CONTINUOUS
10
-82.405785
20
379.880900
30
0.0
11
-78.588835
21
374.054640
31
0.0
0
LINE
8
0
6
CONTINUOUS
10
-78.588835
20
374.054640
30
0.0
11
-74.048705
21
367.072220
31
0.0
0
LINE
8
0
6
CONTINUOUS
10
-70.121315
20
361.081620
30
0.0
11
-65.767885
21
354.453200
31
0.0
0
LINE
8
0
6
CONTINUOUS
10
-41.700395
20
317.622150
30
0.0
11
-39.023805
21
313.443530
31
0.0
0
LINE
8
0
6
CONTINUOUS
10
-39.023805
20
313.443530
30
0.0
11
-36.479715
21
309.587170
31
0.0
0
LINE
8
0
6
CONTINUOUS
10
-36.479715
20
309.587170
30
0.0
11
-35.472895
21
308.042680
31
0.0
0
LINE
8
0
6
CONTINUOUS
10
-34.816215
20
293.368800
30
0.0
11
-35.574925
21
291.631130
31
0.0
0
LINE
8
0
6
CONTINUOUS
10
-35.768155
20
290.368390
30
0.0
11
-34.959605
21
292.113380
31
0.0
0
LINE
8
0
6
CONTINUOUS
10
-37.026755
20
288.051110
30
0.0
11
-38.070595
21
285.318490
31
0.0
0
LINE
8
0
6
CONTINUOUS
10
-38.286355
20
284.223590
30
0.0
11
-37.089665
21
286.793710
31
0.0
0
LINE
8
0
6
CONTINUOUS
10
-33.043445
20
299.845500
30
0.0
11
-33.386495
21
298.128740
31
0.0
0
LINE
8
0
6
CONTINUOUS
10
-33.245915
20
297.499620
30
0.0
11
-32.734485
21
299.451060
31
0.0
0
LINE
8
0
6
CONTINUOUS
10
-33.386495
20
298.128740
30
0.0
11
-33.982575
21
296.167180
31
0.0
0
LINE
8
0
6
CONTINUOUS
10
-33.999545
20
294.909630
30
0.0
11
-33.245915
21
297.499620
31
0.0
0
LINE
8
0
6
CONTINUOUS
10
-38.931325
20
283.552740
30
0.0
11
-39.473265
21
282.604870
31
0.0
0
LINE
8
0
6
CONTINUOUS
10
-39.719995
20
281.644170
30
0.0
11
-39.199175
21
282.594490
31
0.0
0
LINE
8
0
6
CONTINUOUS
10
-39.473265
20
282.604870
30
0.0
11
-39.627565
21
282.255360
31
0.0
0
LINE
8
0
6
CONTINUOUS
10
-39.627565
20
282.255360
30
0.0
11
-39.827895
21
281.200520
31
0.0
0
LINE
8
0
6
CONTINUOUS
10
-39.827895
20
281.200520
30
0.0
11
-39.719995
21
281.644170
31
0.0
0
LINE
8
0
6
CONTINUOUS
10
-38.070595
20
285.318490
30
0.0
11
-38.931325
21
283.552740
31
0.0
0
LINE
8
0
6
CONTINUOUS
10
-39.199175
20
282.594490
30
0.0
11
-38.286355
21
284.223590
31
0.0
0
LINE
8
0
6
CONTINUOUS
10
-35.574925
20
291.631130
30
0.0
11
-37.026755
21
288.051110
31
0.0
0
LINE
8
0
6
CONTINUOUS
10
-37.089665
20
286.793710
30
0.0
11
-35.768155
21
290.368390
31
0.0
0
LINE
8
0
6
CONTINUOUS
10
-33.982575
20
296.167180
30
0.0
11
-34.816215
21
293.368800
31
0.0
0
LINE
8
0
6
CONTINUOUS
10
-34.959605
20
292.113380
30
0.0
11
-33.999545
21
294.909630
31
0.0
0
LINE
8
0
6
CONTINUOUS
10
-32.610235
20
300.789720
30
0.0
11
-32.578895
21
302.239460
31
0.0
0
LINE
8
0
6
CONTINUOUS
10
-32.642415
20
303.092270
30
0.0
11
-32.803925
21
301.210710
31
0.0
0
LINE
8
0
6
CONTINUOUS
10
-32.803925
20
301.210710
30
0.0
11
-33.043445
21
299.845500
31
0.0
0
LINE
8
0
6
CONTINUOUS
10
-32.734485
20
299.451060
30
0.0
11
-32.610235
21
300.789720
31
0.0
0
LINE
8
0
6
CONTINUOUS
10
-0.932915
20
212.643170
30
0.0
11
-3.346935
21
211.995960
31
0.0
0
LINE
8
0
6
CONTINUOUS
10
-3.346935
20
211.995960
30
0.0
11
-5.853745
21
211.324120
31
0.0
0
LINE
8
0
6
CONTINUOUS
10
3.943705
20
213.625600
30
0.0
11
3.861075
21
213.933980
31
0.0
0
LINE
8
0
6
CONTINUOUS
10
-15.619745
20
208.714100
30
0.0
11
-15.569035
21
208.524871
31
0.0
0
LINE
8
0
6
CONTINUOUS
10
-47.990705
20
365.130390
30
0.0
11
-45.110585
21
360.738140
31
0.0
0
LINE
8
0
6
CONTINUOUS
10
-48.248855
20
365.524220
30
0.0
11
-49.905135
21
368.050160
31
0.0
0
LINE
8
0
6
CONTINUOUS
10
-48.221315
20
365.482100
30
0.0
11
-48.248855
21
365.524220
31
0.0
0
LINE
8
0
6
CONTINUOUS
10
-43.756605
20
358.673320
30
0.0
11
-47.861265
21
364.933090
31
0.0
0
LINE
8
0
6
CONTINUOUS
10
-47.923945
20
365.028610
30
0.0
11
-44.226845
21
359.390330
31
0.0
0
LINE
8
0
6
CONTINUOUS
10
-48.059705
20
365.235670
30
0.0
11
-46.165095
21
362.346270
31
0.0
0
LINE
8
0
6
CONTINUOUS
10
-48.661855
20
366.154100
30
0.0
11
-49.253205
21
367.055890
31
0.0
0
LINE
8
0
6
CONTINUOUS
10
-48.147935
20
365.370250
30
0.0
11
-48.115225
21
365.320360
31
0.0
0
LINE
8
0
6
CONTINUOUS
10
-52.674495
20
372.273480
30
0.0
11
-52.782375
21
372.437970
31
0.0
0
LINE
8
0
6
CONTINUOUS
10
-52.437415
20
371.912000
30
0.0
11
-52.674495
21
372.273480
31
0.0
0
LINE
8
0
6
CONTINUOUS
10
-49.253205
20
367.055890
30
0.0
11
-49.905135
21
368.050160
31
0.0
0
LINE
8
0
6
CONTINUOUS
10
-48.180075
20
365.419240
30
0.0
11
-48.147935
21
365.370250
31
0.0
0
LINE
8
0
6
CONTINUOUS
10
-48.035455
20
365.198750
30
0.0
11
-48.661855
21
366.154100
31
0.0
0
LINE
8
0
6
CONTINUOUS
10
-48.115225
20
365.320360
30
0.0
11
-48.081175
21
365.268480
31
0.0
0
LINE
8
0
6
CONTINUOUS
10
-48.238625
20
365.508500
30
0.0
11
-50.960925
21
369.660260
31
0.0
0
LINE
8
0
6
CONTINUOUS
10
-47.944265
20
365.059590
30
0.0
11
-45.616795
21
361.510090
31
0.0
0
LINE
8
0
6
CONTINUOUS
10
-48.210615
20
365.465770
30
0.0
11
-48.180075
21
365.419240
31
0.0
0
LINE
8
0
6
CONTINUOUS
10
-70.281433
20
345.959603
30
0.0
11
-72.462245
21
349.288860
31
0.0
0
LINE
8
0
6
CONTINUOUS
10
-61.337235
20
330.878680
30
0.0
11
-60.896925
21
330.208050
31
0.0
0
LINE
8
0
6
CONTINUOUS
10
-60.896925
20
330.208050
30
0.0
11
-60.074395
21
330.393450
31
0.0
0
LINE
8
0
6
CONTINUOUS
10
-60.520315
20
331.073230
30
0.0
11
-61.709185
21
332.889020
31
0.0
0
LINE
8
0
6
CONTINUOUS
10
-64.466485
20
335.651470
30
0.0
11
-62.510305
21
332.671130
31
0.0
0
LINE
8
0
6
CONTINUOUS
10
-61.709185
20
332.889020
30
0.0
11
-62.169474
21
333.590494
31
0.0
0
LINE
8
0
6
CONTINUOUS
10
-64.470084
20
337.097632
30
0.0
11
-66.318505
21
339.917070
31
0.0
0
LINE
8
0
6
CONTINUOUS
10
-69.994555
20
344.080120
30
0.0
11
-67.059245
21
339.607010
31
0.0
0
LINE
8
0
6
CONTINUOUS
10
-66.318505
20
339.917070
30
0.0
11
-68.059548
21
342.570682
31
0.0
0
LINE
8
0
6
CONTINUOUS
10
-84.853395
20
368.179090
30
0.0
11
-85.351535
21
367.498550
31
0.0
0
LINE
8
0
6
CONTINUOUS
10
-83.215955
20
365.687480
30
0.0
11
-84.406785
21
367.500230
31
0.0
0
LINE
8
0
6
CONTINUOUS
10
-83.735325
20
365.039750
30
0.0
11
-81.780715
21
362.056500
31
0.0
0
LINE
8
0
6
CONTINUOUS
10
-82.658403
20
364.836507
30
0.0
11
-83.215955
21
365.687480
31
0.0
0
LINE
8
0
6
CONTINUOUS
10
-81.780715
20
362.056500
30
0.0
11
-79.187705
21
358.101420
31
0.0
0
LINE
8
0
6
CONTINUOUS
10
-78.607755
20
358.657460
30
0.0
11
-80.359182
21
361.328389
31
0.0
0
LINE
8
0
6
CONTINUOUS
10
-72.462245
20
349.288860
30
0.0
11
-74.546635
21
352.467285
31
0.0
0
LINE
8
0
6
CONTINUOUS
10
-76.769268
20
355.855555
30
0.0
11
-78.607755
21
358.657460
31
0.0
0
LINE
8
0
6
CONTINUOUS
10
-88.722235
20
376.672290
30
0.0
11
-88.997985
21
375.849080
31
0.0
0
LINE
8
0
6
CONTINUOUS
10
-88.093295
20
375.716170
30
0.0
11
-88.646905
21
376.557773
31
0.0
0
LINE
8
0
6
CONTINUOUS
10
-88.997985
20
375.849080
30
0.0
11
-88.379655
21
374.909290
31
0.0
0
LINE
8
0
6
CONTINUOUS
10
-56.955115
20
326.991040
30
0.0
11
-55.308955
21
324.476090
31
0.0
0
LINE
8
0
6
CONTINUOUS
10
-60.923203
20
334.283278
30
0.0
11
-62.620155
21
336.871720
31
0.0
0
LINE
8
0
6
CONTINUOUS
10
-63.335525
20
336.719590
30
0.0
11
-59.714707
21
331.195909
31
0.0
0
LINE
8
0
6
CONTINUOUS
10
-56.521628
20
327.572689
30
0.0
11
-58.610069
21
330.755378
31
0.0
0
LINE
8
0
6
CONTINUOUS
10
-59.698805
20
331.171650
30
0.0
11
-56.955115
21
326.991040
31
0.0
0
LINE
8
0
6
CONTINUOUS
10
-88.053434
20
375.655489
30
0.0
11
-88.093295
21
375.716170
31
0.0
0
LINE
8
0
6
CONTINUOUS
10
-88.379655
20
374.909290
30
0.0
11
-86.730375
21
372.399220
31
0.0
0
LINE
8
0
6
CONTINUOUS
10
-72.230219
20
351.530562
30
0.0
11
-75.738095
21
356.879650
31
0.0
0
LINE
8
0
6
CONTINUOUS
10
-76.232705
20
356.390910
30
0.0
11
-71.842295
21
349.695970
31
0.0
0
LINE
8
0
6
CONTINUOUS
10
-62.620155
20
336.871720
30
0.0
11
-64.070708
21
339.082545
31
0.0
0
LINE
8
0
6
CONTINUOUS
10
-66.346712
20
342.551461
30
0.0
11
-66.808465
21
343.255230
31
0.0
0
LINE
8
0
6
CONTINUOUS
10
-67.454235
20
342.996290
30
0.0
11
-63.335525
21
336.719590
31
0.0
0
LINE
8
0
6
CONTINUOUS
10
-55.308955
20
324.476090
30
0.0
11
-54.691405
21
323.535380
31
0.0
0
LINE
8
0
6
CONTINUOUS
10
-83.839774
20
369.230923
30
0.0
11
-85.926067
21
372.415057
31
0.0
0
LINE
8
0
6
CONTINUOUS
10
-86.730375
20
372.399220
30
0.0
11
-83.988845
21
368.214800
31
0.0
0
LINE
8
0
6
CONTINUOUS
10
-80.351725
20
362.667620
30
0.0
11
-76.232705
21
356.390910
31
0.0
0
LINE
8
0
6
CONTINUOUS
10
-75.738095
20
356.879650
30
0.0
11
-76.102589
21
357.435144
31
0.0
0
LINE
8
0
6
CONTINUOUS
10
-78.378708
20
360.903983
30
0.0
11
-79.926715
21
363.263170
31
0.0
0
LINE
8
0
6
CONTINUOUS
10
-79.926715
20
363.263170
30
0.0
11
-81.526603
21
365.703035
31
0.0
0
LINE
8
0
6
CONTINUOUS
10
-83.988845
20
368.214800
30
0.0
11
-80.351725
21
362.667620
31
0.0
0
LINE
8
0
6
CONTINUOUS
10
-66.808465
20
343.255230
30
0.0
11
-70.216402
21
348.457885
31
0.0
0
LINE
8
0
6
CONTINUOUS
10
-71.842295
20
349.695970
30
0.0
11
-67.454235
21
342.996290
31
0.0
0
LINE
8
0
6
CONTINUOUS
10
-92.089895
20
384.286730
30
0.0
11
-91.298585
21
383.084030
31
0.0
0
LINE
8
0
6
CONTINUOUS
10
-51.082025
20
321.759110
30
0.0
11
-50.463744
21
320.814532
31
0.0
0
LINE
8
0
6
CONTINUOUS
10
-59.247535
20
334.209370
30
0.0
11
-54.593335
21
327.109450
31
0.0
0
LINE
8
0
6
CONTINUOUS
10
-54.593335
20
327.109450
30
0.0
11
-53.821225
21
325.932951
31
0.0
0
LINE
8
0
6
CONTINUOUS
10
-51.613299
20
322.568637
30
0.0
11
-51.082025
21
321.759110
31
0.0
0
LINE
8
0
6
CONTINUOUS
10
-91.298585
20
383.084030
30
0.0
11
-89.187865
21
379.871600
31
0.0
0
LINE
8
0
6
CONTINUOUS
10
-75.753125
20
359.384380
30
0.0
11
-70.134365
21
350.816420
31
0.0
0
LINE
8
0
6
CONTINUOUS
10
-64.518575
20
342.242360
30
0.0
11
-59.247535
21
334.209370
31
0.0
0
LINE
8
0
6
CONTINUOUS
10
-89.187865
20
379.871600
30
0.0
11
-85.679295
21
374.516530
31
0.0
0
LINE
8
0
6
CONTINUOUS
10
-81.024585
20
367.417220
30
0.0
11
-75.753125
21
359.384380
31
0.0
0
LINE
8
0
6
CONTINUOUS
10
-85.679295
20
374.516530
30
0.0
11
-81.024585
21
367.417220
31
0.0
0
LINE
8
0
6
CONTINUOUS
10
-70.134365
20
350.816420
30
0.0
11
-64.518575
21
342.242360
31
0.0
0
LINE
8
0
6
CONTINUOUS
10
-95.567595
20
393.298870
30
0.0
11
-94.589625
21
391.812360
31
0.0
0
LINE
8
0
6
CONTINUOUS
10
-54.977645
20
331.408160
30
0.0
11
-49.225495
21
322.633290
31
0.0
0
LINE
8
0
6
CONTINUOUS
10
-49.225495
20
322.633290
30
0.0
11
-44.885855
21
316.020740
31
0.0
0
LINE
8
0
6
CONTINUOUS
10
-94.589625
20
391.812360
30
0.0
11
-91.980965
21
387.842180
31
0.0
0
LINE
8
0
6
CONTINUOUS
10
-75.376935
20
362.522050
30
0.0
11
-68.432705
21
351.932750
31
0.0
0
LINE
8
0
6
CONTINUOUS
10
-61.492125
20
341.336140
30
0.0
11
-54.977645
21
331.408160
31
0.0
0
LINE
8
0
6
CONTINUOUS
10
-91.980965
20
387.842180
30
0.0
11
-87.644725
21
381.223830
31
0.0
0
LINE
8
0
6
CONTINUOUS
10
-81.891945
20
372.449720
30
0.0
11
-75.376935
21
362.522050
31
0.0
0
LINE
8
0
6
CONTINUOUS
10
-87.644725
20
381.223830
30
0.0
11
-81.891945
21
372.449720
31
0.0
0
LINE
8
0
6
CONTINUOUS
10
-68.432705
20
351.932750
30
0.0
11
-61.492125
21
341.336140
31
0.0
0
LINE
8
0
6
CONTINUOUS
10
-16.624385
20
311.335370
30
0.0
11
-16.505075
21
311.153490
31
0.0
0
LINE
8
0
6
CONTINUOUS
10
-17.492795
20
312.660600
30
0.0
11
-17.058585
21
311.997910
31
0.0
0
LINE
8
0
6
CONTINUOUS
10
-18.974315
20
314.921190
30
0.0
11
-18.233555
21
313.790820
31
0.0
0
LINE
8
0
6
CONTINUOUS
10
-20.866305
20
317.805250
30
0.0
11
-19.920325
21
316.363300
31
0.0
0
LINE
8
0
6
CONTINUOUS
10
-23.421505
20
321.703110
30
0.0
11
-20.866305
21
317.805250
31
0.0
0
LINE
8
0
6
CONTINUOUS
10
-26.385855
20
326.224290
30
0.0
11
-23.421505
21
321.703110
31
0.0
0
LINE
8
0
6
CONTINUOUS
10
-50.767655
20
363.406910
30
0.0
11
-46.320395
21
356.624530
31
0.0
0
LINE
8
0
6
CONTINUOUS
10
-46.320395
20
356.624530
30
0.0
11
-42.078585
21
350.155410
31
0.0
0
LINE
8
0
6
CONTINUOUS
10
-42.078585
20
350.155410
30
0.0
11
-37.581345
21
343.295360
31
0.0
0
LINE
8
0
6
CONTINUOUS
10
-37.581345
20
343.295360
30
0.0
11
-33.593415
21
337.215350
31
0.0
0
LINE
8
0
6
CONTINUOUS
10
-33.593415
20
337.215350
30
0.0
11
-29.810685
21
331.446910
31
0.0
0
LINE
8
0
6
CONTINUOUS
10
-29.810685
20
331.446910
30
0.0
11
-26.385855
21
326.224290
31
0.0
0
LINE
8
0
6
CONTINUOUS
10
-55.214875
20
370.189130
30
0.0
11
-50.767655
21
363.406910
31
0.0
0
LINE
8
0
6
CONTINUOUS
10
-63.955225
20
383.518300
30
0.0
11
-59.456705
21
376.658250
31
0.0
0
LINE
8
0
6
CONTINUOUS
10
-67.941945
20
389.598920
30
0.0
11
-63.955225
21
383.518300
31
0.0
0
LINE
8
0
6
CONTINUOUS
10
-71.724695
20
395.367510
30
0.0
11
-67.941945
21
389.598920
31
0.0
0
LINE
8
0
6
CONTINUOUS
10
-75.148215
20
400.589980
30
0.0
11
-71.724695
21
395.367510
31
0.0
0
LINE
8
0
6
CONTINUOUS
10
-85.270095
20
416.023940
30
0.0
11
-84.911015
21
415.479050
31
0.0
0
LINE
8
0
6
CONTINUOUS
10
-85.015845
20
415.707170
30
0.0
11
-85.270095
21
416.023940
31
0.0
0
LINE
8
0
6
CONTINUOUS
10
-84.911015
20
415.479050
30
0.0
11
-84.042555
21
414.153370
31
0.0
0
LINE
8
0
6
CONTINUOUS
10
-84.042555
20
414.153370
30
0.0
11
-82.559745
21
411.893080
31
0.0
0
LINE
8
0
6
CONTINUOUS
10
-82.559745
20
411.893080
30
0.0
11
-80.668995
21
409.008560
31
0.0
0
LINE
8
0
6
CONTINUOUS
10
-80.668995
20
409.008560
30
0.0
11
-78.113795
21
405.110550
31
0.0
0
LINE
8
0
6
CONTINUOUS
10
-78.113795
20
405.110550
30
0.0
11
-75.148215
21
400.589980
31
0.0
0
LINE
8
0
6
CONTINUOUS
10
-59.456705
20
376.658250
30
0.0
11
-55.214875
21
370.189130
31
0.0
0
LINE
8
0
6
CONTINUOUS
10
-19.920325
20
316.363300
30
0.0
11
-18.974315
21
314.921190
31
0.0
0
LINE
8
0
6
CONTINUOUS
10
-18.233555
20
313.790820
30
0.0
11
-17.492795
21
312.660600
31
0.0
0
LINE
8
0
6
CONTINUOUS
10
-17.058585
20
311.997910
30
0.0
11
-16.624385
21
311.335370
31
0.0
0
LINE
8
0
6
CONTINUOUS
10
-16.266505
20
310.789720
30
0.0
11
-16.455825
21
311.149060
31
0.0
0
LINE
8
0
6
CONTINUOUS
10
-16.385795
20
310.971600
30
0.0
11
-16.266505
21
310.789720
31
0.0
0
LINE
8
0
6
CONTINUOUS
10
-16.505075
20
311.153490
30
0.0
11
-16.385795
21
310.971600
31
0.0
0
LINE
8
0
6
CONTINUOUS
10
-69.994555
20
344.080120
30
0.0
11
-73.122515
21
348.855970
31
0.0
0
LINE
8
0
6
CONTINUOUS
10
-84.910765
20
366.828540
30
0.0
11
-85.351535
21
367.498550
31
0.0
0
LINE
8
0
6
CONTINUOUS
10
-64.466485
20
335.651470
30
0.0
11
-67.059245
21
339.607010
31
0.0
0
LINE
8
0
6
CONTINUOUS
10
-73.122515
20
348.855970
30
0.0
11
-76.252125
21
353.628460
31
0.0
0
LINE
8
0
6
CONTINUOUS
10
-76.252125
20
353.628460
30
0.0
11
-79.187705
21
358.101420
31
0.0
0
LINE
8
0
6
CONTINUOUS
10
-83.735325
20
365.039750
30
0.0
11
-84.910765
21
366.828540
31
0.0
0
LINE
8
0
6
CONTINUOUS
10
-61.337235
20
330.878680
30
0.0
11
-62.510305
21
332.671130
31
0.0
0
LINE
8
0
6
CONTINUOUS
10
8.725405
20
186.417240
30
0.0
11
9.837973
21
186.715390
31
0.0
0
LINE
8
0
6
CONTINUOUS
10
2.140835
20
183.959660
30
0.0
11
-1.675905
21
182.936860
31
0.0
0
LINE
8
0
6
CONTINUOUS
10
5.854175
20
184.954680
30
0.0
11
2.140835
21
183.959660
31
0.0
0
LINE
8
0
6
CONTINUOUS
10
8.898715
20
185.770420
30
0.0
11
10.011404
21
186.068602
31
0.0
0
LINE
8
0
6
CONTINUOUS
10
-6.629729
20
181.609539
30
0.0
11
-5.015085
21
182.042240
31
0.0
0
LINE
8
0
6
CONTINUOUS
10
6.291075
20
183.323970
30
0.0
11
2.577765
21
182.328950
31
0.0
0
LINE
8
0
6
CONTINUOUS
10
6.143625
20
183.874360
30
0.0
11
6.291075
21
183.323970
31
0.0
0
LINE
8
0
6
CONTINUOUS
10
9.335645
20
184.139860
30
0.0
11
6.291075
21
183.323970
31
0.0
0
LINE
8
0
6
CONTINUOUS
10
9.188165
20
184.690090
30
0.0
11
9.335645
21
184.139860
31
0.0
0
LINE
8
0
6
CONTINUOUS
10
10.448628
20
184.438035
30
0.0
11
9.335645
21
184.139860
31
0.0
0
LINE
8
0
6
CONTINUOUS
10
-4.578175
20
180.411530
30
0.0
11
-6.192517
21
179.979016
31
0.0
0
LINE
8
0
6
CONTINUOUS
10
2.577765
20
182.328950
30
0.0
11
-1.238995
21
181.306300
31
0.0
0
LINE
8
0
6
CONTINUOUS
10
-1.238995
20
181.306300
30
0.0
11
-4.578175
21
180.411530
31
0.0
0
LINE
8
0
6
CONTINUOUS
10
-0.762465
20
212.492220
30
0.0
11
-5.143055
21
211.318510
31
0.0
0
LINE
8
0
6
CONTINUOUS
10
-5.143055
20
211.318510
30
0.0
11
-9.645605
21
210.112000
31
0.0
0
LINE
8
0
6
CONTINUOUS
10
5.079375
20
214.057620
30
0.0
11
5.235595
21
213.343200
31
0.0
0
LINE
8
0
6
CONTINUOUS
10
5.607115
20
214.199070
30
0.0
11
5.079375
21
214.057620
31
0.0
0
LINE
8
0
6
CONTINUOUS
10
5.761675
20
213.484190
30
0.0
11
5.607115
21
214.199070
31
0.0
0
LINE
8
0
6
CONTINUOUS
10
-17.551145
20
207.993770
30
0.0
11
-17.323255
21
207.298580
31
0.0
0
LINE
8
0
6
CONTINUOUS
10
-16.360965
20
208.312680
30
0.0
11
-17.551145
21
207.993770
31
0.0
0
LINE
8
0
6
CONTINUOUS
10
2.992505
20
212.742160
30
0.0
11
2.829165
21
213.454590
31
0.0
0
LINE
8
0
6
CONTINUOUS
10
-13.584805
20
209.056550
30
0.0
11
-16.360965
21
208.312680
31
0.0
0
LINE
8
0
6
CONTINUOUS
10
-1.849215
20
183.583680
30
0.0
11
-5.188395
21
182.689060
31
0.0
0
LINE
8
0
6
CONTINUOUS
10
1.967525
20
184.606480
30
0.0
11
5.680865
21
185.601500
31
0.0
0
LINE
8
0
6
CONTINUOUS
10
-1.849215
20
183.583680
30
0.0
11
1.967525
21
184.606480
31
0.0
0
LINE
8
0
6
CONTINUOUS
10
5.235595
20
213.343200
30
0.0
11
6.124098
21
208.994783
31
0.0
0
LINE
8
0
6
CONTINUOUS
10
6.637232
20
209.132243
30
0.0
11
5.761675
21
213.484190
31
0.0
0
LINE
8
0
6
CONTINUOUS
10
-17.323255
20
207.298580
30
0.0
11
-15.879091
21
203.099037
31
0.0
0
LINE
8
0
6
CONTINUOUS
10
-5.188395
20
182.689060
30
0.0
11
-1.849215
21
183.583680
31
0.0
0
LINE
8
0
6
CONTINUOUS
10
5.680865
20
185.601500
30
0.0
11
8.725405
21
186.417240
31
0.0
0
LINE
8
0
6
CONTINUOUS
10
8.725405
20
186.417240
30
0.0
11
2.992505
21
212.742160
31
0.0
0
LINE
8
0
6
CONTINUOUS
10
-6.803160
20
182.256327
30
0.0
11
-5.188395
21
182.689060
31
0.0
0
LINE
8
0
6
CONTINUOUS
10
5.854175
20
184.954680
30
0.0
11
6.143625
21
183.874360
31
0.0
0
LINE
8
0
6
CONTINUOUS
10
8.898715
20
185.770420
30
0.0
11
5.854175
21
184.954680
31
0.0
0
LINE
8
0
6
CONTINUOUS
10
5.680865
20
185.601500
30
0.0
11
1.967525
21
184.606480
31
0.0
0
LINE
8
0
6
CONTINUOUS
10
8.690385
20
186.069790
30
0.0
11
9.922561
21
186.399930
31
0.0
0
LINE
8
0
6
CONTINUOUS
10
9.837973
20
186.715390
30
0.0
11
8.725405
21
186.417240
31
0.0
0
LINE
8
0
6
CONTINUOUS
10
1.967525
20
184.606480
30
0.0
11
-1.849215
21
183.583680
31
0.0
0
LINE
8
0
6
CONTINUOUS
10
8.725405
20
186.417240
30
0.0
11
5.680865
21
185.601500
31
0.0
0
LINE
8
0
6
CONTINUOUS
10
-6.718593
20
181.940947
30
0.0
11
-4.999865
21
182.401580
31
0.0
0
LINE
8
0
6
CONTINUOUS
10
-5.188395
20
182.689060
30
0.0
11
-6.803160
21
182.256327
31
0.0
0
LINE
8
0
6
CONTINUOUS
10
-1.675905
20
182.936860
30
0.0
11
-5.015085
21
182.042240
31
0.0
0
LINE
8
0
6
CONTINUOUS
10
-5.015085
20
182.042240
30
0.0
11
-6.629729
21
181.609539
31
0.0
0
LINE
8
0
6
CONTINUOUS
10
8.898715
20
185.770420
30
0.0
11
9.188165
21
184.690090
31
0.0
0
LINE
8
0
6
CONTINUOUS
10
10.011404
20
186.068602
30
0.0
11
8.898715
21
185.770420
31
0.0
0
LINE
8
0
6
CONTINUOUS
10
-5.015085
20
182.042240
30
0.0
11
-1.675905
21
182.936860
31
0.0
0
LINE
8
0
6
CONTINUOUS
10
-1.714315
20
183.281860
30
0.0
11
-4.999865
21
182.401580
31
0.0
0
LINE
8
0
6
CONTINUOUS
10
5.854175
20
184.954680
30
0.0
11
8.898715
21
185.770420
31
0.0
0
LINE
8
0
6
CONTINUOUS
10
8.690385
20
186.069790
30
0.0
11
5.694805
21
185.267180
31
0.0
0
LINE
8
0
6
CONTINUOUS
10
-1.675905
20
182.936860
30
0.0
11
2.140835
21
183.959660
31
0.0
0
LINE
8
0
6
CONTINUOUS
10
2.041125
20
184.288180
30
0.0
11
-1.714315
21
183.281860
31
0.0
0
LINE
8
0
6
CONTINUOUS
10
2.140835
20
183.959660
30
0.0
11
5.854175
21
184.954680
31
0.0
0
LINE
8
0
6
CONTINUOUS
10
5.694805
20
185.267180
30
0.0
11
2.041125
21
184.288180
31
0.0
0
LINE
8
0
6
CONTINUOUS
10
-13.584805
20
209.056550
30
0.0
11
-9.645605
21
210.112000
31
0.0
0
LINE
8
0
6
CONTINUOUS
10
2.829165
20
213.454590
30
0.0
11
5.079375
21
214.057620
31
0.0
0
LINE
8
0
6
CONTINUOUS
10
-0.762465
20
212.492220
30
0.0
11
2.829165
21
213.454590
31
0.0
0
LINE
8
0
6
CONTINUOUS
10
6.773885
20
-494.449420
30
0.0
11
8.220794
21
-494.449406
31
0.0
0
LINE
8
0
6
CONTINUOUS
10
8.204324
20
-475.295734
30
0.0
11
7.505745
21
-475.295740
31
0.0
0
LINE
8
0
6
CONTINUOUS
10
-10.707105
20
-494.449420
30
0.0
11
-8.216775
21
-494.449410
31
0.0
0
LINE
8
0
6
CONTINUOUS
10
-8.854255
20
-475.295730
30
0.0
11
-11.572065
21
-475.295730
31
0.0
0
LINE
8
0
6
CONTINUOUS
10
-4.623025
20
-494.449430
30
0.0
11
-0.509535
21
-494.449390
31
0.0
0
LINE
8
0
6
CONTINUOUS
10
-0.442995
20
-475.295720
30
0.0
11
-4.932255
21
-475.295730
31
0.0
0
LINE
8
0
6
CONTINUOUS
10
-0.509535
20
-494.449390
30
0.0
11
3.492595
21
-494.449420
31
0.0
0
LINE
8
0
6
CONTINUOUS
10
3.924715
20
-475.295740
30
0.0
11
-0.442995
21
-475.295720
31
0.0
0
LINE
8
0
6
CONTINUOUS
10
-11.796025
20
-494.449400
30
0.0
11
-10.707105
21
-494.449420
31
0.0
0
LINE
8
0
6
CONTINUOUS
10
-12.760445
20
-475.295730
30
0.0
11
-11.796025
21
-494.449400
31
0.0
0
LINE
8
0
6
CONTINUOUS
10
-11.572065
20
-475.295730
30
0.0
11
-12.760445
21
-475.295730
31
0.0
0
LINE
8
0
6
CONTINUOUS
10
-8.216775
20
-494.449410
30
0.0
11
-4.623025
21
-494.449430
31
0.0
0
LINE
8
0
6
CONTINUOUS
10
-8.854255
20
-475.295730
30
0.0
11
-8.216775
21
-494.449410
31
0.0
0
LINE
8
0
6
CONTINUOUS
10
-4.932255
20
-475.295730
30
0.0
11
-8.854255
21
-475.295730
31
0.0
0
LINE
8
0
6
CONTINUOUS
10
-4.623025
20
-494.449430
30
0.0
11
-4.932255
21
-475.295730
31
0.0
0
LINE
8
0
6
CONTINUOUS
10
3.492595
20
-494.449420
30
0.0
11
6.773885
21
-494.449420
31
0.0
0
LINE
8
0
6
CONTINUOUS
10
7.505745
20
-475.295740
30
0.0
11
3.924715
21
-475.295740
31
0.0
0
LINE
8
0
6
CONTINUOUS
10
7.135385
20
-473.796410
30
0.0
11
3.706095
21
-473.796430
31
0.0
0
LINE
8
0
6
CONTINUOUS
10
3.924715
20
-475.295740
30
0.0
11
7.505745
21
-475.295740
31
0.0
0
LINE
8
0
6
CONTINUOUS
10
-0.509535
20
-494.449390
30
0.0
11
-4.623025
21
-494.449430
31
0.0
0
LINE
8
0
6
CONTINUOUS
10
8.220794
20
-494.449406
30
0.0
11
6.773885
21
-494.449420
31
0.0
0
LINE
8
0
6
CONTINUOUS
10
-11.796025
20
-494.449400
30
0.0
11
-11.625755
21
-494.780110
31
0.0
0
LINE
8
0
6
CONTINUOUS
10
-10.707105
20
-494.449420
30
0.0
11
-11.796025
21
-494.449400
31
0.0
0
LINE
8
0
6
CONTINUOUS
10
6.773885
20
-494.449420
30
0.0
11
3.492595
21
-494.449420
31
0.0
0
LINE
8
0
6
CONTINUOUS
10
-8.216775
20
-494.449410
30
0.0
11
-10.707105
21
-494.449420
31
0.0
0
LINE
8
0
6
CONTINUOUS
10
-4.623025
20
-494.449430
30
0.0
11
-8.216775
21
-494.449410
31
0.0
0
LINE
8
0
6
CONTINUOUS
10
3.492595
20
-494.449420
30
0.0
11
-0.509535
21
-494.449390
31
0.0
0
LINE
8
0
6
CONTINUOUS
10
-4.623015
20
-495.121680
30
0.0
11
-8.216775
21
-495.121650
31
0.0
0
LINE
8
0
6
CONTINUOUS
10
-8.216765
20
-496.037670
30
0.0
11
-8.216775
21
-495.121650
31
0.0
0
LINE
8
0
6
CONTINUOUS
10
-8.216775
20
-495.121650
30
0.0
11
-10.707095
21
-495.121670
31
0.0
0
LINE
8
0
6
CONTINUOUS
10
-4.623015
20
-495.121680
30
0.0
11
-4.623005
21
-496.037710
31
0.0
0
LINE
8
0
6
CONTINUOUS
10
-0.509525
20
-495.121640
30
0.0
11
-4.623015
21
-495.121680
31
0.0
0
LINE
8
0
6
CONTINUOUS
10
-0.509525
20
-495.121640
30
0.0
11
-0.509515
21
-496.037660
31
0.0
0
LINE
8
0
6
CONTINUOUS
10
3.492605
20
-495.121670
30
0.0
11
-0.509525
21
-495.121640
31
0.0
0
LINE
8
0
6
CONTINUOUS
10
8.221372
20
-495.121656
30
0.0
11
6.773895
21
-495.121670
31
0.0
0
LINE
8
0
6
CONTINUOUS
10
-11.796015
20
-495.121650
30
0.0
11
-11.796005
21
-496.037670
31
0.0
0
LINE
8
0
6
CONTINUOUS
10
-10.707095
20
-495.121670
30
0.0
11
-11.796015
21
-495.121650
31
0.0
0
LINE
8
0
6
CONTINUOUS
10
6.773895
20
-495.121670
30
0.0
11
3.492605
21
-495.121670
31
0.0
0
LINE
8
0
6
CONTINUOUS
10
6.773895
20
-495.121670
30
0.0
11
8.221372
21
-495.121656
31
0.0
0
LINE
8
0
6
CONTINUOUS
10
8.221078
20
-494.780107
30
0.0
11
6.645125
21
-494.780130
31
0.0
0
LINE
8
0
6
CONTINUOUS
10
-0.509525
20
-495.121640
30
0.0
11
3.492605
21
-495.121670
31
0.0
0
LINE
8
0
6
CONTINUOUS
10
3.416545
20
-494.780120
30
0.0
11
-0.521305
21
-494.780080
31
0.0
0
LINE
8
0
6
CONTINUOUS
10
3.492605
20
-495.121670
30
0.0
11
6.773895
21
-495.121670
31
0.0
0
LINE
8
0
6
CONTINUOUS
10
6.645125
20
-494.780130
30
0.0
11
3.416545
21
-494.780120
31
0.0
0
LINE
8
0
6
CONTINUOUS
10
-8.216775
20
-495.121650
30
0.0
11
-4.623015
21
-495.121680
31
0.0
0
LINE
8
0
6
CONTINUOUS
10
-4.568595
20
-494.780140
30
0.0
11
-8.090815
21
-494.780090
31
0.0
0
LINE
8
0
6
CONTINUOUS
10
-4.623015
20
-495.121680
30
0.0
11
-0.509525
21
-495.121640
31
0.0
0
LINE
8
0
6
CONTINUOUS
10
-0.521305
20
-494.780080
30
0.0
11
-4.568595
21
-494.780140
31
0.0
0
LINE
8
0
6
CONTINUOUS
10
-11.796015
20
-495.121650
30
0.0
11
-10.707095
21
-495.121670
31
0.0
0
LINE
8
0
6
CONTINUOUS
10
-11.625755
20
-494.780110
30
0.0
11
-11.796015
21
-495.121650
31
0.0
0
LINE
8
0
6
CONTINUOUS
10
-10.553825
20
-494.780120
30
0.0
11
-11.625755
21
-494.780110
31
0.0
0
LINE
8
0
6
CONTINUOUS
10
-10.707095
20
-495.121670
30
0.0
11
-8.216775
21
-495.121650
31
0.0
0
LINE
8
0
6
CONTINUOUS
10
-8.103785
20
-494.780090
30
0.0
11
-10.553825
21
-494.780120
31
0.0
0
LINE
8
0
6
CONTINUOUS
10
-0.509515
20
-496.795810
30
0.0
11
3.492625
21
-496.795860
31
0.0
0
LINE
8
0
6
CONTINUOUS
10
3.492625
20
-496.795860
30
0.0
11
6.773895
21
-496.795850
31
0.0
0
LINE
8
0
6
CONTINUOUS
10
-8.216765
20
-496.795790
30
0.0
11
-10.707075
21
-496.795860
31
0.0
0
LINE
8
0
6
CONTINUOUS
10
8.222811
20
-496.795808
30
0.0
11
6.773895
21
-496.795850
31
0.0
0
LINE
8
0
6
CONTINUOUS
10
-11.796005
20
-496.795790
30
0.0
11
-10.707075
21
-496.795860
31
0.0
0
LINE
8
0
6
CONTINUOUS
10
-11.796005
20
-496.037670
30
0.0
11
-11.796005
21
-496.795790
31
0.0
0
LINE
8
0
6
CONTINUOUS
10
-8.216765
20
-496.037670
30
0.0
11
-8.216765
21
-496.795790
31
0.0
0
LINE
8
0
6
CONTINUOUS
10
-4.622995
20
-496.795850
30
0.0
11
-8.216765
21
-496.795790
31
0.0
0
LINE
8
0
6
CONTINUOUS
10
-0.509515
20
-496.795810
30
0.0
11
-0.509515
21
-496.037660
31
0.0
0
LINE
8
0
6
CONTINUOUS
10
-4.622995
20
-496.795850
30
0.0
11
-0.509515
21
-496.795810
31
0.0
0
LINE
8
0
6
CONTINUOUS
10
-4.623005
20
-496.037710
30
0.0
11
-4.622995
21
-496.795850
31
0.0
0
LINE
8
0
6
CONTINUOUS
10
8.203007
20
-473.796410
30
0.0
11
7.135385
21
-473.796410
31
0.0
0
LINE
8
0
6
CONTINUOUS
10
7.505745
20
-475.295740
30
0.0
11
8.204324
21
-475.295734
31
0.0
0
LINE
8
0
6
CONTINUOUS
10
-0.476555
20
-473.796370
30
0.0
11
-4.775575
21
-473.796410
31
0.0
0
LINE
8
0
6
CONTINUOUS
10
-4.932255
20
-475.295730
30
0.0
11
-0.442995
21
-475.295720
31
0.0
0
LINE
8
0
6
CONTINUOUS
10
-8.531385
20
-473.796410
30
0.0
11
-11.134045
21
-473.796420
31
0.0
0
LINE
8
0
6
CONTINUOUS
10
-11.572065
20
-475.295730
30
0.0
11
-8.854255
21
-475.295730
31
0.0
0
LINE
8
0
6
CONTINUOUS
10
-12.272065
20
-473.796410
30
0.0
11
-12.760445
21
-475.295730
31
0.0
0
LINE
8
0
6
CONTINUOUS
10
-11.134045
20
-473.796420
30
0.0
11
-12.272065
21
-473.796410
31
0.0
0
LINE
8
0
6
CONTINUOUS
10
-12.760445
20
-475.295730
30
0.0
11
-11.572065
21
-475.295730
31
0.0
0
LINE
8
0
6
CONTINUOUS
10
-4.775575
20
-473.796410
30
0.0
11
-8.531385
21
-473.796410
31
0.0
0
LINE
8
0
6
CONTINUOUS
10
-8.854255
20
-475.295730
30
0.0
11
-4.932255
21
-475.295730
31
0.0
0
LINE
8
0
6
CONTINUOUS
10
3.706095
20
-473.796430
30
0.0
11
-0.476555
21
-473.796370
31
0.0
0
LINE
8
0
6
CONTINUOUS
10
-0.442995
20
-475.295720
30
0.0
11
3.924715
21
-475.295740
31
0.0
0
LINE
8
0
6
CONTINUOUS
10
3.706095
20
-473.796430
30
0.0
11
7.135385
21
-473.796410
31
0.0
0
LINE
8
0
6
CONTINUOUS
10
-12.272065
20
-473.796410
30
0.0
11
-11.134045
21
-473.796420
31
0.0
0
LINE
8
0
6
CONTINUOUS
10
-1.228135
20
-473.796400
30
0.0
11
-11.768165
21
-473.796390
31
0.0
0
LINE
8
0
6
CONTINUOUS
10
-8.090815
20
-496.795801
30
0.0
11
-8.090815
21
-510.505810
31
0.0
0
LINE
8
0
6
CONTINUOUS
10
-1.130395
20
-496.795770
30
0.0
11
-1.130395
21
-510.505810
31
0.0
0
LINE
8
0
6
CONTINUOUS
10
5.830015
20
-510.505810
30
0.0
11
5.830015
21
-496.795860
31
0.0
0
LINE
8
0
6
CONTINUOUS
10
-8.090815
20
-510.505810
30
0.0
11
-8.090815
21
-527.390270
31
0.0
0
LINE
8
0
6
CONTINUOUS
10
-1.130395
20
-510.505810
30
0.0
11
-1.130395
21
-527.390270
31
0.0
0
LINE
8
0
6
CONTINUOUS
10
5.830015
20
-527.390270
30
0.0
11
5.830015
21
-510.505810
31
0.0
0
LINE
8
0
6
CONTINUOUS
10
-8.090815
20
-527.390270
30
0.0
11
-8.090815
21
-544.079880
31
0.0
0
LINE
8
0
6
CONTINUOUS
10
-1.130395
20
-527.390270
30
0.0
11
-1.130395
21
-544.079880
31
0.0
0
LINE
8
0
6
CONTINUOUS
10
5.830015
20
-544.079880
30
0.0
11
5.830015
21
-527.390270
31
0.0
0
LINE
8
0
6
CONTINUOUS
10
-8.090815
20
-544.079880
30
0.0
11
-8.090815
21
-560.528640
31
0.0
0
LINE
8
0
6
CONTINUOUS
10
-1.130395
20
-544.079880
30
0.0
11
-1.130395
21
-560.528640
31
0.0
0
LINE
8
0
6
CONTINUOUS
10
5.830015
20
-560.528640
30
0.0
11
5.830015
21
-544.079880
31
0.0
0
LINE
8
0
6
CONTINUOUS
10
-8.090815
20
-560.528640
30
0.0
11
-8.090815
21
-576.690670
31
0.0
0
LINE
8
0
6
CONTINUOUS
10
-1.130395
20
-560.528640
30
0.0
11
-1.130395
21
-576.690670
31
0.0
0
LINE
8
0
6
CONTINUOUS
10
5.830015
20
-576.690670
30
0.0
11
5.830015
21
-560.528640
31
0.0
0
LINE
8
0
6
CONTINUOUS
10
-8.090815
20
-576.690670
30
0.0
11
-8.090815
21
-592.519990
31
0.0
0
LINE
8
0
6
CONTINUOUS
10
-1.130395
20
-576.690670
30
0.0
11
-1.130395
21
-592.519990
31
0.0
0
LINE
8
0
6
CONTINUOUS
10
5.830015
20
-592.519990
30
0.0
11
5.830015
21
-576.690670
31
0.0
0
LINE
8
0
6
CONTINUOUS
10
-8.090815
20
-592.519990
30
0.0
11
-8.090815
21
-607.970660
31
0.0
0
LINE
8
0
6
CONTINUOUS
10
-1.130395
20
-592.519990
30
0.0
11
-1.130395
21
-607.970660
31
0.0
0
LINE
8
0
6
CONTINUOUS
10
5.830015
20
-607.970660
30
0.0
11
5.830015
21
-592.519990
31
0.0
0
LINE
8
0
6
CONTINUOUS
10
-8.090815
20
-607.970660
30
0.0
11
-8.090815
21
-622.996710
31
0.0
0
LINE
8
0
6
CONTINUOUS
10
-1.130395
20
-607.970660
30
0.0
11
-1.130395
21
-622.996710
31
0.0
0
LINE
8
0
6
CONTINUOUS
10
5.830015
20
-622.996710
30
0.0
11
5.830015
21
-607.970660
31
0.0
0
LINE
8
0
6
CONTINUOUS
10
-8.090815
20
-622.996710
30
0.0
11
-8.090825
21
-637.523210
31
0.0
0
LINE
8
0
6
CONTINUOUS
10
-1.130395
20
-622.996710
30
0.0
11
-1.130415
21
-637.487430
31
0.0
0
LINE
8
0
6
CONTINUOUS
10
5.830015
20
-622.996710
30
0.0
11
5.829995
21
-637.516460
31
0.0
0
LINE
8
0
6
CONTINUOUS
10
-8.090825
20
-637.523210
30
0.0
11
-8.074965
21
-653.916780
31
0.0
0
LINE
8
0
6
CONTINUOUS
10
-1.130415
20
-637.487430
30
0.0
11
-1.114725
21
-653.753490
31
0.0
0
LINE
8
0
6
CONTINUOUS
10
5.845835
20
-653.885980
30
0.0
11
5.829995
21
-637.516460
31
0.0
0
LINE
8
0
6
CONTINUOUS
10
-8.074965
20
-653.916780
30
0.0
11
-8.022895
21
-668.967820
31
0.0
0
LINE
8
0
6
CONTINUOUS
10
-1.114725
20
-653.753490
30
0.0
11
-1.063465
21
-668.589060
31
0.0
0
LINE
8
0
6
CONTINUOUS
10
5.897745
20
-668.896370
30
0.0
11
5.845835
21
-653.885980
31
0.0
0
LINE
8
0
6
CONTINUOUS
10
-8.022895
20
-668.967820
30
0.0
11
-7.928065
21
-682.813640
31
0.0
0
LINE
8
0
6
CONTINUOUS
10
-1.063465
20
-668.589060
30
0.0
11
-0.970635
21
-682.152790
31
0.0
0
LINE
8
0
6
CONTINUOUS
10
5.992195
20
-682.688940
30
0.0
11
5.897745
21
-668.896370
31
0.0
0
LINE
8
0
6
CONTINUOUS
10
-7.928065
20
-682.813640
30
0.0
11
-7.784095
21
-695.573270
31
0.0
0
LINE
8
0
6
CONTINUOUS
10
-0.970635
20
-682.152790
30
0.0
11
-0.830695
21
-694.562840
31
0.0
0
LINE
8
0
6
CONTINUOUS
10
6.135395
20
-695.382610
30
0.0
11
5.992195
21
-682.688940
31
0.0
0
LINE
8
0
6
CONTINUOUS
10
-7.771405
20
-697.403490
30
0.0
11
-7.559345
21
-709.943200
31
0.0
0
LINE
8
0
6
CONTINUOUS
10
-7.784095
20
-695.573270
30
0.0
11
-7.584695
21
-707.374120
31
0.0
0
LINE
8
0
6
CONTINUOUS
10
-0.830695
20
-694.562840
30
0.0
11
-0.638295
21
-705.955730
31
0.0
0
LINE
8
0
6
CONTINUOUS
10
6.333475
20
-707.106480
30
0.0
11
6.135395
21
-695.382610
31
0.0
0
LINE
8
0
6
CONTINUOUS
10
-7.559345
20
-709.943200
30
0.0
11
-7.278755
21
-721.727070
31
0.0
0
LINE
8
0
6
CONTINUOUS
10
-7.584695
20
-707.374120
30
0.0
11
-7.323385
21
-718.354340
31
0.0
0
LINE
8
0
6
CONTINUOUS
10
-0.638295
20
-705.955730
30
0.0
11
-0.387615
21
-716.492270
31
0.0
0
LINE
8
0
6
CONTINUOUS
10
6.592785
20
-718.002970
30
0.0
11
6.333475
21
-707.106480
31
0.0
0
LINE
8
0
6
CONTINUOUS
10
-7.278755
20
-721.727070
30
0.0
11
-6.922575
21
-732.841420
31
0.0
0
LINE
8
0
6
CONTINUOUS
10
-7.323385
20
-718.354340
30
0.0
11
-6.993135
21
-728.661000
31
0.0
0
LINE
8
0
6
CONTINUOUS
10
-0.387615
20
-716.492270
30
0.0
11
-0.071665
21
-726.353070
31
0.0
0
LINE
8
0
6
CONTINUOUS
10
6.920345
20
-728.225520
30
0.0
11
6.592785
21
-718.002970
31
0.0
0
LINE
8
0
6
CONTINUOUS
10
-6.922575
20
-732.841420
30
0.0
11
-6.484615
21
-743.370740
31
0.0
0
LINE
8
0
6
CONTINUOUS
10
-6.993135
20
-728.661000
30
0.0
11
-6.586195
21
-738.442760
31
0.0
0
LINE
8
0
6
CONTINUOUS
10
-0.071665
20
-726.353070
30
0.0
11
0.318135
21
-735.722080
31
0.0
0
LINE
8
0
6
CONTINUOUS
10
-6.484615
20
-743.370740
30
0.0
11
-5.959375
21
-753.409040
31
0.0
0
LINE
8
0
6
CONTINUOUS
10
-6.586195
20
-738.442760
30
0.0
11
-6.094295
21
-747.840500
31
0.0
0
LINE
8
0
6
CONTINUOUS
10
0.318135
20
-735.722080
30
0.0
11
0.791625
21
-744.766200
31
0.0
0
LINE
8
0
6
CONTINUOUS
10
-5.959375
20
-753.409040
30
0.0
11
-5.334935
21
-763.158460
31
0.0
0
LINE
8
0
6
CONTINUOUS
10
-6.094295
20
-747.840500
30
0.0
11
-5.514775
21
-756.900860
31
0.0
0
LINE
8
0
6
CONTINUOUS
10
0.791625
20
-744.766200
30
0.0
11
1.346595
21
-753.449780
31
0.0
0
LINE
8
0
6
CONTINUOUS
10
-5.334935
20
-763.158460
30
0.0
11
-4.456035
21
-773.467520
31
0.0
0
LINE
8
0
6
CONTINUOUS
10
-5.514775
20
-756.900860
30
0.0
11
-4.700885
21
-766.455460
31
0.0
0
LINE
8
0
6
CONTINUOUS
10
1.346595
20
-753.449780
30
0.0
11
2.125235
21
-762.595520
31
0.0
0
LINE
8
0
6
CONTINUOUS
10
-4.456035
20
-773.467520
30
0.0
11
-3.447645
21
-781.457670
31
0.0
0
LINE
8
0
6
CONTINUOUS
10
-4.700885
20
-766.455460
30
0.0
11
-3.759665
21
-773.902280
31
0.0
0
LINE
8
0
6
CONTINUOUS
10
2.125235
20
-762.595520
30
0.0
11
3.030095
21
-769.748000
31
0.0
0
LINE
8
0
6
CONTINUOUS
10
-3.447645
20
-781.457670
30
0.0
11
-2.344005
21
-787.075770
31
0.0
0
LINE
8
0
6
CONTINUOUS
10
-3.759665
20
-773.902280
30
0.0
11
-2.712445
21
-779.227520
31
0.0
0
LINE
8
0
6
CONTINUOUS
10
3.030095
20
-769.748000
30
0.0
11
3.243783
21
-770.833945
31
0.0
0
LINE
8
0
6
CONTINUOUS
10
-2.344005
20
-787.075770
30
0.0
11
-1.170525
21
-790.341490
31
0.0
0
LINE
8
0
6
CONTINUOUS
10
-2.712445
20
-779.227520
30
0.0
11
-1.588335
21
-782.353060
31
0.0
0
LINE
8
0
6
CONTINUOUS
10
-1.170525
20
-790.341490
30
0.0
11
0.047285
21
-791.247480
31
0.0
0
LINE
8
0
6
CONTINUOUS
10
-1.588335
20
-782.353060
30
0.0
11
-0.416325
21
-783.223990
31
0.0
0
LINE
8
0
6
CONTINUOUS
10
0.047285
20
-791.247480
30
0.0
11
7.217865
21
-794.861680
31
0.0
0
LINE
8
0
6
CONTINUOUS
10
0.047285
20
-791.247480
30
0.0
11
1.283615
21
-789.769210
31
0.0
0
LINE
8
0
6
CONTINUOUS
10
0.774835
20
-781.800080
30
0.0
11
-0.416325
21
-783.223990
31
0.0
0
LINE
8
0
6
CONTINUOUS
10
13.924835
20
-790.452460
30
0.0
11
15.156505
21
-788.979800
31
0.0
0
LINE
8
0
6
CONTINUOUS
10
7.217865
20
-794.861680
30
0.0
11
13.924835
21
-790.452460
31
0.0
0
LINE
8
0
6
CONTINUOUS
10
8.474445
20
-793.359070
30
0.0
11
7.217865
21
-794.861680
31
0.0
0
LINE
8
0
6
CONTINUOUS
10
1.283615
20
-789.769210
30
0.0
11
2.512555
21
-785.869060
31
0.0
0
LINE
8
0
6
CONTINUOUS
10
1.956525
20
-778.051570
30
0.0
11
0.774835
21
-781.800080
31
0.0
0
LINE
8
0
6
CONTINUOUS
10
15.156505
20
-788.979800
30
0.0
11
16.380325
21
-785.096130
31
0.0
0
LINE
8
0
6
CONTINUOUS
10
9.724455
20
-789.391330
30
0.0
11
8.474445
21
-793.359070
31
0.0
0
LINE
8
0
6
CONTINUOUS
10
2.512555
20
-785.869060
30
0.0
11
3.708165
21
-779.496540
31
0.0
0
LINE
8
0
6
CONTINUOUS
10
3.100195
20
-771.959340
30
0.0
11
1.956525
21
-778.051570
31
0.0
0
LINE
8
0
6
CONTINUOUS
10
16.380325
20
-785.096130
30
0.0
11
17.570055
21
-778.755300
31
0.0
0
LINE
8
0
6
CONTINUOUS
10
10.943095
20
-782.894520
30
0.0
11
9.724455
21
-789.391330
31
0.0
0
LINE
8
0
6
CONTINUOUS
10
3.708165
20
-779.496540
30
0.0
11
4.844355
21
-770.584980
31
0.0
0
LINE
8
0
6
CONTINUOUS
10
4.177385
20
-763.516690
30
0.0
11
3.100195
21
-771.959340
31
0.0
0
LINE
8
0
6
CONTINUOUS
10
17.570055
20
-778.755300
30
0.0
11
18.699335
21
-769.898640
31
0.0
0
LINE
8
0
6
CONTINUOUS
10
12.105325
20
-773.775940
30
0.0
11
10.943095
21
-782.894520
31
0.0
0
LINE
8
0
6
CONTINUOUS
10
4.844355
20
-770.584980
30
0.0
11
5.887375
21
-759.137650
31
0.0
0
LINE
8
0
6
CONTINUOUS
10
5.165515
20
-752.663990
30
0.0
11
4.177385
21
-763.516690
31
0.0
0
LINE
8
0
6
CONTINUOUS
10
18.699335
20
-769.898640
30
0.0
11
19.735975
21
-758.520390
31
0.0
0
LINE
8
0
6
CONTINUOUS
10
13.172605
20
-762.065850
30
0.0
11
12.105325
21
-773.775940
31
0.0
0
LINE
8
0
6
CONTINUOUS
10
5.887375
20
-759.137650
30
0.0
11
6.522185
21
-750.347060
31
0.0
0
LINE
8
0
6
CONTINUOUS
10
5.762945
20
-744.383240
30
0.0
11
5.165515
21
-752.663990
31
0.0
0
LINE
8
0
6
CONTINUOUS
10
19.735975
20
-758.520390
30
0.0
11
20.366835
21
-749.783780
31
0.0
0
LINE
8
0
6
CONTINUOUS
10
13.824125
20
-753.047290
30
0.0
11
13.172605
21
-762.065850
31
0.0
0
LINE
8
0
6
CONTINUOUS
10
6.522185
20
-750.347060
30
0.0
11
7.088895
21
-741.149790
31
0.0
0
LINE
8
0
6
CONTINUOUS
10
6.300575
20
-735.660710
30
0.0
11
5.762945
21
-744.383240
31
0.0
0
LINE
8
0
6
CONTINUOUS
10
20.366835
20
-749.783780
30
0.0
11
20.930805
21
-740.631330
31
0.0
0
LINE
8
0
6
CONTINUOUS
10
14.404015
20
-743.635100
30
0.0
11
13.824125
21
-753.047290
31
0.0
0
LINE
8
0
6
CONTINUOUS
10
7.088895
20
-741.149790
30
0.0
11
7.592345
21
-731.350780
31
0.0
0
LINE
8
0
6
CONTINUOUS
10
6.774225
20
-726.444470
30
0.0
11
6.300575
21
-735.660710
31
0.0
0
LINE
8
0
6
CONTINUOUS
10
20.930805
20
-740.631330
30
0.0
11
21.431435
21
-730.887380
31
0.0
0
LINE
8
0
6
CONTINUOUS
10
14.920945
20
-733.572160
30
0.0
11
14.404015
21
-743.635100
31
0.0
0
LINE
8
0
6
CONTINUOUS
10
7.592345
20
-731.350780
30
0.0
11
8.031035
21
-720.841710
31
0.0
0
LINE
8
0
6
CONTINUOUS
10
7.184575
20
-716.616210
30
0.0
11
6.774225
21
-726.444470
31
0.0
0
LINE
8
0
6
CONTINUOUS
10
21.431435
20
-730.887380
30
0.0
11
21.867445
21
-720.442580
31
0.0
0
LINE
8
0
6
CONTINUOUS
10
15.372465
20
-722.754900
30
0.0
11
14.920945
21
-733.572160
31
0.0
0
LINE
8
0
6
CONTINUOUS
10
8.031035
20
-720.841710
30
0.0
11
8.403465
21
-709.523850
31
0.0
0
LINE
8
0
6
CONTINUOUS
10
7.532305
20
-706.049580
30
0.0
11
7.184575
21
-716.616210
31
0.0
0
LINE
8
0
6
CONTINUOUS
10
21.867445
20
-720.442580
30
0.0
11
22.237535
21
-709.195710
31
0.0
0
LINE
8
0
6
CONTINUOUS
10
15.756085
20
-711.096950
30
0.0
11
15.372465
21
-722.754900
31
0.0
0
LINE
8
0
6
CONTINUOUS
10
8.403465
20
-709.523850
30
0.0
11
8.708505
21
-697.305680
31
0.0
0
LINE
8
0
6
CONTINUOUS
10
7.817795
20
-694.612430
30
0.0
11
7.532305
21
-706.049580
31
0.0
0
LINE
8
0
6
CONTINUOUS
10
22.237535
20
-709.195710
30
0.0
11
22.540735
21
-697.051280
31
0.0
0
LINE
8
0
6
CONTINUOUS
10
16.069975
20
-698.525090
30
0.0
11
15.756085
21
-711.096950
31
0.0
0
LINE
8
0
6
CONTINUOUS
10
8.708505
20
-697.305680
30
0.0
11
8.945555
21
-684.097330
31
0.0
0
LINE
8
0
6
CONTINUOUS
10
8.040985
20
-682.171060
30
0.0
11
7.817795
21
-694.612430
31
0.0
0
LINE
8
0
6
CONTINUOUS
10
22.540735
20
-697.051280
30
0.0
11
22.776465
21
-683.915410
31
0.0
0
LINE
8
0
6
CONTINUOUS
10
16.313285
20
-684.969480
30
0.0
11
16.069975
21
-698.525090
31
0.0
0
LINE
8
0
6
CONTINUOUS
10
8.945555
20
-684.097330
30
0.0
11
9.114525
21
-669.805150
31
0.0
0
LINE
8
0
6
CONTINUOUS
10
8.201375
20
-668.595050
30
0.0
11
8.040985
21
-682.171060
31
0.0
0
LINE
8
0
6
CONTINUOUS
10
22.776465
20
-683.915410
30
0.0
11
22.944625
21
-669.690860
31
0.0
0
LINE
8
0
6
CONTINUOUS
10
16.486145
20
-670.353090
30
0.0
11
16.313285
21
-684.969480
31
0.0
0
LINE
8
0
6
CONTINUOUS
10
9.114525
20
-669.805150
30
0.0
11
9.215665
21
-654.328170
31
0.0
0
LINE
8
0
6
CONTINUOUS
10
8.298215
20
-653.759940
30
0.0
11
8.201375
21
-668.595050
31
0.0
0
LINE
8
0
6
CONTINUOUS
10
22.944625
20
-669.690860
30
0.0
11
23.045365
21
-654.274500
31
0.0
0
LINE
8
0
6
CONTINUOUS
10
16.589235
20
-654.585480
30
0.0
11
16.486145
21
-670.353090
31
0.0
0
LINE
8
0
6
CONTINUOUS
10
9.215665
20
-654.328170
30
0.0
11
9.249245
21
-637.627300
31
0.0
0
LINE
8
0
6
CONTINUOUS
10
8.330725
20
-637.493650
30
0.0
11
8.298215
21
-653.759940
31
0.0
0
LINE
8
0
6
CONTINUOUS
10
23.045365
20
-654.274500
30
0.0
11
23.078865
21
-637.610840
31
0.0
0
LINE
8
0
6
CONTINUOUS
10
16.623315
20
-637.685890
30
0.0
11
16.589235
21
-654.585480
31
0.0
0
LINE
8
0
6
CONTINUOUS
10
9.249245
20
-637.627300
30
0.0
11
9.232805
21
-607.737390
31
0.0
0
LINE
8
0
6
CONTINUOUS
10
8.314275
20
-607.738000
30
0.0
11
8.330725
21
-637.493650
31
0.0
0
LINE
8
0
6
CONTINUOUS
10
23.078865
20
-637.610840
30
0.0
11
23.062415
21
-607.728120
31
0.0
0
LINE
8
0
6
CONTINUOUS
10
16.606875
20
-607.732430
30
0.0
11
16.623315
21
-637.685890
31
0.0
0
LINE
8
0
6
CONTINUOUS
10
9.232805
20
-607.737390
30
0.0
11
9.188185
21
-551.284890
31
0.0
0
LINE
8
0
6
CONTINUOUS
10
8.269665
20
-551.285630
30
0.0
11
8.314275
21
-607.738000
31
0.0
0
LINE
8
0
6
CONTINUOUS
10
23.062415
20
-607.728120
30
0.0
11
23.017785
21
-551.273460
31
0.0
0
LINE
8
0
6
CONTINUOUS
10
16.562255
20
-551.278800
30
0.0
11
16.606875
21
-607.732430
31
0.0
0
LINE
8
0
6
CONTINUOUS
10
9.188185
20
-551.284890
30
0.0
11
9.122415
21
-474.784290
31
0.0
0
LINE
8
0
6
CONTINUOUS
10
8.203885
20
-474.785100
30
0.0
11
8.269665
21
-551.285630
31
0.0
0
LINE
8
0
6
CONTINUOUS
10
23.017785
20
-551.273460
30
0.0
11
22.952025
21
-474.772210
31
0.0
0
LINE
8
0
6
CONTINUOUS
10
16.496485
20
-474.777850
30
0.0
11
16.562255
21
-551.278800
31
0.0
0
LINE
8
0
6
CONTINUOUS
10
16.416625
20
-384.816460
30
0.0
11
9.042555
21
-384.823040
31
0.0
0
LINE
8
0
6
CONTINUOUS
10
9.122415
20
-474.784290
30
0.0
11
9.042555
21
-384.823040
31
0.0
0
LINE
8
0
6
CONTINUOUS
10
8.124035
20
-384.823860
30
0.0
11
8.203885
21
-474.785100
31
0.0
0
LINE
8
0
6
CONTINUOUS
10
22.872165
20
-384.810700
30
0.0
11
16.416625
21
-384.816460
31
0.0
0
LINE
8
0
6
CONTINUOUS
10
22.952025
20
-474.772210
30
0.0
11
22.872171
21
-384.817505
31
0.0
0
LINE
8
0
6
CONTINUOUS
10
16.416625
20
-384.816460
30
0.0
11
16.496485
21
-474.777850
31
0.0
0
LINE
8
0
6
CONTINUOUS
10
22.872155
20
-384.835380
30
0.0
11
22.959065
21
-287.988950
31
0.0
0
LINE
8
0
6
CONTINUOUS
10
16.416615
20
-384.829620
30
0.0
11
22.872155
21
-384.835380
31
0.0
0
LINE
8
0
6
CONTINUOUS
10
22.959065
20
-287.988950
30
0.0
11
23.045965
21
-190.867350
31
0.0
0
LINE
8
0
6
CONTINUOUS
10
16.503525
20
-287.983170
30
0.0
11
16.590435
21
-190.861630
31
0.0
0
LINE
8
0
6
CONTINUOUS
10
9.129455
20
-287.976570
30
0.0
11
9.216365
21
-190.855080
31
0.0
0
LINE
8
0
6
CONTINUOUS
10
8.297835
20
-190.854260
30
0.0
11
8.210935
21
-287.975750
31
0.0
0
LINE
8
0
6
CONTINUOUS
10
23.045965
20
-190.867350
30
0.0
11
23.125825
21
-100.045950
31
0.0
0
LINE
8
0
6
CONTINUOUS
10
16.590435
20
-190.861630
30
0.0
11
16.670285
21
-100.040380
31
0.0
0
LINE
8
0
6
CONTINUOUS
10
9.216365
20
-190.855080
30
0.0
11
9.296215
21
-100.034010
31
0.0
0
LINE
8
0
6
CONTINUOUS
10
8.377695
20
-100.033210
30
0.0
11
8.297835
21
-190.854260
31
0.0
0
LINE
8
0
6
CONTINUOUS
10
23.125825
20
-100.045950
30
0.0
11
23.191595
21
-22.111440
31
0.0
0
LINE
8
0
6
CONTINUOUS
10
16.670285
20
-100.040380
30
0.0
11
16.736055
21
-22.106250
31
0.0
0
LINE
8
0
6
CONTINUOUS
10
9.296215
20
-100.034010
30
0.0
11
9.361995
21
-22.100370
31
0.0
0
LINE
8
0
6
CONTINUOUS
10
8.443465
20
-22.099610
30
0.0
11
8.377695
21
-100.033210
31
0.0
0
LINE
8
0
6
CONTINUOUS
10
23.191595
20
-22.111440
30
0.0
11
23.236225
21
36.349640
31
0.0
0
LINE
8
0
6
CONTINUOUS
10
16.736055
20
-22.106250
30
0.0
11
16.780685
21
36.353760
31
0.0
0
LINE
8
0
6
CONTINUOUS
10
9.361995
20
-22.100370
30
0.0
11
9.406615
21
36.358410
31
0.0
0
LINE
8
0
6
CONTINUOUS
10
8.488095
20
36.359020
30
0.0
11
8.443465
21
-22.099610
31
0.0
0
LINE
8
0
6
CONTINUOUS
10
23.236225
20
36.349640
30
0.0
11
23.252475
21
68.806150
31
0.0
0
LINE
8
0
6
CONTINUOUS
10
16.780685
20
36.353760
30
0.0
11
16.797095
21
68.759610
31
0.0
0
LINE
8
0
6
CONTINUOUS
10
9.406615
20
36.358410
30
0.0
11
9.423215
21
68.706510
31
0.0
0
LINE
8
0
6
CONTINUOUS
10
8.504715
20
68.699870
30
0.0
11
8.488095
21
36.359020
31
0.0
0
LINE
8
0
6
CONTINUOUS
10
23.252475
20
68.806150
30
0.0
11
22.983795
21
86.771700
31
0.0
0
LINE
8
0
6
CONTINUOUS
10
16.797095
20
68.759610
30
0.0
11
16.531205
21
86.576690
31
0.0
0
LINE
8
0
6
CONTINUOUS
10
9.423215
20
68.706510
30
0.0
11
9.160495
21
86.353990
31
0.0
0
LINE
8
0
6
CONTINUOUS
10
8.242385
20
86.326290
30
0.0
11
8.504715
21
68.699870
31
0.0
0
LINE
8
0
6
CONTINUOUS
10
22.983795
20
86.771700
30
0.0
11
22.231415
21
103.299790
31
0.0
0
LINE
8
0
6
CONTINUOUS
10
16.531205
20
86.576690
30
0.0
11
15.787855
21
102.906570
31
0.0
0
LINE
8
0
6
CONTINUOUS
10
9.160495
20
86.353990
30
0.0
11
8.427475
21
102.457500
31
0.0
0
LINE
8
0
6
CONTINUOUS
10
7.510655
20
102.401580
30
0.0
11
8.242385
21
86.326290
31
0.0
0
LINE
8
0
6
CONTINUOUS
10
22.231415
20
103.299790
30
0.0
11
21.077075
21
118.380740
31
0.0
0
LINE
8
0
6
CONTINUOUS
10
15.787855
20
102.906570
30
0.0
11
14.648775
21
117.788310
31
0.0
0
LINE
8
0
6
CONTINUOUS
10
8.427475
20
102.457500
30
0.0
11
7.305815
21
117.111660
31
0.0
0
LINE
8
0
6
CONTINUOUS
10
6.391155
20
117.027360
30
0.0
11
7.510655
21
102.401580
31
0.0
0
LINE
8
0
6
CONTINUOUS
10
21.077075
20
118.380740
30
0.0
11
19.602575
21
132.058030
31
0.0
0
LINE
8
0
6
CONTINUOUS
10
14.648775
20
117.788310
30
0.0
11
13.195625
21
131.267470
31
0.0
0
LINE
8
0
6
CONTINUOUS
10
7.305815
20
117.111660
30
0.0
11
5.877065
21
130.364380
31
0.0
0
LINE
8
0
6
CONTINUOUS
10
4.965445
20
130.251920
30
0.0
11
6.391155
21
117.027360
31
0.0
0
LINE
8
0
6
CONTINUOUS
10
19.602575
20
132.058030
30
0.0
11
17.890125
21
144.374620
31
0.0
0
LINE
8
0
6
CONTINUOUS
10
13.195625
20
131.267470
30
0.0
11
11.510185
21
143.389510
31
0.0
0
LINE
8
0
6
CONTINUOUS
10
5.877065
20
130.364380
30
0.0
11
4.222455
21
142.264330
31
0.0
0
LINE
8
0
6
CONTINUOUS
10
3.314695
20
142.124180
30
0.0
11
4.965445
21
130.251920
31
0.0
0
LINE
8
0
6
CONTINUOUS
10
17.890125
20
144.374620
30
0.0
11
16.022475
21
155.372240
31
0.0
0
LINE
8
0
6
CONTINUOUS
10
11.510185
20
143.389510
30
0.0
11
9.674255
21
154.199980
31
0.0
0
LINE
8
0
6
CONTINUOUS
10
4.222455
20
142.264330
30
0.0
11
2.422765
21
152.861020
31
0.0
0
LINE
8
0
6
CONTINUOUS
10
1.519505
20
152.694240
30
0.0
11
3.314695
21
142.124180
31
0.0
0
LINE
8
0
6
CONTINUOUS
10
16.022475
20
155.372240
30
0.0
11
14.083225
21
165.090940
31
0.0
0
LINE
8
0
6
CONTINUOUS
10
9.674255
20
154.199980
30
0.0
11
7.769755
21
163.744050
31
0.0
0
LINE
8
0
6
CONTINUOUS
10
2.422765
20
152.861020
30
0.0
11
0.557985
21
162.205510
31
0.0
0
LINE
8
0
6
CONTINUOUS
10
-0.340325
20
162.013850
30
0.0
11
1.519505
21
152.694240
31
0.0
0
LINE
8
0
6
CONTINUOUS
10
14.083225
20
165.090940
30
0.0
11
12.157225
21
173.568340
31
0.0
0
LINE
8
0
6
CONTINUOUS
10
7.769755
20
163.744050
30
0.0
11
5.878785
21
172.066570
31
0.0
0
LINE
8
0
6
CONTINUOUS
10
0.557985
20
162.205510
30
0.0
11
-1.292985
21
170.351100
31
0.0
0
LINE
8
0
6
CONTINUOUS
10
-2.186305
20
170.137410
30
0.0
11
-0.340325
21
162.013850
31
0.0
0
LINE
8
0
6
CONTINUOUS
10
12.157225
20
173.568340
30
0.0
11
10.331375
21
180.836560
31
0.0
0
LINE
8
0
6
CONTINUOUS
10
5.878785
20
172.066570
30
0.0
11
4.083665
21
179.211730
31
0.0
0
LINE
8
0
6
CONTINUOUS
10
-1.292985
20
170.351100
30
0.0
11
-3.053015
21
177.355730
31
0.0
0
LINE
8
0
6
CONTINUOUS
10
-3.941965
20
177.124560
30
0.0
11
-2.186305
21
170.137410
31
0.0
0
LINE
8
0
6
CONTINUOUS
10
10.331375
20
180.836560
30
0.0
11
9.435885
21
184.166638
31
0.0
0
LINE
8
0
6
CONTINUOUS
10
4.083665
20
179.211730
30
0.0
11
3.200479
21
182.495792
31
0.0
0
LINE
8
0
6
CONTINUOUS
10
-3.053015
20
177.355730
30
0.0
11
-3.922161
21
180.587294
31
0.0
0
LINE
8
0
6
CONTINUOUS
10
-4.809412
20
180.349741
30
0.0
11
-3.941965
21
177.124560
31
0.0
0
LINE
8
0
6
CONTINUOUS
10
16.416615
20
-384.829620
30
0.0
11
16.503525
21
-287.983170
31
0.0
0
LINE
8
0
6
CONTINUOUS
10
9.042555
20
-384.823040
30
0.0
11
16.416615
21
-384.829620
31
0.0
0
LINE
8
0
6
CONTINUOUS
10
9.042555
20
-384.823040
30
0.0
11
9.129455
21
-287.976570
31
0.0
0
LINE
8
0
6
CONTINUOUS
10
8.210935
20
-287.975750
30
0.0
11
8.124035
21
-384.823860
31
0.0
0
LINE
8
0
6
CONTINUOUS
10
-83.714999
20
374.552631
30
0.0
11
-83.002056
21
373.934171
31
0.0
0
LINE
8
0
6
CONTINUOUS
10
-87.997399
20
381.202775
30
0.0
11
-87.564275
21
380.978790
31
0.0
0
LINE
8
0
6
CONTINUOUS
10
-89.654799
20
382.853025
30
0.0
11
-90.273651
21
384.692593
31
0.0
0
LINE
8
0
6
CONTINUOUS
10
-93.217147
20
389.703828
30
0.0
11
-93.031933
21
389.251353
31
0.0
0
LINE
8
0
6
CONTINUOUS
10
-93.968336
20
390.868272
30
0.0
11
-93.572518
21
389.859650
31
0.0
0
LINE
8
0
6
CONTINUOUS
10
-46.445002
20
321.930693
30
0.0
11
-47.832678
21
323.511187
31
0.0
0
LINE
8
0
6
CONTINUOUS
10
-46.307725
20
321.191943
30
0.0
11
-46.445002
21
321.930693
31
0.0
0
LINE
8
0
6
CONTINUOUS
10
-50.947087
20
328.837341
30
0.0
11
-52.259115
21
330.306390
31
0.0
0
LINE
8
0
6
CONTINUOUS
10
-52.259115
20
330.306390
30
0.0
11
-52.372117
21
330.439258
31
0.0
0
LINE
8
0
6
CONTINUOUS
10
-50.585474
20
327.807785
30
0.0
11
-50.947087
21
328.837341
31
0.0
0
LINE
8
0
6
CONTINUOUS
10
-55.993356
20
336.369631
30
0.0
11
-57.369984
21
337.957372
31
0.0
0
LINE
8
0
6
CONTINUOUS
10
-55.458652
20
335.058611
30
0.0
11
-55.731958
21
335.686884
31
0.0
0
LINE
8
0
6
CONTINUOUS
10
-55.731958
20
335.686884
30
0.0
11
-55.993356
21
336.369631
31
0.0
0
LINE
8
0
6
CONTINUOUS
10
-66.761398
20
352.887851
30
0.0
11
-67.169289
21
353.310965
31
0.0
0
LINE
8
0
6
CONTINUOUS
10
-67.169289
20
353.310965
30
0.0
11
-67.988344
21
354.217785
31
0.0
0
LINE
8
0
6
CONTINUOUS
10
-65.929981
20
351.179154
30
0.0
11
-66.761398
21
352.887851
31
0.0
0
LINE
8
0
6
CONTINUOUS
10
-73.795324
20
363.147080
30
0.0
11
-72.695707
21
362.030502
31
0.0
0
LINE
8
0
6
CONTINUOUS
10
-71.815429
20
360.174837
30
0.0
11
-72.695707
21
362.030502
31
0.0
0
LINE
8
0
6
CONTINUOUS
10
-88.512585
20
385.817492
30
0.0
11
-88.143774
21
385.601368
31
0.0
0
LINE
8
0
6
CONTINUOUS
10
-92.072191
20
391.419544
30
0.0
11
-91.784326
21
391.485891
31
0.0
0
LINE
8
0
6
CONTINUOUS
10
-90.980782
20
389.757578
30
0.0
11
-91.784326
21
391.485891
31
0.0
0
LINE
8
0
6
CONTINUOUS
10
-93.350688
20
391.859249
30
0.0
11
-93.258001
21
392.280957
31
0.0
0
LINE
8
0
6
CONTINUOUS
10
-93.876274
20
394.230261
30
0.0
11
-94.587211
21
395.757790
31
0.0
0
LINE
8
0
6
CONTINUOUS
10
-96.281676
20
398.396403
30
0.0
11
-95.757984
21
397.081261
31
0.0
0
LINE
8
0
6
CONTINUOUS
10
-96.874343
20
399.267406
30
0.0
11
-96.501663
21
398.243624
31
0.0
0
LINE
8
0
6
CONTINUOUS
10
-56.003134
20
327.912678
30
0.0
11
-54.750681
21
326.682885
31
0.0
0
LINE
8
0
6
CONTINUOUS
10
-65.639496
20
342.800589
30
0.0
11
-65.150743
21
342.553206
31
0.0
0
LINE
8
0
6
CONTINUOUS
10
-63.852892
20
340.923561
30
0.0
11
-65.150743
21
342.553206
31
0.0
0
LINE
8
0
6
CONTINUOUS
10
-85.325774
20
372.808670
30
0.0
11
-85.948976
21
374.451071
31
0.0
0
LINE
8
0
6
CONTINUOUS
10
-77.494235
20
361.483952
30
0.0
11
-76.565639
21
360.394644
31
0.0
0
LINE
8
0
6
CONTINUOUS
10
-75.553933
20
357.802595
30
0.0
11
-75.595197
21
358.550312
31
0.0
0
LINE
8
0
6
CONTINUOUS
10
-75.595197
20
358.550312
30
0.0
11
-76.565639
21
360.394644
31
0.0
0
LINE
8
0
6
CONTINUOUS
10
-82.637445
20
369.512167
30
0.0
11
-82.312152
21
369.202321
31
0.0
0
LINE
8
0
6
CONTINUOUS
10
-80.939900
20
366.087749
30
0.0
11
-81.305743
21
367.340045
31
0.0
0
LINE
8
0
6
CONTINUOUS
10
-82.934353
20
369.824627
30
0.0
11
-82.637445
21
369.512167
31
0.0
0
LINE
8
0
6
CONTINUOUS
10
-87.116659
20
376.269767
30
0.0
11
-86.849023
21
376.178610
31
0.0
0
LINE
8
0
6
CONTINUOUS
10
-86.370446
20
375.229410
30
0.0
11
-86.849023
21
376.178610
31
0.0
0
LINE
8
0
6
CONTINUOUS
10
-51.476509
20
317.855139
30
0.0
11
-51.896867
21
318.847651
31
0.0
0
LINE
8
0
6
CONTINUOUS
10
-53.411669
20
321.659001
30
0.0
11
-52.865638
21
320.748890
31
0.0
0
LINE
8
0
6
CONTINUOUS
10
-61.709399
20
339.873966
30
0.0
11
-60.923055
21
339.490570
31
0.0
0
LINE
8
0
6
CONTINUOUS
10
-51.105206
20
324.542415
30
0.0
11
-51.766794
21
325.382014
31
0.0
0
LINE
8
0
6
CONTINUOUS
10
-54.158984
20
329.519934
30
0.0
11
-55.496818
21
331.170840
31
0.0
0
LINE
8
0
6
CONTINUOUS
10
-60.398111
20
334.627583
30
0.0
11
-59.399326
21
333.790323
31
0.0
0
LINE
8
0
6
CONTINUOUS
10
-58.099351
20
332.120405
30
0.0
11
-59.399326
21
333.790323
31
0.0
0
LINE
8
0
6
CONTINUOUS
10
-57.936205
20
331.666925
30
0.0
11
-58.099351
21
332.120405
31
0.0
0
LINE
8
0
6
CONTINUOUS
10
-84.124511
20
367.879365
30
0.0
11
-84.069654
21
368.104053
31
0.0
0
LINE
8
0
6
CONTINUOUS
10
-50.498807
20
323.807407
30
0.0
11
-51.105206
21
324.542415
31
0.0
0
LINE
8
0
6
CONTINUOUS
10
-88.268325
20
377.334697
30
0.0
11
-89.054378
21
379.232012
31
0.0
0
LINE
8
0
6
CONTINUOUS
10
-89.054378
20
379.232012
30
0.0
11
-89.759131
21
380.653840
31
0.0
0
LINE
8
0
6
CONTINUOUS
10
-90.020117
20
380.482705
30
0.0
11
-90.353963
21
381.269174
31
0.0
0
LINE
8
0
6
CONTINUOUS
10
-65.824527
20
342.893858
30
0.0
11
-65.639496
21
342.800589
31
0.0
0
ENDSEC
0
EOF
