999
Erzeugt mit innoplus bad 
0
SECTION
2
HEADER
9
$ACADVER
1
AC1009
9
$DWGCODEPAGE
3
ISO8859-1
0
ENDSEC
0
SECTION
2
TABLES
0
TABLE
2
LAYER
70
1
0
LAYER
2
0
70
0
62
7
6
CONTINUOUS
0
ENDTAB
0
ENDSEC
0
SECTION
2
ENTITIES
0
LINE
8
0
6
CONTINUOUS
10
-54.117605
20
757.213290
30
0.0
11
-53.525795
21
751.210630
31
0.0
0
LINE
8
0
6
CONTINUOUS
10
-53.525795
20
751.210630
30
0.0
11
-51.806655
21
745.423810
31
0.0
0
LINE
8
0
6
CONTINUOUS
10
-51.806655
20
745.423810
30
0.0
11
-48.904745
21
740.056000
31
0.0
0
LINE
8
0
6
CONTINUOUS
10
-48.904745
20
740.056000
30
0.0
11
-45.051455
21
735.418090
31
0.0
0
LINE
8
0
6
CONTINUOUS
10
-45.051455
20
735.418090
30
0.0
11
-40.394475
21
731.594160
31
0.0
0
LINE
8
0
6
CONTINUOUS
10
-40.394475
20
731.594160
30
0.0
11
-35.917245
21
729.222061
31
0.0
0
LINE
8
0
6
CONTINUOUS
10
-10.916995
20
729.218675
30
0.0
11
-6.231385
21
731.753770
31
0.0
0
LINE
8
0
6
CONTINUOUS
10
-6.231385
20
731.753770
30
0.0
11
-1.560325
21
735.569840
31
0.0
0
LINE
8
0
6
CONTINUOUS
10
-1.560325
20
735.569840
30
0.0
11
2.193545
21
740.263370
31
0.0
0
LINE
8
0
6
CONTINUOUS
10
2.193545
20
740.263370
30
0.0
11
4.976655
21
745.527110
31
0.0
0
LINE
8
0
6
CONTINUOUS
10
4.976655
20
745.527110
30
0.0
11
6.735235
21
751.216130
31
0.0
0
LINE
8
0
6
CONTINUOUS
10
6.735235
20
751.216130
30
0.0
11
7.282845
21
757.249910
31
0.0
0
LINE
8
0
6
CONTINUOUS
10
7.282845
20
757.249910
30
0.0
11
6.686515
21
763.163300
31
0.0
0
LINE
8
0
6
CONTINUOUS
10
6.686515
20
763.163300
30
0.0
11
5.003315
21
768.868330
31
0.0
0
LINE
8
0
6
CONTINUOUS
10
5.003315
20
768.868330
30
0.0
11
2.132535
21
774.203720
31
0.0
0
LINE
8
0
6
CONTINUOUS
10
2.132535
20
774.203720
30
0.0
11
-1.640605
21
778.802110
31
0.0
0
LINE
8
0
6
CONTINUOUS
10
-1.640605
20
778.802110
30
0.0
11
-6.208185
21
782.626570
31
0.0
0
LINE
8
0
6
CONTINUOUS
10
-6.208185
20
782.626570
30
0.0
11
-10.916995
21
785.154905
31
0.0
0
LINE
8
0
6
CONTINUOUS
10
-35.917245
20
785.114453
30
0.0
11
-40.312045
21
782.817760
31
0.0
0
LINE
8
0
6
CONTINUOUS
10
-40.312045
20
782.817760
30
0.0
11
-45.053325
21
778.994520
31
0.0
0
LINE
8
0
6
CONTINUOUS
10
-45.053325
20
778.994520
30
0.0
11
-48.865985
21
774.337770
31
0.0
0
LINE
8
0
6
CONTINUOUS
10
-48.865985
20
774.337770
30
0.0
11
-51.733035
21
769.042890
31
0.0
0
LINE
8
0
6
CONTINUOUS
10
-51.733035
20
769.042890
30
0.0
11
-53.560615
21
763.230820
31
0.0
0
LINE
8
0
6
CONTINUOUS
10
-53.560615
20
763.230820
30
0.0
11
-54.117605
21
757.213290
31
0.0
0
LINE
8
0
6
CONTINUOUS
10
-53.550335
20
757.228770
30
0.0
11
-52.967625
21
751.313090
31
0.0
0
LINE
8
0
6
CONTINUOUS
10
-52.967625
20
751.313090
30
0.0
11
-51.244275
21
745.623400
31
0.0
0
LINE
8
0
6
CONTINUOUS
10
-51.244275
20
745.623400
30
0.0
11
-48.441795
21
740.389250
31
0.0
0
LINE
8
0
6
CONTINUOUS
10
-48.441795
20
740.389250
30
0.0
11
-44.666725
21
735.797040
31
0.0
0
LINE
8
0
6
CONTINUOUS
10
-44.666725
20
735.797040
30
0.0
11
-40.070515
21
732.027130
31
0.0
0
LINE
8
0
6
CONTINUOUS
10
-40.070515
20
732.027130
30
0.0
11
-35.917245
21
729.810278
31
0.0
0
LINE
8
0
6
CONTINUOUS
10
-10.916995
20
729.608426
30
0.0
11
-6.395305
21
732.043300
31
0.0
0
LINE
8
0
6
CONTINUOUS
10
-6.395305
20
732.043300
30
0.0
11
-1.798815
21
735.807950
31
0.0
0
LINE
8
0
6
CONTINUOUS
10
-1.798815
20
735.807950
30
0.0
11
1.932795
21
740.419540
31
0.0
0
LINE
8
0
6
CONTINUOUS
10
1.932795
20
740.419540
30
0.0
11
4.715065
21
745.655820
31
0.0
0
LINE
8
0
6
CONTINUOUS
10
4.715065
20
745.655820
30
0.0
11
6.447375
21
751.326290
31
0.0
0
LINE
8
0
6
CONTINUOUS
10
6.447375
20
751.326290
30
0.0
11
7.002835
21
757.227710
31
0.0
0
LINE
8
0
6
CONTINUOUS
10
7.002835
20
757.227710
30
0.0
11
6.414985
21
763.121570
31
0.0
0
LINE
8
0
6
CONTINUOUS
10
6.414985
20
763.121570
30
0.0
11
4.714625
21
768.797910
31
0.0
0
LINE
8
0
6
CONTINUOUS
10
4.714625
20
768.797910
30
0.0
11
1.911565
21
774.021150
31
0.0
0
LINE
8
0
6
CONTINUOUS
10
1.911565
20
774.021150
30
0.0
11
-1.846315
21
778.603520
31
0.0
0
LINE
8
0
6
CONTINUOUS
10
-1.846315
20
778.603520
30
0.0
11
-6.412735
21
782.388690
31
0.0
0
LINE
8
0
6
CONTINUOUS
10
-6.412735
20
782.388690
30
0.0
11
-10.916995
21
784.802247
31
0.0
0
LINE
8
0
6
CONTINUOUS
10
-35.917245
20
784.674655
30
0.0
11
-40.068535
21
782.416760
31
0.0
0
LINE
8
0
6
CONTINUOUS
10
-40.068535
20
782.416760
30
0.0
11
-44.662095
21
778.656460
31
0.0
0
LINE
8
0
6
CONTINUOUS
10
-44.662095
20
778.656460
30
0.0
11
-48.433515
21
774.063110
31
0.0
0
LINE
8
0
6
CONTINUOUS
10
-48.433515
20
774.063110
30
0.0
11
-51.239295
21
768.823780
31
0.0
0
LINE
8
0
6
CONTINUOUS
10
-51.239295
20
768.823780
30
0.0
11
-52.970215
21
763.145140
31
0.0
0
LINE
8
0
6
CONTINUOUS
10
-52.970215
20
763.145140
30
0.0
11
-53.550335
21
757.228770
31
0.0
0
LINE
8
0
6
CONTINUOUS
10
7.282845
20
757.249910
30
0.0
11
6.735235
21
751.216130
31
0.0
0
LINE
8
0
6
CONTINUOUS
10
6.735235
20
751.216130
30
0.0
11
7.282905
21
757.249910
31
0.0
0
LINE
8
0
6
CONTINUOUS
10
382.343125
20
-330.930270
30
0.0
11
382.343125
21
-330.318470
31
0.0
0
LINE
8
0
6
CONTINUOUS
10
382.343125
20
-330.318470
30
0.0
11
26.621487
21
-330.318500
31
0.0
0
LINE
8
0
6
CONTINUOUS
10
382.343125
20
-350.165960
30
0.0
11
382.343125
21
-346.681320
31
0.0
0
LINE
8
0
6
CONTINUOUS
10
382.343125
20
-352.931380
30
0.0
11
382.343125
21
-350.165960
31
0.0
0
LINE
8
0
6
CONTINUOUS
10
382.343125
20
-332.705770
30
0.0
11
382.343125
21
-330.930270
31
0.0
0
LINE
8
0
6
CONTINUOUS
10
382.343125
20
-354.706890
30
0.0
11
382.343125
21
-352.931380
31
0.0
0
LINE
8
0
6
CONTINUOUS
10
382.343125
20
-335.471190
30
0.0
11
382.343125
21
-332.705770
31
0.0
0
LINE
8
0
6
CONTINUOUS
10
382.343125
20
-338.955820
30
0.0
11
382.343125
21
-335.471190
31
0.0
0
LINE
8
0
6
CONTINUOUS
10
382.343125
20
-355.318690
30
0.0
11
382.343125
21
-354.706890
31
0.0
0
LINE
8
0
6
CONTINUOUS
10
26.582605
20
-355.318710
30
0.0
11
382.343125
21
-355.318690
31
0.0
0
LINE
8
0
6
CONTINUOUS
10
382.343125
20
-342.818570
30
0.0
11
382.343125
21
-338.955820
31
0.0
0
LINE
8
0
6
CONTINUOUS
10
382.343125
20
-346.681320
30
0.0
11
382.343125
21
-342.818570
31
0.0
0
LINE
8
0
6
CONTINUOUS
10
26.582605
20
-330.318500
30
0.0
11
20.070975
21
-329.748910
31
0.0
0
LINE
8
0
6
CONTINUOUS
10
15.729715
20
-354.369320
30
0.0
11
26.582605
21
-355.318710
31
0.0
0
LINE
8
0
6
CONTINUOUS
10
20.070975
20
-329.748910
30
0.0
11
13.757175
21
-328.057250
31
0.0
0
LINE
8
0
6
CONTINUOUS
10
5.206565
20
-351.549760
30
0.0
11
15.729715
21
-354.369320
31
0.0
0
LINE
8
0
6
CONTINUOUS
10
13.757175
20
-328.057250
30
0.0
11
7.833045
21
-325.294900
31
0.0
0
LINE
8
0
6
CONTINUOUS
10
-4.667095
20
-346.945710
30
0.0
11
5.206565
21
-351.549760
31
0.0
0
LINE
8
0
6
CONTINUOUS
10
7.833045
20
-325.294900
30
0.0
11
2.478585
21
-321.545810
31
0.0
0
LINE
8
0
6
CONTINUOUS
10
-13.591265
20
-340.697070
30
0.0
11
-4.667095
21
-346.945710
31
0.0
0
LINE
8
0
6
CONTINUOUS
10
2.478585
20
-321.545810
30
0.0
11
-2.143495
21
-316.923880
31
0.0
0
LINE
8
0
6
CONTINUOUS
10
-21.294805
20
-332.993690
30
0.0
11
-13.591265
21
-340.697070
31
0.0
0
LINE
8
0
6
CONTINUOUS
10
-2.143495
20
-316.923880
30
0.0
11
-5.892775
21
-311.569550
31
0.0
0
LINE
8
0
6
CONTINUOUS
10
-27.543625
20
-324.069630
30
0.0
11
-21.294805
21
-332.993690
31
0.0
0
LINE
8
0
6
CONTINUOUS
10
-5.892775
20
-311.569550
30
0.0
11
-8.655315
21
-305.645510
31
0.0
0
LINE
8
0
6
CONTINUOUS
10
-32.147865
20
-314.196060
30
0.0
11
-27.543625
21
-324.069630
31
0.0
0
LINE
8
0
6
CONTINUOUS
10
-8.655315
20
-305.645510
30
0.0
11
-10.347195
21
-299.331760
31
0.0
0
LINE
8
0
6
CONTINUOUS
10
-34.967635
20
-303.672970
30
0.0
11
-32.147865
21
-314.196060
31
0.0
0
LINE
8
0
6
CONTINUOUS
10
-10.347195
20
-299.331760
30
0.0
11
-10.916995
21
-292.820140
31
0.0
0
LINE
8
0
6
CONTINUOUS
10
-35.917245
20
-292.820100
30
0.0
11
-34.967635
21
-303.672970
31
0.0
0
LINE
8
0
6
CONTINUOUS
10
-16.069715
20
792.929690
30
0.0
11
-13.304285
21
792.929690
31
0.0
0
LINE
8
0
6
CONTINUOUS
10
-19.554365
20
792.929690
30
0.0
11
-16.069715
21
792.929690
31
0.0
0
LINE
8
0
6
CONTINUOUS
10
-33.529895
20
792.929690
30
0.0
11
-30.764485
21
792.929690
31
0.0
0
LINE
8
0
6
CONTINUOUS
10
-27.279835
20
792.929690
30
0.0
11
-23.417095
21
792.929690
31
0.0
0
LINE
8
0
6
CONTINUOUS
10
-23.417095
20
792.929690
30
0.0
11
-19.554365
21
792.929690
31
0.0
0
LINE
8
0
6
CONTINUOUS
10
-35.917245
20
792.929760
30
0.0
11
-35.305405
21
792.929690
31
0.0
0
LINE
8
0
6
CONTINUOUS
10
-35.917245
20
793.681340
30
0.0
11
-35.917245
21
792.929760
31
0.0
0
LINE
8
0
6
CONTINUOUS
10
-35.305405
20
792.929690
30
0.0
11
-33.529895
21
792.929690
31
0.0
0
LINE
8
0
6
CONTINUOUS
10
-13.304285
20
792.929690
30
0.0
11
-11.528775
21
792.929690
31
0.0
0
LINE
8
0
6
CONTINUOUS
10
-30.764485
20
792.929690
30
0.0
11
-27.279835
21
792.929690
31
0.0
0
LINE
8
0
6
CONTINUOUS
10
-10.916995
20
792.432860
30
0.0
11
-11.528775
21
792.432860
31
0.0
0
LINE
8
0
6
CONTINUOUS
10
-10.916995
20
-292.820140
30
0.0
11
-10.916995
21
155.181310
31
0.0
0
LINE
8
0
6
CONTINUOUS
10
-10.916995
20
207.181280
30
0.0
11
-10.916995
21
792.432860
31
0.0
0
LINE
8
0
6
CONTINUOUS
10
-13.304285
20
792.432860
30
0.0
11
-16.069715
21
792.432860
31
0.0
0
LINE
8
0
6
CONTINUOUS
10
-23.417095
20
792.432860
30
0.0
11
-27.279835
21
792.432860
31
0.0
0
LINE
8
0
6
CONTINUOUS
10
-33.461245
20
794.861680
30
0.0
11
-35.305405
21
794.861680
31
0.0
0
LINE
8
0
6
CONTINUOUS
10
-33.529895
20
792.432860
30
0.0
11
-35.305405
21
792.432860
31
0.0
0
LINE
8
0
6
CONTINUOUS
10
-10.916995
20
792.929690
30
0.0
11
-10.916995
21
793.681260
31
0.0
0
LINE
8
0
6
CONTINUOUS
10
-11.528775
20
792.929690
30
0.0
11
-10.916995
21
792.929690
31
0.0
0
LINE
8
0
6
CONTINUOUS
10
-11.528775
20
792.432860
30
0.0
11
-13.304285
21
792.432860
31
0.0
0
LINE
8
0
6
CONTINUOUS
10
-35.305425
20
794.861680
30
0.0
11
-35.917245
21
794.861680
31
0.0
0
LINE
8
0
6
CONTINUOUS
10
-33.461265
20
794.861680
30
0.0
11
-35.305425
21
794.861680
31
0.0
0
LINE
8
0
6
CONTINUOUS
10
-30.764485
20
792.432860
30
0.0
11
-33.529895
21
792.432860
31
0.0
0
LINE
8
0
6
CONTINUOUS
10
-19.554365
20
792.432860
30
0.0
11
-23.417095
21
792.432860
31
0.0
0
LINE
8
0
6
CONTINUOUS
10
-16.069715
20
792.432860
30
0.0
11
-19.554365
21
792.432860
31
0.0
0
LINE
8
0
6
CONTINUOUS
10
-27.279835
20
792.432860
30
0.0
11
-30.764485
21
792.432860
31
0.0
0
LINE
8
0
6
CONTINUOUS
10
-35.917245
20
792.432940
30
0.0
11
-35.917245
21
402.609316
31
0.0
0
LINE
8
0
6
CONTINUOUS
10
-35.917245
20
314.439604
30
0.0
11
-35.917245
21
207.181280
31
0.0
0
LINE
8
0
6
CONTINUOUS
10
-35.917245
20
155.181310
30
0.0
11
-35.917245
21
-292.820100
31
0.0
0
LINE
8
0
6
CONTINUOUS
10
-35.305405
20
792.432860
30
0.0
11
-35.917245
21
792.432940
31
0.0
0
LINE
8
0
6
CONTINUOUS
10
-35.305405
20
794.861680
30
0.0
11
-35.917245
21
794.861680
31
0.0
0
LINE
8
0
6
CONTINUOUS
10
-35.917245
20
794.861680
30
0.0
11
-35.917245
21
793.681340
31
0.0
0
LINE
8
0
6
CONTINUOUS
10
-27.279835
20
794.861600
30
0.0
11
-30.764465
21
794.861600
31
0.0
0
LINE
8
0
6
CONTINUOUS
10
-16.069715
20
794.861600
30
0.0
11
-19.554365
21
794.861600
31
0.0
0
LINE
8
0
6
CONTINUOUS
10
-19.554365
20
794.861600
30
0.0
11
-23.417095
21
794.861600
31
0.0
0
LINE
8
0
6
CONTINUOUS
10
-30.764465
20
794.861600
30
0.0
11
-33.529895
21
794.861600
31
0.0
0
LINE
8
0
6
CONTINUOUS
10
-11.528775
20
794.861600
30
0.0
11
-13.304285
21
794.861600
31
0.0
0
LINE
8
0
6
CONTINUOUS
10
-10.916995
20
794.861600
30
0.0
11
-11.528775
21
794.861600
31
0.0
0
LINE
8
0
6
CONTINUOUS
10
-10.916995
20
793.681260
30
0.0
11
-10.916995
21
794.861600
31
0.0
0
LINE
8
0
6
CONTINUOUS
10
-33.529895
20
794.861600
30
0.0
11
-35.305405
21
794.861680
31
0.0
0
LINE
8
0
6
CONTINUOUS
10
-23.417095
20
794.861600
30
0.0
11
-27.279835
21
794.861600
31
0.0
0
LINE
8
0
6
CONTINUOUS
10
-13.304285
20
794.861600
30
0.0
11
-16.069715
21
794.861600
31
0.0
0
LINE
8
0
6
CONTINUOUS
10
-16.069715
20
792.432860
30
0.0
11
-13.304285
21
792.432860
31
0.0
0
LINE
8
0
6
CONTINUOUS
10
-16.210285
20
792.681270
30
0.0
11
-13.497775
21
792.681270
31
0.0
0
LINE
8
0
6
CONTINUOUS
10
-13.304285
20
792.929690
30
0.0
11
-16.069715
21
792.929690
31
0.0
0
LINE
8
0
6
CONTINUOUS
10
-27.279835
20
792.432860
30
0.0
11
-23.417095
21
792.432860
31
0.0
0
LINE
8
0
6
CONTINUOUS
10
-27.205925
20
792.681270
30
0.0
11
-23.417095
21
792.681270
31
0.0
0
LINE
8
0
6
CONTINUOUS
10
-23.417095
20
792.929690
30
0.0
11
-27.279835
21
792.929690
31
0.0
0
LINE
8
0
6
CONTINUOUS
10
-35.305405
20
792.432860
30
0.0
11
-33.529895
21
792.432860
31
0.0
0
LINE
8
0
6
CONTINUOUS
10
-35.077955
20
792.681270
30
0.0
11
-33.336405
21
792.681270
31
0.0
0
LINE
8
0
6
CONTINUOUS
10
-33.529895
20
792.929690
30
0.0
11
-35.305405
21
792.929690
31
0.0
0
LINE
8
0
6
CONTINUOUS
10
-11.528775
20
792.432860
30
0.0
11
-10.916995
21
792.432860
31
0.0
0
LINE
8
0
6
CONTINUOUS
10
-10.916995
20
792.432860
30
0.0
11
-11.156135
21
792.681270
31
0.0
0
LINE
8
0
6
CONTINUOUS
10
-11.756225
20
792.681270
30
0.0
11
-11.156135
21
792.681270
31
0.0
0
LINE
8
0
6
CONTINUOUS
10
-10.916995
20
792.929690
30
0.0
11
-11.528775
21
792.929690
31
0.0
0
LINE
8
0
6
CONTINUOUS
10
-11.156135
20
792.681270
30
0.0
11
-10.916995
21
792.929690
31
0.0
0
LINE
8
0
6
CONTINUOUS
10
-13.304285
20
792.432860
30
0.0
11
-11.528775
21
792.432860
31
0.0
0
LINE
8
0
6
CONTINUOUS
10
-13.497775
20
792.681270
30
0.0
11
-11.756225
21
792.681270
31
0.0
0
LINE
8
0
6
CONTINUOUS
10
-11.528775
20
792.929690
30
0.0
11
-13.304285
21
792.929690
31
0.0
0
LINE
8
0
6
CONTINUOUS
10
-33.529895
20
792.432860
30
0.0
11
-30.764485
21
792.432860
31
0.0
0
LINE
8
0
6
CONTINUOUS
10
-33.336405
20
792.681270
30
0.0
11
-30.623915
21
792.681270
31
0.0
0
LINE
8
0
6
CONTINUOUS
10
-30.764485
20
792.929690
30
0.0
11
-33.529895
21
792.929690
31
0.0
0
LINE
8
0
6
CONTINUOUS
10
-23.417095
20
792.432860
30
0.0
11
-19.554365
21
792.432860
31
0.0
0
LINE
8
0
6
CONTINUOUS
10
-23.417095
20
792.681270
30
0.0
11
-19.628275
21
792.681270
31
0.0
0
LINE
8
0
6
CONTINUOUS
10
-19.554365
20
792.929690
30
0.0
11
-23.417095
21
792.929690
31
0.0
0
LINE
8
0
6
CONTINUOUS
10
-19.554365
20
792.432860
30
0.0
11
-16.069715
21
792.432860
31
0.0
0
LINE
8
0
6
CONTINUOUS
10
-19.628275
20
792.681270
30
0.0
11
-16.210285
21
792.681270
31
0.0
0
LINE
8
0
6
CONTINUOUS
10
-16.069715
20
792.929690
30
0.0
11
-19.554365
21
792.929690
31
0.0
0
LINE
8
0
6
CONTINUOUS
10
-30.764485
20
792.432860
30
0.0
11
-27.279835
21
792.432860
31
0.0
0
LINE
8
0
6
CONTINUOUS
10
-30.623915
20
792.681270
30
0.0
11
-27.205925
21
792.681270
31
0.0
0
LINE
8
0
6
CONTINUOUS
10
-27.279835
20
792.929690
30
0.0
11
-30.764485
21
792.929690
31
0.0
0
LINE
8
0
6
CONTINUOUS
10
-35.917245
20
792.432940
30
0.0
11
-35.305405
21
792.432860
31
0.0
0
LINE
8
0
6
CONTINUOUS
10
-35.678095
20
792.681350
30
0.0
11
-35.917245
21
792.432940
31
0.0
0
LINE
8
0
6
CONTINUOUS
10
-35.678095
20
792.681350
30
0.0
11
-35.077955
21
792.681270
31
0.0
0
LINE
8
0
6
CONTINUOUS
10
-35.917245
20
792.929760
30
0.0
11
-35.678095
21
792.681350
31
0.0
0
LINE
8
0
6
CONTINUOUS
10
-35.305405
20
792.929690
30
0.0
11
-35.917245
21
792.929760
31
0.0
0
LINE
8
0
6
CONTINUOUS
10
382.822135
20
-330.930270
30
0.0
11
382.822135
21
-332.705770
31
0.0
0
LINE
8
0
6
CONTINUOUS
10
383.836535
20
-330.318470
30
0.0
11
382.822135
21
-330.318470
31
0.0
0
LINE
8
0
6
CONTINUOUS
10
382.822135
20
-330.318470
30
0.0
11
382.822135
21
-330.930270
31
0.0
0
LINE
8
0
6
CONTINUOUS
10
382.822135
20
-350.165960
30
0.0
11
382.822135
21
-352.931380
31
0.0
0
LINE
8
0
6
CONTINUOUS
10
382.822135
20
-352.931380
30
0.0
11
382.822135
21
-354.706890
31
0.0
0
LINE
8
0
6
CONTINUOUS
10
382.822135
20
-332.705770
30
0.0
11
382.822135
21
-335.471190
31
0.0
0
LINE
8
0
6
CONTINUOUS
10
382.822135
20
-355.318690
30
0.0
11
383.836535
21
-355.318690
31
0.0
0
LINE
8
0
6
CONTINUOUS
10
382.822135
20
-354.706890
30
0.0
11
382.822135
21
-355.318690
31
0.0
0
LINE
8
0
6
CONTINUOUS
10
382.822135
20
-335.471190
30
0.0
11
382.822135
21
-338.955820
31
0.0
0
LINE
8
0
6
CONTINUOUS
10
382.822135
20
-338.955820
30
0.0
11
382.822135
21
-342.818570
31
0.0
0
LINE
8
0
6
CONTINUOUS
10
382.822135
20
-342.818570
30
0.0
11
382.822135
21
-346.681320
31
0.0
0
LINE
8
0
6
CONTINUOUS
10
382.822135
20
-346.681320
30
0.0
11
382.822135
21
-350.165960
31
0.0
0
LINE
8
0
6
CONTINUOUS
10
384.715635
20
-355.318690
30
0.0
11
384.715635
21
-354.706890
31
0.0
0
LINE
8
0
6
CONTINUOUS
10
383.836535
20
-355.318690
30
0.0
11
384.715635
21
-355.318690
31
0.0
0
LINE
8
0
6
CONTINUOUS
10
384.715635
20
-354.706890
30
0.0
11
384.715635
21
-352.931380
31
0.0
0
LINE
8
0
6
CONTINUOUS
10
384.715635
20
-352.931380
30
0.0
11
384.715635
21
-350.165960
31
0.0
0
LINE
8
0
6
CONTINUOUS
10
384.715635
20
-350.165960
30
0.0
11
384.715635
21
-346.681320
31
0.0
0
LINE
8
0
6
CONTINUOUS
10
384.715635
20
-346.681320
30
0.0
11
384.715635
21
-342.818570
31
0.0
0
LINE
8
0
6
CONTINUOUS
10
384.715635
20
-342.818570
30
0.0
11
384.715635
21
-338.955820
31
0.0
0
LINE
8
0
6
CONTINUOUS
10
384.715635
20
-338.955820
30
0.0
11
384.715635
21
-335.471190
31
0.0
0
LINE
8
0
6
CONTINUOUS
10
384.715635
20
-335.471190
30
0.0
11
384.715635
21
-332.705770
31
0.0
0
LINE
8
0
6
CONTINUOUS
10
384.715635
20
-332.705770
30
0.0
11
384.715635
21
-330.930270
31
0.0
0
LINE
8
0
6
CONTINUOUS
10
384.715635
20
-330.930270
30
0.0
11
384.715635
21
-330.318470
31
0.0
0
LINE
8
0
6
CONTINUOUS
10
384.715635
20
-330.318470
30
0.0
11
383.836535
21
-330.318470
31
0.0
0
LINE
8
0
6
CONTINUOUS
10
382.822135
20
-355.318690
30
0.0
11
382.822135
21
-354.706890
31
0.0
0
LINE
8
0
6
CONTINUOUS
10
382.582645
20
-355.212800
30
0.0
11
382.822135
21
-355.318690
31
0.0
0
LINE
8
0
6
CONTINUOUS
10
382.582645
20
-355.212800
30
0.0
11
382.582645
21
-354.606180
31
0.0
0
LINE
8
0
6
CONTINUOUS
10
382.343125
20
-355.318690
30
0.0
11
382.582645
21
-355.212800
31
0.0
0
LINE
8
0
6
CONTINUOUS
10
382.343125
20
-354.706890
30
0.0
11
382.343125
21
-355.318690
31
0.0
0
LINE
8
0
6
CONTINUOUS
10
382.822135
20
-354.706890
30
0.0
11
382.822135
21
-352.931380
31
0.0
0
LINE
8
0
6
CONTINUOUS
10
382.582645
20
-354.606180
30
0.0
11
382.582645
21
-352.845710
31
0.0
0
LINE
8
0
6
CONTINUOUS
10
382.343125
20
-352.931380
30
0.0
11
382.343125
21
-354.706890
31
0.0
0
LINE
8
0
6
CONTINUOUS
10
382.822135
20
-352.931380
30
0.0
11
382.822135
21
-350.165960
31
0.0
0
LINE
8
0
6
CONTINUOUS
10
382.582645
20
-352.845710
30
0.0
11
382.582645
21
-350.103710
31
0.0
0
LINE
8
0
6
CONTINUOUS
10
382.343125
20
-350.165960
30
0.0
11
382.343125
21
-352.931380
31
0.0
0
LINE
8
0
6
CONTINUOUS
10
382.822135
20
-350.165960
30
0.0
11
382.822135
21
-346.681320
31
0.0
0
LINE
8
0
6
CONTINUOUS
10
382.582645
20
-350.103710
30
0.0
11
382.582645
21
-346.648600
31
0.0
0
LINE
8
0
6
CONTINUOUS
10
382.343125
20
-346.681320
30
0.0
11
382.343125
21
-350.165960
31
0.0
0
LINE
8
0
6
CONTINUOUS
10
382.822135
20
-346.681320
30
0.0
11
382.822135
21
-342.818570
31
0.0
0
LINE
8
0
6
CONTINUOUS
10
382.582645
20
-346.648600
30
0.0
11
382.582645
21
-342.818570
31
0.0
0
LINE
8
0
6
CONTINUOUS
10
382.343125
20
-342.818570
30
0.0
11
382.343125
21
-346.681320
31
0.0
0
LINE
8
0
6
CONTINUOUS
10
382.822135
20
-342.818570
30
0.0
11
382.822135
21
-338.955820
31
0.0
0
LINE
8
0
6
CONTINUOUS
10
382.582645
20
-342.818570
30
0.0
11
382.582645
21
-338.988550
31
0.0
0
LINE
8
0
6
CONTINUOUS
10
382.343125
20
-338.955820
30
0.0
11
382.343125
21
-342.818570
31
0.0
0
LINE
8
0
6
CONTINUOUS
10
382.822135
20
-338.955820
30
0.0
11
382.822135
21
-335.471190
31
0.0
0
LINE
8
0
6
CONTINUOUS
10
382.582645
20
-338.988550
30
0.0
11
382.582645
21
-335.533430
31
0.0
0
LINE
8
0
6
CONTINUOUS
10
382.343125
20
-335.471190
30
0.0
11
382.343125
21
-338.955820
31
0.0
0
LINE
8
0
6
CONTINUOUS
10
382.822135
20
-335.471190
30
0.0
11
382.822135
21
-332.705770
31
0.0
0
LINE
8
0
6
CONTINUOUS
10
382.582645
20
-335.533430
30
0.0
11
382.582645
21
-332.791440
31
0.0
0
LINE
8
0
6
CONTINUOUS
10
382.343125
20
-332.705770
30
0.0
11
382.343125
21
-335.471190
31
0.0
0
LINE
8
0
6
CONTINUOUS
10
382.822135
20
-332.705770
30
0.0
11
382.822135
21
-330.930270
31
0.0
0
LINE
8
0
6
CONTINUOUS
10
382.582645
20
-332.791440
30
0.0
11
382.582645
21
-331.030980
31
0.0
0
LINE
8
0
6
CONTINUOUS
10
382.343125
20
-330.930270
30
0.0
11
382.343125
21
-332.705770
31
0.0
0
LINE
8
0
6
CONTINUOUS
10
382.822135
20
-330.930270
30
0.0
11
382.822135
21
-330.318470
31
0.0
0
LINE
8
0
6
CONTINUOUS
10
382.822135
20
-330.318470
30
0.0
11
382.582645
21
-330.424370
31
0.0
0
LINE
8
0
6
CONTINUOUS
10
382.582645
20
-331.030980
30
0.0
11
382.582645
21
-330.424370
31
0.0
0
LINE
8
0
6
CONTINUOUS
10
382.343125
20
-330.318470
30
0.0
11
382.343125
21
-330.930270
31
0.0
0
LINE
8
0
6
CONTINUOUS
10
382.582645
20
-330.424370
30
0.0
11
382.343125
21
-330.318470
31
0.0
0
LINE
8
0
6
CONTINUOUS
10
384.682275
20
-348.789200
30
0.0
11
385.274085
21
-342.786560
31
0.0
0
LINE
8
0
6
CONTINUOUS
10
380.061225
20
-359.943870
30
0.0
11
382.963145
21
-354.576020
31
0.0
0
LINE
8
0
6
CONTINUOUS
10
376.207945
20
-364.581790
30
0.0
11
380.061225
21
-359.943870
31
0.0
0
LINE
8
0
6
CONTINUOUS
10
371.550965
20
-368.405660
30
0.0
11
376.207945
21
-364.581790
31
0.0
0
LINE
8
0
6
CONTINUOUS
10
366.163885
20
-371.259860
30
0.0
11
371.550965
21
-368.405660
31
0.0
0
LINE
8
0
6
CONTINUOUS
10
360.388905
20
-372.944420
30
0.0
11
366.163885
21
-371.259860
31
0.0
0
LINE
8
0
6
CONTINUOUS
10
354.411675
20
-373.511790
30
0.0
11
360.388905
21
-372.944420
31
0.0
0
LINE
8
0
6
CONTINUOUS
10
348.356685
20
-372.906410
30
0.0
11
354.411675
21
-373.511790
31
0.0
0
LINE
8
0
6
CONTINUOUS
10
345.084478
20
-371.866009
30
0.0
11
348.356685
21
-372.906410
31
0.0
0
LINE
8
0
6
CONTINUOUS
10
337.387865
20
-368.246090
30
0.0
11
342.603673
21
-371.068013
31
0.0
0
LINE
8
0
6
CONTINUOUS
10
332.716815
20
-364.430000
30
0.0
11
337.387865
21
-368.246090
31
0.0
0
LINE
8
0
6
CONTINUOUS
10
328.962935
20
-359.736480
30
0.0
11
332.716815
21
-364.430000
31
0.0
0
LINE
8
0
6
CONTINUOUS
10
326.627095
20
-355.318693
30
0.0
11
328.962935
21
-359.736480
31
0.0
0
LINE
8
0
6
CONTINUOUS
10
329.023955
20
-325.796130
30
0.0
11
326.590619
21
-330.318475
31
0.0
0
LINE
8
0
6
CONTINUOUS
10
332.797085
20
-321.197780
30
0.0
11
329.023955
21
-325.796130
31
0.0
0
LINE
8
0
6
CONTINUOUS
10
337.364665
20
-317.373270
30
0.0
11
332.797085
21
-321.197780
31
0.0
0
LINE
8
0
6
CONTINUOUS
10
342.709575
20
-314.503400
30
0.0
11
337.364665
21
-317.373270
31
0.0
0
LINE
8
0
6
CONTINUOUS
10
348.416525
20
-312.760890
30
0.0
11
342.709575
21
-314.503400
31
0.0
0
LINE
8
0
6
CONTINUOUS
10
354.359005
20
-312.111280
30
0.0
11
348.416525
21
-312.760890
31
0.0
0
LINE
8
0
6
CONTINUOUS
10
360.411625
20
-312.671730
30
0.0
11
354.359005
21
-312.111280
31
0.0
0
LINE
8
0
6
CONTINUOUS
10
366.149485
20
-314.402400
30
0.0
11
360.411625
21
-312.671730
31
0.0
0
LINE
8
0
6
CONTINUOUS
10
371.468525
20
-317.182090
30
0.0
11
366.149485
21
-314.402400
31
0.0
0
LINE
8
0
6
CONTINUOUS
10
376.209815
20
-321.005310
30
0.0
11
371.468525
21
-317.182090
31
0.0
0
LINE
8
0
6
CONTINUOUS
10
380.022465
20
-325.662110
30
0.0
11
376.209815
21
-321.005310
31
0.0
0
LINE
8
0
6
CONTINUOUS
10
382.889515
20
-330.957000
30
0.0
11
380.022465
21
-325.662110
31
0.0
0
LINE
8
0
6
CONTINUOUS
10
385.274085
20
-342.786560
30
0.0
11
384.717105
21
-336.769040
31
0.0
0
LINE
8
0
6
CONTINUOUS
10
379.598275
20
-359.610610
30
0.0
11
381.896264
21
-355.318690
31
0.0
0
LINE
8
0
6
CONTINUOUS
10
375.823215
20
-364.202800
30
0.0
11
379.598275
21
-359.610610
31
0.0
0
LINE
8
0
6
CONTINUOUS
10
371.226995
20
-367.972760
30
0.0
11
375.823215
21
-364.202800
31
0.0
0
LINE
8
0
6
CONTINUOUS
10
365.988945
20
-370.768590
30
0.0
11
371.226995
21
-367.972760
31
0.0
0
LINE
8
0
6
CONTINUOUS
10
360.298885
20
-372.486670
30
0.0
11
365.988945
21
-370.768590
31
0.0
0
LINE
8
0
6
CONTINUOUS
10
354.384635
20
-373.065710
30
0.0
11
360.298885
21
-372.486670
31
0.0
0
LINE
8
0
6
CONTINUOUS
10
348.476795
20
-372.482900
30
0.0
11
354.384635
21
-373.065710
31
0.0
0
LINE
8
0
6
CONTINUOUS
10
345.091308
20
-371.466694
30
0.0
11
348.476795
21
-372.482900
31
0.0
0
LINE
8
0
6
CONTINUOUS
10
337.551785
20
-367.956550
30
0.0
11
342.610222
21
-370.680456
31
0.0
0
LINE
8
0
6
CONTINUOUS
10
332.955305
20
-364.191880
30
0.0
11
337.551785
21
-367.956550
31
0.0
0
LINE
8
0
6
CONTINUOUS
10
329.223705
20
-359.580280
30
0.0
11
332.955305
21
-364.191880
31
0.0
0
LINE
8
0
6
CONTINUOUS
10
326.959295
20
-355.318693
30
0.0
11
329.223705
21
-359.580280
31
0.0
0
LINE
8
0
6
CONTINUOUS
10
329.244915
20
-325.978680
30
0.0
11
326.915975
21
-330.318475
31
0.0
0
LINE
8
0
6
CONTINUOUS
10
333.002805
20
-321.396340
30
0.0
11
329.244915
21
-325.978680
31
0.0
0
LINE
8
0
6
CONTINUOUS
10
337.569205
20
-317.611150
30
0.0
11
333.002805
21
-321.396340
31
0.0
0
LINE
8
0
6
CONTINUOUS
10
342.798635
20
-314.809050
30
0.0
11
337.569205
21
-317.611150
31
0.0
0
LINE
8
0
6
CONTINUOUS
10
348.477505
20
-313.076960
30
0.0
11
342.798635
21
-314.809050
31
0.0
0
LINE
8
0
6
CONTINUOUS
10
354.388725
20
-312.461150
30
0.0
11
348.477505
21
-313.076960
31
0.0
0
LINE
8
0
6
CONTINUOUS
10
360.301875
20
-313.023200
30
0.0
11
354.388725
21
-312.461150
31
0.0
0
LINE
8
0
6
CONTINUOUS
10
366.000325
20
-314.741400
30
0.0
11
360.301875
21
-313.023200
31
0.0
0
LINE
8
0
6
CONTINUOUS
10
371.225015
20
-317.583070
30
0.0
11
366.000325
21
-314.741400
31
0.0
0
LINE
8
0
6
CONTINUOUS
10
375.818575
20
-321.343420
30
0.0
11
371.225015
21
-317.583070
31
0.0
0
LINE
8
0
6
CONTINUOUS
10
379.589995
20
-325.936750
30
0.0
11
375.818575
21
-321.343420
31
0.0
0
LINE
8
0
6
CONTINUOUS
10
381.936505
20
-330.318470
30
0.0
11
379.589995
21
-325.936750
31
0.0
0
LINE
8
0
6
CONTINUOUS
10
26.603632
20
-355.318710
30
0.0
11
29.104045
21
-359.943870
31
0.0
0
LINE
8
0
6
CONTINUOUS
10
29.104045
20
-359.943870
30
0.0
11
32.957325
21
-364.581790
31
0.0
0
LINE
8
0
6
CONTINUOUS
10
32.957325
20
-364.581790
30
0.0
11
37.614305
21
-368.405660
31
0.0
0
LINE
8
0
6
CONTINUOUS
10
37.614305
20
-368.405660
30
0.0
11
43.001385
21
-371.259860
31
0.0
0
LINE
8
0
6
CONTINUOUS
10
43.001385
20
-371.259860
30
0.0
11
48.776365
21
-372.944420
31
0.0
0
LINE
8
0
6
CONTINUOUS
10
48.776365
20
-372.944420
30
0.0
11
54.753595
21
-373.511790
31
0.0
0
LINE
8
0
6
CONTINUOUS
10
54.753595
20
-373.511790
30
0.0
11
60.808585
21
-372.906410
31
0.0
0
LINE
8
0
6
CONTINUOUS
10
60.808585
20
-372.906410
30
0.0
11
64.080792
21
-371.866009
31
0.0
0
LINE
8
0
6
CONTINUOUS
10
66.561597
20
-371.068013
30
0.0
11
71.777405
21
-368.246090
31
0.0
0
LINE
8
0
6
CONTINUOUS
10
71.777405
20
-368.246090
30
0.0
11
76.448455
21
-364.430000
31
0.0
0
LINE
8
0
6
CONTINUOUS
10
76.448455
20
-364.430000
30
0.0
11
80.202335
21
-359.736480
31
0.0
0
LINE
8
0
6
CONTINUOUS
10
80.202335
20
-359.736480
30
0.0
11
82.538168
21
-355.318707
31
0.0
0
LINE
8
0
6
CONTINUOUS
10
82.574662
20
-330.318495
30
0.0
11
80.141315
21
-325.796130
31
0.0
0
LINE
8
0
6
CONTINUOUS
10
80.141315
20
-325.796130
30
0.0
11
76.368185
21
-321.197780
31
0.0
0
LINE
8
0
6
CONTINUOUS
10
76.368185
20
-321.197780
30
0.0
11
71.800605
21
-317.373270
31
0.0
0
LINE
8
0
6
CONTINUOUS
10
71.800605
20
-317.373270
30
0.0
11
66.455695
21
-314.503400
31
0.0
0
LINE
8
0
6
CONTINUOUS
10
66.455695
20
-314.503400
30
0.0
11
60.748745
21
-312.760890
31
0.0
0
LINE
8
0
6
CONTINUOUS
10
60.748745
20
-312.760890
30
0.0
11
54.806265
21
-312.111280
31
0.0
0
LINE
8
0
6
CONTINUOUS
10
54.806265
20
-312.111280
30
0.0
11
48.753645
21
-312.671730
31
0.0
0
LINE
8
0
6
CONTINUOUS
10
48.753645
20
-312.671730
30
0.0
11
43.015785
21
-314.402400
31
0.0
0
LINE
8
0
6
CONTINUOUS
10
43.015785
20
-314.402400
30
0.0
11
37.696745
21
-317.182090
31
0.0
0
LINE
8
0
6
CONTINUOUS
10
37.696745
20
-317.182090
30
0.0
11
32.955455
21
-321.005310
31
0.0
0
LINE
8
0
6
CONTINUOUS
10
32.955455
20
-321.005310
30
0.0
11
29.142805
21
-325.662110
31
0.0
0
LINE
8
0
6
CONTINUOUS
10
29.142805
20
-325.662110
30
0.0
11
26.621487
21
-330.318500
31
0.0
0
LINE
8
0
6
CONTINUOUS
10
27.269017
20
-355.318710
30
0.0
11
29.566995
21
-359.610610
31
0.0
0
LINE
8
0
6
CONTINUOUS
10
29.566995
20
-359.610610
30
0.0
11
33.342055
21
-364.202800
31
0.0
0
LINE
8
0
6
CONTINUOUS
10
33.342055
20
-364.202800
30
0.0
11
37.938275
21
-367.972760
31
0.0
0
LINE
8
0
6
CONTINUOUS
10
37.938275
20
-367.972760
30
0.0
11
43.176325
21
-370.768590
31
0.0
0
LINE
8
0
6
CONTINUOUS
10
43.176325
20
-370.768590
30
0.0
11
48.866385
21
-372.486670
31
0.0
0
LINE
8
0
6
CONTINUOUS
10
48.866385
20
-372.486670
30
0.0
11
54.780635
21
-373.065710
31
0.0
0
LINE
8
0
6
CONTINUOUS
10
54.780635
20
-373.065710
30
0.0
11
60.688475
21
-372.482900
31
0.0
0
LINE
8
0
6
CONTINUOUS
10
60.688475
20
-372.482900
30
0.0
11
64.073962
21
-371.466694
31
0.0
0
LINE
8
0
6
CONTINUOUS
10
66.555048
20
-370.680456
30
0.0
11
71.613485
21
-367.956550
31
0.0
0
LINE
8
0
6
CONTINUOUS
10
71.613485
20
-367.956550
30
0.0
11
76.209965
21
-364.191880
31
0.0
0
LINE
8
0
6
CONTINUOUS
10
76.209965
20
-364.191880
30
0.0
11
79.941565
21
-359.580280
31
0.0
0
LINE
8
0
6
CONTINUOUS
10
79.941565
20
-359.580280
30
0.0
11
82.205968
21
-355.318707
31
0.0
0
LINE
8
0
6
CONTINUOUS
10
82.249307
20
-330.318495
30
0.0
11
79.920355
21
-325.978680
31
0.0
0
LINE
8
0
6
CONTINUOUS
10
79.920355
20
-325.978680
30
0.0
11
76.162465
21
-321.396340
31
0.0
0
LINE
8
0
6
CONTINUOUS
10
76.162465
20
-321.396340
30
0.0
11
71.596065
21
-317.611150
31
0.0
0
LINE
8
0
6
CONTINUOUS
10
71.596065
20
-317.611150
30
0.0
11
66.366635
21
-314.809050
31
0.0
0
LINE
8
0
6
CONTINUOUS
10
66.366635
20
-314.809050
30
0.0
11
60.687765
21
-313.076960
31
0.0
0
LINE
8
0
6
CONTINUOUS
10
60.687765
20
-313.076960
30
0.0
11
54.776545
21
-312.461150
31
0.0
0
LINE
8
0
6
CONTINUOUS
10
54.776545
20
-312.461150
30
0.0
11
48.863395
21
-313.023200
31
0.0
0
LINE
8
0
6
CONTINUOUS
10
48.863395
20
-313.023200
30
0.0
11
43.164945
21
-314.741400
31
0.0
0
LINE
8
0
6
CONTINUOUS
10
43.164945
20
-314.741400
30
0.0
11
37.940255
21
-317.583070
31
0.0
0
LINE
8
0
6
CONTINUOUS
10
37.940255
20
-317.583070
30
0.0
11
33.346695
21
-321.343420
31
0.0
0
LINE
8
0
6
CONTINUOUS
10
33.346695
20
-321.343420
30
0.0
11
29.575275
21
-325.936750
31
0.0
0
LINE
8
0
6
CONTINUOUS
10
29.575275
20
-325.936750
30
0.0
11
27.228749
21
-330.318500
31
0.0
0
LINE
8
0
6
CONTINUOUS
10
64.622605
20
-403.542480
30
0.0
11
64.632635
21
-404.128780
31
0.0
0
LINE
8
0
6
CONTINUOUS
10
204.582635
20
-404.128780
30
0.0
11
67.834665
21
-404.128780
31
0.0
0
LINE
8
0
6
CONTINUOUS
10
67.834665
20
-415.318680
30
0.0
11
204.582635
21
-415.318680
31
0.0
0
LINE
8
0
6
CONTINUOUS
10
66.661465
20
-415.318680
30
0.0
11
67.120235
21
-415.318680
31
0.0
0
LINE
8
0
6
CONTINUOUS
10
67.120235
20
-415.318680
30
0.0
11
67.834665
21
-415.318680
31
0.0
0
LINE
8
0
6
CONTINUOUS
10
67.834665
20
-404.128780
30
0.0
11
67.120245
21
-404.128780
31
0.0
0
LINE
8
0
6
CONTINUOUS
10
63.797758
20
-355.318708
30
0.0
11
64.622605
21
-403.542480
31
0.0
0
LINE
8
0
6
CONTINUOUS
10
64.632635
20
-404.731070
30
0.0
11
64.632635
21
-414.759180
31
0.0
0
LINE
8
0
6
CONTINUOUS
10
64.632635
20
-414.759180
30
0.0
11
64.632635
21
-415.318680
31
0.0
0
LINE
8
0
6
CONTINUOUS
10
64.632635
20
-415.318680
30
0.0
11
64.986645
21
-415.318680
31
0.0
0
LINE
8
0
6
CONTINUOUS
10
64.632635
20
-404.128780
30
0.0
11
64.632635
21
-404.731070
31
0.0
0
LINE
8
0
6
CONTINUOUS
10
67.120245
20
-404.128780
30
0.0
11
67.110325
21
-403.542070
31
0.0
0
LINE
8
0
6
CONTINUOUS
10
67.110325
20
-403.542070
30
0.0
11
66.295475
21
-355.318708
31
0.0
0
LINE
8
0
6
CONTINUOUS
10
64.986645
20
-415.318680
30
0.0
11
66.661465
21
-415.318680
31
0.0
0
LINE
8
0
6
CONTINUOUS
10
344.532635
20
-404.128780
30
0.0
11
344.542665
21
-403.542480
31
0.0
0
LINE
8
0
6
CONTINUOUS
10
341.330605
20
-404.128780
30
0.0
11
204.582635
21
-404.128780
31
0.0
0
LINE
8
0
6
CONTINUOUS
10
204.582635
20
-415.318680
30
0.0
11
341.330605
21
-415.318680
31
0.0
0
LINE
8
0
6
CONTINUOUS
10
342.045035
20
-415.318680
30
0.0
11
342.503805
21
-415.318680
31
0.0
0
LINE
8
0
6
CONTINUOUS
10
341.330605
20
-415.318680
30
0.0
11
342.045035
21
-415.318680
31
0.0
0
LINE
8
0
6
CONTINUOUS
10
342.045025
20
-404.128780
30
0.0
11
341.330605
21
-404.128780
31
0.0
0
LINE
8
0
6
CONTINUOUS
10
344.542665
20
-403.542480
30
0.0
11
345.367512
21
-355.318692
31
0.0
0
LINE
8
0
6
CONTINUOUS
10
344.532635
20
-414.759180
30
0.0
11
344.532635
21
-404.731070
31
0.0
0
LINE
8
0
6
CONTINUOUS
10
344.178625
20
-415.318680
30
0.0
11
344.532635
21
-415.318680
31
0.0
0
LINE
8
0
6
CONTINUOUS
10
344.532635
20
-415.318680
30
0.0
11
344.532635
21
-414.759180
31
0.0
0
LINE
8
0
6
CONTINUOUS
10
344.532635
20
-404.731070
30
0.0
11
344.532635
21
-404.128780
31
0.0
0
LINE
8
0
6
CONTINUOUS
10
342.054945
20
-403.542070
30
0.0
11
342.045025
21
-404.128780
31
0.0
0
LINE
8
0
6
CONTINUOUS
10
342.869796
20
-355.318692
30
0.0
11
342.054945
21
-403.542070
31
0.0
0
LINE
8
0
6
CONTINUOUS
10
342.503805
20
-415.318680
30
0.0
11
344.178625
21
-415.318680
31
0.0
0
LINE
8
0
6
CONTINUOUS
10
-53.712085
20
194.532780
30
0.0
11
-62.386744
21
194.532780
31
0.0
0
LINE
8
0
6
CONTINUOUS
10
-62.311960
20
167.895569
30
0.0
11
-53.712115
21
167.895550
31
0.0
0
LINE
8
0
6
CONTINUOUS
10
-64.353065
20
208.101620
30
0.0
11
-65.774241
21
208.623606
31
0.0
0
LINE
8
0
6
CONTINUOUS
10
-62.961155
20
207.228770
30
0.0
11
-64.353065
21
208.101620
31
0.0
0
LINE
8
0
6
CONTINUOUS
10
-62.419485
20
206.200710
30
0.0
11
-62.961155
21
207.228770
31
0.0
0
LINE
8
0
6
CONTINUOUS
10
-89.494664
20
208.767576
30
0.0
11
-90.266345
21
208.522640
31
0.0
0
LINE
8
0
6
CONTINUOUS
10
-86.222455
20
203.970790
30
0.0
11
-86.615405
21
203.970790
31
0.0
0
LINE
8
0
6
CONTINUOUS
10
-85.853495
20
203.901440
30
0.0
11
-86.222455
21
203.970790
31
0.0
0
LINE
8
0
6
CONTINUOUS
10
-85.126745
20
203.906900
30
0.0
11
-85.853495
21
203.901440
31
0.0
0
LINE
8
0
6
CONTINUOUS
10
-89.886135
20
203.970790
30
0.0
11
-90.546493
21
203.970790
31
0.0
0
LINE
8
0
6
CONTINUOUS
10
-90.266345
20
208.522640
30
0.0
11
-90.558985
21
208.429760
31
0.0
0
LINE
8
0
6
CONTINUOUS
10
-53.377975
20
194.049530
30
0.0
11
-53.377975
21
192.700580
31
0.0
0
LINE
8
0
6
CONTINUOUS
10
-53.122555
20
194.532780
30
0.0
11
-53.377985
21
194.532780
31
0.0
0
LINE
8
0
6
CONTINUOUS
10
-53.377975
20
190.635830
30
0.0
11
-53.377955
21
187.892880
31
0.0
0
LINE
8
0
6
CONTINUOUS
10
-53.377975
20
184.734950
30
0.0
11
-53.377955
21
181.236760
31
0.0
0
LINE
8
0
6
CONTINUOUS
10
-53.377975
20
177.736930
30
0.0
11
-53.377985
21
174.574360
31
0.0
0
LINE
8
0
6
CONTINUOUS
10
-53.377985
20
174.574360
30
0.0
11
-53.377985
21
171.824260
31
0.0
0
LINE
8
0
6
CONTINUOUS
10
-53.378005
20
167.895550
30
0.0
11
-53.122595
21
167.895550
31
0.0
0
LINE
8
0
6
CONTINUOUS
10
-53.378005
20
168.390580
30
0.0
11
-53.378005
21
167.895550
31
0.0
0
LINE
8
0
6
CONTINUOUS
10
-53.377985
20
169.750440
30
0.0
11
-53.378005
21
168.390580
31
0.0
0
LINE
8
0
6
CONTINUOUS
10
-53.445715
20
192.384720
30
0.0
11
-53.445705
21
190.376780
31
0.0
0
LINE
8
0
6
CONTINUOUS
10
-53.388895
20
192.384720
30
0.0
11
-53.388895
21
193.696630
31
0.0
0
LINE
8
0
6
CONTINUOUS
10
-53.388895
20
194.166560
30
0.0
11
-53.445715
21
194.166560
31
0.0
0
LINE
8
0
6
CONTINUOUS
10
-53.388885
20
187.709240
30
0.0
11
-53.388885
21
190.376780
31
0.0
0
LINE
8
0
6
CONTINUOUS
10
-53.445705
20
187.709240
30
0.0
11
-53.445705
21
184.638140
31
0.0
0
LINE
8
0
6
CONTINUOUS
10
-53.445705
20
184.638140
30
0.0
11
-53.445705
21
181.236150
31
0.0
0
LINE
8
0
6
CONTINUOUS
10
-53.388885
20
181.236150
30
0.0
11
-53.388885
21
184.638140
31
0.0
0
LINE
8
0
6
CONTINUOUS
10
-53.445715
20
177.832570
30
0.0
11
-53.445715
21
174.756930
31
0.0
0
LINE
8
0
6
CONTINUOUS
10
-53.388895
20
174.756930
30
0.0
11
-53.388895
21
177.832570
31
0.0
0
LINE
8
0
6
CONTINUOUS
10
-53.388915
20
172.082440
30
0.0
11
-53.388895
21
174.756930
31
0.0
0
LINE
8
0
6
CONTINUOUS
10
-53.445755
20
168.261760
30
0.0
11
-53.388935
21
168.261760
31
0.0
0
LINE
8
0
6
CONTINUOUS
10
-53.445755
20
168.743170
30
0.0
11
-53.445755
21
168.261760
31
0.0
0
LINE
8
0
6
CONTINUOUS
10
-53.388935
20
168.261760
30
0.0
11
-53.388915
21
168.743170
31
0.0
0
LINE
8
0
6
CONTINUOUS
10
-53.388915
20
168.743170
30
0.0
11
-53.388915
21
170.065650
31
0.0
0
LINE
8
0
6
CONTINUOUS
10
-53.445735
20
172.082440
30
0.0
11
-53.445735
21
170.065650
31
0.0
0
LINE
8
0
6
CONTINUOUS
10
-53.445715
20
192.384720
30
0.0
11
-53.445715
21
193.696630
31
0.0
0
LINE
8
0
6
CONTINUOUS
10
-53.388885
20
181.236150
30
0.0
11
-53.388895
21
177.832570
31
0.0
0
LINE
8
0
6
CONTINUOUS
10
-53.377975
20
177.736930
30
0.0
11
-53.377955
21
181.236760
31
0.0
0
LINE
8
0
6
CONTINUOUS
10
-53.445705
20
187.709240
30
0.0
11
-53.445705
21
190.376780
31
0.0
0
LINE
8
0
6
CONTINUOUS
10
-53.445735
20
172.082440
30
0.0
11
-53.445715
21
174.756930
31
0.0
0
LINE
8
0
6
CONTINUOUS
10
-53.445755
20
168.743170
30
0.0
11
-53.445735
21
170.065650
31
0.0
0
LINE
8
0
6
CONTINUOUS
10
-53.388895
20
194.166560
30
0.0
11
-53.388895
21
193.696630
31
0.0
0
LINE
8
0
6
CONTINUOUS
10
-53.377975
20
194.049530
30
0.0
11
-53.377985
21
194.532780
31
0.0
0
LINE
8
0
6
CONTINUOUS
10
-53.388885
20
187.709240
30
0.0
11
-53.388885
21
184.638140
31
0.0
0
LINE
8
0
6
CONTINUOUS
10
-53.377975
20
184.734950
30
0.0
11
-53.377955
21
187.892880
31
0.0
0
LINE
8
0
6
CONTINUOUS
10
-53.445715
20
177.832570
30
0.0
11
-53.445705
21
181.236150
31
0.0
0
LINE
8
0
6
CONTINUOUS
10
-53.388915
20
172.082440
30
0.0
11
-53.388915
21
170.065650
31
0.0
0
LINE
8
0
6
CONTINUOUS
10
-53.377985
20
169.750440
30
0.0
11
-53.377985
21
171.824260
31
0.0
0
LINE
8
0
6
CONTINUOUS
10
-53.388895
20
192.384720
30
0.0
11
-53.388885
21
190.376780
31
0.0
0
LINE
8
0
6
CONTINUOUS
10
-53.377975
20
190.635830
30
0.0
11
-53.377975
21
192.700580
31
0.0
0
LINE
8
0
6
CONTINUOUS
10
-53.445715
20
193.696630
30
0.0
11
-53.445715
21
194.166560
31
0.0
0
LINE
8
0
6
CONTINUOUS
10
-53.456625
20
190.635830
30
0.0
11
-53.456625
21
192.700580
31
0.0
0
LINE
8
0
6
CONTINUOUS
10
-53.456625
20
192.700580
30
0.0
11
-53.456645
21
194.049530
31
0.0
0
LINE
8
0
6
CONTINUOUS
10
-53.456645
20
194.532780
30
0.0
11
-53.712085
21
194.532780
31
0.0
0
LINE
8
0
6
CONTINUOUS
10
-53.456645
20
194.049530
30
0.0
11
-53.456645
21
194.532780
31
0.0
0
LINE
8
0
6
CONTINUOUS
10
-53.456625
20
187.892880
30
0.0
11
-53.456625
21
190.635830
31
0.0
0
LINE
8
0
6
CONTINUOUS
10
-53.456625
20
184.734950
30
0.0
11
-53.456625
21
187.892880
31
0.0
0
LINE
8
0
6
CONTINUOUS
10
-53.456625
20
181.236760
30
0.0
11
-53.456625
21
184.734950
31
0.0
0
LINE
8
0
6
CONTINUOUS
10
-53.456625
20
177.736930
30
0.0
11
-53.456625
21
181.236760
31
0.0
0
LINE
8
0
6
CONTINUOUS
10
-53.456645
20
174.574360
30
0.0
11
-53.456625
21
177.736930
31
0.0
0
LINE
8
0
6
CONTINUOUS
10
-53.456645
20
171.824260
30
0.0
11
-53.456645
21
174.574360
31
0.0
0
LINE
8
0
6
CONTINUOUS
10
-53.712115
20
167.895550
30
0.0
11
-53.456685
21
167.895550
31
0.0
0
LINE
8
0
6
CONTINUOUS
10
-53.456685
20
167.895550
30
0.0
11
-53.456665
21
168.390580
31
0.0
0
LINE
8
0
6
CONTINUOUS
10
-53.456665
20
168.390580
30
0.0
11
-53.456665
21
169.750440
31
0.0
0
LINE
8
0
6
CONTINUOUS
10
-53.456665
20
169.750440
30
0.0
11
-53.456645
21
171.824260
31
0.0
0
LINE
8
0
6
CONTINUOUS
10
-39.408471
20
194.532758
30
0.0
11
-53.122555
21
194.532780
31
0.0
0
LINE
8
0
6
CONTINUOUS
10
-53.122595
20
167.895550
30
0.0
11
-39.408475
21
167.895528
31
0.0
0
LINE
8
0
6
CONTINUOUS
10
-86.615405
20
203.970790
30
0.0
11
-89.886135
21
203.970790
31
0.0
0
LINE
8
0
6
CONTINUOUS
10
-7.424925
20
155.776020
30
0.0
11
-7.424925
21
155.971370
31
0.0
0
LINE
8
0
6
CONTINUOUS
10
-39.408475
20
206.434210
30
0.0
11
-39.408475
21
194.532774
31
0.0
0
LINE
8
0
6
CONTINUOUS
10
-39.408475
20
167.895528
30
0.0
11
-39.408475
21
155.971370
31
0.0
0
LINE
8
0
6
CONTINUOUS
10
-7.424925
20
206.434210
30
0.0
11
-7.424925
21
206.586530
31
0.0
0
LINE
8
0
6
CONTINUOUS
10
-39.408475
20
206.586530
30
0.0
11
-39.408475
21
206.434210
31
0.0
0
LINE
8
0
6
CONTINUOUS
10
-7.424925
20
155.971370
30
0.0
11
-7.424925
21
206.434210
31
0.0
0
LINE
8
0
6
CONTINUOUS
10
-39.408475
20
155.971370
30
0.0
11
-39.408475
21
155.776020
31
0.0
0
LINE
8
0
6
CONTINUOUS
10
-89.471316
20
208.429760
30
0.0
11
-89.886165
21
208.429760
31
0.0
0
LINE
8
0
6
CONTINUOUS
10
-89.886165
20
208.429760
30
0.0
11
-90.558985
21
208.429760
31
0.0
0
LINE
8
0
6
CONTINUOUS
10
-90.558985
20
208.429760
30
0.0
11
-90.556445
21
207.521400
31
0.0
0
LINE
8
0
6
CONTINUOUS
10
-90.556445
20
207.521400
30
0.0
11
-90.546493
21
203.970790
31
0.0
0
LINE
8
0
6
CONTINUOUS
10
-23.416675
20
155.181310
30
0.0
11
-19.386725
21
155.181310
31
0.0
0
LINE
8
0
6
CONTINUOUS
10
-19.322795
20
155.776020
30
0.0
11
-23.416675
21
155.776020
31
0.0
0
LINE
8
0
6
CONTINUOUS
10
-19.386725
20
155.181310
30
0.0
11
-15.676635
21
155.181310
31
0.0
0
LINE
8
0
6
CONTINUOUS
10
-15.484775
20
155.776020
30
0.0
11
-19.322795
21
155.776020
31
0.0
0
LINE
8
0
6
CONTINUOUS
10
-15.676635
20
155.181310
30
0.0
11
-12.414325
21
155.181310
31
0.0
0
LINE
8
0
6
CONTINUOUS
10
-12.094495
20
155.776020
30
0.0
11
-15.484775
21
155.776020
31
0.0
0
LINE
8
0
6
CONTINUOUS
10
-12.414325
20
155.181310
30
0.0
11
-9.919605
21
155.181310
31
0.0
0
LINE
8
0
6
CONTINUOUS
10
-9.535805
20
155.776020
30
0.0
11
-12.094495
21
155.776020
31
0.0
0
LINE
8
0
6
CONTINUOUS
10
-9.919605
20
155.181310
30
0.0
11
-8.384415
21
155.181310
31
0.0
0
LINE
8
0
6
CONTINUOUS
10
-8.000625
20
155.776020
30
0.0
11
-9.535805
21
155.776020
31
0.0
0
LINE
8
0
6
CONTINUOUS
10
-7.808705
20
155.181310
30
0.0
11
-7.424925
21
155.776020
31
0.0
0
LINE
8
0
6
CONTINUOUS
10
-8.384415
20
155.181310
30
0.0
11
-7.808705
21
155.181310
31
0.0
0
LINE
8
0
6
CONTINUOUS
10
-7.424925
20
155.776020
30
0.0
11
-8.000625
21
155.776020
31
0.0
0
LINE
8
0
6
CONTINUOUS
10
-23.416675
20
155.776020
30
0.0
11
-27.510565
21
155.776020
31
0.0
0
LINE
8
0
6
CONTINUOUS
10
-27.446595
20
155.181310
30
0.0
11
-23.416675
21
155.181310
31
0.0
0
LINE
8
0
6
CONTINUOUS
10
-27.510565
20
155.776020
30
0.0
11
-31.348585
21
155.776020
31
0.0
0
LINE
8
0
6
CONTINUOUS
10
-31.156675
20
155.181310
30
0.0
11
-27.446595
21
155.181310
31
0.0
0
LINE
8
0
6
CONTINUOUS
10
-31.348585
20
155.776020
30
0.0
11
-34.738865
21
155.776020
31
0.0
0
LINE
8
0
6
CONTINUOUS
10
-34.419005
20
155.181310
30
0.0
11
-31.156675
21
155.181310
31
0.0
0
LINE
8
0
6
CONTINUOUS
10
-34.738865
20
155.776020
30
0.0
11
-37.297535
21
155.776020
31
0.0
0
LINE
8
0
6
CONTINUOUS
10
-36.913735
20
155.181310
30
0.0
11
-34.419005
21
155.181310
31
0.0
0
LINE
8
0
6
CONTINUOUS
10
-37.297535
20
155.776020
30
0.0
11
-38.832755
21
155.776020
31
0.0
0
LINE
8
0
6
CONTINUOUS
10
-38.448965
20
155.181310
30
0.0
11
-36.913735
21
155.181310
31
0.0
0
LINE
8
0
6
CONTINUOUS
10
-39.408475
20
155.776020
30
0.0
11
-39.024675
21
155.181310
31
0.0
0
LINE
8
0
6
CONTINUOUS
10
-38.832755
20
155.776020
30
0.0
11
-39.408475
21
155.776020
31
0.0
0
LINE
8
0
6
CONTINUOUS
10
-39.024675
20
155.181310
30
0.0
11
-38.448965
21
155.181310
31
0.0
0
LINE
8
0
6
CONTINUOUS
10
-23.416675
20
206.586530
30
0.0
11
-19.322795
21
206.586530
31
0.0
0
LINE
8
0
6
CONTINUOUS
10
-19.386725
20
207.181280
30
0.0
11
-23.416675
21
207.181280
31
0.0
0
LINE
8
0
6
CONTINUOUS
10
-19.322795
20
206.586530
30
0.0
11
-15.484775
21
206.586530
31
0.0
0
LINE
8
0
6
CONTINUOUS
10
-15.676635
20
207.181280
30
0.0
11
-19.386725
21
207.181280
31
0.0
0
LINE
8
0
6
CONTINUOUS
10
-15.484775
20
206.586530
30
0.0
11
-12.094495
21
206.586530
31
0.0
0
LINE
8
0
6
CONTINUOUS
10
-12.414325
20
207.181280
30
0.0
11
-15.676635
21
207.181280
31
0.0
0
LINE
8
0
6
CONTINUOUS
10
-12.094495
20
206.586530
30
0.0
11
-9.535805
21
206.586530
31
0.0
0
LINE
8
0
6
CONTINUOUS
10
-9.919605
20
207.181280
30
0.0
11
-12.414325
21
207.181280
31
0.0
0
LINE
8
0
6
CONTINUOUS
10
-9.535805
20
206.586530
30
0.0
11
-8.000625
21
206.586530
31
0.0
0
LINE
8
0
6
CONTINUOUS
10
-8.384415
20
207.181280
30
0.0
11
-9.919605
21
207.181280
31
0.0
0
LINE
8
0
6
CONTINUOUS
10
-7.424925
20
206.586530
30
0.0
11
-7.808705
21
207.181280
31
0.0
0
LINE
8
0
6
CONTINUOUS
10
-8.000625
20
206.586530
30
0.0
11
-7.424925
21
206.586530
31
0.0
0
LINE
8
0
6
CONTINUOUS
10
-7.808705
20
207.181280
30
0.0
11
-8.384415
21
207.181280
31
0.0
0
LINE
8
0
6
CONTINUOUS
10
-23.416675
20
207.181280
30
0.0
11
-27.446595
21
207.181280
31
0.0
0
LINE
8
0
6
CONTINUOUS
10
-27.510565
20
206.586530
30
0.0
11
-23.416675
21
206.586530
31
0.0
0
LINE
8
0
6
CONTINUOUS
10
-27.446595
20
207.181280
30
0.0
11
-31.156675
21
207.181280
31
0.0
0
LINE
8
0
6
CONTINUOUS
10
-31.348585
20
206.586530
30
0.0
11
-27.510565
21
206.586530
31
0.0
0
LINE
8
0
6
CONTINUOUS
10
-31.156675
20
207.181280
30
0.0
11
-34.419005
21
207.181280
31
0.0
0
LINE
8
0
6
CONTINUOUS
10
-34.738865
20
206.586530
30
0.0
11
-31.348585
21
206.586530
31
0.0
0
LINE
8
0
6
CONTINUOUS
10
-34.419005
20
207.181280
30
0.0
11
-36.913735
21
207.181280
31
0.0
0
LINE
8
0
6
CONTINUOUS
10
-37.297535
20
206.586530
30
0.0
11
-34.738865
21
206.586530
31
0.0
0
LINE
8
0
6
CONTINUOUS
10
-36.913735
20
207.181280
30
0.0
11
-38.448965
21
207.181280
31
0.0
0
LINE
8
0
6
CONTINUOUS
10
-38.832755
20
206.586530
30
0.0
11
-37.297535
21
206.586530
31
0.0
0
LINE
8
0
6
CONTINUOUS
10
-39.024675
20
207.181280
30
0.0
11
-39.408475
21
206.586530
31
0.0
0
LINE
8
0
6
CONTINUOUS
10
-38.448965
20
207.181280
30
0.0
11
-39.024675
21
207.181280
31
0.0
0
LINE
8
0
6
CONTINUOUS
10
-39.408475
20
206.586530
30
0.0
11
-38.832755
21
206.586530
31
0.0
0
LINE
8
0
6
CONTINUOUS
10
-90.270765
20
203.879320
30
0.0
11
-90.546482
21
203.966834
31
0.0
0
LINE
8
0
6
CONTINUOUS
10
-90.558945
20
203.970790
30
0.0
11
-90.556415
21
203.062400
31
0.0
0
LINE
8
0
6
CONTINUOUS
10
-77.883105
20
202.298620
30
0.0
11
-81.885945
21
202.437970
31
0.0
0
LINE
8
0
6
CONTINUOUS
10
-73.880275
20
202.437970
30
0.0
11
-77.883105
21
202.298620
31
0.0
0
LINE
8
0
6
CONTINUOUS
10
-70.099505
20
202.828140
30
0.0
11
-73.880275
21
202.437970
31
0.0
0
LINE
8
0
6
CONTINUOUS
10
-66.764015
20
203.413390
30
0.0
11
-70.099505
21
202.828140
31
0.0
0
LINE
8
0
6
CONTINUOUS
10
-64.661575
20
204.105800
30
0.0
11
-66.764015
21
203.413390
31
0.0
0
LINE
8
0
6
CONTINUOUS
10
-62.961155
20
205.056270
30
0.0
11
-64.661575
21
204.105800
31
0.0
0
LINE
8
0
6
CONTINUOUS
10
-62.419485
20
206.200710
30
0.0
11
-62.961155
21
205.056270
31
0.0
0
LINE
8
0
6
CONTINUOUS
10
-62.416955
20
205.293730
30
0.0
11
-62.419485
21
206.200710
31
0.0
0
LINE
8
0
6
CONTINUOUS
10
-85.777245
20
202.828140
30
0.0
11
-88.890685
21
203.441280
31
0.0
0
LINE
8
0
6
CONTINUOUS
10
-81.885945
20
202.437970
30
0.0
11
-85.777245
21
202.828140
31
0.0
0
LINE
8
0
6
CONTINUOUS
10
-88.890685
20
203.441280
30
0.0
11
-90.270765
21
203.879320
31
0.0
0
LINE
8
0
6
CONTINUOUS
10
-90.419025
20
154.050180
30
0.0
11
-90.130845
21
153.958700
31
0.0
0
LINE
8
0
6
CONTINUOUS
10
-90.420665
20
154.634130
30
0.0
11
-90.419025
21
154.050180
31
0.0
0
LINE
8
0
6
CONTINUOUS
10
-81.746045
20
152.517390
30
0.0
11
-77.743185
21
152.378040
31
0.0
0
LINE
8
0
6
CONTINUOUS
10
-77.743185
20
152.378040
30
0.0
11
-73.740345
21
152.517390
31
0.0
0
LINE
8
0
6
CONTINUOUS
10
-73.740345
20
152.517390
30
0.0
11
-69.959605
21
152.907520
31
0.0
0
LINE
8
0
6
CONTINUOUS
10
-69.959605
20
152.907520
30
0.0
11
-66.624085
21
153.492770
31
0.0
0
LINE
8
0
6
CONTINUOUS
10
-66.624085
20
153.492770
30
0.0
11
-64.599055
21
154.107630
31
0.0
0
LINE
8
0
6
CONTINUOUS
10
-64.599055
20
154.107630
30
0.0
11
-62.666455
21
155.252080
31
0.0
0
LINE
8
0
6
CONTINUOUS
10
-62.279565
20
156.357690
30
0.0
11
-62.281205
21
156.940730
31
0.0
0
LINE
8
0
6
CONTINUOUS
10
-62.666455
20
155.252080
30
0.0
11
-62.279565
21
156.357690
31
0.0
0
LINE
8
0
6
CONTINUOUS
10
-88.750745
20
153.520660
30
0.0
11
-85.667515
21
152.913503
31
0.0
0
LINE
8
0
6
CONTINUOUS
10
-85.637335
20
152.907560
30
0.0
11
-81.746045
21
152.517390
31
0.0
0
LINE
8
0
6
CONTINUOUS
10
-90.130845
20
153.958700
30
0.0
11
-88.750745
21
153.520660
31
0.0
0
LINE
8
0
6
CONTINUOUS
10
-90.556415
20
203.062400
30
0.0
11
-90.420665
21
154.634130
31
0.0
0
LINE
8
0
6
CONTINUOUS
10
-62.281205
20
156.940730
30
0.0
11
-62.311960
21
167.895569
31
0.0
0
LINE
8
0
6
CONTINUOUS
10
-62.386744
20
194.532780
30
0.0
11
-62.416955
21
205.293730
31
0.0
0
LINE
8
0
6
CONTINUOUS
10
-71.766355
20
345.577470
30
0.0
11
-71.061345
21
346.347430
31
0.0
0
LINE
8
0
6
CONTINUOUS
10
-71.061345
20
346.347430
30
0.0
11
-70.180605
21
346.901630
31
0.0
0
LINE
8
0
6
CONTINUOUS
10
-70.180605
20
346.901630
30
0.0
11
-69.125675
21
347.228620
31
0.0
0
LINE
8
0
6
CONTINUOUS
10
-69.125675
20
347.228620
30
0.0
11
-68.018395
21
347.383960
31
0.0
0
LINE
8
0
6
CONTINUOUS
10
-68.018395
20
347.383960
30
0.0
11
-66.924595
21
347.274250
31
0.0
0
LINE
8
0
6
CONTINUOUS
10
-66.924595
20
347.274250
30
0.0
11
-65.854455
21
346.901320
31
0.0
0
LINE
8
0
6
CONTINUOUS
10
-63.824235
20
342.851940
30
0.0
11
-64.268835
21
341.957930
31
0.0
0
LINE
8
0
6
CONTINUOUS
10
-63.690645
20
343.767930
30
0.0
11
-63.824235
21
342.851940
31
0.0
0
LINE
8
0
6
CONTINUOUS
10
-63.879965
20
344.695510
30
0.0
11
-63.690645
21
343.767930
31
0.0
0
LINE
8
0
6
CONTINUOUS
10
-64.270435
20
345.574720
30
0.0
11
-63.879965
21
344.695510
31
0.0
0
LINE
8
0
6
CONTINUOUS
10
-64.933105
20
346.313250
30
0.0
11
-64.270435
21
345.574720
31
0.0
0
LINE
8
0
6
CONTINUOUS
10
-65.854455
20
346.901320
30
0.0
11
-64.933105
21
346.313250
31
0.0
0
LINE
8
0
6
CONTINUOUS
10
-64.268835
20
341.957930
30
0.0
11
-64.973775
21
341.186450
31
0.0
0
LINE
8
0
6
CONTINUOUS
10
-72.210955
20
344.682080
30
0.0
11
-71.766355
21
345.577470
31
0.0
0
LINE
8
0
6
CONTINUOUS
10
-72.344535
20
343.767470
30
0.0
11
-72.210955
21
344.682080
31
0.0
0
LINE
8
0
6
CONTINUOUS
10
-72.155205
20
342.840500
30
0.0
11
-72.344535
21
343.767470
31
0.0
0
LINE
8
0
6
CONTINUOUS
10
-71.764755
20
341.958240
30
0.0
11
-72.155205
21
342.840500
31
0.0
0
LINE
8
0
6
CONTINUOUS
10
-71.103745
20
341.223680
30
0.0
11
-71.764755
21
341.958240
31
0.0
0
LINE
8
0
6
CONTINUOUS
10
-81.124155
20
355.814590
30
0.0
11
-81.840935
21
356.537550
31
0.0
0
LINE
8
0
6
CONTINUOUS
10
-81.840935
20
356.537550
30
0.0
11
-82.273715
21
357.386700
31
0.0
0
LINE
8
0
6
CONTINUOUS
10
-82.273715
20
357.386700
30
0.0
11
-82.422465
21
358.346790
31
0.0
0
LINE
8
0
6
CONTINUOUS
10
-79.244175
20
361.841810
30
0.0
11
-78.094595
21
361.966630
31
0.0
0
LINE
8
0
6
CONTINUOUS
10
-80.258545
20
361.479420
30
0.0
11
-79.244175
21
361.841810
31
0.0
0
LINE
8
0
6
CONTINUOUS
10
-81.124055
20
360.879590
30
0.0
11
-80.258545
21
361.479420
31
0.0
0
LINE
8
0
6
CONTINUOUS
10
-81.840855
20
360.156780
30
0.0
11
-81.124055
21
360.879590
31
0.0
0
LINE
8
0
6
CONTINUOUS
10
-82.273675
20
359.307630
30
0.0
11
-81.840855
21
360.156780
31
0.0
0
LINE
8
0
6
CONTINUOUS
10
-82.422465
20
358.346790
30
0.0
11
-82.273675
21
359.307630
31
0.0
0
LINE
8
0
6
CONTINUOUS
10
-78.094595
20
361.966630
30
0.0
11
-76.944995
21
361.841660
31
0.0
0
LINE
8
0
6
CONTINUOUS
10
-76.944995
20
361.841660
30
0.0
11
-75.930725
21
361.479260
31
0.0
0
LINE
8
0
6
CONTINUOUS
10
-75.930725
20
361.479260
30
0.0
11
-75.065155
21
360.879290
31
0.0
0
LINE
8
0
6
CONTINUOUS
10
-75.065155
20
360.879290
30
0.0
11
-74.348375
21
360.156330
31
0.0
0
LINE
8
0
6
CONTINUOUS
10
-74.348375
20
360.156330
30
0.0
11
-73.915595
21
359.307170
31
0.0
0
LINE
8
0
6
CONTINUOUS
10
-73.915595
20
359.307170
30
0.0
11
-73.766845
21
358.346330
31
0.0
0
LINE
8
0
6
CONTINUOUS
10
-74.348445
20
356.537250
30
0.0
11
-75.065245
21
355.814290
31
0.0
0
LINE
8
0
6
CONTINUOUS
10
-75.065245
20
355.814290
30
0.0
11
-74.925292
21
355.925530
31
0.0
0
LINE
8
0
6
CONTINUOUS
10
-73.915635
20
357.386400
30
0.0
11
-74.348445
21
356.537250
31
0.0
0
LINE
8
0
6
CONTINUOUS
10
-73.766845
20
358.346330
30
0.0
11
-73.915635
21
357.386400
31
0.0
0
LINE
8
0
6
CONTINUOUS
10
-84.406395
20
345.570300
30
0.0
11
-83.961825
21
344.674910
31
0.0
0
LINE
8
0
6
CONTINUOUS
10
-83.961825
20
344.674910
30
0.0
11
-83.828295
21
343.758770
31
0.0
0
LINE
8
0
6
CONTINUOUS
10
-83.828295
20
343.758770
30
0.0
11
-84.015975
21
342.832720
31
0.0
0
LINE
8
0
6
CONTINUOUS
10
-84.015975
20
342.832720
30
0.0
11
-84.408225
21
341.952130
31
0.0
0
LINE
8
0
6
CONTINUOUS
10
-85.069175
20
341.213760
30
0.0
11
-84.931038
21
341.325568
31
0.0
0
LINE
8
0
6
CONTINUOUS
10
-84.408225
20
341.952130
30
0.0
11
-85.069175
21
341.213760
31
0.0
0
LINE
8
0
6
CONTINUOUS
10
-91.199145
20
341.180950
30
0.0
11
-91.902385
21
341.950000
31
0.0
0
LINE
8
0
6
CONTINUOUS
10
-91.338588
20
341.293630
30
0.0
11
-91.199145
21
341.180950
31
0.0
0
LINE
8
0
6
CONTINUOUS
10
-91.902385
20
341.950000
30
0.0
11
-92.348705
21
342.845540
31
0.0
0
LINE
8
0
6
CONTINUOUS
10
-92.348705
20
342.845540
30
0.0
11
-92.482245
21
343.761670
31
0.0
0
LINE
8
0
6
CONTINUOUS
10
-92.482245
20
343.761670
30
0.0
11
-92.292875
21
344.688490
31
0.0
0
LINE
8
0
6
CONTINUOUS
10
-92.292875
20
344.688490
30
0.0
11
-91.902315
21
345.569230
31
0.0
0
LINE
8
0
6
CONTINUOUS
10
-91.902315
20
345.569230
30
0.0
11
-91.239605
21
346.306840
31
0.0
0
LINE
8
0
6
CONTINUOUS
10
-91.239605
20
346.306840
30
0.0
11
-90.318245
21
346.894300
31
0.0
0
LINE
8
0
6
CONTINUOUS
10
-85.111385
20
346.340410
30
0.0
11
-84.406395
21
345.570300
31
0.0
0
LINE
8
0
6
CONTINUOUS
10
-85.992185
20
346.893230
30
0.0
11
-85.111385
21
346.340410
31
0.0
0
LINE
8
0
6
CONTINUOUS
10
-87.047025
20
347.219770
30
0.0
11
-85.992185
21
346.893230
31
0.0
0
LINE
8
0
6
CONTINUOUS
10
-88.154375
20
347.378160
30
0.0
11
-87.047025
21
347.219770
31
0.0
0
LINE
8
0
6
CONTINUOUS
10
-89.248105
20
347.267530
30
0.0
11
-88.154375
21
347.378160
31
0.0
0
LINE
8
0
6
CONTINUOUS
10
-90.318245
20
346.894300
30
0.0
11
-89.248105
21
347.267530
31
0.0
0
LINE
8
0
6
CONTINUOUS
10
-56.474725
20
394.721150
30
0.0
11
-55.163555
21
393.326950
31
0.0
0
LINE
8
0
6
CONTINUOUS
10
-55.951845
20
391.680220
30
0.0
11
-55.163555
21
393.326950
31
0.0
0
LINE
8
0
6
CONTINUOUS
10
-58.051335
20
391.427840
30
0.0
11
-55.951845
21
391.680220
31
0.0
0
LINE
8
0
6
CONTINUOUS
10
-59.362485
20
392.822040
30
0.0
11
-58.051335
21
391.427840
31
0.0
0
LINE
8
0
6
CONTINUOUS
10
-58.574195
20
394.468770
30
0.0
11
-59.362485
21
392.822040
31
0.0
0
LINE
8
0
6
CONTINUOUS
10
-56.474725
20
394.721150
30
0.0
11
-58.574195
21
394.468770
31
0.0
0
LINE
8
0
6
CONTINUOUS
10
-55.163555
20
393.326950
30
0.0
11
-56.474725
21
394.721150
31
0.0
0
LINE
8
0
6
CONTINUOUS
10
-58.574195
20
394.468770
30
0.0
11
-56.474725
21
394.721150
31
0.0
0
LINE
8
0
6
CONTINUOUS
10
-59.362485
20
392.822040
30
0.0
11
-58.574195
21
394.468770
31
0.0
0
LINE
8
0
6
CONTINUOUS
10
-59.362485
20
393.417091
30
0.0
11
-59.362485
21
392.822040
31
0.0
0
LINE
8
0
6
CONTINUOUS
10
-46.988185
20
390.457380
30
0.0
11
-46.017495
21
388.880230
31
0.0
0
LINE
8
0
6
CONTINUOUS
10
-47.165395
20
387.388690
30
0.0
11
-46.017495
21
388.880230
31
0.0
0
LINE
8
0
6
CONTINUOUS
10
-49.283985
20
387.474290
30
0.0
11
-47.165395
21
387.388690
31
0.0
0
LINE
8
0
6
CONTINUOUS
10
-50.254665
20
389.051440
30
0.0
11
-49.283985
21
387.474290
31
0.0
0
LINE
8
0
6
CONTINUOUS
10
-49.106785
20
390.542980
30
0.0
11
-50.254665
21
389.051440
31
0.0
0
LINE
8
0
6
CONTINUOUS
10
-46.988185
20
390.457380
30
0.0
11
-49.106785
21
390.542980
31
0.0
0
LINE
8
0
6
CONTINUOUS
10
-46.017495
20
388.880230
30
0.0
11
-46.988185
21
390.457380
31
0.0
0
LINE
8
0
6
CONTINUOUS
10
-49.106785
20
390.542980
30
0.0
11
-46.988185
21
390.457380
31
0.0
0
LINE
8
0
6
CONTINUOUS
10
-50.254665
20
389.051440
30
0.0
11
-49.106785
21
390.542980
31
0.0
0
LINE
8
0
6
CONTINUOUS
10
-50.254665
20
389.627969
30
0.0
11
-50.254665
21
389.051440
31
0.0
0
LINE
8
0
6
CONTINUOUS
10
-38.786125
20
384.534680
30
0.0
11
-38.188785
21
382.832720
31
0.0
0
LINE
8
0
6
CONTINUOUS
10
-39.652655
20
381.549150
30
0.0
11
-38.188785
21
382.832720
31
0.0
0
LINE
8
0
6
CONTINUOUS
10
-41.713865
20
381.967390
30
0.0
11
-39.652655
21
381.549150
31
0.0
0
LINE
8
0
6
CONTINUOUS
10
-42.311205
20
383.669360
30
0.0
11
-41.713865
21
381.967390
31
0.0
0
LINE
8
0
6
CONTINUOUS
10
-40.847335
20
384.953080
30
0.0
11
-42.311205
21
383.669360
31
0.0
0
LINE
8
0
6
CONTINUOUS
10
-38.786125
20
384.534680
30
0.0
11
-40.847335
21
384.953080
31
0.0
0
LINE
8
0
6
CONTINUOUS
10
-38.188785
20
382.832720
30
0.0
11
-38.786125
21
384.534680
31
0.0
0
LINE
8
0
6
CONTINUOUS
10
-40.847335
20
384.953080
30
0.0
11
-38.786125
21
384.534680
31
0.0
0
LINE
8
0
6
CONTINUOUS
10
-42.311205
20
383.669360
30
0.0
11
-40.847335
21
384.953080
31
0.0
0
LINE
8
0
6
CONTINUOUS
10
-42.311207
20
384.232014
30
0.0
11
-42.311205
21
383.669360
31
0.0
0
LINE
8
0
6
CONTINUOUS
10
-31.828535
20
377.723460
30
0.0
11
-31.625595
21
375.957870
31
0.0
0
LINE
8
0
6
CONTINUOUS
10
-33.352625
20
374.928050
30
0.0
11
-31.625595
21
375.957870
31
0.0
0
LINE
8
0
6
CONTINUOUS
10
-35.282515
20
375.663990
30
0.0
11
-33.352625
21
374.928050
31
0.0
0
LINE
8
0
6
CONTINUOUS
10
-35.485455
20
377.429580
30
0.0
11
-35.282515
21
375.663990
31
0.0
0
LINE
8
0
6
CONTINUOUS
10
-33.758465
20
378.459240
30
0.0
11
-35.485455
21
377.429580
31
0.0
0
LINE
8
0
6
CONTINUOUS
10
-31.828535
20
377.723460
30
0.0
11
-33.758465
21
378.459240
31
0.0
0
LINE
8
0
6
CONTINUOUS
10
-31.625595
20
375.957870
30
0.0
11
-31.828535
21
377.723460
31
0.0
0
LINE
8
0
6
CONTINUOUS
10
-33.758465
20
378.459240
30
0.0
11
-31.828535
21
377.723460
31
0.0
0
LINE
8
0
6
CONTINUOUS
10
-35.485455
20
377.429580
30
0.0
11
-33.758465
21
378.459240
31
0.0
0
LINE
8
0
6
CONTINUOUS
10
-35.485455
20
377.962830
30
0.0
11
-35.485455
21
377.429580
31
0.0
0
LINE
8
0
6
CONTINUOUS
10
-30.645485
20
368.255230
30
0.0
11
-30.444415
21
370.020980
31
0.0
0
LINE
8
0
6
CONTINUOUS
10
-30.645485
20
368.634268
30
0.0
11
-30.645485
21
368.255230
31
0.0
0
LINE
8
0
6
CONTINUOUS
10
-28.917385
20
367.226640
30
0.0
11
-26.988215
21
367.963940
31
0.0
0
LINE
8
0
6
CONTINUOUS
10
-30.645485
20
368.255230
30
0.0
11
-28.917385
21
367.226640
31
0.0
0
LINE
8
0
6
CONTINUOUS
10
-30.444415
20
370.020980
30
0.0
11
-30.645485
21
368.255230
31
0.0
0
LINE
8
0
6
CONTINUOUS
10
-28.515245
20
370.758290
30
0.0
11
-30.444415
21
370.020980
31
0.0
0
LINE
8
0
6
CONTINUOUS
10
-26.787185
20
369.729690
30
0.0
11
-28.515245
21
370.758290
31
0.0
0
LINE
8
0
6
CONTINUOUS
10
-26.988215
20
367.963940
30
0.0
11
-26.787185
21
369.729690
31
0.0
0
LINE
8
0
6
CONTINUOUS
10
-28.515245
20
370.758290
30
0.0
11
-26.787185
21
369.729690
31
0.0
0
LINE
8
0
6
CONTINUOUS
10
-30.444415
20
370.020980
30
0.0
11
-28.515245
21
370.758290
31
0.0
0
LINE
8
0
6
CONTINUOUS
10
-30.444415
20
370.561773
30
0.0
11
-30.444415
21
370.020980
31
0.0
0
LINE
8
0
6
CONTINUOUS
10
-27.761495
20
360.259320
30
0.0
11
-27.161745
21
361.960830
31
0.0
0
LINE
8
0
6
CONTINUOUS
10
-27.761500
20
360.554371
30
0.0
11
-27.761495
21
360.259320
31
0.0
0
LINE
8
0
6
CONTINUOUS
10
-26.299475
20
358.974380
30
0.0
11
-24.237665
21
359.390640
31
0.0
0
LINE
8
0
6
CONTINUOUS
10
-27.761495
20
360.259320
30
0.0
11
-26.299475
21
358.974380
31
0.0
0
LINE
8
0
6
CONTINUOUS
10
-27.161745
20
361.960830
30
0.0
11
-27.761495
21
360.259320
31
0.0
0
LINE
8
0
6
CONTINUOUS
10
-25.100025
20
362.377090
30
0.0
11
-27.161745
21
361.960830
31
0.0
0
LINE
8
0
6
CONTINUOUS
10
-23.637925
20
361.092150
30
0.0
11
-25.100025
21
362.377090
31
0.0
0
LINE
8
0
6
CONTINUOUS
10
-24.237665
20
359.390640
30
0.0
11
-23.637925
21
361.092150
31
0.0
0
LINE
8
0
6
CONTINUOUS
10
-25.100025
20
362.377090
30
0.0
11
-23.637925
21
361.092150
31
0.0
0
LINE
8
0
6
CONTINUOUS
10
-27.161745
20
361.960830
30
0.0
11
-25.100025
21
362.377090
31
0.0
0
LINE
8
0
6
CONTINUOUS
10
-27.161752
20
362.410159
30
0.0
11
-27.161745
21
361.960830
31
0.0
0
LINE
8
0
6
CONTINUOUS
10
-26.815715
20
351.779100
30
0.0
11
-25.842745
21
353.355330
31
0.0
0
LINE
8
0
6
CONTINUOUS
10
-26.815720
20
352.080398
30
0.0
11
-26.815715
21
351.779100
31
0.0
0
LINE
8
0
6
CONTINUOUS
10
-25.670015
20
350.286480
30
0.0
11
-23.551295
21
350.369800
31
0.0
0
LINE
8
0
6
CONTINUOUS
10
-26.815715
20
351.779100
30
0.0
11
-25.670015
21
350.286480
31
0.0
0
LINE
8
0
6
CONTINUOUS
10
-25.842745
20
353.355330
30
0.0
11
-26.815715
21
351.779100
31
0.0
0
LINE
8
0
6
CONTINUOUS
10
-23.724025
20
353.438640
30
0.0
11
-25.842745
21
353.355330
31
0.0
0
LINE
8
0
6
CONTINUOUS
10
-22.578315
20
351.945880
30
0.0
11
-23.724025
21
353.438640
31
0.0
0
LINE
8
0
6
CONTINUOUS
10
-23.551295
20
350.369800
30
0.0
11
-22.578315
21
351.945880
31
0.0
0
LINE
8
0
6
CONTINUOUS
10
-23.724025
20
353.438640
30
0.0
11
-22.578315
21
351.945880
31
0.0
0
LINE
8
0
6
CONTINUOUS
10
-25.842745
20
353.355330
30
0.0
11
-23.724025
21
353.438640
31
0.0
0
LINE
8
0
6
CONTINUOUS
10
-25.842745
20
353.813850
30
0.0
11
-25.842745
21
353.355330
31
0.0
0
LINE
8
0
6
CONTINUOUS
10
-27.604555
20
344.162220
30
0.0
11
-26.295925
21
345.558090
31
0.0
0
LINE
8
0
6
CONTINUOUS
10
-27.604555
20
344.431985
30
0.0
11
-27.604555
21
344.162220
31
0.0
0
LINE
8
0
6
CONTINUOUS
10
-26.813275
20
342.516400
30
0.0
11
-24.713365
21
342.266620
31
0.0
0
LINE
8
0
6
CONTINUOUS
10
-27.604555
20
344.162220
30
0.0
11
-26.813275
21
342.516400
31
0.0
0
LINE
8
0
6
CONTINUOUS
10
-26.295925
20
345.558090
30
0.0
11
-27.604555
21
344.162220
31
0.0
0
LINE
8
0
6
CONTINUOUS
10
-24.196015
20
345.308300
30
0.0
11
-26.295925
21
345.558090
31
0.0
0
LINE
8
0
6
CONTINUOUS
10
-23.404695
20
343.662640
30
0.0
11
-24.196015
21
345.308300
31
0.0
0
LINE
8
0
6
CONTINUOUS
10
-24.713365
20
342.266620
30
0.0
11
-23.404695
21
343.662640
31
0.0
0
LINE
8
0
6
CONTINUOUS
10
-24.196015
20
345.308300
30
0.0
11
-23.404695
21
343.662640
31
0.0
0
LINE
8
0
6
CONTINUOUS
10
-26.295925
20
345.558090
30
0.0
11
-24.196015
21
345.308300
31
0.0
0
LINE
8
0
6
CONTINUOUS
10
-26.295922
20
345.976784
30
0.0
11
-26.295925
21
345.558090
31
0.0
0
LINE
8
0
6
CONTINUOUS
10
-30.370555
20
336.619340
30
0.0
11
-28.768085
21
337.781450
31
0.0
0
LINE
8
0
6
CONTINUOUS
10
-30.370557
20
336.888161
30
0.0
11
-30.370555
21
336.619340
31
0.0
0
LINE
8
0
6
CONTINUOUS
10
-29.968335
20
334.877850
30
0.0
11
-27.963635
21
334.298320
31
0.0
0
LINE
8
0
6
CONTINUOUS
10
-30.370555
20
336.619340
30
0.0
11
-29.968335
21
334.877850
31
0.0
0
LINE
8
0
6
CONTINUOUS
10
-28.768085
20
337.781450
30
0.0
11
-30.370555
21
336.619340
31
0.0
0
LINE
8
0
6
CONTINUOUS
10
-26.763385
20
337.201920
30
0.0
11
-28.768085
21
337.781450
31
0.0
0
LINE
8
0
6
CONTINUOUS
10
-26.361155
20
335.460430
30
0.0
11
-26.763385
21
337.201920
31
0.0
0
LINE
8
0
6
CONTINUOUS
10
-27.963635
20
334.298320
30
0.0
11
-26.361155
21
335.460430
31
0.0
0
LINE
8
0
6
CONTINUOUS
10
-26.763385
20
337.201920
30
0.0
11
-26.361155
21
335.460430
31
0.0
0
LINE
8
0
6
CONTINUOUS
10
-28.768085
20
337.781450
30
0.0
11
-26.763385
21
337.201920
31
0.0
0
LINE
8
0
6
CONTINUOUS
10
-28.768088
20
338.217415
30
0.0
11
-28.768085
21
337.781450
31
0.0
0
LINE
8
0
6
CONTINUOUS
10
-34.091415
20
327.926560
30
0.0
11
-34.089965
21
329.700390
31
0.0
0
LINE
8
0
6
CONTINUOUS
10
-34.089965
20
329.700390
30
0.0
11
-32.252345
21
330.586170
31
0.0
0
LINE
8
0
6
CONTINUOUS
10
-34.089967
20
329.976789
30
0.0
11
-34.089965
21
329.700390
31
0.0
0
LINE
8
0
6
CONTINUOUS
10
-34.091415
20
327.926560
30
0.0
11
-32.255245
21
327.038650
31
0.0
0
LINE
8
0
6
CONTINUOUS
10
-34.089965
20
329.700390
30
0.0
11
-34.091415
21
327.926560
31
0.0
0
LINE
8
0
6
CONTINUOUS
10
-32.252345
20
330.586170
30
0.0
11
-34.089965
21
329.700390
31
0.0
0
LINE
8
0
6
CONTINUOUS
10
-30.416185
20
329.698260
30
0.0
11
-32.252345
21
330.586170
31
0.0
0
LINE
8
0
6
CONTINUOUS
10
-30.417635
20
327.924420
30
0.0
11
-30.416185
21
329.698260
31
0.0
0
LINE
8
0
6
CONTINUOUS
10
-32.255245
20
327.038650
30
0.0
11
-30.417635
21
327.924420
31
0.0
0
LINE
8
0
6
CONTINUOUS
10
-32.252345
20
330.586170
30
0.0
11
-30.416185
21
329.698260
31
0.0
0
LINE
8
0
6
CONTINUOUS
10
-32.252348
20
331.009477
30
0.0
11
-32.252345
21
330.586170
31
0.0
0
LINE
8
0
6
CONTINUOUS
10
-40.335085
20
321.608960
30
0.0
11
-39.933015
21
323.350450
31
0.0
0
LINE
8
0
6
CONTINUOUS
10
-40.335091
20
322.031024
30
0.0
11
-40.335085
21
321.608960
31
0.0
0
LINE
8
0
6
CONTINUOUS
10
-39.933015
20
323.350450
30
0.0
11
-37.928385
21
323.930130
31
0.0
0
LINE
8
0
6
CONTINUOUS
10
-39.933017
20
323.611444
30
0.0
11
-39.933015
21
323.350450
31
0.0
0
LINE
8
0
6
CONTINUOUS
10
-40.335085
20
321.608960
30
0.0
11
-38.732565
21
320.447010
31
0.0
0
LINE
8
0
6
CONTINUOUS
10
-39.933015
20
323.350450
30
0.0
11
-40.335085
21
321.608960
31
0.0
0
LINE
8
0
6
CONTINUOUS
10
-37.928385
20
323.930130
30
0.0
11
-39.933015
21
323.350450
31
0.0
0
LINE
8
0
6
CONTINUOUS
10
-36.325835
20
322.768170
30
0.0
11
-37.928385
21
323.930130
31
0.0
0
LINE
8
0
6
CONTINUOUS
10
-36.727905
20
321.026530
30
0.0
11
-36.325835
21
322.768170
31
0.0
0
LINE
8
0
6
CONTINUOUS
10
-38.732565
20
320.447010
30
0.0
11
-36.727905
21
321.026530
31
0.0
0
LINE
8
0
6
CONTINUOUS
10
-37.928385
20
323.930130
30
0.0
11
-36.325835
21
322.768170
31
0.0
0
LINE
8
0
6
CONTINUOUS
10
-37.928388
20
324.350246
30
0.0
11
-37.928385
21
323.930130
31
0.0
0
LINE
8
0
6
CONTINUOUS
10
-47.785145
20
316.368790
30
0.0
11
-46.997875
21
318.015820
31
0.0
0
LINE
8
0
6
CONTINUOUS
10
-47.785147
20
316.807820
30
0.0
11
-47.785145
21
316.368790
31
0.0
0
LINE
8
0
6
CONTINUOUS
10
-46.997875
20
318.015820
30
0.0
11
-44.898565
21
318.269120
31
0.0
0
LINE
8
0
6
CONTINUOUS
10
-46.997877
20
318.279940
30
0.0
11
-46.997875
21
318.015820
31
0.0
0
LINE
8
0
6
CONTINUOUS
10
-47.785145
20
316.368790
30
0.0
11
-46.473085
21
314.975050
31
0.0
0
LINE
8
0
6
CONTINUOUS
10
-46.997875
20
318.015820
30
0.0
11
-47.785145
21
316.368790
31
0.0
0
LINE
8
0
6
CONTINUOUS
10
-44.898565
20
318.269120
30
0.0
11
-46.997875
21
318.015820
31
0.0
0
LINE
8
0
6
CONTINUOUS
10
-43.586525
20
316.875530
30
0.0
11
-44.898565
21
318.269120
31
0.0
0
LINE
8
0
6
CONTINUOUS
10
-44.373775
20
315.228350
30
0.0
11
-43.586525
21
316.875530
31
0.0
0
LINE
8
0
6
CONTINUOUS
10
-46.473085
20
314.975050
30
0.0
11
-44.373775
21
315.228350
31
0.0
0
LINE
8
0
6
CONTINUOUS
10
-44.898565
20
318.269120
30
0.0
11
-43.586525
21
316.875530
31
0.0
0
LINE
8
0
6
CONTINUOUS
10
-44.898569
20
318.699278
30
0.0
11
-44.898565
21
318.269120
31
0.0
0
LINE
8
0
6
CONTINUOUS
10
-79.568975
20
397.316360
30
0.0
11
-77.732085
21
398.203200
31
0.0
0
LINE
8
0
6
CONTINUOUS
10
-79.568975
20
397.316360
30
0.0
11
-79.568983
21
398.245618
31
0.0
0
LINE
8
0
6
CONTINUOUS
10
-79.568975
20
395.542680
30
0.0
11
-79.568975
21
397.316360
31
0.0
0
LINE
8
0
6
CONTINUOUS
10
-77.732085
20
398.203200
30
0.0
11
-79.568975
21
397.316360
31
0.0
0
LINE
8
0
6
CONTINUOUS
10
-75.895195
20
397.316360
30
0.0
11
-77.732085
21
398.203200
31
0.0
0
LINE
8
0
6
CONTINUOUS
10
-75.895195
20
395.542680
30
0.0
11
-75.895195
21
397.316360
31
0.0
0
LINE
8
0
6
CONTINUOUS
10
-77.732085
20
394.655840
30
0.0
11
-75.895195
21
395.542680
31
0.0
0
LINE
8
0
6
CONTINUOUS
10
-79.568975
20
395.542680
30
0.0
11
-77.732085
21
394.655840
31
0.0
0
LINE
8
0
6
CONTINUOUS
10
-79.568975
20
397.316360
30
0.0
11
-79.568975
21
395.542680
31
0.0
0
LINE
8
0
6
CONTINUOUS
10
-75.895195
20
397.316360
30
0.0
11
-75.895203
21
398.245628
31
0.0
0
LINE
8
0
6
CONTINUOUS
10
-77.732085
20
398.203200
30
0.0
11
-75.895195
21
397.316360
31
0.0
0
LINE
8
0
6
CONTINUOUS
10
-77.732094
20
399.268082
30
0.0
11
-77.732085
21
398.203200
31
0.0
0
LINE
8
0
6
CONTINUOUS
10
-90.214725
20
396.196370
30
0.0
11
-88.609945
21
397.356190
31
0.0
0
LINE
8
0
6
CONTINUOUS
10
-90.214725
20
397.082349
30
0.0
11
-90.214725
21
396.196370
31
0.0
0
LINE
8
0
6
CONTINUOUS
10
-88.609945
20
397.356190
30
0.0
11
-90.214725
21
396.196370
31
0.0
0
LINE
8
0
6
CONTINUOUS
10
-86.606445
20
396.773910
30
0.0
11
-88.609945
21
397.356190
31
0.0
0
LINE
8
0
6
CONTINUOUS
10
-86.207695
20
395.031810
30
0.0
11
-86.606445
21
396.773910
31
0.0
0
LINE
8
0
6
CONTINUOUS
10
-87.812475
20
393.871990
30
0.0
11
-86.207695
21
395.031810
31
0.0
0
LINE
8
0
6
CONTINUOUS
10
-89.815975
20
394.454270
30
0.0
11
-87.812475
21
393.871990
31
0.0
0
LINE
8
0
6
CONTINUOUS
10
-90.214725
20
396.196370
30
0.0
11
-89.815975
21
394.454270
31
0.0
0
LINE
8
0
6
CONTINUOUS
10
-88.609945
20
397.356190
30
0.0
11
-86.606445
21
396.773910
31
0.0
0
LINE
8
0
6
CONTINUOUS
10
-88.609949
20
398.397491
30
0.0
11
-88.609945
21
397.356190
31
0.0
0
LINE
8
0
6
CONTINUOUS
10
-86.207695
20
395.031810
30
0.0
11
-86.207697
21
395.618213
31
0.0
0
LINE
8
0
6
CONTINUOUS
10
-86.606445
20
396.773910
30
0.0
11
-86.207695
21
395.031810
31
0.0
0
LINE
8
0
6
CONTINUOUS
10
-86.606445
20
397.665390
30
0.0
11
-86.606445
21
396.773910
31
0.0
0
LINE
8
0
6
CONTINUOUS
10
-100.300635
20
393.327100
30
0.0
11
-98.989465
21
394.721300
31
0.0
0
LINE
8
0
6
CONTINUOUS
10
-100.300635
20
394.230536
30
0.0
11
-100.300635
21
393.327100
31
0.0
0
LINE
8
0
6
CONTINUOUS
10
-98.989465
20
394.721300
30
0.0
11
-100.300635
21
393.327100
31
0.0
0
LINE
8
0
6
CONTINUOUS
10
-96.889995
20
394.468920
30
0.0
11
-98.989465
21
394.721300
31
0.0
0
LINE
8
0
6
CONTINUOUS
10
-96.101685
20
392.822190
30
0.0
11
-96.889995
21
394.468920
31
0.0
0
LINE
8
0
6
CONTINUOUS
10
-97.412855
20
391.427990
30
0.0
11
-96.101685
21
392.822190
31
0.0
0
LINE
8
0
6
CONTINUOUS
10
-99.512325
20
391.680370
30
0.0
11
-97.412855
21
391.427990
31
0.0
0
LINE
8
0
6
CONTINUOUS
10
-100.300635
20
393.327100
30
0.0
11
-99.512325
21
391.680370
31
0.0
0
LINE
8
0
6
CONTINUOUS
10
-98.989465
20
394.721300
30
0.0
11
-96.889995
21
394.468920
31
0.0
0
LINE
8
0
6
CONTINUOUS
10
-98.989465
20
395.758065
30
0.0
11
-98.989465
21
394.721300
31
0.0
0
LINE
8
0
6
CONTINUOUS
10
-96.101685
20
392.822190
30
0.0
11
-96.101687
21
393.417053
31
0.0
0
LINE
8
0
6
CONTINUOUS
10
-96.889995
20
394.468920
30
0.0
11
-96.101685
21
392.822190
31
0.0
0
LINE
8
0
6
CONTINUOUS
10
-96.889995
20
395.366058
30
0.0
11
-96.889995
21
394.468920
31
0.0
0
LINE
8
0
6
CONTINUOUS
10
-109.446675
20
388.881000
30
0.0
11
-108.475985
21
390.458140
31
0.0
0
LINE
8
0
6
CONTINUOUS
10
-109.446679
20
389.760698
30
0.0
11
-109.446675
21
388.881000
31
0.0
0
LINE
8
0
6
CONTINUOUS
10
-108.475985
20
390.458140
30
0.0
11
-109.446675
21
388.881000
31
0.0
0
LINE
8
0
6
CONTINUOUS
10
-106.357405
20
390.543750
30
0.0
11
-108.475985
21
390.458140
31
0.0
0
LINE
8
0
6
CONTINUOUS
10
-105.209505
20
389.052200
30
0.0
11
-106.357405
21
390.543750
31
0.0
0
LINE
8
0
6
CONTINUOUS
10
-106.180195
20
387.475050
30
0.0
11
-105.209505
21
389.052200
31
0.0
0
LINE
8
0
6
CONTINUOUS
10
-108.298795
20
387.389450
30
0.0
11
-106.180195
21
387.475050
31
0.0
0
LINE
8
0
6
CONTINUOUS
10
-109.446675
20
388.881000
30
0.0
11
-108.298795
21
387.389450
31
0.0
0
LINE
8
0
6
CONTINUOUS
10
-108.475985
20
390.458140
30
0.0
11
-106.357405
21
390.543750
31
0.0
0
LINE
8
0
6
CONTINUOUS
10
-108.475985
20
391.489011
30
0.0
11
-108.475985
21
390.458140
31
0.0
0
LINE
8
0
6
CONTINUOUS
10
-105.209505
20
389.052200
30
0.0
11
-105.209505
21
389.627951
31
0.0
0
LINE
8
0
6
CONTINUOUS
10
-106.357405
20
390.543750
30
0.0
11
-105.209505
21
389.052200
31
0.0
0
LINE
8
0
6
CONTINUOUS
10
-106.357405
20
391.422664
30
0.0
11
-106.357405
21
390.543750
31
0.0
0
LINE
8
0
6
CONTINUOUS
10
-117.275385
20
382.832720
30
0.0
11
-116.678045
21
384.534530
31
0.0
0
LINE
8
0
6
CONTINUOUS
10
-117.275380
20
383.698229
30
0.0
11
-117.275385
21
382.832720
31
0.0
0
LINE
8
0
6
CONTINUOUS
10
-116.678045
20
384.534530
30
0.0
11
-117.275385
21
382.832720
31
0.0
0
LINE
8
0
6
CONTINUOUS
10
-114.616835
20
384.952930
30
0.0
11
-116.678045
21
384.534530
31
0.0
0
LINE
8
0
6
CONTINUOUS
10
-113.152945
20
383.669360
30
0.0
11
-114.616835
21
384.952930
31
0.0
0
LINE
8
0
6
CONTINUOUS
10
-113.750305
20
381.967390
30
0.0
11
-113.152945
21
383.669360
31
0.0
0
LINE
8
0
6
CONTINUOUS
10
-115.811495
20
381.549000
30
0.0
11
-113.750305
21
381.967390
31
0.0
0
LINE
8
0
6
CONTINUOUS
10
-117.275385
20
382.832720
30
0.0
11
-115.811495
21
381.549000
31
0.0
0
LINE
8
0
6
CONTINUOUS
10
-116.678045
20
384.534530
30
0.0
11
-114.616835
21
384.952930
31
0.0
0
LINE
8
0
6
CONTINUOUS
10
-116.678045
20
385.541106
30
0.0
11
-116.678045
21
384.534530
31
0.0
0
LINE
8
0
6
CONTINUOUS
10
-113.152945
20
383.669360
30
0.0
11
-113.152945
21
384.232007
31
0.0
0
LINE
8
0
6
CONTINUOUS
10
-114.616835
20
384.952930
30
0.0
11
-113.152945
21
383.669360
31
0.0
0
LINE
8
0
6
CONTINUOUS
10
-114.616828
20
385.817923
30
0.0
11
-114.616835
21
384.952930
31
0.0
0
LINE
8
0
6
CONTINUOUS
10
-123.838535
20
375.956800
30
0.0
11
-123.635635
21
377.722400
31
0.0
0
LINE
8
0
6
CONTINUOUS
10
-123.838535
20
376.811163
30
0.0
11
-123.838535
21
375.956800
31
0.0
0
LINE
8
0
6
CONTINUOUS
10
-123.635635
20
377.722400
30
0.0
11
-123.838535
21
375.956800
31
0.0
0
LINE
8
0
6
CONTINUOUS
10
-121.705705
20
378.458330
30
0.0
11
-123.635635
21
377.722400
31
0.0
0
LINE
8
0
6
CONTINUOUS
10
-119.978675
20
377.428510
30
0.0
11
-121.705705
21
378.458330
31
0.0
0
LINE
8
0
6
CONTINUOUS
10
-120.181615
20
375.662920
30
0.0
11
-119.978675
21
377.428510
31
0.0
0
LINE
8
0
6
CONTINUOUS
10
-122.111545
20
374.927140
30
0.0
11
-120.181615
21
375.662920
31
0.0
0
LINE
8
0
6
CONTINUOUS
10
-123.838535
20
375.956800
30
0.0
11
-122.111545
21
374.927140
31
0.0
0
LINE
8
0
6
CONTINUOUS
10
-123.635635
20
377.722400
30
0.0
11
-121.705705
21
378.458330
31
0.0
0
LINE
8
0
6
CONTINUOUS
10
-123.635635
20
378.724821
30
0.0
11
-123.635635
21
377.722400
31
0.0
0
LINE
8
0
6
CONTINUOUS
10
-119.978675
20
377.428510
30
0.0
11
-119.978675
21
377.962727
31
0.0
0
LINE
8
0
6
CONTINUOUS
10
-121.705705
20
378.458330
30
0.0
11
-119.978675
21
377.428510
31
0.0
0
LINE
8
0
6
CONTINUOUS
10
-121.705698
20
379.304290
30
0.0
11
-121.705705
21
378.458330
31
0.0
0
LINE
8
0
6
CONTINUOUS
10
-124.818685
20
368.255080
30
0.0
11
-124.818685
21
368.634199
31
0.0
0
LINE
8
0
6
CONTINUOUS
10
-125.019755
20
370.020830
30
0.0
11
-124.818685
21
368.255080
31
0.0
0
LINE
8
0
6
CONTINUOUS
10
-128.676985
20
369.729540
30
0.0
11
-128.475915
21
367.963790
31
0.0
0
LINE
8
0
6
CONTINUOUS
10
-126.948885
20
370.758130
30
0.0
11
-128.676985
21
369.729540
31
0.0
0
LINE
8
0
6
CONTINUOUS
10
-125.019755
20
370.020830
30
0.0
11
-126.948885
21
370.758130
31
0.0
0
LINE
8
0
6
CONTINUOUS
10
-124.818685
20
368.255080
30
0.0
11
-125.019755
21
370.020830
31
0.0
0
LINE
8
0
6
CONTINUOUS
10
-126.546745
20
367.226490
30
0.0
11
-124.818685
21
368.255080
31
0.0
0
LINE
8
0
6
CONTINUOUS
10
-128.475915
20
367.963790
30
0.0
11
-126.546745
21
367.226490
31
0.0
0
LINE
8
0
6
CONTINUOUS
10
-128.676985
20
369.729540
30
0.0
11
-126.948885
21
370.758130
31
0.0
0
LINE
8
0
6
CONTINUOUS
10
-128.676993
20
370.708674
30
0.0
11
-128.676985
21
369.729540
31
0.0
0
LINE
8
0
6
CONTINUOUS
10
-125.019755
20
370.020830
30
0.0
11
-125.019752
21
370.561698
31
0.0
0
LINE
8
0
6
CONTINUOUS
10
-126.948885
20
370.758130
30
0.0
11
-125.019755
21
370.020830
31
0.0
0
LINE
8
0
6
CONTINUOUS
10
-126.948885
20
371.598889
30
0.0
11
-126.948885
21
370.758130
31
0.0
0
LINE
8
0
6
CONTINUOUS
10
-127.702635
20
360.273820
30
0.0
11
-127.702633
21
360.554385
31
0.0
0
LINE
8
0
6
CONTINUOUS
10
-128.302345
20
361.975170
30
0.0
11
-127.702635
21
360.273820
31
0.0
0
LINE
8
0
6
CONTINUOUS
10
-131.826205
20
361.106490
30
0.0
11
-131.226505
21
359.405140
31
0.0
0
LINE
8
0
6
CONTINUOUS
10
-130.364145
20
362.391590
30
0.0
11
-131.826205
21
361.106490
31
0.0
0
LINE
8
0
6
CONTINUOUS
10
-128.302345
20
361.975170
30
0.0
11
-130.364145
21
362.391590
31
0.0
0
LINE
8
0
6
CONTINUOUS
10
-127.702635
20
360.273820
30
0.0
11
-128.302345
21
361.975170
31
0.0
0
LINE
8
0
6
CONTINUOUS
10
-129.164655
20
358.988880
30
0.0
11
-127.702635
21
360.273820
31
0.0
0
LINE
8
0
6
CONTINUOUS
10
-131.226505
20
359.405140
30
0.0
11
-129.164655
21
358.988880
31
0.0
0
LINE
8
0
6
CONTINUOUS
10
-131.826205
20
361.106490
30
0.0
11
-130.364145
21
362.391590
31
0.0
0
LINE
8
0
6
CONTINUOUS
10
-131.826205
20
362.032671
30
0.0
11
-131.826205
21
361.106490
31
0.0
0
LINE
8
0
6
CONTINUOUS
10
-128.302345
20
361.975170
30
0.0
11
-128.302345
21
362.410048
31
0.0
0
LINE
8
0
6
CONTINUOUS
10
-130.364145
20
362.391590
30
0.0
11
-128.302345
21
361.975170
31
0.0
0
LINE
8
0
6
CONTINUOUS
10
-130.364151
20
363.149250
30
0.0
11
-130.364145
21
362.391590
31
0.0
0
LINE
8
0
6
CONTINUOUS
10
-128.648415
20
351.779400
30
0.0
11
-128.648410
21
352.080382
31
0.0
0
LINE
8
0
6
CONTINUOUS
10
-129.621395
20
353.355480
30
0.0
11
-128.648415
21
351.779400
31
0.0
0
LINE
8
0
6
CONTINUOUS
10
-132.885815
20
351.946180
30
0.0
11
-131.912805
21
350.369950
31
0.0
0
LINE
8
0
6
CONTINUOUS
10
-131.740115
20
353.438800
30
0.0
11
-132.885815
21
351.946180
31
0.0
0
LINE
8
0
6
CONTINUOUS
10
-129.621395
20
353.355480
30
0.0
11
-131.740115
21
353.438800
31
0.0
0
LINE
8
0
6
CONTINUOUS
10
-128.648415
20
351.779400
30
0.0
11
-129.621395
21
353.355480
31
0.0
0
LINE
8
0
6
CONTINUOUS
10
-129.794115
20
350.286640
30
0.0
11
-128.648415
21
351.779400
31
0.0
0
LINE
8
0
6
CONTINUOUS
10
-131.912805
20
350.369950
30
0.0
11
-129.794115
21
350.286640
31
0.0
0
LINE
8
0
6
CONTINUOUS
10
-132.885815
20
351.946180
30
0.0
11
-131.740115
21
353.438800
31
0.0
0
LINE
8
0
6
CONTINUOUS
10
-132.885807
20
352.889720
30
0.0
11
-132.885815
21
351.946180
31
0.0
0
LINE
8
0
6
CONTINUOUS
10
-129.621395
20
353.355480
30
0.0
11
-129.621391
21
353.813773
31
0.0
0
LINE
8
0
6
CONTINUOUS
10
-131.740115
20
353.438800
30
0.0
11
-129.621395
21
353.355480
31
0.0
0
LINE
8
0
6
CONTINUOUS
10
-131.740109
20
354.219702
30
0.0
11
-131.740115
21
353.438800
31
0.0
0
LINE
8
0
6
CONTINUOUS
10
-127.859535
20
344.148030
30
0.0
11
-127.859535
21
344.431926
31
0.0
0
LINE
8
0
6
CONTINUOUS
10
-129.168205
20
345.543900
30
0.0
11
-127.859535
21
344.148030
31
0.0
0
LINE
8
0
6
CONTINUOUS
10
-132.059435
20
343.648450
30
0.0
11
-130.750765
21
342.252430
31
0.0
0
LINE
8
0
6
CONTINUOUS
10
-131.268115
20
345.294110
30
0.0
11
-132.059435
21
343.648450
31
0.0
0
LINE
8
0
6
CONTINUOUS
10
-129.168205
20
345.543900
30
0.0
11
-131.268115
21
345.294110
31
0.0
0
LINE
8
0
6
CONTINUOUS
10
-127.859535
20
344.148030
30
0.0
11
-129.168205
21
345.543900
31
0.0
0
LINE
8
0
6
CONTINUOUS
10
-128.650855
20
342.502210
30
0.0
11
-127.859535
21
344.148030
31
0.0
0
LINE
8
0
6
CONTINUOUS
10
-130.750765
20
342.252430
30
0.0
11
-128.650855
21
342.502210
31
0.0
0
LINE
8
0
6
CONTINUOUS
10
-132.059435
20
343.648450
30
0.0
11
-131.268115
21
345.294110
31
0.0
0
LINE
8
0
6
CONTINUOUS
10
-132.059429
20
344.574508
30
0.0
11
-132.059435
21
343.648450
31
0.0
0
LINE
8
0
6
CONTINUOUS
10
-129.168205
20
345.543900
30
0.0
11
-129.168205
21
345.976721
31
0.0
0
LINE
8
0
6
CONTINUOUS
10
-131.268115
20
345.294110
30
0.0
11
-129.168205
21
345.543900
31
0.0
0
LINE
8
0
6
CONTINUOUS
10
-131.268115
20
346.050090
30
0.0
11
-131.268115
21
345.294110
31
0.0
0
LINE
8
0
6
CONTINUOUS
10
-125.093495
20
336.624680
30
0.0
11
-125.093495
21
336.888111
31
0.0
0
LINE
8
0
6
CONTINUOUS
10
-126.696015
20
337.786790
30
0.0
11
-125.093495
21
336.624680
31
0.0
0
LINE
8
0
6
CONTINUOUS
10
-129.102895
20
335.465620
30
0.0
11
-127.500415
21
334.303660
31
0.0
0
LINE
8
0
6
CONTINUOUS
10
-128.700675
20
337.207260
30
0.0
11
-129.102895
21
335.465620
31
0.0
0
LINE
8
0
6
CONTINUOUS
10
-126.696015
20
337.786790
30
0.0
11
-128.700675
21
337.207260
31
0.0
0
LINE
8
0
6
CONTINUOUS
10
-125.093495
20
336.624680
30
0.0
11
-126.696015
21
337.786790
31
0.0
0
LINE
8
0
6
CONTINUOUS
10
-125.495755
20
334.883040
30
0.0
11
-125.093495
21
336.624680
31
0.0
0
LINE
8
0
6
CONTINUOUS
10
-127.500415
20
334.303660
30
0.0
11
-125.495755
21
334.883040
31
0.0
0
LINE
8
0
6
CONTINUOUS
10
-129.102895
20
335.465620
30
0.0
11
-128.700675
21
337.207260
31
0.0
0
LINE
8
0
6
CONTINUOUS
10
-129.102895
20
336.371104
30
0.0
11
-129.102895
21
335.465620
31
0.0
0
LINE
8
0
6
CONTINUOUS
10
-126.696015
20
337.786790
30
0.0
11
-126.696011
21
338.217357
31
0.0
0
LINE
8
0
6
CONTINUOUS
10
-128.700675
20
337.207260
30
0.0
11
-126.696015
21
337.786790
31
0.0
0
LINE
8
0
6
CONTINUOUS
10
-128.700669
20
337.958845
30
0.0
11
-128.700675
21
337.207260
31
0.0
0
LINE
8
0
6
CONTINUOUS
10
-121.374095
20
329.700850
30
0.0
11
-121.372645
21
327.927170
31
0.0
0
LINE
8
0
6
CONTINUOUS
10
-121.374095
20
329.700850
30
0.0
11
-121.374095
21
329.976677
31
0.0
0
LINE
8
0
6
CONTINUOUS
10
-123.211705
20
330.586780
30
0.0
11
-121.374095
21
329.700850
31
0.0
0
LINE
8
0
6
CONTINUOUS
10
-125.046425
20
327.925030
30
0.0
11
-123.208805
21
327.039260
31
0.0
0
LINE
8
0
6
CONTINUOUS
10
-125.047875
20
329.698720
30
0.0
11
-125.046425
21
327.925030
31
0.0
0
LINE
8
0
6
CONTINUOUS
10
-123.211705
20
330.586780
30
0.0
11
-125.047875
21
329.698720
31
0.0
0
LINE
8
0
6
CONTINUOUS
10
-121.374095
20
329.700850
30
0.0
11
-123.211705
21
330.586780
31
0.0
0
LINE
8
0
6
CONTINUOUS
10
-121.372645
20
327.927170
30
0.0
11
-121.374095
21
329.700850
31
0.0
0
LINE
8
0
6
CONTINUOUS
10
-123.208805
20
327.039260
30
0.0
11
-121.372645
21
327.927170
31
0.0
0
LINE
8
0
6
CONTINUOUS
10
-123.211705
20
330.586780
30
0.0
11
-123.211705
21
331.009456
31
0.0
0
LINE
8
0
6
CONTINUOUS
10
-125.047875
20
329.698720
30
0.0
11
-123.211705
21
330.586780
31
0.0
0
LINE
8
0
6
CONTINUOUS
10
-125.047875
20
330.441062
30
0.0
11
-125.047875
21
329.698720
31
0.0
0
LINE
8
0
6
CONTINUOUS
10
-115.128955
20
321.608200
30
0.0
11
-115.128950
21
322.030937
31
0.0
0
LINE
8
0
6
CONTINUOUS
10
-115.531045
20
323.349690
30
0.0
11
-115.128955
21
321.608200
31
0.0
0
LINE
8
0
6
CONTINUOUS
10
-115.531045
20
323.349690
30
0.0
11
-115.531043
21
323.611364
31
0.0
0
LINE
8
0
6
CONTINUOUS
10
-117.535665
20
323.929370
30
0.0
11
-115.531045
21
323.349690
31
0.0
0
LINE
8
0
6
CONTINUOUS
10
-118.736115
20
321.025770
30
0.0
11
-116.731495
21
320.446240
31
0.0
0
LINE
8
0
6
CONTINUOUS
10
-119.138185
20
322.767410
30
0.0
11
-118.736115
21
321.025770
31
0.0
0
LINE
8
0
6
CONTINUOUS
10
-117.535665
20
323.929370
30
0.0
11
-119.138185
21
322.767410
31
0.0
0
LINE
8
0
6
CONTINUOUS
10
-115.531045
20
323.349690
30
0.0
11
-117.535665
21
323.929370
31
0.0
0
LINE
8
0
6
CONTINUOUS
10
-115.128955
20
321.608200
30
0.0
11
-115.531045
21
323.349690
31
0.0
0
LINE
8
0
6
CONTINUOUS
10
-116.731495
20
320.446240
30
0.0
11
-115.128955
21
321.608200
31
0.0
0
LINE
8
0
6
CONTINUOUS
10
-117.535665
20
323.929370
30
0.0
11
-117.535662
21
324.350188
31
0.0
0
LINE
8
0
6
CONTINUOUS
10
-119.138185
20
322.767410
30
0.0
11
-117.535665
21
323.929370
31
0.0
0
LINE
8
0
6
CONTINUOUS
10
-119.138185
20
323.508477
30
0.0
11
-119.138185
21
322.767410
31
0.0
0
LINE
8
0
6
CONTINUOUS
10
-107.678885
20
316.368640
30
0.0
11
-107.678882
21
316.807817
31
0.0
0
LINE
8
0
6
CONTINUOUS
10
-108.466145
20
318.015520
30
0.0
11
-107.678885
21
316.368640
31
0.0
0
LINE
8
0
6
CONTINUOUS
10
-108.466145
20
318.015520
30
0.0
11
-108.466144
21
318.279844
31
0.0
0
LINE
8
0
6
CONTINUOUS
10
-110.565475
20
318.268970
30
0.0
11
-108.466145
21
318.015520
31
0.0
0
LINE
8
0
6
CONTINUOUS
10
-111.090255
20
315.228200
30
0.0
11
-108.990955
21
314.974900
31
0.0
0
LINE
8
0
6
CONTINUOUS
10
-111.877515
20
316.875230
30
0.0
11
-111.090255
21
315.228200
31
0.0
0
LINE
8
0
6
CONTINUOUS
10
-110.565475
20
318.268970
30
0.0
11
-111.877515
21
316.875230
31
0.0
0
LINE
8
0
6
CONTINUOUS
10
-108.466145
20
318.015520
30
0.0
11
-110.565475
21
318.268970
31
0.0
0
LINE
8
0
6
CONTINUOUS
10
-107.678885
20
316.368640
30
0.0
11
-108.466145
21
318.015520
31
0.0
0
LINE
8
0
6
CONTINUOUS
10
-108.990955
20
314.974900
30
0.0
11
-107.678885
21
316.368640
31
0.0
0
LINE
8
0
6
CONTINUOUS
10
-110.565475
20
318.268970
30
0.0
11
-110.565473
21
318.699258
31
0.0
0
LINE
8
0
6
CONTINUOUS
10
-111.877515
20
316.875230
30
0.0
11
-110.565475
21
318.268970
31
0.0
0
LINE
8
0
6
CONTINUOUS
10
-111.877509
20
317.622737
30
0.0
11
-111.877515
21
316.875230
31
0.0
0
LINE
8
0
6
CONTINUOUS
10
-79.568975
20
388.879010
30
0.0
11
-77.732085
21
389.765850
31
0.0
0
LINE
8
0
6
CONTINUOUS
10
-79.568975
20
388.879010
30
0.0
11
-79.568979
21
389.862347
31
0.0
0
LINE
8
0
6
CONTINUOUS
10
-79.568975
20
387.105330
30
0.0
11
-79.568975
21
388.879010
31
0.0
0
LINE
8
0
6
CONTINUOUS
10
-77.732085
20
389.765850
30
0.0
11
-79.568975
21
388.879010
31
0.0
0
LINE
8
0
6
CONTINUOUS
10
-75.895195
20
388.879010
30
0.0
11
-77.732085
21
389.765850
31
0.0
0
LINE
8
0
6
CONTINUOUS
10
-75.895195
20
387.105330
30
0.0
11
-75.895195
21
388.879010
31
0.0
0
LINE
8
0
6
CONTINUOUS
10
-77.732085
20
386.218490
30
0.0
11
-75.895195
21
387.105330
31
0.0
0
LINE
8
0
6
CONTINUOUS
10
-79.568975
20
387.105330
30
0.0
11
-77.732085
21
386.218490
31
0.0
0
LINE
8
0
6
CONTINUOUS
10
-79.568975
20
388.879010
30
0.0
11
-79.568975
21
387.105330
31
0.0
0
LINE
8
0
6
CONTINUOUS
10
-75.895195
20
388.879010
30
0.0
11
-75.895199
21
389.862355
31
0.0
0
LINE
8
0
6
CONTINUOUS
10
-77.732085
20
389.765850
30
0.0
11
-75.895195
21
388.879010
31
0.0
0
LINE
8
0
6
CONTINUOUS
10
-77.732090
20
390.869018
30
0.0
11
-77.732085
21
389.765850
31
0.0
0
LINE
8
0
6
CONTINUOUS
10
-90.400775
20
387.389910
30
0.0
11
-88.869515
21
388.617320
31
0.0
0
LINE
8
0
6
CONTINUOUS
10
-90.400775
20
388.346416
30
0.0
11
-90.400775
21
387.389910
31
0.0
0
LINE
8
0
6
CONTINUOUS
10
-88.869515
20
388.617320
30
0.0
11
-90.400775
21
387.389910
31
0.0
0
LINE
8
0
6
CONTINUOUS
10
-86.832825
20
388.122020
30
0.0
11
-88.869515
21
388.617320
31
0.0
0
LINE
8
0
6
CONTINUOUS
10
-86.327385
20
386.399460
30
0.0
11
-86.832825
21
388.122020
31
0.0
0
LINE
8
0
6
CONTINUOUS
10
-87.858615
20
385.172040
30
0.0
11
-86.327385
21
386.399460
31
0.0
0
LINE
8
0
6
CONTINUOUS
10
-89.895325
20
385.667340
30
0.0
11
-87.858615
21
385.172040
31
0.0
0
LINE
8
0
6
CONTINUOUS
10
-90.400775
20
387.389910
30
0.0
11
-89.895325
21
385.667340
31
0.0
0
LINE
8
0
6
CONTINUOUS
10
-88.869515
20
388.617320
30
0.0
11
-86.832825
21
388.122020
31
0.0
0
LINE
8
0
6
CONTINUOUS
10
-88.869519
20
389.700757
30
0.0
11
-88.869515
21
388.617320
31
0.0
0
LINE
8
0
6
CONTINUOUS
10
-86.327385
20
386.399460
30
0.0
11
-86.327385
21
387.090224
31
0.0
0
LINE
8
0
6
CONTINUOUS
10
-86.832825
20
388.122020
30
0.0
11
-86.327385
21
386.399460
31
0.0
0
LINE
8
0
6
CONTINUOUS
10
-86.832825
20
389.084001
30
0.0
11
-86.832825
21
388.122020
31
0.0
0
LINE
8
0
6
CONTINUOUS
10
-100.529865
20
383.762280
30
0.0
11
-99.397125
21
385.261760
31
0.0
0
LINE
8
0
6
CONTINUOUS
10
-100.529861
20
384.693103
30
0.0
11
-100.529865
21
383.762280
31
0.0
0
LINE
8
0
6
CONTINUOUS
10
-99.397125
20
385.261760
30
0.0
11
-100.529865
21
383.762280
31
0.0
0
LINE
8
0
6
CONTINUOUS
10
-97.277735
20
385.191270
30
0.0
11
-99.397125
21
385.261760
31
0.0
0
LINE
8
0
6
CONTINUOUS
10
-96.291085
20
383.621140
30
0.0
11
-97.277735
21
385.191270
31
0.0
0
LINE
8
0
6
CONTINUOUS
10
-97.423815
20
382.121510
30
0.0
11
-96.291085
21
383.621140
31
0.0
0
LINE
8
0
6
CONTINUOUS
10
-99.543185
20
382.192000
30
0.0
11
-97.423815
21
382.121510
31
0.0
0
LINE
8
0
6
CONTINUOUS
10
-100.529865
20
383.762280
30
0.0
11
-99.543185
21
382.192000
31
0.0
0
LINE
8
0
6
CONTINUOUS
10
-99.397125
20
385.261760
30
0.0
11
-97.277735
21
385.191270
31
0.0
0
LINE
8
0
6
CONTINUOUS
10
-99.397125
20
386.332637
30
0.0
11
-99.397125
21
385.261760
31
0.0
0
LINE
8
0
6
CONTINUOUS
10
-96.291085
20
383.621140
30
0.0
11
-96.291085
21
384.295423
31
0.0
0
LINE
8
0
6
CONTINUOUS
10
-97.277735
20
385.191270
30
0.0
11
-96.291085
21
383.621140
31
0.0
0
LINE
8
0
6
CONTINUOUS
10
-97.277735
20
386.135296
30
0.0
11
-97.277735
21
385.191270
31
0.0
0
LINE
8
0
6
CONTINUOUS
10
-109.304125
20
378.248210
30
0.0
11
-108.633005
21
379.930800
31
0.0
0
LINE
8
0
6
CONTINUOUS
10
-109.304125
20
379.162997
30
0.0
11
-109.304125
21
378.248210
31
0.0
0
LINE
8
0
6
CONTINUOUS
10
-108.633005
20
379.930800
30
0.0
11
-109.304125
21
378.248210
31
0.0
0
LINE
8
0
6
CONTINUOUS
10
-106.554925
20
380.286030
30
0.0
11
-108.633005
21
379.930800
31
0.0
0
LINE
8
0
6
CONTINUOUS
10
-105.147975
20
378.958660
30
0.0
11
-106.554925
21
380.286030
31
0.0
0
LINE
8
0
6
CONTINUOUS
10
-105.819095
20
377.276080
30
0.0
11
-105.147975
21
378.958660
31
0.0
0
LINE
8
0
6
CONTINUOUS
10
-107.897185
20
376.920850
30
0.0
11
-105.819095
21
377.276080
31
0.0
0
LINE
8
0
6
CONTINUOUS
10
-109.304125
20
378.248210
30
0.0
11
-107.897185
21
376.920850
31
0.0
0
LINE
8
0
6
CONTINUOUS
10
-108.633005
20
379.930800
30
0.0
11
-106.554925
21
380.286030
31
0.0
0
LINE
8
0
6
CONTINUOUS
10
-108.633005
20
380.984080
30
0.0
11
-108.633005
21
379.930800
31
0.0
0
LINE
8
0
6
CONTINUOUS
10
-105.147975
20
378.958660
30
0.0
11
-105.147975
21
379.610964
31
0.0
0
LINE
8
0
6
CONTINUOUS
10
-106.554925
20
380.286030
30
0.0
11
-105.147975
21
378.958660
31
0.0
0
LINE
8
0
6
CONTINUOUS
10
-106.554925
20
381.208065
30
0.0
11
-106.554925
21
380.286030
31
0.0
0
LINE
8
0
6
CONTINUOUS
10
-116.242405
20
371.140060
30
0.0
11
-116.070365
21
372.907940
31
0.0
0
LINE
8
0
6
CONTINUOUS
10
-116.242398
20
372.043432
30
0.0
11
-116.242405
21
371.140060
31
0.0
0
LINE
8
0
6
CONTINUOUS
10
-116.070365
20
372.907940
30
0.0
11
-116.242405
21
371.140060
31
0.0
0
LINE
8
0
6
CONTINUOUS
10
-114.153535
20
373.667370
30
0.0
11
-116.070365
21
372.907940
31
0.0
0
LINE
8
0
6
CONTINUOUS
10
-112.408695
20
372.658920
30
0.0
11
-114.153535
21
373.667370
31
0.0
0
LINE
8
0
6
CONTINUOUS
10
-112.580695
20
370.890880
30
0.0
11
-112.408695
21
372.658920
31
0.0
0
LINE
8
0
6
CONTINUOUS
10
-114.497545
20
370.131610
30
0.0
11
-112.580695
21
370.890880
31
0.0
0
LINE
8
0
6
CONTINUOUS
10
-116.242405
20
371.140060
30
0.0
11
-114.497545
21
370.131610
31
0.0
0
LINE
8
0
6
CONTINUOUS
10
-116.070365
20
372.907940
30
0.0
11
-114.153535
21
373.667370
31
0.0
0
LINE
8
0
6
CONTINUOUS
10
-116.070365
20
373.934171
30
0.0
11
-116.070365
21
372.907940
31
0.0
0
LINE
8
0
6
CONTINUOUS
10
-112.408695
20
372.658920
30
0.0
11
-112.408692
21
373.280323
31
0.0
0
LINE
8
0
6
CONTINUOUS
10
-114.153535
20
373.667370
30
0.0
11
-112.408695
21
372.658920
31
0.0
0
LINE
8
0
6
CONTINUOUS
10
-114.153535
20
374.552631
30
0.0
11
-114.153535
21
373.667370
31
0.0
0
LINE
8
0
6
CONTINUOUS
10
-117.344245
20
363.324510
30
0.0
11
-117.344241
21
363.795124
31
0.0
0
LINE
8
0
6
CONTINUOUS
10
-117.684825
20
365.075300
30
0.0
11
-117.344245
21
363.324510
31
0.0
0
LINE
8
0
6
CONTINUOUS
10
-121.310915
20
364.581990
30
0.0
11
-120.970345
21
362.831190
31
0.0
0
LINE
8
0
6
CONTINUOUS
10
-119.668155
20
365.703960
30
0.0
11
-121.310915
21
364.581990
31
0.0
0
LINE
8
0
6
CONTINUOUS
10
-117.684825
20
365.075300
30
0.0
11
-119.668155
21
365.703960
31
0.0
0
LINE
8
0
6
CONTINUOUS
10
-117.344245
20
363.324510
30
0.0
11
-117.684825
21
365.075300
31
0.0
0
LINE
8
0
6
CONTINUOUS
10
-118.987005
20
362.202530
30
0.0
11
-117.344245
21
363.324510
31
0.0
0
LINE
8
0
6
CONTINUOUS
10
-120.970345
20
362.831190
30
0.0
11
-118.987005
21
362.202530
31
0.0
0
LINE
8
0
6
CONTINUOUS
10
-121.310915
20
364.581990
30
0.0
11
-119.668155
21
365.703960
31
0.0
0
LINE
8
0
6
CONTINUOUS
10
-121.310909
20
365.586290
30
0.0
11
-121.310915
21
364.581990
31
0.0
0
LINE
8
0
6
CONTINUOUS
10
-117.684825
20
365.075300
30
0.0
11
-117.684820
21
365.702490
31
0.0
0
LINE
8
0
6
CONTINUOUS
10
-119.668155
20
365.703960
30
0.0
11
-117.684825
21
365.075300
31
0.0
0
LINE
8
0
6
CONTINUOUS
10
-119.668149
20
366.598129
30
0.0
11
-119.668155
21
365.703960
31
0.0
0
LINE
8
0
6
CONTINUOUS
10
-120.125085
20
355.415730
30
0.0
11
-120.125085
21
355.840931
31
0.0
0
LINE
8
0
6
CONTINUOUS
10
-120.959285
20
357.046580
30
0.0
11
-120.125085
21
355.415730
31
0.0
0
LINE
8
0
6
CONTINUOUS
10
-124.337045
20
355.838240
30
0.0
11
-123.502845
21
354.207530
31
0.0
0
LINE
8
0
6
CONTINUOUS
10
-123.065265
20
357.257770
30
0.0
11
-124.337045
21
355.838240
31
0.0
0
LINE
8
0
6
CONTINUOUS
10
-120.959285
20
357.046580
30
0.0
11
-123.065265
21
357.257770
31
0.0
0
LINE
8
0
6
CONTINUOUS
10
-120.125085
20
355.415730
30
0.0
11
-120.959285
21
357.046580
31
0.0
0
LINE
8
0
6
CONTINUOUS
10
-121.396865
20
353.996200
30
0.0
11
-120.125085
21
355.415730
31
0.0
0
LINE
8
0
6
CONTINUOUS
10
-123.502845
20
354.207530
30
0.0
11
-121.396865
21
353.996200
31
0.0
0
LINE
8
0
6
CONTINUOUS
10
-124.337045
20
355.838240
30
0.0
11
-123.065265
21
357.257770
31
0.0
0
LINE
8
0
6
CONTINUOUS
10
-124.337030
20
356.753798
30
0.0
11
-124.337045
21
355.838240
31
0.0
0
LINE
8
0
6
CONTINUOUS
10
-120.959285
20
357.046580
30
0.0
11
-120.959285
21
357.606318
31
0.0
0
LINE
8
0
6
CONTINUOUS
10
-123.065265
20
357.257770
30
0.0
11
-120.959285
21
357.046580
31
0.0
0
LINE
8
0
6
CONTINUOUS
10
-123.065258
20
358.062330
30
0.0
11
-123.065265
21
357.257770
31
0.0
0
LINE
8
0
6
CONTINUOUS
10
-119.814795
20
346.511310
30
0.0
11
-119.814795
21
346.931855
31
0.0
0
LINE
8
0
6
CONTINUOUS
10
-121.086575
20
347.930830
30
0.0
11
-119.814795
21
346.511310
31
0.0
0
LINE
8
0
6
CONTINUOUS
10
-124.026755
20
346.088790
30
0.0
11
-122.754975
21
344.669270
31
0.0
0
LINE
8
0
6
CONTINUOUS
10
-123.192555
20
347.719500
30
0.0
11
-124.026755
21
346.088790
31
0.0
0
LINE
8
0
6
CONTINUOUS
10
-121.086575
20
347.930830
30
0.0
11
-123.192555
21
347.719500
31
0.0
0
LINE
8
0
6
CONTINUOUS
10
-119.814795
20
346.511310
30
0.0
11
-121.086575
21
347.930830
31
0.0
0
LINE
8
0
6
CONTINUOUS
10
-120.648995
20
344.880450
30
0.0
11
-119.814795
21
346.511310
31
0.0
0
LINE
8
0
6
CONTINUOUS
10
-122.754975
20
344.669270
30
0.0
11
-120.648995
21
344.880450
31
0.0
0
LINE
8
0
6
CONTINUOUS
10
-124.026755
20
346.088790
30
0.0
11
-123.192555
21
347.719500
31
0.0
0
LINE
8
0
6
CONTINUOUS
10
-124.026748
20
346.996959
30
0.0
11
-124.026755
21
346.088790
31
0.0
0
LINE
8
0
6
CONTINUOUS
10
-121.086575
20
347.930830
30
0.0
11
-121.086570
21
348.488160
31
0.0
0
LINE
8
0
6
CONTINUOUS
10
-123.192555
20
347.719500
30
0.0
11
-121.086575
21
347.930830
31
0.0
0
LINE
8
0
6
CONTINUOUS
10
-123.192548
20
348.520683
30
0.0
11
-123.192555
21
347.719500
31
0.0
0
LINE
8
0
6
CONTINUOUS
10
-117.344205
20
338.205490
30
0.0
11
-117.344202
21
338.614657
31
0.0
0
LINE
8
0
6
CONTINUOUS
10
-118.986965
20
339.327470
30
0.0
11
-117.344205
21
338.205490
31
0.0
0
LINE
8
0
6
CONTINUOUS
10
-121.310915
20
336.948010
30
0.0
11
-119.668125
21
335.826030
31
0.0
0
LINE
8
0
6
CONTINUOUS
10
-120.970345
20
338.698810
30
0.0
11
-121.310915
21
336.948010
31
0.0
0
LINE
8
0
6
CONTINUOUS
10
-118.986965
20
339.327470
30
0.0
11
-120.970345
21
338.698810
31
0.0
0
LINE
8
0
6
CONTINUOUS
10
-117.344205
20
338.205490
30
0.0
11
-118.986965
21
339.327470
31
0.0
0
LINE
8
0
6
CONTINUOUS
10
-117.684745
20
336.454850
30
0.0
11
-117.344205
21
338.205490
31
0.0
0
LINE
8
0
6
CONTINUOUS
10
-119.668125
20
335.826030
30
0.0
11
-117.684745
21
336.454850
31
0.0
0
LINE
8
0
6
CONTINUOUS
10
-121.310915
20
336.948010
30
0.0
11
-120.970345
21
338.698810
31
0.0
0
LINE
8
0
6
CONTINUOUS
10
-121.310902
20
337.847805
30
0.0
11
-121.310915
21
336.948010
31
0.0
0
LINE
8
0
6
CONTINUOUS
10
-118.986965
20
339.327470
30
0.0
11
-118.986961
21
339.868828
31
0.0
0
LINE
8
0
6
CONTINUOUS
10
-120.970345
20
338.698810
30
0.0
11
-118.986965
21
339.327470
31
0.0
0
LINE
8
0
6
CONTINUOUS
10
-120.970332
20
339.485433
30
0.0
11
-120.970345
21
338.698810
31
0.0
0
LINE
8
0
6
CONTINUOUS
10
-112.408655
20
328.871540
30
0.0
11
-112.408651
21
329.396696
31
0.0
0
LINE
8
0
6
CONTINUOUS
10
-112.580665
20
330.639420
30
0.0
11
-112.408655
21
328.871540
31
0.0
0
LINE
8
0
6
CONTINUOUS
10
-112.580665
20
330.639420
30
0.0
11
-112.580662
21
331.047513
31
0.0
0
LINE
8
0
6
CONTINUOUS
10
-114.497505
20
331.398850
30
0.0
11
-112.580665
21
330.639420
31
0.0
0
LINE
8
0
6
CONTINUOUS
10
-116.070365
20
328.622360
30
0.0
11
-114.153495
21
327.863080
31
0.0
0
LINE
8
0
6
CONTINUOUS
10
-116.242335
20
330.390400
30
0.0
11
-116.070365
21
328.622360
31
0.0
0
LINE
8
0
6
CONTINUOUS
10
-114.497505
20
331.398850
30
0.0
11
-116.242335
21
330.390400
31
0.0
0
LINE
8
0
6
CONTINUOUS
10
-112.580665
20
330.639420
30
0.0
11
-114.497505
21
331.398850
31
0.0
0
LINE
8
0
6
CONTINUOUS
10
-112.408655
20
328.871540
30
0.0
11
-112.580665
21
330.639420
31
0.0
0
LINE
8
0
6
CONTINUOUS
10
-114.153495
20
327.863080
30
0.0
11
-112.408655
21
328.871540
31
0.0
0
LINE
8
0
6
CONTINUOUS
10
-114.497505
20
331.398850
30
0.0
11
-114.497501
21
331.934662
31
0.0
0
LINE
8
0
6
CONTINUOUS
10
-116.242335
20
330.390400
30
0.0
11
-114.497505
21
331.398850
31
0.0
0
LINE
8
0
6
CONTINUOUS
10
-116.242335
20
331.170967
30
0.0
11
-116.242335
21
330.390400
31
0.0
0
LINE
8
0
6
CONTINUOUS
10
-106.488305
20
323.880230
30
0.0
11
-106.488303
21
324.414032
31
0.0
0
LINE
8
0
6
CONTINUOUS
10
-107.159425
20
325.562820
30
0.0
11
-106.488305
21
323.880230
31
0.0
0
LINE
8
0
6
CONTINUOUS
10
-107.159425
20
325.562820
30
0.0
11
-107.159423
21
325.974597
31
0.0
0
LINE
8
0
6
CONTINUOUS
10
-109.237515
20
325.918040
30
0.0
11
-107.159425
21
325.562820
31
0.0
0
LINE
8
0
6
CONTINUOUS
10
-109.973355
20
322.908100
30
0.0
11
-107.895255
21
322.552870
31
0.0
0
LINE
8
0
6
CONTINUOUS
10
-110.644475
20
324.590680
30
0.0
11
-109.973355
21
322.908100
31
0.0
0
LINE
8
0
6
CONTINUOUS
10
-109.237515
20
325.918040
30
0.0
11
-110.644475
21
324.590680
31
0.0
0
LINE
8
0
6
CONTINUOUS
10
-107.159425
20
325.562820
30
0.0
11
-109.237515
21
325.918040
31
0.0
0
LINE
8
0
6
CONTINUOUS
10
-106.488305
20
323.880230
30
0.0
11
-107.159425
21
325.562820
31
0.0
0
LINE
8
0
6
CONTINUOUS
10
-107.895255
20
322.552870
30
0.0
11
-106.488305
21
323.880230
31
0.0
0
LINE
8
0
6
CONTINUOUS
10
-109.237515
20
325.918040
30
0.0
11
-109.237510
21
326.471060
31
0.0
0
LINE
8
0
6
CONTINUOUS
10
-110.644475
20
324.590680
30
0.0
11
-109.237515
21
325.918040
31
0.0
0
LINE
8
0
6
CONTINUOUS
10
-110.644468
20
325.386321
30
0.0
11
-110.644475
21
324.590680
31
0.0
0
LINE
8
0
6
CONTINUOUS
10
-98.864615
20
319.303510
30
0.0
11
-98.864613
21
319.794978
31
0.0
0
LINE
8
0
6
CONTINUOUS
10
-99.997345
20
320.803150
30
0.0
11
-98.864615
21
319.303510
31
0.0
0
LINE
8
0
6
CONTINUOUS
10
-99.997345
20
320.803150
30
0.0
11
-99.997343
21
321.203460
31
0.0
0
LINE
8
0
6
CONTINUOUS
10
-102.116735
20
320.732650
30
0.0
11
-99.997345
21
320.803150
31
0.0
0
LINE
8
0
6
CONTINUOUS
10
-101.970655
20
317.662890
30
0.0
11
-99.851265
21
317.733380
31
0.0
0
LINE
8
0
6
CONTINUOUS
10
-103.103385
20
319.162520
30
0.0
11
-101.970655
21
317.662890
31
0.0
0
LINE
8
0
6
CONTINUOUS
10
-102.116735
20
320.732650
30
0.0
11
-103.103385
21
319.162520
31
0.0
0
LINE
8
0
6
CONTINUOUS
10
-99.997345
20
320.803150
30
0.0
11
-102.116735
21
320.732650
31
0.0
0
LINE
8
0
6
CONTINUOUS
10
-98.864615
20
319.303510
30
0.0
11
-99.997345
21
320.803150
31
0.0
0
LINE
8
0
6
CONTINUOUS
10
-99.851265
20
317.733380
30
0.0
11
-98.864615
21
319.303510
31
0.0
0
LINE
8
0
6
CONTINUOUS
10
-102.116735
20
320.732650
30
0.0
11
-102.116733
21
321.286253
31
0.0
0
LINE
8
0
6
CONTINUOUS
10
-103.103385
20
319.162520
30
0.0
11
-102.116735
21
320.732650
31
0.0
0
LINE
8
0
6
CONTINUOUS
10
-103.103382
20
319.959192
30
0.0
11
-103.103385
21
319.162520
31
0.0
0
LINE
8
0
6
CONTINUOUS
10
-52.360605
20
319.162830
30
0.0
11
-52.360605
21
319.959185
31
0.0
0
LINE
8
0
6
CONTINUOUS
10
-53.347265
20
320.733110
30
0.0
11
-52.360605
21
319.162830
31
0.0
0
LINE
8
0
6
CONTINUOUS
10
-53.347265
20
320.733110
30
0.0
11
-53.347265
21
321.286326
31
0.0
0
LINE
8
0
6
CONTINUOUS
10
-55.466655
20
320.803600
30
0.0
11
-53.347265
21
320.733110
31
0.0
0
LINE
8
0
6
CONTINUOUS
10
-55.466655
20
320.803600
30
0.0
11
-55.466655
21
321.203535
31
0.0
0
LINE
8
0
6
CONTINUOUS
10
-56.599385
20
319.303970
30
0.0
11
-55.466655
21
320.803600
31
0.0
0
LINE
8
0
6
CONTINUOUS
10
-56.599385
20
319.795062
30
0.0
11
-56.599385
21
319.303970
31
0.0
0
LINE
8
0
6
CONTINUOUS
10
-53.493345
20
317.663350
30
0.0
11
-52.360605
21
319.162830
31
0.0
0
LINE
8
0
6
CONTINUOUS
10
-55.612715
20
317.733840
30
0.0
11
-53.493345
21
317.663350
31
0.0
0
LINE
8
0
6
CONTINUOUS
10
-56.599385
20
319.303970
30
0.0
11
-55.612715
21
317.733840
31
0.0
0
LINE
8
0
6
CONTINUOUS
10
-55.466655
20
320.803600
30
0.0
11
-56.599385
21
319.303970
31
0.0
0
LINE
8
0
6
CONTINUOUS
10
-53.347265
20
320.733110
30
0.0
11
-55.466655
21
320.803600
31
0.0
0
LINE
8
0
6
CONTINUOUS
10
-52.360605
20
319.162830
30
0.0
11
-53.347265
21
320.733110
31
0.0
0
LINE
8
0
6
CONTINUOUS
10
-46.159975
20
323.290630
30
0.0
11
-46.159975
21
324.060611
31
0.0
0
LINE
8
0
6
CONTINUOUS
10
-47.566905
20
324.618000
30
0.0
11
-46.159975
21
323.290630
31
0.0
0
LINE
8
0
6
CONTINUOUS
10
-47.566905
20
324.618000
30
0.0
11
-47.566905
21
325.143367
31
0.0
0
LINE
8
0
6
CONTINUOUS
10
-49.645005
20
324.262770
30
0.0
11
-47.566905
21
324.618000
31
0.0
0
LINE
8
0
6
CONTINUOUS
10
-49.645005
20
324.262770
30
0.0
11
-49.645005
21
324.665541
31
0.0
0
LINE
8
0
6
CONTINUOUS
10
-50.316125
20
322.580180
30
0.0
11
-49.645005
21
324.262770
31
0.0
0
LINE
8
0
6
CONTINUOUS
10
-50.316125
20
323.104972
30
0.0
11
-50.316125
21
322.580180
31
0.0
0
LINE
8
0
6
CONTINUOUS
10
-46.831095
20
321.608050
30
0.0
11
-46.159975
21
323.290630
31
0.0
0
LINE
8
0
6
CONTINUOUS
10
-48.909145
20
321.252820
30
0.0
11
-46.831095
21
321.608050
31
0.0
0
LINE
8
0
6
CONTINUOUS
10
-50.316125
20
322.580180
30
0.0
11
-48.909145
21
321.252820
31
0.0
0
LINE
8
0
6
CONTINUOUS
10
-49.645005
20
324.262770
30
0.0
11
-50.316125
21
322.580180
31
0.0
0
LINE
8
0
6
CONTINUOUS
10
-47.566905
20
324.618000
30
0.0
11
-49.645005
21
324.262770
31
0.0
0
LINE
8
0
6
CONTINUOUS
10
-46.159975
20
323.290630
30
0.0
11
-47.566905
21
324.618000
31
0.0
0
LINE
8
0
6
CONTINUOUS
10
-39.221705
20
330.389940
30
0.0
11
-39.221708
21
331.170971
31
0.0
0
LINE
8
0
6
CONTINUOUS
10
-40.966545
20
331.398540
30
0.0
11
-39.221705
21
330.389940
31
0.0
0
LINE
8
0
6
CONTINUOUS
10
-40.966545
20
331.398540
30
0.0
11
-40.966547
21
331.934744
31
0.0
0
LINE
8
0
6
CONTINUOUS
10
-42.883395
20
330.639110
30
0.0
11
-40.966545
21
331.398540
31
0.0
0
LINE
8
0
6
CONTINUOUS
10
-42.883395
20
330.639110
30
0.0
11
-42.883397
21
331.047606
31
0.0
0
LINE
8
0
6
CONTINUOUS
10
-43.055395
20
328.871230
30
0.0
11
-42.883395
21
330.639110
31
0.0
0
LINE
8
0
6
CONTINUOUS
10
-43.055397
20
329.396778
30
0.0
11
-43.055395
21
328.871230
31
0.0
0
LINE
8
0
6
CONTINUOUS
10
-39.393715
20
328.622050
30
0.0
11
-39.221705
21
330.389940
31
0.0
0
LINE
8
0
6
CONTINUOUS
10
-41.310555
20
327.862620
30
0.0
11
-39.393715
21
328.622050
31
0.0
0
LINE
8
0
6
CONTINUOUS
10
-43.055395
20
328.871230
30
0.0
11
-41.310555
21
327.862620
31
0.0
0
LINE
8
0
6
CONTINUOUS
10
-42.883395
20
330.639110
30
0.0
11
-43.055395
21
328.871230
31
0.0
0
LINE
8
0
6
CONTINUOUS
10
-40.966545
20
331.398540
30
0.0
11
-42.883395
21
330.639110
31
0.0
0
LINE
8
0
6
CONTINUOUS
10
-39.221705
20
330.389940
30
0.0
11
-40.966545
21
331.398540
31
0.0
0
LINE
8
0
6
CONTINUOUS
10
-34.153215
20
336.943590
30
0.0
11
-34.153215
21
337.847952
31
0.0
0
LINE
8
0
6
CONTINUOUS
10
-34.493785
20
338.694230
30
0.0
11
-34.153215
21
336.943590
31
0.0
0
LINE
8
0
6
CONTINUOUS
10
-34.493785
20
338.694230
30
0.0
11
-34.493785
21
339.485502
31
0.0
0
LINE
8
0
6
CONTINUOUS
10
-36.477125
20
339.323040
30
0.0
11
-34.493785
21
338.694230
31
0.0
0
LINE
8
0
6
CONTINUOUS
10
-36.477125
20
339.323040
30
0.0
11
-36.477125
21
339.868965
31
0.0
0
LINE
8
0
6
CONTINUOUS
10
-38.119885
20
338.200910
30
0.0
11
-36.477125
21
339.323040
31
0.0
0
LINE
8
0
6
CONTINUOUS
10
-38.119887
20
338.614729
30
0.0
11
-38.119885
21
338.200910
31
0.0
0
LINE
8
0
6
CONTINUOUS
10
-34.153215
20
336.943590
30
0.0
11
-34.493785
21
338.694230
31
0.0
0
LINE
8
0
6
CONTINUOUS
10
-35.795975
20
335.821460
30
0.0
11
-34.153215
21
336.943590
31
0.0
0
LINE
8
0
6
CONTINUOUS
10
-37.779315
20
336.450270
30
0.0
11
-35.795975
21
335.821460
31
0.0
0
LINE
8
0
6
CONTINUOUS
10
-38.119885
20
338.200910
30
0.0
11
-37.779315
21
336.450270
31
0.0
0
LINE
8
0
6
CONTINUOUS
10
-36.477125
20
339.323040
30
0.0
11
-38.119885
21
338.200910
31
0.0
0
LINE
8
0
6
CONTINUOUS
10
-34.493785
20
338.694230
30
0.0
11
-36.477125
21
339.323040
31
0.0
0
LINE
8
0
6
CONTINUOUS
10
-31.437375
20
346.087880
30
0.0
11
-31.437383
21
346.997017
31
0.0
0
LINE
8
0
6
CONTINUOUS
10
-32.271575
20
347.718730
30
0.0
11
-31.437375
21
346.087880
31
0.0
0
LINE
8
0
6
CONTINUOUS
10
-32.271575
20
347.718730
30
0.0
11
-32.271575
21
348.520818
31
0.0
0
LINE
8
0
6
CONTINUOUS
10
-34.377515
20
347.929920
30
0.0
11
-32.271575
21
347.718730
31
0.0
0
LINE
8
0
6
CONTINUOUS
10
-34.377515
20
347.929920
30
0.0
11
-34.377520
21
348.488214
31
0.0
0
LINE
8
0
6
CONTINUOUS
10
-35.649295
20
346.510390
30
0.0
11
-34.377515
21
347.929920
31
0.0
0
LINE
8
0
6
CONTINUOUS
10
-35.649298
20
346.931911
30
0.0
11
-35.649295
21
346.510390
31
0.0
0
LINE
8
0
6
CONTINUOUS
10
-31.437375
20
346.087880
30
0.0
11
-32.271575
21
347.718730
31
0.0
0
LINE
8
0
6
CONTINUOUS
10
-32.709125
20
344.668350
30
0.0
11
-31.437375
21
346.087880
31
0.0
0
LINE
8
0
6
CONTINUOUS
10
-34.815105
20
344.879680
30
0.0
11
-32.709125
21
344.668350
31
0.0
0
LINE
8
0
6
CONTINUOUS
10
-35.649295
20
346.510390
30
0.0
11
-34.815105
21
344.879680
31
0.0
0
LINE
8
0
6
CONTINUOUS
10
-34.377515
20
347.929920
30
0.0
11
-35.649295
21
346.510390
31
0.0
0
LINE
8
0
6
CONTINUOUS
10
-32.271575
20
347.718730
30
0.0
11
-34.377515
21
347.929920
31
0.0
0
LINE
8
0
6
CONTINUOUS
10
-31.437375
20
355.444260
30
0.0
11
-31.437383
21
356.368198
31
0.0
0
LINE
8
0
6
CONTINUOUS
10
-32.709155
20
356.863780
30
0.0
11
-31.437375
21
355.444260
31
0.0
0
LINE
8
0
6
CONTINUOUS
10
-32.709155
20
356.863780
30
0.0
11
-32.709162
21
357.671578
31
0.0
0
LINE
8
0
6
CONTINUOUS
10
-34.815105
20
356.652600
30
0.0
11
-32.709155
21
356.863780
31
0.0
0
LINE
8
0
6
CONTINUOUS
10
-34.815105
20
356.652600
30
0.0
11
-34.815108
21
357.215572
31
0.0
0
LINE
8
0
6
CONTINUOUS
10
-35.649295
20
355.021740
30
0.0
11
-34.815105
21
356.652600
31
0.0
0
LINE
8
0
6
CONTINUOUS
10
-35.649299
20
355.455337
30
0.0
11
-35.649295
21
355.021740
31
0.0
0
LINE
8
0
6
CONTINUOUS
10
-31.437375
20
355.444260
30
0.0
11
-32.709155
21
356.863780
31
0.0
0
LINE
8
0
6
CONTINUOUS
10
-32.271575
20
353.813550
30
0.0
11
-31.437375
21
355.444260
31
0.0
0
LINE
8
0
6
CONTINUOUS
10
-34.377515
20
353.602220
30
0.0
11
-32.271575
21
353.813550
31
0.0
0
LINE
8
0
6
CONTINUOUS
10
-35.649295
20
355.021740
30
0.0
11
-34.377515
21
353.602220
31
0.0
0
LINE
8
0
6
CONTINUOUS
10
-34.815105
20
356.652600
30
0.0
11
-35.649295
21
355.021740
31
0.0
0
LINE
8
0
6
CONTINUOUS
10
-32.709155
20
356.863780
30
0.0
11
-34.815105
21
356.652600
31
0.0
0
LINE
8
0
6
CONTINUOUS
10
-34.153255
20
364.586870
30
0.0
11
-34.153261
21
365.586424
31
0.0
0
LINE
8
0
6
CONTINUOUS
10
-35.796045
20
365.708850
30
0.0
11
-34.153255
21
364.586870
31
0.0
0
LINE
8
0
6
CONTINUOUS
10
-35.796045
20
365.708850
30
0.0
11
-35.796045
21
366.598254
31
0.0
0
LINE
8
0
6
CONTINUOUS
10
-37.779345
20
365.080180
30
0.0
11
-35.796045
21
365.708850
31
0.0
0
LINE
8
0
6
CONTINUOUS
10
-37.779345
20
365.080180
30
0.0
11
-37.779350
21
365.702613
31
0.0
0
LINE
8
0
6
CONTINUOUS
10
-38.119925
20
363.329390
30
0.0
11
-37.779345
21
365.080180
31
0.0
0
LINE
8
0
6
CONTINUOUS
10
-38.119929
20
363.795235
30
0.0
11
-38.119925
21
363.329390
31
0.0
0
LINE
8
0
6
CONTINUOUS
10
-34.153255
20
364.586870
30
0.0
11
-35.796045
21
365.708850
31
0.0
0
LINE
8
0
6
CONTINUOUS
10
-34.493785
20
362.836070
30
0.0
11
-34.153255
21
364.586870
31
0.0
0
LINE
8
0
6
CONTINUOUS
10
-36.477165
20
362.207410
30
0.0
11
-34.493785
21
362.836070
31
0.0
0
LINE
8
0
6
CONTINUOUS
10
-38.119925
20
363.329390
30
0.0
11
-36.477165
21
362.207410
31
0.0
0
LINE
8
0
6
CONTINUOUS
10
-37.779345
20
365.080180
30
0.0
11
-38.119925
21
363.329390
31
0.0
0
LINE
8
0
6
CONTINUOUS
10
-35.796045
20
365.708850
30
0.0
11
-37.779345
21
365.080180
31
0.0
0
LINE
8
0
6
CONTINUOUS
10
-41.310635
20
373.667830
30
0.0
11
-39.393785
21
372.908550
31
0.0
0
LINE
8
0
6
CONTINUOUS
10
-41.310635
20
373.667830
30
0.0
11
-41.310639
21
374.552652
31
0.0
0
LINE
8
0
6
CONTINUOUS
10
-43.055455
20
372.659380
30
0.0
11
-41.310635
21
373.667830
31
0.0
0
LINE
8
0
6
CONTINUOUS
10
-43.055460
20
373.280368
30
0.0
11
-43.055455
21
372.659380
31
0.0
0
LINE
8
0
6
CONTINUOUS
10
-39.393785
20
372.908550
30
0.0
11
-41.310635
21
373.667830
31
0.0
0
LINE
8
0
6
CONTINUOUS
10
-39.221785
20
371.140520
30
0.0
11
-39.393785
21
372.908550
31
0.0
0
LINE
8
0
6
CONTINUOUS
10
-40.966605
20
370.132060
30
0.0
11
-39.221785
21
371.140520
31
0.0
0
LINE
8
0
6
CONTINUOUS
10
-42.883455
20
370.891490
30
0.0
11
-40.966605
21
370.132060
31
0.0
0
LINE
8
0
6
CONTINUOUS
10
-43.055455
20
372.659380
30
0.0
11
-42.883455
21
370.891490
31
0.0
0
LINE
8
0
6
CONTINUOUS
10
-41.310635
20
373.667830
30
0.0
11
-43.055455
21
372.659380
31
0.0
0
LINE
8
0
6
CONTINUOUS
10
-39.221785
20
371.140520
30
0.0
11
-39.221789
21
372.043465
31
0.0
0
LINE
8
0
6
CONTINUOUS
10
-39.393785
20
372.908550
30
0.0
11
-39.221785
21
371.140520
31
0.0
0
LINE
8
0
6
CONTINUOUS
10
-39.393789
20
373.934303
30
0.0
11
-39.393785
21
372.908550
31
0.0
0
LINE
8
0
6
CONTINUOUS
10
-48.909265
20
380.286330
30
0.0
11
-46.831205
21
379.931110
31
0.0
0
LINE
8
0
6
CONTINUOUS
10
-48.909265
20
380.286330
30
0.0
11
-48.909273
21
381.208160
31
0.0
0
LINE
8
0
6
CONTINUOUS
10
-50.316235
20
378.958970
30
0.0
11
-48.909265
21
380.286330
31
0.0
0
LINE
8
0
6
CONTINUOUS
10
-50.316238
20
379.611054
30
0.0
11
-50.316235
21
378.958970
31
0.0
0
LINE
8
0
6
CONTINUOUS
10
-46.831205
20
379.931110
30
0.0
11
-48.909265
21
380.286330
31
0.0
0
LINE
8
0
6
CONTINUOUS
10
-46.160065
20
378.248370
30
0.0
11
-46.831205
21
379.931110
31
0.0
0
LINE
8
0
6
CONTINUOUS
10
-47.567025
20
376.921010
30
0.0
11
-46.160065
21
378.248370
31
0.0
0
LINE
8
0
6
CONTINUOUS
10
-49.645115
20
377.276380
30
0.0
11
-47.567025
21
376.921010
31
0.0
0
LINE
8
0
6
CONTINUOUS
10
-50.316235
20
378.958970
30
0.0
11
-49.645115
21
377.276380
31
0.0
0
LINE
8
0
6
CONTINUOUS
10
-48.909265
20
380.286330
30
0.0
11
-50.316235
21
378.958970
31
0.0
0
LINE
8
0
6
CONTINUOUS
10
-46.160065
20
378.248370
30
0.0
11
-46.160069
21
379.163003
31
0.0
0
LINE
8
0
6
CONTINUOUS
10
-46.831205
20
379.931110
30
0.0
11
-46.160065
21
378.248370
31
0.0
0
LINE
8
0
6
CONTINUOUS
10
-46.831209
20
380.984178
30
0.0
11
-46.831205
21
379.931110
31
0.0
0
LINE
8
0
6
CONTINUOUS
10
-58.186515
20
385.190050
30
0.0
11
-56.067125
21
385.260700
31
0.0
0
LINE
8
0
6
CONTINUOUS
10
-58.186515
20
385.190050
30
0.0
11
-58.186519
21
386.135321
31
0.0
0
LINE
8
0
6
CONTINUOUS
10
-59.173145
20
383.619920
30
0.0
11
-58.186515
21
385.190050
31
0.0
0
LINE
8
0
6
CONTINUOUS
10
-59.173148
20
384.295446
30
0.0
11
-59.173145
21
383.619920
31
0.0
0
LINE
8
0
6
CONTINUOUS
10
-56.067125
20
385.260700
30
0.0
11
-58.186515
21
385.190050
31
0.0
0
LINE
8
0
6
CONTINUOUS
10
-54.934385
20
383.761060
30
0.0
11
-56.067125
21
385.260700
31
0.0
0
LINE
8
0
6
CONTINUOUS
10
-55.921015
20
382.190780
30
0.0
11
-54.934385
21
383.761060
31
0.0
0
LINE
8
0
6
CONTINUOUS
10
-58.040405
20
382.120280
30
0.0
11
-55.921015
21
382.190780
31
0.0
0
LINE
8
0
6
CONTINUOUS
10
-59.173145
20
383.619920
30
0.0
11
-58.040405
21
382.120280
31
0.0
0
LINE
8
0
6
CONTINUOUS
10
-58.186515
20
385.190050
30
0.0
11
-59.173145
21
383.619920
31
0.0
0
LINE
8
0
6
CONTINUOUS
10
-54.934385
20
383.761060
30
0.0
11
-54.934393
21
384.693128
31
0.0
0
LINE
8
0
6
CONTINUOUS
10
-56.067125
20
385.260700
30
0.0
11
-54.934385
21
383.761060
31
0.0
0
LINE
8
0
6
CONTINUOUS
10
-56.067129
20
386.332763
30
0.0
11
-56.067125
21
385.260700
31
0.0
0
LINE
8
0
6
CONTINUOUS
10
-68.631405
20
388.127210
30
0.0
11
-66.594695
21
388.622510
31
0.0
0
LINE
8
0
6
CONTINUOUS
10
-68.631405
20
388.127210
30
0.0
11
-68.631407
21
389.084011
31
0.0
0
LINE
8
0
6
CONTINUOUS
10
-69.136825
20
386.404650
30
0.0
11
-68.631405
21
388.127210
31
0.0
0
LINE
8
0
6
CONTINUOUS
10
-69.136831
20
387.090222
30
0.0
11
-69.136825
21
386.404650
31
0.0
0
LINE
8
0
6
CONTINUOUS
10
-66.594695
20
388.622510
30
0.0
11
-68.631405
21
388.127210
31
0.0
0
LINE
8
0
6
CONTINUOUS
10
-65.063435
20
387.395100
30
0.0
11
-66.594695
21
388.622510
31
0.0
0
LINE
8
0
6
CONTINUOUS
10
-65.568885
20
385.672530
30
0.0
11
-65.063435
21
387.395100
31
0.0
0
LINE
8
0
6
CONTINUOUS
10
-67.605575
20
385.177230
30
0.0
11
-65.568885
21
385.672530
31
0.0
0
LINE
8
0
6
CONTINUOUS
10
-69.136825
20
386.404650
30
0.0
11
-67.605575
21
385.177230
31
0.0
0
LINE
8
0
6
CONTINUOUS
10
-68.631405
20
388.127210
30
0.0
11
-69.136825
21
386.404650
31
0.0
0
LINE
8
0
6
CONTINUOUS
10
-65.063435
20
387.395100
30
0.0
11
-65.063443
21
388.346420
31
0.0
0
LINE
8
0
6
CONTINUOUS
10
-66.594695
20
388.622510
30
0.0
11
-65.063435
21
387.395100
31
0.0
0
LINE
8
0
6
CONTINUOUS
10
-66.594704
20
389.700766
30
0.0
11
-66.594695
21
388.622510
31
0.0
0
LINE
8
0
6
CONTINUOUS
10
-79.568975
20
380.475690
30
0.0
11
-77.732085
21
381.362530
31
0.0
0
LINE
8
0
6
CONTINUOUS
10
-79.568975
20
381.268338
30
0.0
11
-79.568975
21
380.475690
31
0.0
0
LINE
8
0
6
CONTINUOUS
10
-77.732085
20
381.362530
30
0.0
11
-79.568975
21
380.475690
31
0.0
0
LINE
8
0
6
CONTINUOUS
10
-75.895195
20
380.475690
30
0.0
11
-77.732085
21
381.362530
31
0.0
0
LINE
8
0
6
CONTINUOUS
10
-75.895175
20
378.702010
30
0.0
11
-75.895195
21
380.475690
31
0.0
0
LINE
8
0
6
CONTINUOUS
10
-77.732085
20
377.815020
30
0.0
11
-75.895175
21
378.702010
31
0.0
0
LINE
8
0
6
CONTINUOUS
10
-79.568975
20
378.702010
30
0.0
11
-77.732085
21
377.815020
31
0.0
0
LINE
8
0
6
CONTINUOUS
10
-79.568975
20
380.475690
30
0.0
11
-79.568975
21
378.702010
31
0.0
0
LINE
8
0
6
CONTINUOUS
10
-77.732085
20
381.362530
30
0.0
11
-75.895195
21
380.475690
31
0.0
0
LINE
8
0
6
CONTINUOUS
10
-77.732089
20
382.247351
30
0.0
11
-77.732085
21
381.362530
31
0.0
0
LINE
8
0
6
CONTINUOUS
10
-75.895195
20
380.475690
30
0.0
11
-75.895175
21
378.702010
31
0.0
0
LINE
8
0
6
CONTINUOUS
10
-75.895195
20
381.268327
30
0.0
11
-75.895195
21
380.475690
31
0.0
0
LINE
8
0
6
CONTINUOUS
10
-91.376495
20
369.236370
30
0.0
11
-90.182265
21
370.702290
31
0.0
0
LINE
8
0
6
CONTINUOUS
10
-91.376495
20
369.890772
30
0.0
11
-91.376495
21
369.236370
31
0.0
0
LINE
8
0
6
CONTINUOUS
10
-90.182265
20
370.702290
30
0.0
11
-91.376495
21
369.236370
31
0.0
0
LINE
8
0
6
CONTINUOUS
10
-88.067075
20
370.570300
30
0.0
11
-90.182265
21
370.702290
31
0.0
0
LINE
8
0
6
CONTINUOUS
10
-87.146125
20
368.972550
30
0.0
11
-88.067075
21
370.570300
31
0.0
0
LINE
8
0
6
CONTINUOUS
10
-88.340355
20
367.506640
30
0.0
11
-87.146125
21
368.972550
31
0.0
0
LINE
8
0
6
CONTINUOUS
10
-90.455555
20
367.638630
30
0.0
11
-88.340355
21
367.506640
31
0.0
0
LINE
8
0
6
CONTINUOUS
10
-91.376495
20
369.236370
30
0.0
11
-90.455555
21
367.638630
31
0.0
0
LINE
8
0
6
CONTINUOUS
10
-90.182265
20
370.702290
30
0.0
11
-88.067075
21
370.570300
31
0.0
0
LINE
8
0
6
CONTINUOUS
10
-90.182265
20
371.451974
30
0.0
11
-90.182265
21
370.702290
31
0.0
0
LINE
8
0
6
CONTINUOUS
10
-87.146125
20
368.972550
30
0.0
11
-87.146125
21
369.446651
31
0.0
0
LINE
8
0
6
CONTINUOUS
10
-88.067075
20
370.570300
30
0.0
11
-87.146125
21
368.972550
31
0.0
0
LINE
8
0
6
CONTINUOUS
10
-88.067078
20
371.231913
30
0.0
11
-88.067075
21
370.570300
31
0.0
0
LINE
8
0
6
CONTINUOUS
10
-100.505545
20
362.306900
30
0.0
11
-100.188365
21
364.060750
31
0.0
0
LINE
8
0
6
CONTINUOUS
10
-100.505545
20
362.952119
30
0.0
11
-100.505545
21
362.306900
31
0.0
0
LINE
8
0
6
CONTINUOUS
10
-100.188365
20
364.060750
30
0.0
11
-100.505545
21
362.306900
31
0.0
0
LINE
8
0
6
CONTINUOUS
10
-98.213535
20
364.707870
30
0.0
11
-100.188365
21
364.060750
31
0.0
0
LINE
8
0
6
CONTINUOUS
10
-96.555895
20
363.601300
30
0.0
11
-98.213535
21
364.707870
31
0.0
0
LINE
8
0
6
CONTINUOUS
10
-96.873075
20
361.847460
30
0.0
11
-96.555895
21
363.601300
31
0.0
0
LINE
8
0
6
CONTINUOUS
10
-98.847905
20
361.200330
30
0.0
11
-96.873075
21
361.847460
31
0.0
0
LINE
8
0
6
CONTINUOUS
10
-100.505545
20
362.306900
30
0.0
11
-98.847905
21
361.200330
31
0.0
0
LINE
8
0
6
CONTINUOUS
10
-100.188365
20
364.060750
30
0.0
11
-98.213535
21
364.707870
31
0.0
0
LINE
8
0
6
CONTINUOUS
10
-100.188362
20
364.795743
30
0.0
11
-100.188365
21
364.060750
31
0.0
0
LINE
8
0
6
CONTINUOUS
10
-96.555895
20
363.601300
30
0.0
11
-96.555894
21
364.067327
31
0.0
0
LINE
8
0
6
CONTINUOUS
10
-98.213535
20
364.707870
30
0.0
11
-96.555895
21
363.601300
31
0.0
0
LINE
8
0
6
CONTINUOUS
10
-98.213532
20
365.359852
30
0.0
11
-98.213535
21
364.707870
31
0.0
0
LINE
8
0
6
CONTINUOUS
10
-101.578885
20
353.640060
30
0.0
11
-101.578882
21
353.988772
31
0.0
0
LINE
8
0
6
CONTINUOUS
10
-102.206365
20
355.334400
30
0.0
11
-101.578885
21
353.640060
31
0.0
0
LINE
8
0
6
CONTINUOUS
10
-105.715715
20
354.425580
30
0.0
11
-105.088215
21
352.731250
31
0.0
0
LINE
8
0
6
CONTINUOUS
10
-104.274765
20
355.727160
30
0.0
11
-105.715715
21
354.425580
31
0.0
0
LINE
8
0
6
CONTINUOUS
10
-102.206365
20
355.334400
30
0.0
11
-104.274765
21
355.727160
31
0.0
0
LINE
8
0
6
CONTINUOUS
10
-101.578885
20
353.640060
30
0.0
11
-102.206365
21
355.334400
31
0.0
0
LINE
8
0
6
CONTINUOUS
10
-103.019805
20
352.338490
30
0.0
11
-101.578885
21
353.640060
31
0.0
0
LINE
8
0
6
CONTINUOUS
10
-105.088215
20
352.731250
30
0.0
11
-103.019805
21
352.338490
31
0.0
0
LINE
8
0
6
CONTINUOUS
10
-105.715715
20
354.425580
30
0.0
11
-104.274765
21
355.727160
31
0.0
0
LINE
8
0
6
CONTINUOUS
10
-105.715709
20
355.143245
30
0.0
11
-105.715715
21
354.425580
31
0.0
0
LINE
8
0
6
CONTINUOUS
10
-102.206365
20
355.334400
30
0.0
11
-102.206363
21
355.783807
31
0.0
0
LINE
8
0
6
CONTINUOUS
10
-104.274765
20
355.727160
30
0.0
11
-102.206365
21
355.334400
31
0.0
0
LINE
8
0
6
CONTINUOUS
10
-104.274762
20
356.359985
30
0.0
11
-104.274765
21
355.727160
31
0.0
0
LINE
8
0
6
CONTINUOUS
10
-101.578865
20
344.529950
30
0.0
11
-101.578864
21
344.864164
31
0.0
0
LINE
8
0
6
CONTINUOUS
10
-103.019805
20
345.831530
30
0.0
11
-101.578865
21
344.529950
31
0.0
0
LINE
8
0
6
CONTINUOUS
10
-105.715695
20
343.744430
30
0.0
11
-104.274765
21
342.442700
31
0.0
0
LINE
8
0
6
CONTINUOUS
10
-105.088215
20
345.438770
30
0.0
11
-105.715695
21
343.744430
31
0.0
0
LINE
8
0
6
CONTINUOUS
10
-103.019805
20
345.831530
30
0.0
11
-105.088215
21
345.438770
31
0.0
0
LINE
8
0
6
CONTINUOUS
10
-101.578865
20
344.529950
30
0.0
11
-103.019805
21
345.831530
31
0.0
0
LINE
8
0
6
CONTINUOUS
10
-102.206345
20
342.835460
30
0.0
11
-101.578865
21
344.529950
31
0.0
0
LINE
8
0
6
CONTINUOUS
10
-104.274765
20
342.442700
30
0.0
11
-102.206345
21
342.835460
31
0.0
0
LINE
8
0
6
CONTINUOUS
10
-105.715695
20
343.744430
30
0.0
11
-105.088215
21
345.438770
31
0.0
0
LINE
8
0
6
CONTINUOUS
10
-105.715692
20
344.447951
30
0.0
11
-105.715695
21
343.744430
31
0.0
0
LINE
8
0
6
CONTINUOUS
10
-103.019805
20
345.831530
30
0.0
11
-103.019803
21
346.266487
31
0.0
0
LINE
8
0
6
CONTINUOUS
10
-105.088215
20
345.438770
30
0.0
11
-103.019805
21
345.831530
31
0.0
0
LINE
8
0
6
CONTINUOUS
10
-105.088212
20
346.058386
30
0.0
11
-105.088215
21
345.438770
31
0.0
0
LINE
8
0
6
CONTINUOUS
10
-96.555865
20
334.567490
30
0.0
11
-96.555863
21
334.992454
31
0.0
0
LINE
8
0
6
CONTINUOUS
10
-96.873055
20
336.321330
30
0.0
11
-96.555865
21
334.567490
31
0.0
0
LINE
8
0
6
CONTINUOUS
10
-96.873055
20
336.321330
30
0.0
11
-96.873054
21
336.646564
31
0.0
0
LINE
8
0
6
CONTINUOUS
10
-98.847885
20
336.968460
30
0.0
11
-96.873055
21
336.321330
31
0.0
0
LINE
8
0
6
CONTINUOUS
10
-100.188335
20
334.108050
30
0.0
11
-98.213495
21
333.460920
31
0.0
0
LINE
8
0
6
CONTINUOUS
10
-100.505525
20
335.861890
30
0.0
11
-100.188335
21
334.108050
31
0.0
0
LINE
8
0
6
CONTINUOUS
10
-98.847885
20
336.968460
30
0.0
11
-100.505525
21
335.861890
31
0.0
0
LINE
8
0
6
CONTINUOUS
10
-96.873055
20
336.321330
30
0.0
11
-98.847885
21
336.968460
31
0.0
0
LINE
8
0
6
CONTINUOUS
10
-96.555865
20
334.567490
30
0.0
11
-96.873055
21
336.321330
31
0.0
0
LINE
8
0
6
CONTINUOUS
10
-98.213495
20
333.460920
30
0.0
11
-96.555865
21
334.567490
31
0.0
0
LINE
8
0
6
CONTINUOUS
10
-98.847885
20
336.968460
30
0.0
11
-98.847881
21
337.396677
31
0.0
0
LINE
8
0
6
CONTINUOUS
10
-100.505525
20
335.861890
30
0.0
11
-98.847885
21
336.968460
31
0.0
0
LINE
8
0
6
CONTINUOUS
10
-100.505522
20
336.474174
30
0.0
11
-100.505525
21
335.861890
31
0.0
0
LINE
8
0
6
CONTINUOUS
10
-87.146095
20
329.194870
30
0.0
11
-87.146093
21
329.584839
31
0.0
0
LINE
8
0
6
CONTINUOUS
10
-88.340335
20
330.660780
30
0.0
11
-87.146095
21
329.194870
31
0.0
0
LINE
8
0
6
CONTINUOUS
10
-88.340335
20
330.660780
30
0.0
11
-88.340333
21
330.976183
31
0.0
0
LINE
8
0
6
CONTINUOUS
10
-90.455515
20
330.528790
30
0.0
11
-88.340335
21
330.660780
31
0.0
0
LINE
8
0
6
CONTINUOUS
10
-90.182225
20
327.465130
30
0.0
11
-88.067035
21
327.597120
31
0.0
0
LINE
8
0
6
CONTINUOUS
10
-91.376455
20
328.931050
30
0.0
11
-90.182225
21
327.465130
31
0.0
0
LINE
8
0
6
CONTINUOUS
10
-90.455515
20
330.528790
30
0.0
11
-91.376455
21
328.931050
31
0.0
0
LINE
8
0
6
CONTINUOUS
10
-88.340335
20
330.660780
30
0.0
11
-90.455515
21
330.528790
31
0.0
0
LINE
8
0
6
CONTINUOUS
10
-87.146095
20
329.194870
30
0.0
11
-88.340335
21
330.660780
31
0.0
0
LINE
8
0
6
CONTINUOUS
10
-88.067035
20
327.597120
30
0.0
11
-87.146095
21
329.194870
31
0.0
0
LINE
8
0
6
CONTINUOUS
10
-90.455515
20
330.528790
30
0.0
11
-90.455512
21
330.944509
31
0.0
0
LINE
8
0
6
CONTINUOUS
10
-91.376455
20
328.931050
30
0.0
11
-90.455515
21
330.528790
31
0.0
0
LINE
8
0
6
CONTINUOUS
10
-91.376453
20
329.528353
30
0.0
11
-91.376455
21
328.931050
31
0.0
0
LINE
8
0
6
CONTINUOUS
10
-75.895135
20
327.610400
30
0.0
11
-75.895135
21
325.836560
31
0.0
0
LINE
8
0
6
CONTINUOUS
10
-75.895135
20
327.610400
30
0.0
11
-75.895134
21
327.968141
31
0.0
0
LINE
8
0
6
CONTINUOUS
10
-77.732025
20
328.497240
30
0.0
11
-75.895135
21
327.610400
31
0.0
0
LINE
8
0
6
CONTINUOUS
10
-77.732025
20
328.497240
30
0.0
11
-77.732024
21
328.778860
31
0.0
0
LINE
8
0
6
CONTINUOUS
10
-79.568915
20
327.610400
30
0.0
11
-77.742366
21
328.492248
31
0.0
0
LINE
8
0
6
CONTINUOUS
10
-79.568914
20
327.968150
30
0.0
11
-79.568915
21
327.610400
31
0.0
0
LINE
8
0
6
CONTINUOUS
10
-77.732025
20
324.949720
30
0.0
11
-75.895135
21
325.836560
31
0.0
0
LINE
8
0
6
CONTINUOUS
10
-79.568915
20
325.836560
30
0.0
11
-77.754840
21
324.960735
31
0.0
0
LINE
8
0
6
CONTINUOUS
10
-79.568915
20
327.610400
30
0.0
11
-79.568915
21
325.836560
31
0.0
0
LINE
8
0
6
CONTINUOUS
10
-77.732025
20
328.497240
30
0.0
11
-79.568915
21
327.610400
31
0.0
0
LINE
8
0
6
CONTINUOUS
10
-75.895135
20
327.610400
30
0.0
11
-77.721712
21
328.492261
31
0.0
0
LINE
8
0
6
CONTINUOUS
10
-75.895135
20
325.836560
30
0.0
11
-75.895135
21
327.610400
31
0.0
0
LINE
8
0
6
CONTINUOUS
10
-64.087595
20
328.930280
30
0.0
11
-64.087595
21
329.528348
31
0.0
0
LINE
8
0
6
CONTINUOUS
10
-65.008545
20
330.528180
30
0.0
11
-64.087595
21
328.930280
31
0.0
0
LINE
8
0
6
CONTINUOUS
10
-65.008545
20
330.528180
30
0.0
11
-65.008545
21
330.944597
31
0.0
0
LINE
8
0
6
CONTINUOUS
10
-67.123735
20
330.660020
30
0.0
11
-65.008545
21
330.528180
31
0.0
0
LINE
8
0
6
CONTINUOUS
10
-67.123735
20
330.660020
30
0.0
11
-67.123735
21
330.976182
31
0.0
0
LINE
8
0
6
CONTINUOUS
10
-68.317965
20
329.194110
30
0.0
11
-67.123735
21
330.660020
31
0.0
0
LINE
8
0
6
CONTINUOUS
10
-68.317965
20
329.584846
30
0.0
11
-68.317965
21
329.194110
31
0.0
0
LINE
8
0
6
CONTINUOUS
10
-65.281825
20
327.464370
30
0.0
11
-64.087595
21
328.930280
31
0.0
0
LINE
8
0
6
CONTINUOUS
10
-67.397005
20
327.596360
30
0.0
11
-65.281825
21
327.464370
31
0.0
0
LINE
8
0
6
CONTINUOUS
10
-68.317965
20
329.194110
30
0.0
11
-67.397005
21
327.596360
31
0.0
0
LINE
8
0
6
CONTINUOUS
10
-67.123735
20
330.660020
30
0.0
11
-68.317965
21
329.194110
31
0.0
0
LINE
8
0
6
CONTINUOUS
10
-65.008545
20
330.528180
30
0.0
11
-67.123735
21
330.660020
31
0.0
0
LINE
8
0
6
CONTINUOUS
10
-64.087595
20
328.930280
30
0.0
11
-65.008545
21
330.528180
31
0.0
0
LINE
8
0
6
CONTINUOUS
10
-54.958555
20
335.862500
30
0.0
11
-54.958558
21
336.474180
31
0.0
0
LINE
8
0
6
CONTINUOUS
10
-56.616195
20
336.969070
30
0.0
11
-54.958555
21
335.862500
31
0.0
0
LINE
8
0
6
CONTINUOUS
10
-56.616195
20
336.969070
30
0.0
11
-56.616196
21
337.396671
31
0.0
0
LINE
8
0
6
CONTINUOUS
10
-58.591045
20
336.321940
30
0.0
11
-56.616195
21
336.969070
31
0.0
0
LINE
8
0
6
CONTINUOUS
10
-58.591045
20
336.321940
30
0.0
11
-58.591045
21
336.646563
31
0.0
0
LINE
8
0
6
CONTINUOUS
10
-58.908195
20
334.568100
30
0.0
11
-58.591045
21
336.321940
31
0.0
0
LINE
8
0
6
CONTINUOUS
10
-58.908197
20
334.992454
30
0.0
11
-58.908195
21
334.568100
31
0.0
0
LINE
8
0
6
CONTINUOUS
10
-55.275725
20
334.108810
30
0.0
11
-54.958555
21
335.862500
31
0.0
0
LINE
8
0
6
CONTINUOUS
10
-57.250555
20
333.461530
30
0.0
11
-55.275725
21
334.108810
31
0.0
0
LINE
8
0
6
CONTINUOUS
10
-58.908195
20
334.568100
30
0.0
11
-57.250555
21
333.461530
31
0.0
0
LINE
8
0
6
CONTINUOUS
10
-58.591045
20
336.321940
30
0.0
11
-58.908195
21
334.568100
31
0.0
0
LINE
8
0
6
CONTINUOUS
10
-56.616195
20
336.969070
30
0.0
11
-58.591045
21
336.321940
31
0.0
0
LINE
8
0
6
CONTINUOUS
10
-54.958555
20
335.862500
30
0.0
11
-56.616195
21
336.969070
31
0.0
0
LINE
8
0
6
CONTINUOUS
10
-49.748405
20
343.744740
30
0.0
11
-49.748406
21
344.448006
31
0.0
0
LINE
8
0
6
CONTINUOUS
10
-50.375895
20
345.439070
30
0.0
11
-49.748405
21
343.744740
31
0.0
0
LINE
8
0
6
CONTINUOUS
10
-50.375895
20
345.439070
30
0.0
11
-50.375898
21
346.058415
31
0.0
0
LINE
8
0
6
CONTINUOUS
10
-52.444305
20
345.831830
30
0.0
11
-50.375895
21
345.439070
31
0.0
0
LINE
8
0
6
CONTINUOUS
10
-52.444305
20
345.831830
30
0.0
11
-52.444307
21
346.266525
31
0.0
0
LINE
8
0
6
CONTINUOUS
10
-53.885225
20
344.530110
30
0.0
11
-52.444305
21
345.831830
31
0.0
0
LINE
8
0
6
CONTINUOUS
10
-53.885228
20
344.864122
30
0.0
11
-53.885225
21
344.530110
31
0.0
0
LINE
8
0
6
CONTINUOUS
10
-49.748405
20
343.744740
30
0.0
11
-50.375895
21
345.439070
31
0.0
0
LINE
8
0
6
CONTINUOUS
10
-51.189345
20
342.443010
30
0.0
11
-49.748405
21
343.744740
31
0.0
0
LINE
8
0
6
CONTINUOUS
10
-53.257755
20
342.835770
30
0.0
11
-51.189345
21
342.443010
31
0.0
0
LINE
8
0
6
CONTINUOUS
10
-53.885225
20
344.530110
30
0.0
11
-53.257755
21
342.835770
31
0.0
0
LINE
8
0
6
CONTINUOUS
10
-52.444305
20
345.831830
30
0.0
11
-53.885225
21
344.530110
31
0.0
0
LINE
8
0
6
CONTINUOUS
10
-50.375895
20
345.439070
30
0.0
11
-52.444305
21
345.831830
31
0.0
0
LINE
8
0
6
CONTINUOUS
10
-49.748415
20
354.425580
30
0.0
11
-49.748421
21
355.143384
31
0.0
0
LINE
8
0
6
CONTINUOUS
10
-51.189345
20
355.727160
30
0.0
11
-49.748415
21
354.425580
31
0.0
0
LINE
8
0
6
CONTINUOUS
10
-51.189345
20
355.727160
30
0.0
11
-51.189350
21
356.360104
31
0.0
0
LINE
8
0
6
CONTINUOUS
10
-53.257755
20
355.334400
30
0.0
11
-51.189345
21
355.727160
31
0.0
0
LINE
8
0
6
CONTINUOUS
10
-53.257755
20
355.334400
30
0.0
11
-53.257758
21
355.783935
31
0.0
0
LINE
8
0
6
CONTINUOUS
10
-53.885225
20
353.640060
30
0.0
11
-53.257755
21
355.334400
31
0.0
0
LINE
8
0
6
CONTINUOUS
10
-53.885228
20
353.988893
30
0.0
11
-53.885225
21
353.640060
31
0.0
0
LINE
8
0
6
CONTINUOUS
10
-49.748415
20
354.425580
30
0.0
11
-51.189345
21
355.727160
31
0.0
0
LINE
8
0
6
CONTINUOUS
10
-50.375895
20
352.731090
30
0.0
11
-49.748415
21
354.425580
31
0.0
0
LINE
8
0
6
CONTINUOUS
10
-52.444305
20
352.338330
30
0.0
11
-50.375895
21
352.731090
31
0.0
0
LINE
8
0
6
CONTINUOUS
10
-53.885225
20
353.640060
30
0.0
11
-52.444305
21
352.338330
31
0.0
0
LINE
8
0
6
CONTINUOUS
10
-53.257755
20
355.334400
30
0.0
11
-53.885225
21
353.640060
31
0.0
0
LINE
8
0
6
CONTINUOUS
10
-51.189345
20
355.727160
30
0.0
11
-53.257755
21
355.334400
31
0.0
0
LINE
8
0
6
CONTINUOUS
10
-57.250595
20
364.707260
30
0.0
11
-55.275785
21
364.059980
31
0.0
0
LINE
8
0
6
CONTINUOUS
10
-57.250595
20
364.707260
30
0.0
11
-57.250600
21
365.359927
31
0.0
0
LINE
8
0
6
CONTINUOUS
10
-58.908235
20
363.600690
30
0.0
11
-57.250595
21
364.707260
31
0.0
0
LINE
8
0
6
CONTINUOUS
10
-58.908239
20
364.067399
30
0.0
11
-58.908235
21
363.600690
31
0.0
0
LINE
8
0
6
CONTINUOUS
10
-55.275785
20
364.059980
30
0.0
11
-57.250595
21
364.707260
31
0.0
0
LINE
8
0
6
CONTINUOUS
10
-54.958575
20
362.306290
30
0.0
11
-55.275785
21
364.059980
31
0.0
0
LINE
8
0
6
CONTINUOUS
10
-56.616205
20
361.199570
30
0.0
11
-54.958575
21
362.306290
31
0.0
0
LINE
8
0
6
CONTINUOUS
10
-58.591045
20
361.846850
30
0.0
11
-56.616205
21
361.199570
31
0.0
0
LINE
8
0
6
CONTINUOUS
10
-58.908235
20
363.600690
30
0.0
11
-58.591045
21
361.846850
31
0.0
0
LINE
8
0
6
CONTINUOUS
10
-57.250595
20
364.707260
30
0.0
11
-58.908235
21
363.600690
31
0.0
0
LINE
8
0
6
CONTINUOUS
10
-54.958575
20
362.306290
30
0.0
11
-54.958579
21
362.952181
31
0.0
0
LINE
8
0
6
CONTINUOUS
10
-55.275785
20
364.059980
30
0.0
11
-54.958575
21
362.306290
31
0.0
0
LINE
8
0
6
CONTINUOUS
10
-55.275788
20
364.795722
30
0.0
11
-55.275785
21
364.059980
31
0.0
0
LINE
8
0
6
CONTINUOUS
10
-67.397075
20
370.571060
30
0.0
11
-65.281885
21
370.702900
31
0.0
0
LINE
8
0
6
CONTINUOUS
10
-67.397075
20
370.571060
30
0.0
11
-67.397078
21
371.231973
31
0.0
0
LINE
8
0
6
CONTINUOUS
10
-68.318025
20
368.973160
30
0.0
11
-67.397075
21
370.571060
31
0.0
0
LINE
8
0
6
CONTINUOUS
10
-68.318029
20
369.446630
30
0.0
11
-68.318025
21
368.973160
31
0.0
0
LINE
8
0
6
CONTINUOUS
10
-65.281885
20
370.702900
30
0.0
11
-67.397075
21
370.571060
31
0.0
0
LINE
8
0
6
CONTINUOUS
10
-64.087655
20
369.237140
30
0.0
11
-65.281885
21
370.702900
31
0.0
0
LINE
8
0
6
CONTINUOUS
10
-65.008605
20
367.639240
30
0.0
11
-64.087655
21
369.237140
31
0.0
0
LINE
8
0
6
CONTINUOUS
10
-67.123795
20
367.507250
30
0.0
11
-65.008605
21
367.639240
31
0.0
0
LINE
8
0
6
CONTINUOUS
10
-68.318025
20
368.973160
30
0.0
11
-67.123795
21
367.507250
31
0.0
0
LINE
8
0
6
CONTINUOUS
10
-67.397075
20
370.571060
30
0.0
11
-68.318025
21
368.973160
31
0.0
0
LINE
8
0
6
CONTINUOUS
10
-64.087655
20
369.237140
30
0.0
11
-64.087658
21
369.890845
31
0.0
0
LINE
8
0
6
CONTINUOUS
10
-65.281885
20
370.702900
30
0.0
11
-64.087655
21
369.237140
31
0.0
0
LINE
8
0
6
CONTINUOUS
10
-65.281888
20
371.451946
30
0.0
11
-65.281885
21
370.702900
31
0.0
0
LINE
8
0
6
CONTINUOUS
10
-90.779095
20
378.461230
30
0.0
11
-89.358975
21
379.778670
31
0.0
0
LINE
8
0
6
CONTINUOUS
10
-90.779095
20
379.232152
30
0.0
11
-90.779095
21
378.461230
31
0.0
0
LINE
8
0
6
CONTINUOUS
10
-89.358975
20
379.778670
30
0.0
11
-90.779095
21
378.461230
31
0.0
0
LINE
8
0
6
CONTINUOUS
10
-87.284505
20
379.408950
30
0.0
11
-89.358975
21
379.778670
31
0.0
0
LINE
8
0
6
CONTINUOUS
10
-86.630155
20
377.721790
30
0.0
11
-87.284505
21
379.408950
31
0.0
0
LINE
8
0
6
CONTINUOUS
10
-88.050265
20
376.404190
30
0.0
11
-86.630155
21
377.721790
31
0.0
0
LINE
8
0
6
CONTINUOUS
10
-90.124735
20
376.773910
30
0.0
11
-88.050265
21
376.404190
31
0.0
0
LINE
8
0
6
CONTINUOUS
10
-90.779095
20
378.461230
30
0.0
11
-90.124735
21
376.773910
31
0.0
0
LINE
8
0
6
CONTINUOUS
10
-89.358975
20
379.778670
30
0.0
11
-87.284505
21
379.408950
31
0.0
0
LINE
8
0
6
CONTINUOUS
10
-89.358975
20
380.653980
30
0.0
11
-89.358975
21
379.778670
31
0.0
0
LINE
8
0
6
CONTINUOUS
10
-86.630155
20
377.721790
30
0.0
11
-86.630155
21
378.281683
31
0.0
0
LINE
8
0
6
CONTINUOUS
10
-87.284505
20
379.408950
30
0.0
11
-86.630155
21
377.721790
31
0.0
0
LINE
8
0
6
CONTINUOUS
10
-87.284505
20
380.178585
30
0.0
11
-87.284505
21
379.408950
31
0.0
0
LINE
8
0
6
CONTINUOUS
10
-100.737035
20
373.693470
30
0.0
11
-99.875505
21
375.314250
31
0.0
0
LINE
8
0
6
CONTINUOUS
10
-100.737032
20
374.453264
30
0.0
11
-100.737035
21
373.693470
31
0.0
0
LINE
8
0
6
CONTINUOUS
10
-99.875505
20
375.314250
30
0.0
11
-100.737035
21
373.693470
31
0.0
0
LINE
8
0
6
CONTINUOUS
10
-97.766185
20
375.500720
30
0.0
11
-99.875505
21
375.314250
31
0.0
0
LINE
8
0
6
CONTINUOUS
10
-96.518425
20
374.066390
30
0.0
11
-97.766185
21
375.500720
31
0.0
0
LINE
8
0
6
CONTINUOUS
10
-97.379955
20
372.445600
30
0.0
11
-96.518425
21
374.066390
31
0.0
0
LINE
8
0
6
CONTINUOUS
10
-99.489245
20
372.259140
30
0.0
11
-97.379955
21
372.445600
31
0.0
0
LINE
8
0
6
CONTINUOUS
10
-100.737035
20
373.693470
30
0.0
11
-99.489245
21
372.259140
31
0.0
0
LINE
8
0
6
CONTINUOUS
10
-99.875505
20
375.314250
30
0.0
11
-97.766185
21
375.500720
31
0.0
0
LINE
8
0
6
CONTINUOUS
10
-99.875501
20
376.174269
30
0.0
11
-99.875505
21
375.314250
31
0.0
0
LINE
8
0
6
CONTINUOUS
10
-96.518425
20
374.066390
30
0.0
11
-96.518425
21
374.621628
31
0.0
0
LINE
8
0
6
CONTINUOUS
10
-97.766185
20
375.500720
30
0.0
11
-96.518425
21
374.066390
31
0.0
0
LINE
8
0
6
CONTINUOUS
10
-97.766185
20
376.265426
30
0.0
11
-97.766185
21
375.500720
31
0.0
0
LINE
8
0
6
CONTINUOUS
10
-108.420105
20
366.591420
30
0.0
11
-108.197115
21
368.355180
31
0.0
0
LINE
8
0
6
CONTINUOUS
10
-108.420105
20
367.340147
30
0.0
11
-108.420105
21
366.591420
31
0.0
0
LINE
8
0
6
CONTINUOUS
10
-108.197115
20
368.355180
30
0.0
11
-108.420105
21
366.591420
31
0.0
0
LINE
8
0
6
CONTINUOUS
10
-106.258905
20
369.075700
30
0.0
11
-108.197115
21
368.355180
31
0.0
0
LINE
8
0
6
CONTINUOUS
10
-104.543685
20
368.032300
30
0.0
11
-106.258905
21
369.075700
31
0.0
0
LINE
8
0
6
CONTINUOUS
10
-104.766695
20
366.268390
30
0.0
11
-104.543685
21
368.032300
31
0.0
0
LINE
8
0
6
CONTINUOUS
10
-106.704905
20
365.547870
30
0.0
11
-104.766695
21
366.268390
31
0.0
0
LINE
8
0
6
CONTINUOUS
10
-108.420105
20
366.591420
30
0.0
11
-106.704905
21
365.547870
31
0.0
0
LINE
8
0
6
CONTINUOUS
10
-108.197115
20
368.355180
30
0.0
11
-106.258905
21
369.075700
31
0.0
0
LINE
8
0
6
CONTINUOUS
10
-108.197112
20
369.202423
30
0.0
11
-108.197115
21
368.355180
31
0.0
0
LINE
8
0
6
CONTINUOUS
10
-104.543685
20
368.032300
30
0.0
11
-104.543685
21
368.574175
31
0.0
0
LINE
8
0
6
CONTINUOUS
10
-106.258905
20
369.075700
30
0.0
11
-104.543685
21
368.032300
31
0.0
0
LINE
8
0
6
CONTINUOUS
10
-106.258902
20
369.825504
30
0.0
11
-106.258905
21
369.075700
31
0.0
0
LINE
8
0
6
CONTINUOUS
10
-109.500065
20
358.465960
30
0.0
11
-109.500063
21
358.884348
31
0.0
0
LINE
8
0
6
CONTINUOUS
10
-109.942165
20
360.200730
30
0.0
11
-109.500065
21
358.465960
31
0.0
0
LINE
8
0
6
CONTINUOUS
10
-113.535265
20
359.560320
30
0.0
11
-113.093145
21
357.825550
31
0.0
0
LINE
8
0
6
CONTINUOUS
10
-111.959785
20
360.747910
30
0.0
11
-113.535265
21
359.560320
31
0.0
0
LINE
8
0
6
CONTINUOUS
10
-109.942165
20
360.200730
30
0.0
11
-111.959785
21
360.747910
31
0.0
0
LINE
8
0
6
CONTINUOUS
10
-109.500065
20
358.465960
30
0.0
11
-109.942165
21
360.200730
31
0.0
0
LINE
8
0
6
CONTINUOUS
10
-111.075555
20
357.278370
30
0.0
11
-109.500065
21
358.465960
31
0.0
0
LINE
8
0
6
CONTINUOUS
10
-113.093145
20
357.825550
30
0.0
11
-111.075555
21
357.278370
31
0.0
0
LINE
8
0
6
CONTINUOUS
10
-113.535265
20
359.560320
30
0.0
11
-111.959785
21
360.747910
31
0.0
0
LINE
8
0
6
CONTINUOUS
10
-113.535263
20
360.394394
30
0.0
11
-113.535265
21
359.560320
31
0.0
0
LINE
8
0
6
CONTINUOUS
10
-109.942165
20
360.200730
30
0.0
11
-109.942165
21
360.728688
31
0.0
0
LINE
8
0
6
CONTINUOUS
10
-111.959785
20
360.747910
30
0.0
11
-109.942165
21
360.200730
31
0.0
0
LINE
8
0
6
CONTINUOUS
10
-111.959782
20
361.483702
30
0.0
11
-111.959785
21
360.747910
31
0.0
0
LINE
8
0
6
CONTINUOUS
10
-111.194395
20
349.832690
30
0.0
11
-111.194392
21
350.268475
31
0.0
0
LINE
8
0
6
CONTINUOUS
10
-112.254925
20
351.368790
30
0.0
11
-111.194395
21
349.832690
31
0.0
0
LINE
8
0
6
CONTINUOUS
10
-115.436515
20
349.832690
30
0.0
11
-114.375995
21
348.296580
31
0.0
0
LINE
8
0
6
CONTINUOUS
10
-114.375995
20
351.368790
30
0.0
11
-115.436515
21
349.832690
31
0.0
0
LINE
8
0
6
CONTINUOUS
10
-112.254925
20
351.368790
30
0.0
11
-114.375995
21
351.368790
31
0.0
0
LINE
8
0
6
CONTINUOUS
10
-111.194395
20
349.832690
30
0.0
11
-112.254925
21
351.368790
31
0.0
0
LINE
8
0
6
CONTINUOUS
10
-112.254925
20
348.296580
30
0.0
11
-111.194395
21
349.832690
31
0.0
0
LINE
8
0
6
CONTINUOUS
10
-114.375995
20
348.296580
30
0.0
11
-112.254925
21
348.296580
31
0.0
0
LINE
8
0
6
CONTINUOUS
10
-115.436515
20
349.832690
30
0.0
11
-114.375995
21
351.368790
31
0.0
0
LINE
8
0
6
CONTINUOUS
10
-115.436515
20
350.705692
30
0.0
11
-115.436515
21
349.832690
31
0.0
0
LINE
8
0
6
CONTINUOUS
10
-112.254925
20
351.368790
30
0.0
11
-112.254923
21
351.925159
31
0.0
0
LINE
8
0
6
CONTINUOUS
10
-114.375995
20
351.368790
30
0.0
11
-112.254925
21
351.368790
31
0.0
0
LINE
8
0
6
CONTINUOUS
10
-114.375992
20
352.134869
30
0.0
11
-114.375995
21
351.368790
31
0.0
0
LINE
8
0
6
CONTINUOUS
10
-109.500045
20
341.210100
30
0.0
11
-109.500043
21
341.605283
31
0.0
0
LINE
8
0
6
CONTINUOUS
10
-111.075555
20
342.397690
30
0.0
11
-109.500045
21
341.210100
31
0.0
0
LINE
8
0
6
CONTINUOUS
10
-113.535255
20
340.115740
30
0.0
11
-111.959765
21
338.928150
31
0.0
0
LINE
8
0
6
CONTINUOUS
10
-113.093145
20
341.850510
30
0.0
11
-113.535255
21
340.115740
31
0.0
0
LINE
8
0
6
CONTINUOUS
10
-111.075555
20
342.397690
30
0.0
11
-113.093145
21
341.850510
31
0.0
0
LINE
8
0
6
CONTINUOUS
10
-109.500045
20
341.210100
30
0.0
11
-111.075555
21
342.397690
31
0.0
0
LINE
8
0
6
CONTINUOUS
10
-109.942165
20
339.475330
30
0.0
11
-109.500045
21
341.210100
31
0.0
0
LINE
8
0
6
CONTINUOUS
10
-111.959765
20
338.928150
30
0.0
11
-109.942165
21
339.475330
31
0.0
0
LINE
8
0
6
CONTINUOUS
10
-113.535255
20
340.115740
30
0.0
11
-113.093145
21
341.850510
31
0.0
0
LINE
8
0
6
CONTINUOUS
10
-113.535248
20
340.924105
30
0.0
11
-113.535255
21
340.115740
31
0.0
0
LINE
8
0
6
CONTINUOUS
10
-111.075555
20
342.397690
30
0.0
11
-111.075551
21
342.894883
31
0.0
0
LINE
8
0
6
CONTINUOUS
10
-113.093145
20
341.850510
30
0.0
11
-111.075555
21
342.397690
31
0.0
0
LINE
8
0
6
CONTINUOUS
10
-113.093139
20
342.553751
30
0.0
11
-113.093145
21
341.850510
31
0.0
0
LINE
8
0
6
CONTINUOUS
10
-104.543665
20
331.643140
30
0.0
11
-104.543661
21
332.137817
31
0.0
0
LINE
8
0
6
CONTINUOUS
10
-104.766655
20
333.407060
30
0.0
11
-104.543665
21
331.643140
31
0.0
0
LINE
8
0
6
CONTINUOUS
10
-104.766655
20
333.407060
30
0.0
11
-104.766653
21
333.794302
31
0.0
0
LINE
8
0
6
CONTINUOUS
10
-106.704865
20
334.127580
30
0.0
11
-104.766655
21
333.407060
31
0.0
0
LINE
8
0
6
CONTINUOUS
10
-108.197095
20
331.320110
30
0.0
11
-106.258865
21
330.599750
31
0.0
0
LINE
8
0
6
CONTINUOUS
10
-108.420085
20
333.084030
30
0.0
11
-108.197095
21
331.320110
31
0.0
0
LINE
8
0
6
CONTINUOUS
10
-106.704865
20
334.127580
30
0.0
11
-108.420085
21
333.084030
31
0.0
0
LINE
8
0
6
CONTINUOUS
10
-104.766655
20
333.407060
30
0.0
11
-106.704865
21
334.127580
31
0.0
0
LINE
8
0
6
CONTINUOUS
10
-104.543665
20
331.643140
30
0.0
11
-104.766655
21
333.407060
31
0.0
0
LINE
8
0
6
CONTINUOUS
10
-106.258865
20
330.599750
30
0.0
11
-104.543665
21
331.643140
31
0.0
0
LINE
8
0
6
CONTINUOUS
10
-106.704865
20
334.127580
30
0.0
11
-106.704863
21
334.627034
31
0.0
0
LINE
8
0
6
CONTINUOUS
10
-108.420085
20
333.084030
30
0.0
11
-106.704865
21
334.127580
31
0.0
0
LINE
8
0
6
CONTINUOUS
10
-108.420082
20
333.789775
30
0.0
11
-108.420085
21
333.084030
31
0.0
0
LINE
8
0
6
CONTINUOUS
10
-96.518365
20
325.608900
30
0.0
11
-96.518363
21
326.091397
31
0.0
0
LINE
8
0
6
CONTINUOUS
10
-97.379895
20
327.229690
30
0.0
11
-96.518365
21
325.608900
31
0.0
0
LINE
8
0
6
CONTINUOUS
10
-97.379895
20
327.229690
30
0.0
11
-97.379893
21
327.611557
31
0.0
0
LINE
8
0
6
CONTINUOUS
10
-99.489195
20
327.416150
30
0.0
11
-97.379895
21
327.229690
31
0.0
0
LINE
8
0
6
CONTINUOUS
10
-99.875445
20
324.360890
30
0.0
11
-97.766155
21
324.174420
31
0.0
0
LINE
8
0
6
CONTINUOUS
10
-100.736975
20
325.981830
30
0.0
11
-99.875445
21
324.360890
31
0.0
0
LINE
8
0
6
CONTINUOUS
10
-99.489195
20
327.416150
30
0.0
11
-100.736975
21
325.981830
31
0.0
0
LINE
8
0
6
CONTINUOUS
10
-97.379895
20
327.229690
30
0.0
11
-99.489195
21
327.416150
31
0.0
0
LINE
8
0
6
CONTINUOUS
10
-96.518365
20
325.608900
30
0.0
11
-97.379895
21
327.229690
31
0.0
0
LINE
8
0
6
CONTINUOUS
10
-97.766155
20
324.174420
30
0.0
11
-96.518365
21
325.608900
31
0.0
0
LINE
8
0
6
CONTINUOUS
10
-99.489195
20
327.416150
30
0.0
11
-99.489193
21
327.909770
31
0.0
0
LINE
8
0
6
CONTINUOUS
10
-100.736975
20
325.981830
30
0.0
11
-99.489195
21
327.416150
31
0.0
0
LINE
8
0
6
CONTINUOUS
10
-100.736971
20
326.679976
30
0.0
11
-100.736975
21
325.981830
31
0.0
0
LINE
8
0
6
CONTINUOUS
10
-86.630095
20
321.790700
30
0.0
11
-86.630093
21
321.999987
31
0.0
0
LINE
8
0
6
CONTINUOUS
10
-88.050215
20
323.108140
30
0.0
11
-86.630095
21
321.790700
31
0.0
0
LINE
8
0
6
CONTINUOUS
10
-88.050215
20
323.108140
30
0.0
11
-88.050214
21
323.356599
31
0.0
0
LINE
8
0
6
CONTINUOUS
10
-90.124685
20
322.738420
30
0.0
11
-88.050215
21
323.108140
31
0.0
0
LINE
8
0
6
CONTINUOUS
10
-89.358925
20
319.733660
30
0.0
11
-87.284435
21
320.103380
31
0.0
0
LINE
8
0
6
CONTINUOUS
10
-90.779035
20
321.051250
30
0.0
11
-89.358925
21
319.733660
31
0.0
0
LINE
8
0
6
CONTINUOUS
10
-90.124685
20
322.738420
30
0.0
11
-90.779035
21
321.051250
31
0.0
0
LINE
8
0
6
CONTINUOUS
10
-88.050215
20
323.108140
30
0.0
11
-90.124685
21
322.738420
31
0.0
0
LINE
8
0
6
CONTINUOUS
10
-86.630095
20
321.790700
30
0.0
11
-88.050215
21
323.108140
31
0.0
0
LINE
8
0
6
CONTINUOUS
10
-87.284435
20
320.103380
30
0.0
11
-86.630095
21
321.790700
31
0.0
0
LINE
8
0
6
CONTINUOUS
10
-90.124685
20
322.738420
30
0.0
11
-90.124683
21
323.152353
31
0.0
0
LINE
8
0
6
CONTINUOUS
10
-90.779035
20
321.051250
30
0.0
11
-90.124685
21
322.738420
31
0.0
0
LINE
8
0
6
CONTINUOUS
10
-90.779031
20
321.612525
30
0.0
11
-90.779035
21
321.051250
31
0.0
0
LINE
8
0
6
CONTINUOUS
10
-75.895115
20
320.373310
30
0.0
11
-75.895115
21
320.751013
31
0.0
0
LINE
8
0
6
CONTINUOUS
10
-77.732005
20
321.260150
30
0.0
11
-75.895115
21
320.373310
31
0.0
0
LINE
8
0
6
CONTINUOUS
10
-77.732005
20
321.260150
30
0.0
11
-77.732005
21
321.659530
31
0.0
0
LINE
8
0
6
CONTINUOUS
10
-79.568905
20
320.373310
30
0.0
11
-77.732005
21
321.260150
31
0.0
0
LINE
8
0
6
CONTINUOUS
10
-79.568905
20
320.751014
30
0.0
11
-79.568905
21
320.373310
31
0.0
0
LINE
8
0
6
CONTINUOUS
10
-77.732005
20
317.712630
30
0.0
11
-75.895115
21
318.599470
31
0.0
0
LINE
8
0
6
CONTINUOUS
10
-79.568905
20
318.599470
30
0.0
11
-77.732005
21
317.712630
31
0.0
0
LINE
8
0
6
CONTINUOUS
10
-79.568905
20
320.373310
30
0.0
11
-79.568905
21
318.599470
31
0.0
0
LINE
8
0
6
CONTINUOUS
10
-77.732005
20
321.260150
30
0.0
11
-79.568905
21
320.373310
31
0.0
0
LINE
8
0
6
CONTINUOUS
10
-75.895115
20
320.373310
30
0.0
11
-77.732005
21
321.260150
31
0.0
0
LINE
8
0
6
CONTINUOUS
10
-75.895115
20
318.599470
30
0.0
11
-75.895115
21
320.373310
31
0.0
0
LINE
8
0
6
CONTINUOUS
10
-64.684985
20
321.052630
30
0.0
11
-64.684985
21
321.612526
31
0.0
0
LINE
8
0
6
CONTINUOUS
10
-65.339355
20
322.739790
30
0.0
11
-64.684985
21
321.052630
31
0.0
0
LINE
8
0
6
CONTINUOUS
10
-65.339355
20
322.739790
30
0.0
11
-65.339355
21
323.152344
31
0.0
0
LINE
8
0
6
CONTINUOUS
10
-67.413825
20
323.109510
30
0.0
11
-65.339355
21
322.739790
31
0.0
0
LINE
8
0
6
CONTINUOUS
10
-67.413825
20
323.109510
30
0.0
11
-67.413825
21
323.356587
31
0.0
0
LINE
8
0
6
CONTINUOUS
10
-68.833925
20
321.792070
30
0.0
11
-67.413825
21
323.109510
31
0.0
0
LINE
8
0
6
CONTINUOUS
10
-68.833925
20
321.999972
30
0.0
11
-68.833925
21
321.792070
31
0.0
0
LINE
8
0
6
CONTINUOUS
10
-66.105095
20
319.735180
30
0.0
11
-64.684985
21
321.052630
31
0.0
0
LINE
8
0
6
CONTINUOUS
10
-68.179565
20
320.104750
30
0.0
11
-66.105095
21
319.735180
31
0.0
0
LINE
8
0
6
CONTINUOUS
10
-68.833925
20
321.792070
30
0.0
11
-68.179565
21
320.104750
31
0.0
0
LINE
8
0
6
CONTINUOUS
10
-67.413825
20
323.109510
30
0.0
11
-68.833925
21
321.792070
31
0.0
0
LINE
8
0
6
CONTINUOUS
10
-65.339355
20
322.739790
30
0.0
11
-67.413825
21
323.109510
31
0.0
0
LINE
8
0
6
CONTINUOUS
10
-64.684985
20
321.052630
30
0.0
11
-65.339355
21
322.739790
31
0.0
0
LINE
8
0
6
CONTINUOUS
10
-54.727055
20
325.981980
30
0.0
11
-54.727055
21
326.679990
31
0.0
0
LINE
8
0
6
CONTINUOUS
10
-55.974845
20
327.416310
30
0.0
11
-54.727055
21
325.981980
31
0.0
0
LINE
8
0
6
CONTINUOUS
10
-55.974845
20
327.416310
30
0.0
11
-55.974845
21
327.909773
31
0.0
0
LINE
8
0
6
CONTINUOUS
10
-58.084145
20
327.229840
30
0.0
11
-55.974845
21
327.416310
31
0.0
0
LINE
8
0
6
CONTINUOUS
10
-58.084145
20
327.229840
30
0.0
11
-58.084145
21
327.611564
31
0.0
0
LINE
8
0
6
CONTINUOUS
10
-58.945655
20
325.609050
30
0.0
11
-58.084145
21
327.229840
31
0.0
0
LINE
8
0
6
CONTINUOUS
10
-58.945655
20
326.091403
30
0.0
11
-58.945655
21
325.609050
31
0.0
0
LINE
8
0
6
CONTINUOUS
10
-55.588565
20
324.361190
30
0.0
11
-54.727055
21
325.981980
31
0.0
0
LINE
8
0
6
CONTINUOUS
10
-57.697865
20
324.174730
30
0.0
11
-55.588565
21
324.361190
31
0.0
0
LINE
8
0
6
CONTINUOUS
10
-58.945655
20
325.609050
30
0.0
11
-57.697865
21
324.174730
31
0.0
0
LINE
8
0
6
CONTINUOUS
10
-58.084145
20
327.229840
30
0.0
11
-58.945655
21
325.609050
31
0.0
0
LINE
8
0
6
CONTINUOUS
10
-55.974845
20
327.416310
30
0.0
11
-58.084145
21
327.229840
31
0.0
0
LINE
8
0
6
CONTINUOUS
10
-54.727055
20
325.981980
30
0.0
11
-55.974845
21
327.416310
31
0.0
0
LINE
8
0
6
CONTINUOUS
10
-47.043995
20
333.084030
30
0.0
11
-47.043995
21
333.789816
31
0.0
0
LINE
8
0
6
CONTINUOUS
10
-48.759195
20
334.127580
30
0.0
11
-47.043995
21
333.084030
31
0.0
0
LINE
8
0
6
CONTINUOUS
10
-48.759195
20
334.127580
30
0.0
11
-48.759197
21
334.627082
31
0.0
0
LINE
8
0
6
CONTINUOUS
10
-50.697405
20
333.407060
30
0.0
11
-48.759195
21
334.127580
31
0.0
0
LINE
8
0
6
CONTINUOUS
10
-50.697405
20
333.407060
30
0.0
11
-50.697405
21
333.794315
31
0.0
0
LINE
8
0
6
CONTINUOUS
10
-50.920405
20
331.643140
30
0.0
11
-50.697405
21
333.407060
31
0.0
0
LINE
8
0
6
CONTINUOUS
10
-50.920405
20
332.137857
30
0.0
11
-50.920405
21
331.643140
31
0.0
0
LINE
8
0
6
CONTINUOUS
10
-47.266975
20
331.320110
30
0.0
11
-47.043995
21
333.084030
31
0.0
0
LINE
8
0
6
CONTINUOUS
10
-49.205185
20
330.599750
30
0.0
11
-47.266975
21
331.320110
31
0.0
0
LINE
8
0
6
CONTINUOUS
10
-50.920405
20
331.643140
30
0.0
11
-49.205185
21
330.599750
31
0.0
0
LINE
8
0
6
CONTINUOUS
10
-50.697405
20
333.407060
30
0.0
11
-50.920405
21
331.643140
31
0.0
0
LINE
8
0
6
CONTINUOUS
10
-48.759195
20
334.127580
30
0.0
11
-50.697405
21
333.407060
31
0.0
0
LINE
8
0
6
CONTINUOUS
10
-47.043995
20
333.084030
30
0.0
11
-48.759195
21
334.127580
31
0.0
0
LINE
8
0
6
CONTINUOUS
10
-41.928825
20
340.114520
30
0.0
11
-41.928832
21
340.924167
31
0.0
0
LINE
8
0
6
CONTINUOUS
10
-42.370945
20
341.849290
30
0.0
11
-41.928825
21
340.114520
31
0.0
0
LINE
8
0
6
CONTINUOUS
10
-42.370945
20
341.849290
30
0.0
11
-42.370948
21
342.553811
31
0.0
0
LINE
8
0
6
CONTINUOUS
10
-44.388545
20
342.396470
30
0.0
11
-42.370945
21
341.849290
31
0.0
0
LINE
8
0
6
CONTINUOUS
10
-44.388545
20
342.396470
30
0.0
11
-44.388548
21
342.894906
31
0.0
0
LINE
8
0
6
CONTINUOUS
10
-45.964045
20
341.208880
30
0.0
11
-44.388545
21
342.396470
31
0.0
0
LINE
8
0
6
CONTINUOUS
10
-45.964045
20
341.605333
30
0.0
11
-45.964045
21
341.208880
31
0.0
0
LINE
8
0
6
CONTINUOUS
10
-41.928825
20
340.114520
30
0.0
11
-42.370945
21
341.849290
31
0.0
0
LINE
8
0
6
CONTINUOUS
10
-43.504335
20
338.926930
30
0.0
11
-41.928825
21
340.114520
31
0.0
0
LINE
8
0
6
CONTINUOUS
10
-45.521925
20
339.474110
30
0.0
11
-43.504335
21
338.926930
31
0.0
0
LINE
8
0
6
CONTINUOUS
10
-45.964045
20
341.208880
30
0.0
11
-45.521925
21
339.474110
31
0.0
0
LINE
8
0
6
CONTINUOUS
10
-44.388545
20
342.396470
30
0.0
11
-45.964045
21
341.208880
31
0.0
0
LINE
8
0
6
CONTINUOUS
10
-42.370945
20
341.849290
30
0.0
11
-44.388545
21
342.396470
31
0.0
0
LINE
8
0
6
CONTINUOUS
10
-40.027595
20
349.832690
30
0.0
11
-40.027599
21
350.705704
31
0.0
0
LINE
8
0
6
CONTINUOUS
10
-41.088125
20
351.368790
30
0.0
11
-40.027595
21
349.832690
31
0.0
0
LINE
8
0
6
CONTINUOUS
10
-41.088125
20
351.368790
30
0.0
11
-41.088131
21
352.134878
31
0.0
0
LINE
8
0
6
CONTINUOUS
10
-43.209185
20
351.368790
30
0.0
11
-41.088125
21
351.368790
31
0.0
0
LINE
8
0
6
CONTINUOUS
10
-43.209185
20
351.368790
30
0.0
11
-43.209187
21
351.925163
31
0.0
0
LINE
8
0
6
CONTINUOUS
10
-44.269715
20
349.832690
30
0.0
11
-43.209185
21
351.368790
31
0.0
0
LINE
8
0
6
CONTINUOUS
10
-44.269719
20
350.268481
30
0.0
11
-44.269715
21
349.832690
31
0.0
0
LINE
8
0
6
CONTINUOUS
10
-40.027595
20
349.832690
30
0.0
11
-41.088125
21
351.368790
31
0.0
0
LINE
8
0
6
CONTINUOUS
10
-41.088125
20
348.296580
30
0.0
11
-40.027595
21
349.832690
31
0.0
0
LINE
8
0
6
CONTINUOUS
10
-43.209185
20
348.296580
30
0.0
11
-41.088125
21
348.296580
31
0.0
0
LINE
8
0
6
CONTINUOUS
10
-44.269715
20
349.832690
30
0.0
11
-43.209185
21
348.296580
31
0.0
0
LINE
8
0
6
CONTINUOUS
10
-43.209185
20
351.368790
30
0.0
11
-44.269715
21
349.832690
31
0.0
0
LINE
8
0
6
CONTINUOUS
10
-41.088125
20
351.368790
30
0.0
11
-43.209185
21
351.368790
31
0.0
0
LINE
8
0
6
CONTINUOUS
10
-41.928865
20
359.561690
30
0.0
11
-41.928872
21
360.394513
31
0.0
0
LINE
8
0
6
CONTINUOUS
10
-43.504355
20
360.749280
30
0.0
11
-41.928865
21
359.561690
31
0.0
0
LINE
8
0
6
CONTINUOUS
10
-43.504355
20
360.749280
30
0.0
11
-43.504360
21
361.483819
31
0.0
0
LINE
8
0
6
CONTINUOUS
10
-45.521965
20
360.202100
30
0.0
11
-43.504355
21
360.749280
31
0.0
0
LINE
8
0
6
CONTINUOUS
10
-45.521965
20
360.202100
30
0.0
11
-45.521967
21
360.728798
31
0.0
0
LINE
8
0
6
CONTINUOUS
10
-45.964045
20
358.467330
30
0.0
11
-45.521965
21
360.202100
31
0.0
0
LINE
8
0
6
CONTINUOUS
10
-45.964048
20
358.884471
30
0.0
11
-45.964045
21
358.467330
31
0.0
0
LINE
8
0
6
CONTINUOUS
10
-41.928865
20
359.561690
30
0.0
11
-43.504355
21
360.749280
31
0.0
0
LINE
8
0
6
CONTINUOUS
10
-42.370985
20
357.826920
30
0.0
11
-41.928865
21
359.561690
31
0.0
0
LINE
8
0
6
CONTINUOUS
10
-44.388575
20
357.279740
30
0.0
11
-42.370985
21
357.826920
31
0.0
0
LINE
8
0
6
CONTINUOUS
10
-45.964045
20
358.467330
30
0.0
11
-44.388575
21
357.279740
31
0.0
0
LINE
8
0
6
CONTINUOUS
10
-45.521965
20
360.202100
30
0.0
11
-45.964045
21
358.467330
31
0.0
0
LINE
8
0
6
CONTINUOUS
10
-43.504355
20
360.749280
30
0.0
11
-45.521965
21
360.202100
31
0.0
0
LINE
8
0
6
CONTINUOUS
10
-49.205245
20
369.075850
30
0.0
11
-47.267035
21
368.355330
31
0.0
0
LINE
8
0
6
CONTINUOUS
10
-49.205245
20
369.075850
30
0.0
11
-49.205251
21
369.825560
31
0.0
0
LINE
8
0
6
CONTINUOUS
10
-50.920445
20
368.032460
30
0.0
11
-49.205245
21
369.075850
31
0.0
0
LINE
8
0
6
CONTINUOUS
10
-50.920449
20
368.574274
30
0.0
11
-50.920445
21
368.032460
31
0.0
0
LINE
8
0
6
CONTINUOUS
10
-47.267035
20
368.355330
30
0.0
11
-49.205245
21
369.075850
31
0.0
0
LINE
8
0
6
CONTINUOUS
10
-47.044025
20
366.591420
30
0.0
11
-47.267035
21
368.355330
31
0.0
0
LINE
8
0
6
CONTINUOUS
10
-48.759245
20
365.548020
30
0.0
11
-47.044025
21
366.591420
31
0.0
0
LINE
8
0
6
CONTINUOUS
10
-50.697455
20
366.268540
30
0.0
11
-48.759245
21
365.548020
31
0.0
0
LINE
8
0
6
CONTINUOUS
10
-50.920445
20
368.032460
30
0.0
11
-50.697455
21
366.268540
31
0.0
0
LINE
8
0
6
CONTINUOUS
10
-49.205245
20
369.075850
30
0.0
11
-50.920445
21
368.032460
31
0.0
0
LINE
8
0
6
CONTINUOUS
10
-47.044025
20
366.591420
30
0.0
11
-47.044031
21
367.340142
31
0.0
0
LINE
8
0
6
CONTINUOUS
10
-47.267035
20
368.355330
30
0.0
11
-47.044025
21
366.591420
31
0.0
0
LINE
8
0
6
CONTINUOUS
10
-47.267042
20
369.202527
30
0.0
11
-47.267035
21
368.355330
31
0.0
0
LINE
8
0
6
CONTINUOUS
10
-57.697985
20
375.500560
30
0.0
11
-55.588685
21
375.314100
31
0.0
0
LINE
8
0
6
CONTINUOUS
10
-57.697985
20
375.500560
30
0.0
11
-57.697990
21
376.265431
31
0.0
0
LINE
8
0
6
CONTINUOUS
10
-58.945755
20
374.066240
30
0.0
11
-57.697985
21
375.500560
31
0.0
0
LINE
8
0
6
CONTINUOUS
10
-58.945756
20
374.621659
30
0.0
11
-58.945755
21
374.066240
31
0.0
0
LINE
8
0
6
CONTINUOUS
10
-55.588685
20
375.314100
30
0.0
11
-57.697985
21
375.500560
31
0.0
0
LINE
8
0
6
CONTINUOUS
10
-54.727135
20
373.693310
30
0.0
11
-55.588685
21
375.314100
31
0.0
0
LINE
8
0
6
CONTINUOUS
10
-55.974925
20
372.258990
30
0.0
11
-54.727135
21
373.693310
31
0.0
0
LINE
8
0
6
CONTINUOUS
10
-58.084215
20
372.445450
30
0.0
11
-55.974925
21
372.258990
31
0.0
0
LINE
8
0
6
CONTINUOUS
10
-58.945755
20
374.066240
30
0.0
11
-58.084215
21
372.445450
31
0.0
0
LINE
8
0
6
CONTINUOUS
10
-57.697985
20
375.500560
30
0.0
11
-58.945755
21
374.066240
31
0.0
0
LINE
8
0
6
CONTINUOUS
10
-54.727135
20
373.693310
30
0.0
11
-54.727141
21
374.453302
31
0.0
0
LINE
8
0
6
CONTINUOUS
10
-55.588685
20
375.314100
30
0.0
11
-54.727135
21
373.693310
31
0.0
0
LINE
8
0
6
CONTINUOUS
10
-55.588689
20
376.174297
30
0.0
11
-55.588685
21
375.314100
31
0.0
0
LINE
8
0
6
CONTINUOUS
10
-68.179665
20
379.407880
30
0.0
11
-66.105195
21
379.777600
31
0.0
0
LINE
8
0
6
CONTINUOUS
10
-68.179665
20
379.407880
30
0.0
11
-68.179671
21
380.178633
31
0.0
0
LINE
8
0
6
CONTINUOUS
10
-68.834035
20
377.720570
30
0.0
11
-68.179665
21
379.407880
31
0.0
0
LINE
8
0
6
CONTINUOUS
10
-68.834037
20
378.281648
30
0.0
11
-68.834035
21
377.720570
31
0.0
0
LINE
8
0
6
CONTINUOUS
10
-66.105195
20
379.777600
30
0.0
11
-68.179665
21
379.407880
31
0.0
0
LINE
8
0
6
CONTINUOUS
10
-64.685075
20
378.460010
30
0.0
11
-66.105195
21
379.777600
31
0.0
0
LINE
8
0
6
CONTINUOUS
10
-65.339435
20
376.772840
30
0.0
11
-64.685075
21
378.460010
31
0.0
0
LINE
8
0
6
CONTINUOUS
10
-67.413905
20
376.403120
30
0.0
11
-65.339435
21
376.772840
31
0.0
0
LINE
8
0
6
CONTINUOUS
10
-68.834035
20
377.720570
30
0.0
11
-67.413905
21
376.403120
31
0.0
0
LINE
8
0
6
CONTINUOUS
10
-68.179665
20
379.407880
30
0.0
11
-68.834035
21
377.720570
31
0.0
0
LINE
8
0
6
CONTINUOUS
10
-64.685075
20
378.460010
30
0.0
11
-64.685078
21
379.232126
31
0.0
0
LINE
8
0
6
CONTINUOUS
10
-66.105195
20
379.777600
30
0.0
11
-64.685075
21
378.460010
31
0.0
0
LINE
8
0
6
CONTINUOUS
10
-66.105199
20
380.654035
30
0.0
11
-66.105195
21
379.777600
31
0.0
0
LINE
8
0
6
CONTINUOUS
10
-79.568975
20
372.242200
30
0.0
11
-77.732065
21
373.129200
31
0.0
0
LINE
8
0
6
CONTINUOUS
10
-79.568975
20
372.917550
30
0.0
11
-79.568975
21
372.242200
31
0.0
0
LINE
8
0
6
CONTINUOUS
10
-77.732065
20
373.129200
30
0.0
11
-79.568975
21
372.242200
31
0.0
0
LINE
8
0
6
CONTINUOUS
10
-75.895175
20
372.242200
30
0.0
11
-77.732065
21
373.129200
31
0.0
0
LINE
8
0
6
CONTINUOUS
10
-75.895175
20
370.468520
30
0.0
11
-75.895175
21
372.242200
31
0.0
0
LINE
8
0
6
CONTINUOUS
10
-77.732065
20
369.581680
30
0.0
11
-75.895175
21
370.468520
31
0.0
0
LINE
8
0
6
CONTINUOUS
10
-79.568955
20
370.468520
30
0.0
11
-77.732065
21
369.581680
31
0.0
0
LINE
8
0
6
CONTINUOUS
10
-79.568975
20
372.242200
30
0.0
11
-79.568955
21
370.468520
31
0.0
0
LINE
8
0
6
CONTINUOUS
10
-75.895175
20
372.242200
30
0.0
11
-75.895178
21
372.917549
31
0.0
0
LINE
8
0
6
CONTINUOUS
10
-77.732065
20
373.129200
30
0.0
11
-75.895175
21
372.242200
31
0.0
0
LINE
8
0
6
CONTINUOUS
10
-77.732068
20
373.887351
30
0.0
11
-77.732065
21
373.129200
31
0.0
0
LINE
8
0
6
CONTINUOUS
10
-66.854245
20
397.370530
30
0.0
11
-65.249465
21
396.210710
31
0.0
0
LINE
8
0
6
CONTINUOUS
10
-65.648195
20
394.468610
30
0.0
11
-65.249465
21
396.210710
31
0.0
0
LINE
8
0
6
CONTINUOUS
10
-67.651705
20
393.886340
30
0.0
11
-65.648195
21
394.468610
31
0.0
0
LINE
8
0
6
CONTINUOUS
10
-69.256495
20
395.046160
30
0.0
11
-67.651705
21
393.886340
31
0.0
0
LINE
8
0
6
CONTINUOUS
10
-68.857765
20
396.788250
30
0.0
11
-69.256495
21
395.046160
31
0.0
0
LINE
8
0
6
CONTINUOUS
10
-66.854245
20
397.370530
30
0.0
11
-68.857765
21
396.788250
31
0.0
0
LINE
8
0
6
CONTINUOUS
10
-65.249465
20
396.210710
30
0.0
11
-66.854245
21
397.370530
31
0.0
0
LINE
8
0
6
CONTINUOUS
10
-68.857765
20
396.788250
30
0.0
11
-66.854245
21
397.370530
31
0.0
0
LINE
8
0
6
CONTINUOUS
10
-69.256495
20
395.046160
30
0.0
11
-68.857765
21
396.788250
31
0.0
0
LINE
8
0
6
CONTINUOUS
10
-69.256493
20
395.618205
30
0.0
11
-69.256495
21
395.046160
31
0.0
0
LINE
8
0
6
CONTINUOUS
10
-70.323165
20
300.118940
30
0.0
11
-71.720675
21
303.914110
31
0.0
0
LINE
8
0
6
CONTINUOUS
10
-85.821685
20
291.052820
30
0.0
11
-83.413965
21
288.680610
31
0.0
0
LINE
8
0
6
CONTINUOUS
10
-83.451555
20
288.761250
30
0.0
11
-85.740625
21
291.038250
31
0.0
0
LINE
8
0
6
CONTINUOUS
10
-80.865875
20
287.331580
30
0.0
11
-77.732005
21
286.893200
31
0.0
0
LINE
8
0
6
CONTINUOUS
10
-77.732005
20
286.954920
30
0.0
11
-80.876315
21
287.394980
31
0.0
0
LINE
8
0
6
CONTINUOUS
10
-87.269895
20
293.846550
30
0.0
11
-85.821685
21
291.052820
31
0.0
0
LINE
8
0
6
CONTINUOUS
10
-87.160105
20
293.736840
30
0.0
11
-85.740625
21
291.038250
31
0.0
0
LINE
8
0
6
CONTINUOUS
10
-86.359705
20
302.335430
30
0.0
11
-87.873535
21
299.019240
31
0.0
0
LINE
8
0
6
CONTINUOUS
10
-88.031925
20
296.606940
30
0.0
11
-87.873535
21
299.019240
31
0.0
0
LINE
8
0
6
CONTINUOUS
10
-80.248065
20
305.941700
30
0.0
11
-83.427885
21
304.876330
31
0.0
0
LINE
8
0
6
CONTINUOUS
10
-80.304675
20
305.680920
30
0.0
11
-83.496355
21
304.615860
31
0.0
0
LINE
8
0
6
CONTINUOUS
10
-77.732005
20
306.186140
30
0.0
11
-80.248065
21
305.941700
31
0.0
0
LINE
8
0
6
CONTINUOUS
10
-77.732005
20
305.929340
30
0.0
11
-80.304675
21
305.680920
31
0.0
0
LINE
8
0
6
CONTINUOUS
10
-83.661635
20
304.136120
30
0.0
11
-83.496355
21
304.615860
31
0.0
0
LINE
8
0
6
CONTINUOUS
10
-83.496355
20
304.615860
30
0.0
11
-86.359705
21
302.335430
31
0.0
0
LINE
8
0
6
CONTINUOUS
10
-88.125575
20
296.681630
30
0.0
11
-87.269895
21
293.846550
31
0.0
0
LINE
8
0
6
CONTINUOUS
10
-88.031925
20
296.606940
30
0.0
11
-87.160105
21
293.736840
31
0.0
0
LINE
8
0
6
CONTINUOUS
10
-83.413965
20
288.680610
30
0.0
11
-80.865875
21
287.331580
31
0.0
0
LINE
8
0
6
CONTINUOUS
10
-80.876315
20
287.394980
30
0.0
11
-83.451555
21
288.761250
31
0.0
0
LINE
8
0
6
CONTINUOUS
10
-72.050055
20
288.680610
30
0.0
11
-69.642315
21
291.052820
31
0.0
0
LINE
8
0
6
CONTINUOUS
10
-72.012445
20
288.761250
30
0.0
11
-69.720345
21
291.041220
31
0.0
0
LINE
8
0
6
CONTINUOUS
10
-77.732005
20
286.893200
30
0.0
11
-74.598125
21
287.331580
31
0.0
0
LINE
8
0
6
CONTINUOUS
10
-77.732005
20
286.954920
30
0.0
11
-74.587705
21
287.394980
31
0.0
0
LINE
8
0
6
CONTINUOUS
10
-69.642315
20
291.052820
30
0.0
11
-68.194125
21
293.846550
31
0.0
0
LINE
8
0
6
CONTINUOUS
10
-68.319795
20
293.731730
30
0.0
11
-69.720345
21
291.041220
31
0.0
0
LINE
8
0
6
CONTINUOUS
10
-69.141465
20
302.365040
30
0.0
11
-67.616905
21
299.030070
31
0.0
0
LINE
8
0
6
CONTINUOUS
10
-72.036135
20
304.876330
30
0.0
11
-75.215965
21
305.941700
31
0.0
0
LINE
8
0
6
CONTINUOUS
10
-75.159335
20
305.680920
30
0.0
11
-71.967675
21
304.615860
31
0.0
0
LINE
8
0
6
CONTINUOUS
10
-75.215965
20
305.941700
30
0.0
11
-77.732005
21
306.186140
31
0.0
0
LINE
8
0
6
CONTINUOUS
10
-77.732005
20
305.929340
30
0.0
11
-75.159335
21
305.680920
31
0.0
0
LINE
8
0
6
CONTINUOUS
10
-71.967675
20
304.615860
30
0.0
11
-69.141465
21
302.365040
31
0.0
0
LINE
8
0
6
CONTINUOUS
10
-68.194125
20
293.846550
30
0.0
11
-67.338445
21
296.681630
31
0.0
0
LINE
8
0
6
CONTINUOUS
10
-67.456725
20
296.606940
30
0.0
11
-68.319795
21
293.731730
31
0.0
0
LINE
8
0
6
CONTINUOUS
10
-74.598125
20
287.331580
30
0.0
11
-72.050055
21
288.680610
31
0.0
0
LINE
8
0
6
CONTINUOUS
10
-74.587705
20
287.394980
30
0.0
11
-72.012445
21
288.761250
31
0.0
0
LINE
8
0
6
CONTINUOUS
10
-85.140855
20
300.118790
30
0.0
11
-83.743395
21
303.914110
31
0.0
0
LINE
8
0
6
CONTINUOUS
10
-115.180855
20
313.443530
30
0.0
11
-108.345255
21
309.587170
31
0.0
0
LINE
8
0
6
CONTINUOUS
10
-121.068915
20
317.622150
30
0.0
11
-115.180855
21
313.443530
31
0.0
0
LINE
8
0
6
CONTINUOUS
10
-77.732105
20
404.961620
30
0.0
11
-85.654885
21
404.494250
31
0.0
0
LINE
8
0
6
CONTINUOUS
10
-120.414165
20
390.276870
30
0.0
11
-125.522265
21
385.579300
31
0.0
0
LINE
8
0
6
CONTINUOUS
10
-125.522265
20
385.579300
30
0.0
11
-130.262945
21
379.880900
31
0.0
0
LINE
8
0
6
CONTINUOUS
10
-130.262945
20
379.880900
30
0.0
11
-133.921465
21
374.054640
31
0.0
0
LINE
8
0
6
CONTINUOUS
10
-133.921465
20
374.054640
30
0.0
11
-136.717335
21
367.072220
31
0.0
0
LINE
8
0
6
CONTINUOUS
10
-136.717335
20
367.072220
30
0.0
11
-138.277015
21
361.081620
31
0.0
0
LINE
8
0
6
CONTINUOUS
10
-138.277015
20
361.081620
30
0.0
11
-138.966105
21
354.453200
31
0.0
0
LINE
8
0
6
CONTINUOUS
10
-77.732025
20
322.959670
30
0.0
11
-77.707615
21
324.506450
31
0.0
0
LINE
8
0
6
CONTINUOUS
10
-108.345255
20
309.587170
30
0.0
11
-104.993955
21
308.042680
31
0.0
0
LINE
8
0
6
CONTINUOUS
10
-92.694795
20
297.659230
30
0.0
11
-92.154535
21
296.256600
31
0.0
0
LINE
8
0
6
CONTINUOUS
10
-92.154535
20
296.256600
30
0.0
11
-91.104355
21
293.447530
31
0.0
0
LINE
8
0
6
CONTINUOUS
10
-91.104355
20
293.447530
30
0.0
11
-90.290065
21
291.717110
31
0.0
0
LINE
8
0
6
CONTINUOUS
10
-96.931895
20
304.319990
30
0.0
11
-95.340685
21
302.800980
31
0.0
0
LINE
8
0
6
CONTINUOUS
10
-102.273675
20
306.937790
30
0.0
11
-99.327985
21
305.738600
31
0.0
0
LINE
8
0
6
CONTINUOUS
10
-86.099395
20
285.797310
30
0.0
11
-83.567375
21
283.895000
31
0.0
0
LINE
8
0
6
CONTINUOUS
10
-80.809635
20
282.949560
30
0.0
11
-77.731985
21
282.694280
31
0.0
0
LINE
8
0
6
CONTINUOUS
10
-83.567375
20
283.895000
30
0.0
11
-80.809635
21
282.949560
31
0.0
0
LINE
8
0
6
CONTINUOUS
10
-93.235055
20
299.061810
30
0.0
11
-92.694795
21
297.659230
31
0.0
0
LINE
8
0
6
CONTINUOUS
10
-137.048525
20
341.464920
30
0.0
11
-134.461975
21
334.581830
31
0.0
0
LINE
8
0
6
CONTINUOUS
10
-134.461975
20
334.581830
30
0.0
11
-130.870555
21
328.365710
31
0.0
0
LINE
8
0
6
CONTINUOUS
10
-92.601205
20
403.272020
30
0.0
11
-100.679665
21
401.008070
31
0.0
0
LINE
8
0
6
CONTINUOUS
10
-114.434065
20
394.570850
30
0.0
11
-120.414165
21
390.276870
31
0.0
0
LINE
8
0
6
CONTINUOUS
10
-107.676545
20
398.201980
30
0.0
11
-114.434065
21
394.570850
31
0.0
0
LINE
8
0
6
CONTINUOUS
10
-100.679665
20
401.008070
30
0.0
11
-107.676545
21
398.201980
31
0.0
0
LINE
8
0
6
CONTINUOUS
10
-85.654885
20
404.494250
30
0.0
11
-92.601205
21
403.272020
31
0.0
0
LINE
8
0
6
CONTINUOUS
10
-126.355135
20
322.844160
30
0.0
11
-121.068915
21
317.622150
31
0.0
0
LINE
8
0
6
CONTINUOUS
10
-130.870555
20
328.365710
30
0.0
11
-126.355135
21
322.844160
31
0.0
0
LINE
8
0
6
CONTINUOUS
10
-138.483925
20
347.715230
30
0.0
11
-137.048525
21
341.464920
31
0.0
0
LINE
8
0
6
CONTINUOUS
10
-138.966105
20
354.453200
30
0.0
11
-138.483925
21
347.715230
31
0.0
0
LINE
8
0
6
CONTINUOUS
10
-99.327985
20
305.738600
30
0.0
11
-96.931895
21
304.319990
31
0.0
0
LINE
8
0
6
CONTINUOUS
10
-77.707615
20
324.506450
30
0.0
11
-77.709222
21
324.960729
31
0.0
0
LINE
8
0
6
CONTINUOUS
10
-77.721712
20
328.492261
30
0.0
11
-77.727930
21
330.250479
31
0.0
0
LINE
8
0
6
CONTINUOUS
10
-95.340685
20
302.800980
30
0.0
11
-93.775295
21
300.464400
31
0.0
0
LINE
8
0
6
CONTINUOUS
10
-86.839525
20
303.014450
30
0.0
11
-88.483355
21
299.392930
31
0.0
0
LINE
8
0
6
CONTINUOUS
10
-104.993955
20
308.042680
30
0.0
11
-102.273675
21
306.937790
31
0.0
0
LINE
8
0
6
CONTINUOUS
10
-90.290065
20
291.717110
30
0.0
11
-88.511695
21
288.553350
31
0.0
0
LINE
8
0
6
CONTINUOUS
10
-88.511695
20
288.553350
30
0.0
11
-86.099395
21
285.797310
31
0.0
0
LINE
8
0
6
CONTINUOUS
10
-93.775295
20
300.464400
30
0.0
11
-93.235055
21
299.061810
31
0.0
0
LINE
8
0
6
CONTINUOUS
10
-47.118755
20
309.587170
30
0.0
11
-40.283205
21
313.443530
31
0.0
0
LINE
8
0
6
CONTINUOUS
10
-40.283205
20
313.443530
30
0.0
11
-34.395105
21
317.622150
31
0.0
0
LINE
8
0
6
CONTINUOUS
10
-69.809345
20
404.494250
30
0.0
11
-77.732105
21
404.961620
31
0.0
0
LINE
8
0
6
CONTINUOUS
10
-29.941905
20
385.579300
30
0.0
11
-35.050045
21
390.276870
31
0.0
0
LINE
8
0
6
CONTINUOUS
10
-25.201225
20
379.881060
30
0.0
11
-29.941905
21
385.579300
31
0.0
0
LINE
8
0
6
CONTINUOUS
10
-21.542705
20
374.054790
30
0.0
11
-25.201225
21
379.881060
31
0.0
0
LINE
8
0
6
CONTINUOUS
10
-18.746795
20
367.072220
30
0.0
11
-21.542705
21
374.054790
31
0.0
0
LINE
8
0
6
CONTINUOUS
10
-17.187115
20
361.081620
30
0.0
11
-18.746795
21
367.072220
31
0.0
0
LINE
8
0
6
CONTINUOUS
10
-16.498035
20
354.453200
30
0.0
11
-17.187115
21
361.081620
31
0.0
0
LINE
8
0
6
CONTINUOUS
10
-77.756445
20
324.506450
30
0.0
11
-77.732025
21
322.959670
31
0.0
0
LINE
8
0
6
CONTINUOUS
10
-50.470065
20
308.042680
30
0.0
11
-47.118755
21
309.587170
31
0.0
0
LINE
8
0
6
CONTINUOUS
10
-63.309455
20
296.256600
30
0.0
11
-62.769205
21
297.659230
31
0.0
0
LINE
8
0
6
CONTINUOUS
10
-65.173935
20
291.717190
30
0.0
11
-64.359645
21
293.447530
31
0.0
0
LINE
8
0
6
CONTINUOUS
10
-64.359645
20
293.447530
30
0.0
11
-63.309455
21
296.256600
31
0.0
0
LINE
8
0
6
CONTINUOUS
10
-60.123325
20
302.800980
30
0.0
11
-58.532105
21
304.319990
31
0.0
0
LINE
8
0
6
CONTINUOUS
10
-56.136035
20
305.738600
30
0.0
11
-53.190345
21
306.937790
31
0.0
0
LINE
8
0
6
CONTINUOUS
10
-71.896625
20
283.895000
30
0.0
11
-69.364585
21
285.797390
31
0.0
0
LINE
8
0
6
CONTINUOUS
10
-77.731985
20
282.694280
30
0.0
11
-74.654345
21
282.949560
31
0.0
0
LINE
8
0
6
CONTINUOUS
10
-74.654345
20
282.949560
30
0.0
11
-71.896625
21
283.895000
31
0.0
0
LINE
8
0
6
CONTINUOUS
10
-62.769205
20
297.659230
30
0.0
11
-62.228965
21
299.061810
31
0.0
0
LINE
8
0
6
CONTINUOUS
10
-21.002115
20
334.581990
30
0.0
11
-18.415605
21
341.465070
31
0.0
0
LINE
8
0
6
CONTINUOUS
10
-24.593505
20
328.365860
30
0.0
11
-21.002115
21
334.581990
31
0.0
0
LINE
8
0
6
CONTINUOUS
10
-54.784545
20
401.008070
30
0.0
11
-62.863005
21
403.272020
31
0.0
0
LINE
8
0
6
CONTINUOUS
10
-35.050045
20
390.276870
30
0.0
11
-41.030115
21
394.571000
31
0.0
0
LINE
8
0
6
CONTINUOUS
10
-41.030115
20
394.571000
30
0.0
11
-47.787665
21
398.202130
31
0.0
0
LINE
8
0
6
CONTINUOUS
10
-47.787665
20
398.202130
30
0.0
11
-54.784545
21
401.008070
31
0.0
0
LINE
8
0
6
CONTINUOUS
10
-62.863005
20
403.272020
30
0.0
11
-69.809345
21
404.494250
31
0.0
0
LINE
8
0
6
CONTINUOUS
10
-34.395105
20
317.622150
30
0.0
11
-29.108925
21
322.844310
31
0.0
0
LINE
8
0
6
CONTINUOUS
10
-29.108925
20
322.844310
30
0.0
11
-24.593505
21
328.365860
31
0.0
0
LINE
8
0
6
CONTINUOUS
10
-18.415605
20
341.465070
30
0.0
11
-16.980175
21
347.715380
31
0.0
0
LINE
8
0
6
CONTINUOUS
10
-16.980175
20
347.715380
30
0.0
11
-16.498035
21
354.453200
31
0.0
0
LINE
8
0
6
CONTINUOUS
10
-58.532105
20
304.319990
30
0.0
11
-56.136035
21
305.738600
31
0.0
0
LINE
8
0
6
CONTINUOUS
10
-77.736158
20
330.249514
30
0.0
11
-77.741339
21
328.782972
31
0.0
0
LINE
8
0
6
CONTINUOUS
10
-61.688705
20
300.464400
30
0.0
11
-60.123325
21
302.800980
31
0.0
0
LINE
8
0
6
CONTINUOUS
10
-66.980665
20
299.392930
30
0.0
11
-68.624495
21
303.014450
31
0.0
0
LINE
8
0
6
CONTINUOUS
10
-53.190345
20
306.937790
30
0.0
11
-50.470065
21
308.042680
31
0.0
0
LINE
8
0
6
CONTINUOUS
10
-66.952305
20
288.553350
30
0.0
11
-65.173935
21
291.717190
31
0.0
0
LINE
8
0
6
CONTINUOUS
10
-69.364585
20
285.797390
30
0.0
11
-66.952305
21
288.553350
31
0.0
0
LINE
8
0
6
CONTINUOUS
10
-62.228965
20
299.061810
30
0.0
11
-61.688705
21
300.464400
31
0.0
0
LINE
8
0
6
CONTINUOUS
10
-139.689525
20
361.381000
30
0.0
11
-138.014335
21
367.997820
31
0.0
0
LINE
8
0
6
CONTINUOUS
10
-122.521935
20
400.445170
30
0.0
11
-127.974925
21
395.164410
31
0.0
0
LINE
8
0
6
CONTINUOUS
10
-127.974925
20
395.164410
30
0.0
11
-132.636145
21
389.335400
31
0.0
0
LINE
8
0
6
CONTINUOUS
10
-132.636145
20
389.335400
30
0.0
11
-133.009035
21
388.775710
31
0.0
0
LINE
8
0
6
CONTINUOUS
10
-120.414165
20
390.276870
30
0.0
11
-114.434055
21
394.570850
31
0.0
0
LINE
8
0
6
CONTINUOUS
10
-114.434055
20
394.570850
30
0.0
11
-107.676545
21
398.201980
31
0.0
0
LINE
8
0
6
CONTINUOUS
10
-107.676545
20
398.201980
30
0.0
11
-100.679645
21
401.008070
31
0.0
0
LINE
8
0
6
CONTINUOUS
10
-100.679645
20
401.008070
30
0.0
11
-92.601185
21
403.272020
31
0.0
0
LINE
8
0
6
CONTINUOUS
10
-92.601185
20
403.272020
30
0.0
11
-85.654865
21
404.494250
31
0.0
0
LINE
8
0
6
CONTINUOUS
10
-85.654865
20
404.494250
30
0.0
11
-77.732085
21
404.961780
31
0.0
0
LINE
8
0
6
CONTINUOUS
10
-122.243955
20
392.611160
30
0.0
11
-127.801895
21
387.467270
31
0.0
0
LINE
8
0
6
CONTINUOUS
10
-126.773145
20
386.485820
30
0.0
11
-121.249085
21
391.503980
31
0.0
0
LINE
8
0
6
CONTINUOUS
10
-127.801895
20
387.467270
30
0.0
11
-132.476885
21
381.760330
31
0.0
0
LINE
8
0
6
CONTINUOUS
10
-131.349825
20
380.798720
30
0.0
11
-126.773145
21
386.485820
31
0.0
0
LINE
8
0
6
CONTINUOUS
10
-135.040545
20
374.842760
30
0.0
11
-131.349825
21
380.798720
31
0.0
0
LINE
8
0
6
CONTINUOUS
10
-138.014335
20
367.997820
30
0.0
11
-135.040545
21
374.842760
31
0.0
0
LINE
8
0
6
CONTINUOUS
10
-140.217015
20
354.689860
30
0.0
11
-139.689525
21
361.381000
31
0.0
0
LINE
8
0
6
CONTINUOUS
10
-136.283115
20
375.428240
30
0.0
11
-132.476885
21
381.760330
31
0.0
0
LINE
8
0
6
CONTINUOUS
10
-139.079245
20
368.573990
30
0.0
11
-136.283115
21
375.428240
31
0.0
0
LINE
8
0
6
CONTINUOUS
10
-140.773165
20
361.795430
30
0.0
11
-139.079245
21
368.573990
31
0.0
0
LINE
8
0
6
CONTINUOUS
10
-141.169015
20
362.356950
30
0.0
11
-141.786575
21
355.426710
31
0.0
0
LINE
8
0
6
CONTINUOUS
10
-141.472965
20
354.903340
30
0.0
11
-140.773165
21
361.795430
31
0.0
0
LINE
8
0
6
CONTINUOUS
10
-121.068915
20
317.622150
30
0.0
11
-126.355095
21
322.844310
31
0.0
0
LINE
8
0
6
CONTINUOUS
10
-126.355095
20
322.844310
30
0.0
11
-130.870555
21
328.365710
31
0.0
0
LINE
8
0
6
CONTINUOUS
10
-130.870555
20
328.365710
30
0.0
11
-134.461975
21
334.581990
31
0.0
0
LINE
8
0
6
CONTINUOUS
10
-134.461975
20
334.581990
30
0.0
11
-137.048495
21
341.465070
31
0.0
0
LINE
8
0
6
CONTINUOUS
10
-137.048495
20
341.465070
30
0.0
11
-138.483925
21
347.715230
31
0.0
0
LINE
8
0
6
CONTINUOUS
10
-138.483925
20
347.715230
30
0.0
11
-138.966105
21
354.453200
31
0.0
0
LINE
8
0
6
CONTINUOUS
10
-136.947025
20
334.823380
30
0.0
11
-136.759035
21
334.393390
31
0.0
0
LINE
8
0
6
CONTINUOUS
10
-139.656255
20
341.552960
30
0.0
11
-139.433175
21
340.980760
31
0.0
0
LINE
8
0
6
CONTINUOUS
10
-141.245305
20
348.322830
30
0.0
11
-139.656255
21
341.552960
31
0.0
0
LINE
8
0
6
CONTINUOUS
10
-141.786575
20
355.426710
30
0.0
11
-141.245305
21
348.322830
31
0.0
0
LINE
8
0
6
CONTINUOUS
10
-122.717475
20
316.790240
30
0.0
11
-116.584815
21
312.243580
31
0.0
0
LINE
8
0
6
CONTINUOUS
10
-115.919535
20
312.628250
30
0.0
11
-121.860545
21
317.134020
31
0.0
0
LINE
8
0
6
CONTINUOUS
10
-116.584815
20
312.243580
30
0.0
11
-109.785305
21
308.413160
31
0.0
0
LINE
8
0
6
CONTINUOUS
10
-108.946115
20
308.891830
30
0.0
11
-115.919535
21
312.628250
31
0.0
0
LINE
8
0
6
CONTINUOUS
10
-109.785305
20
308.413160
30
0.0
11
-106.140895
21
306.735610
31
0.0
0
LINE
8
0
6
CONTINUOUS
10
-105.410115
20
307.308580
30
0.0
11
-108.946115
21
308.891830
31
0.0
0
LINE
8
0
6
CONTINUOUS
10
-138.014335
20
367.997820
30
0.0
11
-139.689525
21
361.381000
31
0.0
0
LINE
8
0
6
CONTINUOUS
10
-121.249085
20
391.503980
30
0.0
11
-115.256675
21
395.703960
31
0.0
0
LINE
8
0
6
CONTINUOUS
10
-116.066395
20
396.785960
30
0.0
11
-122.243955
21
392.611160
31
0.0
0
LINE
8
0
6
CONTINUOUS
10
-115.256675
20
395.703960
30
0.0
11
-108.261225
21
399.643330
31
0.0
0
LINE
8
0
6
CONTINUOUS
10
-109.218365
20
400.685200
30
0.0
11
-116.066395
21
396.785960
31
0.0
0
LINE
8
0
6
CONTINUOUS
10
-108.261225
20
399.643330
30
0.0
11
-101.086695
21
402.356800
31
0.0
0
LINE
8
0
6
CONTINUOUS
10
-101.888335
20
403.623890
30
0.0
11
-109.218365
21
400.685200
31
0.0
0
LINE
8
0
6
CONTINUOUS
10
-101.086695
20
402.356800
30
0.0
11
-92.836955
21
404.469830
31
0.0
0
LINE
8
0
6
CONTINUOUS
10
-93.355125
20
405.929950
30
0.0
11
-101.888335
21
403.623890
31
0.0
0
LINE
8
0
6
CONTINUOUS
10
-92.836955
20
404.469830
30
0.0
11
-85.756855
21
405.732500
31
0.0
0
LINE
8
0
6
CONTINUOUS
10
-85.934255
20
407.099230
30
0.0
11
-93.355125
21
405.929950
31
0.0
0
LINE
8
0
6
CONTINUOUS
10
-85.756855
20
405.732500
30
0.0
11
-77.732085
21
406.214680
31
0.0
0
LINE
8
0
6
CONTINUOUS
10
-77.732085
20
407.642900
30
0.0
11
-85.934255
21
407.099230
31
0.0
0
LINE
8
0
6
CONTINUOUS
10
-121.249085
20
391.503980
30
0.0
11
-126.773145
21
386.485820
31
0.0
0
LINE
8
0
6
CONTINUOUS
10
-126.773145
20
386.485820
30
0.0
11
-131.349825
21
380.798720
31
0.0
0
LINE
8
0
6
CONTINUOUS
10
-131.349825
20
380.798720
30
0.0
11
-135.040545
21
374.842760
31
0.0
0
LINE
8
0
6
CONTINUOUS
10
-135.040545
20
374.842760
30
0.0
11
-138.014335
21
367.997820
31
0.0
0
LINE
8
0
6
CONTINUOUS
10
-139.689525
20
361.381000
30
0.0
11
-140.217015
21
354.689860
31
0.0
0
LINE
8
0
6
CONTINUOUS
10
-121.860545
20
317.134020
30
0.0
11
-127.404745
21
322.394940
31
0.0
0
LINE
8
0
6
CONTINUOUS
10
-128.335225
20
322.099840
30
0.0
11
-122.717475
21
316.790240
31
0.0
0
LINE
8
0
6
CONTINUOUS
10
-127.404745
20
322.394940
30
0.0
11
-131.825985
21
327.917250
31
0.0
0
LINE
8
0
6
CONTINUOUS
10
-132.994915
20
327.811970
30
0.0
11
-128.335225
21
322.099840
31
0.0
0
LINE
8
0
6
CONTINUOUS
10
-131.825985
20
327.917250
30
0.0
11
-135.726275
21
334.634780
31
0.0
0
LINE
8
0
6
CONTINUOUS
10
-136.759035
20
334.393390
30
0.0
11
-132.994915
21
327.811970
31
0.0
0
LINE
8
0
6
CONTINUOUS
10
-135.726275
20
334.634780
30
0.0
11
-138.203845
21
341.123430
31
0.0
0
LINE
8
0
6
CONTINUOUS
10
-139.433175
20
340.980760
30
0.0
11
-136.759035
21
334.393390
31
0.0
0
LINE
8
0
6
CONTINUOUS
10
-138.203845
20
341.123430
30
0.0
11
-139.623835
21
347.672810
31
0.0
0
LINE
8
0
6
CONTINUOUS
10
-140.957065
20
347.783430
30
0.0
11
-139.433175
21
340.980760
31
0.0
0
LINE
8
0
6
CONTINUOUS
10
-139.623835
20
347.672810
30
0.0
11
-140.217015
21
354.689860
31
0.0
0
LINE
8
0
6
CONTINUOUS
10
-141.472965
20
354.903340
30
0.0
11
-140.957065
21
347.783430
31
0.0
0
LINE
8
0
6
CONTINUOUS
10
-121.860545
20
317.134020
30
0.0
11
-115.919535
21
312.628250
31
0.0
0
LINE
8
0
6
CONTINUOUS
10
-115.919535
20
312.628250
30
0.0
11
-108.946115
21
308.891830
31
0.0
0
LINE
8
0
6
CONTINUOUS
10
-108.946115
20
308.891830
30
0.0
11
-105.410115
21
307.308580
31
0.0
0
LINE
8
0
6
CONTINUOUS
10
-93.905255
20
414.137340
30
0.0
11
-101.967885
21
411.907730
31
0.0
0
LINE
8
0
6
CONTINUOUS
10
-109.286005
20
408.934710
30
0.0
11
-116.229935
21
405.022200
31
0.0
0
LINE
8
0
6
CONTINUOUS
10
-116.229935
20
405.022200
30
0.0
11
-122.521935
21
400.445170
31
0.0
0
LINE
8
0
6
CONTINUOUS
10
-85.887965
20
415.506970
30
0.0
11
-77.732085
21
416.053850
31
0.0
0
LINE
8
0
6
CONTINUOUS
10
-77.732085
20
416.070170
30
0.0
11
-85.864655
21
415.523760
31
0.0
0
LINE
8
0
6
CONTINUOUS
10
-93.905255
20
414.137340
30
0.0
11
-85.887965
21
415.506970
31
0.0
0
LINE
8
0
6
CONTINUOUS
10
-93.742125
20
414.175490
30
0.0
11
-93.905255
21
414.137340
31
0.0
0
LINE
8
0
6
CONTINUOUS
10
-85.864655
20
415.523760
30
0.0
11
-93.742125
21
414.175490
31
0.0
0
LINE
8
0
6
CONTINUOUS
10
-101.967885
20
411.907730
30
0.0
11
-109.169485
21
408.998490
31
0.0
0
LINE
8
0
6
CONTINUOUS
10
-109.169485
20
408.998490
30
0.0
11
-109.286005
21
408.934710
31
0.0
0
LINE
8
0
6
CONTINUOUS
10
-92.520565
20
283.813290
30
0.0
11
-91.043245
21
211.857570
31
0.0
0
LINE
8
0
6
CONTINUOUS
10
-82.800695
20
208.141140
30
0.0
11
-80.306585
21
207.962000
31
0.0
0
LINE
8
0
6
CONTINUOUS
10
-80.306585
20
207.962000
30
0.0
11
-77.731915
21
207.898600
31
0.0
0
LINE
8
0
6
CONTINUOUS
10
-91.043245
20
211.857570
30
0.0
11
-91.041295
21
211.324120
31
0.0
0
LINE
8
0
6
CONTINUOUS
10
-91.041295
20
211.324120
30
0.0
11
-90.786395
21
210.650670
31
0.0
0
LINE
8
0
6
CONTINUOUS
10
-85.091895
20
208.460580
30
0.0
11
-82.800695
21
208.141140
31
0.0
0
LINE
8
0
6
CONTINUOUS
10
-88.796275
20
209.408000
30
0.0
11
-87.131725
21
208.888210
31
0.0
0
LINE
8
0
6
CONTINUOUS
10
-90.406965
20
210.326960
30
0.0
11
-90.027545
21
210.003240
31
0.0
0
LINE
8
0
6
CONTINUOUS
10
-90.027545
20
210.003240
30
0.0
11
-88.796275
21
209.408000
31
0.0
0
LINE
8
0
6
CONTINUOUS
10
-87.131725
20
208.888210
30
0.0
11
-85.091895
21
208.460580
31
0.0
0
LINE
8
0
6
CONTINUOUS
10
-102.273675
20
306.937790
30
0.0
11
-104.993955
21
308.042680
31
0.0
0
LINE
8
0
6
CONTINUOUS
10
-86.099395
20
285.797390
30
0.0
11
-88.511675
21
288.553430
31
0.0
0
LINE
8
0
6
CONTINUOUS
10
-80.809615
20
282.949560
30
0.0
11
-83.567355
21
283.895070
31
0.0
0
LINE
8
0
6
CONTINUOUS
10
-77.731975
20
282.694360
30
0.0
11
-80.809615
21
282.949560
31
0.0
0
LINE
8
0
6
CONTINUOUS
10
-83.567355
20
283.895070
30
0.0
11
-86.099395
21
285.797390
31
0.0
0
LINE
8
0
6
CONTINUOUS
10
-99.178005
20
303.999560
30
0.0
11
-97.353895
21
302.532580
31
0.0
0
LINE
8
0
6
CONTINUOUS
10
-95.608275
20
302.239460
30
0.0
11
-97.278785
21
303.794780
31
0.0
0
LINE
8
0
6
CONTINUOUS
10
-104.170245
20
305.966110
30
0.0
11
-101.467035
21
304.912800
31
0.0
0
LINE
8
0
6
CONTINUOUS
10
-99.871515
20
305.239790
30
0.0
11
-102.710875
21
306.286090
31
0.0
0
LINE
8
0
6
CONTINUOUS
10
-101.467035
20
304.912800
30
0.0
11
-99.178005
21
303.999560
31
0.0
0
LINE
8
0
6
CONTINUOUS
10
-97.278785
20
303.794780
30
0.0
11
-99.871515
21
305.239790
31
0.0
0
LINE
8
0
6
CONTINUOUS
10
-99.327965
20
305.738600
30
0.0
11
-102.273675
21
306.937790
31
0.0
0
LINE
8
0
6
CONTINUOUS
10
-106.140895
20
306.735610
30
0.0
11
-104.170245
21
305.966110
31
0.0
0
LINE
8
0
6
CONTINUOUS
10
-102.710875
20
306.286090
30
0.0
11
-105.410115
21
307.308580
31
0.0
0
LINE
8
0
6
CONTINUOUS
10
-139.253805
20
375.991740
30
0.0
11
-140.931815
21
369.054030
31
0.0
0
LINE
8
0
6
CONTINUOUS
10
-140.931815
20
369.054030
30
0.0
11
-140.966075
21
368.724590
31
0.0
0
LINE
8
0
6
CONTINUOUS
10
-136.643485
20
382.617420
30
0.0
11
-139.253805
21
375.991740
31
0.0
0
LINE
8
0
6
CONTINUOUS
10
-133.009035
20
388.775710
30
0.0
11
-136.643485
21
382.617420
31
0.0
0
LINE
8
0
6
CONTINUOUS
10
-140.966075
20
368.724590
30
0.0
11
-141.584355
21
362.193980
31
0.0
0
LINE
8
0
6
CONTINUOUS
10
-141.584355
20
362.193980
30
0.0
11
-141.584355
21
361.868060
31
0.0
0
LINE
8
0
6
CONTINUOUS
10
-141.584355
20
361.868060
30
0.0
11
-141.760825
21
355.702290
31
0.0
0
LINE
8
0
6
CONTINUOUS
10
-97.353895
20
302.532580
30
0.0
11
-95.529765
21
301.065600
31
0.0
0
LINE
8
0
6
CONTINUOUS
10
-94.511735
20
300.789720
30
0.0
11
-95.608275
21
302.239460
31
0.0
0
LINE
8
0
6
CONTINUOUS
10
-90.336115
20
290.368390
30
0.0
11
-91.150305
21
292.113380
31
0.0
0
LINE
8
0
6
CONTINUOUS
10
-85.991495
20
284.223590
30
0.0
11
-88.388345
21
286.793710
31
0.0
0
LINE
8
0
6
CONTINUOUS
10
-80.651355
20
281.644170
30
0.0
11
-83.376175
21
282.594490
31
0.0
0
LINE
8
0
6
CONTINUOUS
10
-93.854715
20
297.891460
30
0.0
11
-92.520565
21
283.813290
31
0.0
0
LINE
8
0
6
CONTINUOUS
10
-77.731975
20
281.200520
30
0.0
11
-80.651355
21
281.644170
31
0.0
0
LINE
8
0
6
CONTINUOUS
10
-83.376175
20
282.594490
30
0.0
11
-85.991495
21
284.223590
31
0.0
0
LINE
8
0
6
CONTINUOUS
10
-88.388345
20
286.793710
30
0.0
11
-90.336115
21
290.368390
31
0.0
0
LINE
8
0
6
CONTINUOUS
10
-91.150305
20
292.113380
30
0.0
11
-92.091045
21
294.909630
31
0.0
0
LINE
8
0
6
CONTINUOUS
10
-92.091045
20
294.909630
30
0.0
11
-92.959475
21
297.499620
31
0.0
0
LINE
8
0
6
CONTINUOUS
10
-95.529765
20
301.065600
30
0.0
11
-94.692225
21
299.478530
31
0.0
0
LINE
8
0
6
CONTINUOUS
10
-93.777655
20
299.451060
30
0.0
11
-94.511735
21
300.789720
31
0.0
0
LINE
8
0
6
CONTINUOUS
10
-94.692225
20
299.478530
30
0.0
11
-93.854715
21
297.891460
31
0.0
0
LINE
8
0
6
CONTINUOUS
10
-92.959475
20
297.499620
30
0.0
11
-93.777655
21
299.451060
31
0.0
0
LINE
8
0
6
CONTINUOUS
10
-90.786395
20
210.650670
30
0.0
11
-90.406965
21
210.326960
31
0.0
0
LINE
8
0
6
CONTINUOUS
10
-120.831565
20
391.198350
30
0.0
11
-114.845335
21
395.445330
31
0.0
0
LINE
8
0
6
CONTINUOUS
10
-115.256675
20
395.703960
30
0.0
11
-121.249085
21
391.503980
31
0.0
0
LINE
8
0
6
CONTINUOUS
10
-114.845335
20
395.445330
30
0.0
11
-107.968845
21
399.230730
31
0.0
0
LINE
8
0
6
CONTINUOUS
10
-108.261225
20
399.643330
30
0.0
11
-115.256675
21
395.703960
31
0.0
0
LINE
8
0
6
CONTINUOUS
10
-107.968845
20
399.230730
30
0.0
11
-100.883135
21
401.990430
31
0.0
0
LINE
8
0
6
CONTINUOUS
10
-101.086695
20
402.356800
30
0.0
11
-108.261225
21
399.643330
31
0.0
0
LINE
8
0
6
CONTINUOUS
10
-100.883135
20
401.990430
30
0.0
11
-92.719035
21
404.179000
31
0.0
0
LINE
8
0
6
CONTINUOUS
10
-92.836955
20
404.469830
30
0.0
11
-101.086695
21
402.356800
31
0.0
0
LINE
8
0
6
CONTINUOUS
10
-92.719035
20
404.179000
30
0.0
11
-85.705835
21
405.421370
31
0.0
0
LINE
8
0
6
CONTINUOUS
10
-85.756855
20
405.732500
30
0.0
11
-92.836955
21
404.469830
31
0.0
0
LINE
8
0
6
CONTINUOUS
10
-85.705835
20
405.421370
30
0.0
11
-77.732085
21
405.896220
31
0.0
0
LINE
8
0
6
CONTINUOUS
10
-77.732085
20
406.214680
30
0.0
11
-85.756855
21
405.732500
31
0.0
0
LINE
8
0
6
CONTINUOUS
10
-121.464725
20
317.686080
30
0.0
11
-126.879915
21
322.927630
31
0.0
0
LINE
8
0
6
CONTINUOUS
10
-127.404745
20
322.394940
30
0.0
11
-121.860545
21
317.134020
31
0.0
0
LINE
8
0
6
CONTINUOUS
10
-126.879915
20
322.927630
30
0.0
11
-131.348225
21
328.449480
31
0.0
0
LINE
8
0
6
CONTINUOUS
10
-131.825985
20
327.917250
30
0.0
11
-127.404745
21
322.394940
31
0.0
0
LINE
8
0
6
CONTINUOUS
10
-131.348225
20
328.449480
30
0.0
11
-135.094105
21
334.916310
31
0.0
0
LINE
8
0
6
CONTINUOUS
10
-135.726275
20
334.634780
30
0.0
11
-131.825985
21
327.917250
31
0.0
0
LINE
8
0
6
CONTINUOUS
10
-135.094105
20
334.916310
30
0.0
11
-137.626155
21
341.602250
31
0.0
0
LINE
8
0
6
CONTINUOUS
10
-138.203845
20
341.123430
30
0.0
11
-135.726275
21
334.634780
31
0.0
0
LINE
8
0
6
CONTINUOUS
10
-137.626155
20
341.602250
30
0.0
11
-139.053835
21
348.001940
31
0.0
0
LINE
8
0
6
CONTINUOUS
10
-139.623835
20
347.672810
30
0.0
11
-138.203845
21
341.123430
31
0.0
0
LINE
8
0
6
CONTINUOUS
10
-139.053835
20
348.001940
30
0.0
11
-139.591485
21
354.879380
31
0.0
0
LINE
8
0
6
CONTINUOUS
10
-140.217015
20
354.689860
30
0.0
11
-139.623835
21
347.672810
31
0.0
0
LINE
8
0
6
CONTINUOUS
10
-137.365795
20
367.842940
30
0.0
11
-138.983225
21
361.539230
31
0.0
0
LINE
8
0
6
CONTINUOUS
10
-138.277015
20
361.081620
30
0.0
11
-136.717335
21
367.072220
31
0.0
0
LINE
8
0
6
CONTINUOUS
10
-120.831565
20
391.198350
30
0.0
11
-126.147655
21
386.340560
31
0.0
0
LINE
8
0
6
CONTINUOUS
10
-125.522265
20
385.579300
30
0.0
11
-120.414165
21
390.276870
31
0.0
0
LINE
8
0
6
CONTINUOUS
10
-126.147655
20
386.340560
30
0.0
11
-130.806345
21
380.647810
31
0.0
0
LINE
8
0
6
CONTINUOUS
10
-130.262945
20
379.880900
30
0.0
11
-125.522265
21
385.579300
31
0.0
0
LINE
8
0
6
CONTINUOUS
10
-130.806345
20
380.647810
30
0.0
11
-134.480975
21
374.756700
31
0.0
0
LINE
8
0
6
CONTINUOUS
10
-133.921465
20
374.054640
30
0.0
11
-130.262945
21
379.880900
31
0.0
0
LINE
8
0
6
CONTINUOUS
10
-134.480975
20
374.756700
30
0.0
11
-137.365795
21
367.842940
31
0.0
0
LINE
8
0
6
CONTINUOUS
10
-136.717335
20
367.072220
30
0.0
11
-133.921465
21
374.054640
31
0.0
0
LINE
8
0
6
CONTINUOUS
10
-138.983225
20
361.539230
30
0.0
11
-139.591485
21
354.879380
31
0.0
0
LINE
8
0
6
CONTINUOUS
10
-138.966105
20
354.453200
30
0.0
11
-138.277015
21
361.081620
31
0.0
0
LINE
8
0
6
CONTINUOUS
10
-121.464725
20
317.686080
30
0.0
11
-115.550155
21
313.343890
31
0.0
0
LINE
8
0
6
CONTINUOUS
10
-115.180835
20
313.443530
30
0.0
11
-121.068915
21
317.622150
31
0.0
0
LINE
8
0
6
CONTINUOUS
10
-115.550155
20
313.343890
30
0.0
11
-108.645645
21
309.547500
31
0.0
0
LINE
8
0
6
CONTINUOUS
10
-108.345245
20
309.587170
30
0.0
11
-115.180835
21
313.443530
31
0.0
0
LINE
8
0
6
CONTINUOUS
10
-108.645645
20
309.547500
30
0.0
11
-105.202005
21
307.983630
31
0.0
0
LINE
8
0
6
CONTINUOUS
10
-104.993955
20
308.042680
30
0.0
11
-108.345245
21
309.587170
31
0.0
0
LINE
8
0
6
CONTINUOUS
10
-105.410115
20
307.308580
30
0.0
11
-102.710875
21
306.286090
31
0.0
0
LINE
8
0
6
CONTINUOUS
10
-102.492235
20
306.919940
30
0.0
11
-105.202005
21
307.983630
31
0.0
0
LINE
8
0
6
CONTINUOUS
10
-91.150305
20
292.113380
30
0.0
11
-90.336115
21
290.368390
31
0.0
0
LINE
8
0
6
CONTINUOUS
10
-86.045415
20
285.318490
30
0.0
11
-88.307225
21
288.051110
31
0.0
0
LINE
8
0
6
CONTINUOUS
10
-88.388345
20
286.793710
30
0.0
11
-85.991495
21
284.223590
31
0.0
0
LINE
8
0
6
CONTINUOUS
10
-93.777655
20
299.451060
30
0.0
11
-92.959475
21
297.499620
31
0.0
0
LINE
8
0
6
CONTINUOUS
10
-92.959475
20
297.499620
30
0.0
11
-92.091045
21
294.909630
31
0.0
0
LINE
8
0
6
CONTINUOUS
10
-80.730455
20
282.604870
30
0.0
11
-83.471735
21
283.552740
31
0.0
0
LINE
8
0
6
CONTINUOUS
10
-83.376175
20
282.594490
30
0.0
11
-80.651355
21
281.644170
31
0.0
0
LINE
8
0
6
CONTINUOUS
10
-77.731975
20
282.255360
30
0.0
11
-80.730455
21
282.604870
31
0.0
0
LINE
8
0
6
CONTINUOUS
10
-80.651355
20
281.644170
30
0.0
11
-77.731975
21
281.200520
31
0.0
0
LINE
8
0
6
CONTINUOUS
10
-83.471735
20
283.552740
30
0.0
11
-86.045415
21
285.318490
31
0.0
0
LINE
8
0
6
CONTINUOUS
10
-85.991495
20
284.223590
30
0.0
11
-83.376175
21
282.594490
31
0.0
0
LINE
8
0
6
CONTINUOUS
10
-90.336115
20
290.368390
30
0.0
11
-88.388345
21
286.793710
31
0.0
0
LINE
8
0
6
CONTINUOUS
10
-92.091045
20
294.909630
30
0.0
11
-91.150305
21
292.113380
31
0.0
0
LINE
8
0
6
CONTINUOUS
10
-97.278785
20
303.794780
30
0.0
11
-95.608275
21
302.239460
31
0.0
0
LINE
8
0
6
CONTINUOUS
10
-102.710875
20
306.286090
30
0.0
11
-99.871515
21
305.239790
31
0.0
0
LINE
8
0
6
CONTINUOUS
10
-99.599725
20
305.797200
30
0.0
11
-102.492235
21
306.919940
31
0.0
0
LINE
8
0
6
CONTINUOUS
10
-99.871515
20
305.239790
30
0.0
11
-97.278785
21
303.794780
31
0.0
0
LINE
8
0
6
CONTINUOUS
10
-95.608275
20
302.239460
30
0.0
11
-94.511735
21
300.789720
31
0.0
0
LINE
8
0
6
CONTINUOUS
10
-94.511735
20
300.789720
30
0.0
11
-93.777655
21
299.451060
31
0.0
0
LINE
8
0
6
CONTINUOUS
10
-17.449755
20
367.997970
30
0.0
11
-15.774575
21
361.381150
31
0.0
0
LINE
8
0
6
CONTINUOUS
10
-27.489245
20
395.164570
30
0.0
11
-32.942195
21
400.445170
31
0.0
0
LINE
8
0
6
CONTINUOUS
10
-22.455095
20
388.775860
30
0.0
11
-22.827985
21
389.335560
31
0.0
0
LINE
8
0
6
CONTINUOUS
10
-22.827985
20
389.335560
30
0.0
11
-27.489245
21
395.164570
31
0.0
0
LINE
8
0
6
CONTINUOUS
10
-41.030115
20
394.571000
30
0.0
11
-35.050005
21
390.276870
31
0.0
0
LINE
8
0
6
CONTINUOUS
10
-47.787645
20
398.202130
30
0.0
11
-41.030115
21
394.571000
31
0.0
0
LINE
8
0
6
CONTINUOUS
10
-54.784545
20
401.008070
30
0.0
11
-47.787645
21
398.202130
31
0.0
0
LINE
8
0
6
CONTINUOUS
10
-62.863005
20
403.272020
30
0.0
11
-54.784545
21
401.008070
31
0.0
0
LINE
8
0
6
CONTINUOUS
10
-69.809325
20
404.494250
30
0.0
11
-62.863005
21
403.272020
31
0.0
0
LINE
8
0
6
CONTINUOUS
10
-77.732085
20
404.961780
30
0.0
11
-69.809325
21
404.494250
31
0.0
0
LINE
8
0
6
CONTINUOUS
10
-34.215085
20
391.504130
30
0.0
11
-28.691025
21
386.485980
31
0.0
0
LINE
8
0
6
CONTINUOUS
10
-27.662275
20
387.467270
30
0.0
11
-33.220215
21
392.611310
31
0.0
0
LINE
8
0
6
CONTINUOUS
10
-28.691025
20
386.485980
30
0.0
11
-24.114305
21
380.798720
31
0.0
0
LINE
8
0
6
CONTINUOUS
10
-22.987255
20
381.760330
30
0.0
11
-27.662275
21
387.467270
31
0.0
0
LINE
8
0
6
CONTINUOUS
10
-24.114305
20
380.798720
30
0.0
11
-20.423585
21
374.842760
31
0.0
0
LINE
8
0
6
CONTINUOUS
10
-20.423585
20
374.842760
30
0.0
11
-17.449755
21
367.997970
31
0.0
0
LINE
8
0
6
CONTINUOUS
10
-15.774575
20
361.381150
30
0.0
11
-15.247075
21
354.689860
31
0.0
0
LINE
8
0
6
CONTINUOUS
10
-22.987255
20
381.760330
30
0.0
11
-19.181025
21
375.428390
31
0.0
0
LINE
8
0
6
CONTINUOUS
10
-19.181025
20
375.428390
30
0.0
11
-16.384845
21
368.573990
31
0.0
0
LINE
8
0
6
CONTINUOUS
10
-16.384845
20
368.573990
30
0.0
11
-14.690935
21
361.795580
31
0.0
0
LINE
8
0
6
CONTINUOUS
10
-14.690935
20
361.795580
30
0.0
11
-13.991085
21
354.903340
31
0.0
0
LINE
8
0
6
CONTINUOUS
10
-13.677515
20
355.426860
30
0.0
11
-14.295045
21
362.357100
31
0.0
0
LINE
8
0
6
CONTINUOUS
10
-29.108925
20
322.844310
30
0.0
11
-34.395065
21
317.622150
31
0.0
0
LINE
8
0
6
CONTINUOUS
10
-24.593505
20
328.365860
30
0.0
11
-29.108925
21
322.844310
31
0.0
0
LINE
8
0
6
CONTINUOUS
10
-21.002085
20
334.581990
30
0.0
11
-24.593505
21
328.365860
31
0.0
0
LINE
8
0
6
CONTINUOUS
10
-18.415565
20
341.465070
30
0.0
11
-21.002085
21
334.581990
31
0.0
0
LINE
8
0
6
CONTINUOUS
10
-16.980135
20
347.715380
30
0.0
11
-18.415565
21
341.465070
31
0.0
0
LINE
8
0
6
CONTINUOUS
10
-16.497995
20
354.453200
30
0.0
11
-16.980135
21
347.715380
31
0.0
0
LINE
8
0
6
CONTINUOUS
10
-18.705025
20
334.393540
30
0.0
11
-18.517035
21
334.823380
31
0.0
0
LINE
8
0
6
CONTINUOUS
10
-15.807795
20
341.552960
30
0.0
11
-14.218785
21
348.322980
31
0.0
0
LINE
8
0
6
CONTINUOUS
10
-16.030885
20
340.980910
30
0.0
11
-15.807795
21
341.552960
31
0.0
0
LINE
8
0
6
CONTINUOUS
10
-14.218785
20
348.322980
30
0.0
11
-13.677515
21
355.426860
31
0.0
0
LINE
8
0
6
CONTINUOUS
10
-33.603435
20
317.134020
30
0.0
11
-39.544445
21
312.628250
31
0.0
0
LINE
8
0
6
CONTINUOUS
10
-38.879205
20
312.243580
30
0.0
11
-32.746545
21
316.790390
31
0.0
0
LINE
8
0
6
CONTINUOUS
10
-39.544445
20
312.628250
30
0.0
11
-46.517865
21
308.891830
31
0.0
0
LINE
8
0
6
CONTINUOUS
10
-45.678695
20
308.413160
30
0.0
11
-38.879205
21
312.243580
31
0.0
0
LINE
8
0
6
CONTINUOUS
10
-46.517865
20
308.891830
30
0.0
11
-50.053865
21
307.308580
31
0.0
0
LINE
8
0
6
CONTINUOUS
10
-49.323085
20
306.735760
30
0.0
11
-45.678695
21
308.413160
31
0.0
0
LINE
8
0
6
CONTINUOUS
10
-15.774575
20
361.381150
30
0.0
11
-17.449755
21
367.997970
31
0.0
0
LINE
8
0
6
CONTINUOUS
10
-33.220215
20
392.611310
30
0.0
11
-39.397775
21
396.785960
31
0.0
0
LINE
8
0
6
CONTINUOUS
10
-40.207495
20
395.703960
30
0.0
11
-34.215085
21
391.504130
31
0.0
0
LINE
8
0
6
CONTINUOUS
10
-39.397775
20
396.785960
30
0.0
11
-46.245825
21
400.685350
31
0.0
0
LINE
8
0
6
CONTINUOUS
10
-47.202945
20
399.643480
30
0.0
11
-40.207495
21
395.703960
31
0.0
0
LINE
8
0
6
CONTINUOUS
10
-46.245825
20
400.685350
30
0.0
11
-53.575855
21
403.624040
31
0.0
0
LINE
8
0
6
CONTINUOUS
10
-54.377475
20
402.356950
30
0.0
11
-47.202945
21
399.643480
31
0.0
0
LINE
8
0
6
CONTINUOUS
10
-53.575855
20
403.624040
30
0.0
11
-62.109065
21
405.929950
31
0.0
0
LINE
8
0
6
CONTINUOUS
10
-62.627235
20
404.469830
30
0.0
11
-54.377475
21
402.356950
31
0.0
0
LINE
8
0
6
CONTINUOUS
10
-62.109065
20
405.929950
30
0.0
11
-69.529935
21
407.099230
31
0.0
0
LINE
8
0
6
CONTINUOUS
10
-69.707335
20
405.732500
30
0.0
11
-62.627235
21
404.469830
31
0.0
0
LINE
8
0
6
CONTINUOUS
10
-69.529935
20
407.099230
30
0.0
11
-77.732085
21
407.642900
31
0.0
0
LINE
8
0
6
CONTINUOUS
10
-77.732085
20
406.214680
30
0.0
11
-69.707335
21
405.732500
31
0.0
0
LINE
8
0
6
CONTINUOUS
10
-28.691025
20
386.485980
30
0.0
11
-34.215085
21
391.504130
31
0.0
0
LINE
8
0
6
CONTINUOUS
10
-24.114305
20
380.798720
30
0.0
11
-28.691025
21
386.485980
31
0.0
0
LINE
8
0
6
CONTINUOUS
10
-20.423585
20
374.842760
30
0.0
11
-24.114305
21
380.798720
31
0.0
0
LINE
8
0
6
CONTINUOUS
10
-17.449755
20
367.997970
30
0.0
11
-20.423585
21
374.842760
31
0.0
0
LINE
8
0
6
CONTINUOUS
10
-15.247075
20
354.689860
30
0.0
11
-15.774575
21
361.381150
31
0.0
0
LINE
8
0
6
CONTINUOUS
10
-32.746545
20
316.790390
30
0.0
11
-27.128825
21
322.099840
31
0.0
0
LINE
8
0
6
CONTINUOUS
10
-28.059275
20
322.394940
30
0.0
11
-33.603435
21
317.134020
31
0.0
0
LINE
8
0
6
CONTINUOUS
10
-27.128825
20
322.099840
30
0.0
11
-22.469095
21
327.812120
31
0.0
0
LINE
8
0
6
CONTINUOUS
10
-23.638035
20
327.917400
30
0.0
11
-28.059275
21
322.394940
31
0.0
0
LINE
8
0
6
CONTINUOUS
10
-22.469095
20
327.812120
30
0.0
11
-18.705025
21
334.393540
31
0.0
0
LINE
8
0
6
CONTINUOUS
10
-19.737735
20
334.634930
30
0.0
11
-23.638035
21
327.917400
31
0.0
0
LINE
8
0
6
CONTINUOUS
10
-18.705025
20
334.393540
30
0.0
11
-16.030885
21
340.980910
31
0.0
0
LINE
8
0
6
CONTINUOUS
10
-17.260205
20
341.123580
30
0.0
11
-19.737735
21
334.634930
31
0.0
0
LINE
8
0
6
CONTINUOUS
10
-16.030885
20
340.980910
30
0.0
11
-14.506985
21
347.783430
31
0.0
0
LINE
8
0
6
CONTINUOUS
10
-15.840265
20
347.672960
30
0.0
11
-17.260205
21
341.123580
31
0.0
0
LINE
8
0
6
CONTINUOUS
10
-14.506985
20
347.783430
30
0.0
11
-13.991085
21
354.903340
31
0.0
0
LINE
8
0
6
CONTINUOUS
10
-15.247075
20
354.689860
30
0.0
11
-15.840265
21
347.672960
31
0.0
0
LINE
8
0
6
CONTINUOUS
10
-39.544445
20
312.628250
30
0.0
11
-33.603435
21
317.134020
31
0.0
0
LINE
8
0
6
CONTINUOUS
10
-46.517865
20
308.891830
30
0.0
11
-39.544445
21
312.628250
31
0.0
0
LINE
8
0
6
CONTINUOUS
10
-50.053865
20
307.308580
30
0.0
11
-46.517865
21
308.891830
31
0.0
0
LINE
8
0
6
CONTINUOUS
10
-53.496305
20
411.907730
30
0.0
11
-61.558935
21
414.137340
31
0.0
0
LINE
8
0
6
CONTINUOUS
10
-39.234235
20
405.022200
30
0.0
11
-46.178165
21
408.934710
31
0.0
0
LINE
8
0
6
CONTINUOUS
10
-32.942195
20
400.445170
30
0.0
11
-39.234235
21
405.022200
31
0.0
0
LINE
8
0
6
CONTINUOUS
10
-69.599535
20
415.523760
30
0.0
11
-77.732085
21
416.070170
31
0.0
0
LINE
8
0
6
CONTINUOUS
10
-77.732085
20
416.053850
30
0.0
11
-69.576225
21
415.506970
31
0.0
0
LINE
8
0
6
CONTINUOUS
10
-61.722065
20
414.175490
30
0.0
11
-69.599535
21
415.523760
31
0.0
0
LINE
8
0
6
CONTINUOUS
10
-61.558935
20
414.137340
30
0.0
11
-61.722065
21
414.175490
31
0.0
0
LINE
8
0
6
CONTINUOUS
10
-69.576225
20
415.506970
30
0.0
11
-61.558935
21
414.137340
31
0.0
0
LINE
8
0
6
CONTINUOUS
10
-46.294705
20
408.998490
30
0.0
11
-53.496305
21
411.907730
31
0.0
0
LINE
8
0
6
CONTINUOUS
10
-46.178165
20
408.934710
30
0.0
11
-46.294705
21
408.998490
31
0.0
0
LINE
8
0
6
CONTINUOUS
10
-64.420565
20
211.857570
30
0.0
11
-62.943405
21
283.813290
31
0.0
0
LINE
8
0
6
CONTINUOUS
10
-75.157245
20
207.962000
30
0.0
11
-72.663155
21
208.141140
31
0.0
0
LINE
8
0
6
CONTINUOUS
10
-77.731915
20
207.898600
30
0.0
11
-75.157245
21
207.962000
31
0.0
0
LINE
8
0
6
CONTINUOUS
10
-64.677425
20
210.650750
30
0.0
11
-64.422535
21
211.324120
31
0.0
0
LINE
8
0
6
CONTINUOUS
10
-64.422535
20
211.324120
30
0.0
11
-64.420565
21
211.857570
31
0.0
0
LINE
8
0
6
CONTINUOUS
10
-72.663155
20
208.141140
30
0.0
11
-70.371955
21
208.460580
31
0.0
0
LINE
8
0
6
CONTINUOUS
10
-68.332095
20
208.888210
30
0.0
11
-66.667555
21
209.408070
31
0.0
0
LINE
8
0
6
CONTINUOUS
10
-65.436265
20
210.003320
30
0.0
11
-65.056855
21
210.327030
31
0.0
0
LINE
8
0
6
CONTINUOUS
10
-66.667555
20
209.408070
30
0.0
11
-65.436265
21
210.003320
31
0.0
0
LINE
8
0
6
CONTINUOUS
10
-70.371955
20
208.460580
30
0.0
11
-68.332095
21
208.888210
31
0.0
0
LINE
8
0
6
CONTINUOUS
10
-50.470045
20
308.042830
30
0.0
11
-53.190325
21
306.937940
31
0.0
0
LINE
8
0
6
CONTINUOUS
10
-66.952285
20
288.553430
30
0.0
11
-69.364585
21
285.797390
31
0.0
0
LINE
8
0
6
CONTINUOUS
10
-71.896605
20
283.895070
30
0.0
11
-74.654345
21
282.949560
31
0.0
0
LINE
8
0
6
CONTINUOUS
10
-74.654345
20
282.949560
30
0.0
11
-77.731975
21
282.694360
31
0.0
0
LINE
8
0
6
CONTINUOUS
10
-69.364585
20
285.797390
30
0.0
11
-71.896605
21
283.895070
31
0.0
0
LINE
8
0
6
CONTINUOUS
10
-58.185195
20
303.794780
30
0.0
11
-59.855705
21
302.239460
31
0.0
0
LINE
8
0
6
CONTINUOUS
10
-58.110085
20
302.532580
30
0.0
11
-56.285975
21
303.999560
31
0.0
0
LINE
8
0
6
CONTINUOUS
10
-52.753125
20
306.286240
30
0.0
11
-55.592455
21
305.239940
31
0.0
0
LINE
8
0
6
CONTINUOUS
10
-53.996965
20
304.912800
30
0.0
11
-51.293755
21
305.966110
31
0.0
0
LINE
8
0
6
CONTINUOUS
10
-55.592455
20
305.239940
30
0.0
11
-58.185195
21
303.794780
31
0.0
0
LINE
8
0
6
CONTINUOUS
10
-56.285975
20
303.999560
30
0.0
11
-53.996965
21
304.912800
31
0.0
0
LINE
8
0
6
CONTINUOUS
10
-53.190325
20
306.937940
30
0.0
11
-56.136015
21
305.738750
31
0.0
0
LINE
8
0
6
CONTINUOUS
10
-50.053865
20
307.308580
30
0.0
11
-52.753125
21
306.286240
31
0.0
0
LINE
8
0
6
CONTINUOUS
10
-51.293755
20
305.966110
30
0.0
11
-49.323085
21
306.735760
31
0.0
0
LINE
8
0
6
CONTINUOUS
10
-14.498065
20
368.724590
30
0.0
11
-14.532315
21
369.054030
31
0.0
0
LINE
8
0
6
CONTINUOUS
10
-14.532315
20
369.054030
30
0.0
11
-16.210325
21
375.991900
31
0.0
0
LINE
8
0
6
CONTINUOUS
10
-16.210325
20
375.991900
30
0.0
11
-18.820645
21
382.617420
31
0.0
0
LINE
8
0
6
CONTINUOUS
10
-18.820645
20
382.617420
30
0.0
11
-22.455095
21
388.775860
31
0.0
0
LINE
8
0
6
CONTINUOUS
10
-13.879735
20
362.193980
30
0.0
11
-14.498065
21
368.724590
31
0.0
0
LINE
8
0
6
CONTINUOUS
10
-13.879735
20
361.868210
30
0.0
11
-13.879735
21
362.193980
31
0.0
0
LINE
8
0
6
CONTINUOUS
10
-13.703265
20
355.702290
30
0.0
11
-13.879735
21
361.868210
31
0.0
0
LINE
8
0
6
CONTINUOUS
10
-59.855705
20
302.239460
30
0.0
11
-60.952265
21
300.789720
31
0.0
0
LINE
8
0
6
CONTINUOUS
10
-59.934215
20
301.065600
30
0.0
11
-58.110085
21
302.532580
31
0.0
0
LINE
8
0
6
CONTINUOUS
10
-64.313675
20
292.113380
30
0.0
11
-65.127865
21
290.368460
31
0.0
0
LINE
8
0
6
CONTINUOUS
10
-67.075615
20
286.793710
30
0.0
11
-69.472465
21
284.223590
31
0.0
0
LINE
8
0
6
CONTINUOUS
10
-72.087785
20
282.594490
30
0.0
11
-74.812625
21
281.644170
31
0.0
0
LINE
8
0
6
CONTINUOUS
10
-62.943405
20
283.813290
30
0.0
11
-61.609265
21
297.891620
31
0.0
0
LINE
8
0
6
CONTINUOUS
10
-74.812625
20
281.644170
30
0.0
11
-77.731975
21
281.200520
31
0.0
0
LINE
8
0
6
CONTINUOUS
10
-69.472465
20
284.223590
30
0.0
11
-72.087785
21
282.594490
31
0.0
0
LINE
8
0
6
CONTINUOUS
10
-65.127865
20
290.368460
30
0.0
11
-67.075615
21
286.793710
31
0.0
0
LINE
8
0
6
CONTINUOUS
10
-63.372915
20
294.909630
30
0.0
11
-64.313675
21
292.113380
31
0.0
0
LINE
8
0
6
CONTINUOUS
10
-62.504505
20
297.499620
30
0.0
11
-63.372915
21
294.909630
31
0.0
0
LINE
8
0
6
CONTINUOUS
10
-60.952265
20
300.789720
30
0.0
11
-61.686325
21
299.451060
31
0.0
0
LINE
8
0
6
CONTINUOUS
10
-60.771755
20
299.478530
30
0.0
11
-59.934215
21
301.065600
31
0.0
0
LINE
8
0
6
CONTINUOUS
10
-61.686325
20
299.451060
30
0.0
11
-62.504505
21
297.499620
31
0.0
0
LINE
8
0
6
CONTINUOUS
10
-61.609265
20
297.891620
30
0.0
11
-60.771755
21
299.478530
31
0.0
0
LINE
8
0
6
CONTINUOUS
10
-65.056855
20
210.327030
30
0.0
11
-64.677425
21
210.650750
31
0.0
0
LINE
8
0
6
CONTINUOUS
10
-34.215085
20
391.504130
30
0.0
11
-40.207495
21
395.703960
31
0.0
0
LINE
8
0
6
CONTINUOUS
10
-40.618835
20
395.445480
30
0.0
11
-34.632565
21
391.198500
31
0.0
0
LINE
8
0
6
CONTINUOUS
10
-40.207495
20
395.703960
30
0.0
11
-47.202945
21
399.643480
31
0.0
0
LINE
8
0
6
CONTINUOUS
10
-47.495325
20
399.230730
30
0.0
11
-40.618835
21
395.445480
31
0.0
0
LINE
8
0
6
CONTINUOUS
10
-47.202945
20
399.643480
30
0.0
11
-54.377475
21
402.356950
31
0.0
0
LINE
8
0
6
CONTINUOUS
10
-54.581045
20
401.990430
30
0.0
11
-47.495325
21
399.230730
31
0.0
0
LINE
8
0
6
CONTINUOUS
10
-54.377475
20
402.356950
30
0.0
11
-62.627235
21
404.469830
31
0.0
0
LINE
8
0
6
CONTINUOUS
10
-62.745155
20
404.179000
30
0.0
11
-54.581045
21
401.990430
31
0.0
0
LINE
8
0
6
CONTINUOUS
10
-62.627235
20
404.469830
30
0.0
11
-69.707335
21
405.732500
31
0.0
0
LINE
8
0
6
CONTINUOUS
10
-69.758355
20
405.421370
30
0.0
11
-62.745155
21
404.179000
31
0.0
0
LINE
8
0
6
CONTINUOUS
10
-69.707335
20
405.732500
30
0.0
11
-77.732085
21
406.214680
31
0.0
0
LINE
8
0
6
CONTINUOUS
10
-77.732085
20
405.896220
30
0.0
11
-69.758355
21
405.421370
31
0.0
0
LINE
8
0
6
CONTINUOUS
10
-33.603435
20
317.134020
30
0.0
11
-28.059275
21
322.394940
31
0.0
0
LINE
8
0
6
CONTINUOUS
10
-28.584135
20
322.927630
30
0.0
11
-33.999285
21
317.686080
31
0.0
0
LINE
8
0
6
CONTINUOUS
10
-28.059275
20
322.394940
30
0.0
11
-23.638035
21
327.917400
31
0.0
0
LINE
8
0
6
CONTINUOUS
10
-24.115795
20
328.449630
30
0.0
11
-28.584135
21
322.927630
31
0.0
0
LINE
8
0
6
CONTINUOUS
10
-23.638035
20
327.917400
30
0.0
11
-19.737735
21
334.634930
31
0.0
0
LINE
8
0
6
CONTINUOUS
10
-20.369945
20
334.916460
30
0.0
11
-24.115795
21
328.449630
31
0.0
0
LINE
8
0
6
CONTINUOUS
10
-19.737735
20
334.634930
30
0.0
11
-17.260205
21
341.123580
31
0.0
0
LINE
8
0
6
CONTINUOUS
10
-17.837905
20
341.602250
30
0.0
11
-20.369945
21
334.916460
31
0.0
0
LINE
8
0
6
CONTINUOUS
10
-17.260205
20
341.123580
30
0.0
11
-15.840265
21
347.672960
31
0.0
0
LINE
8
0
6
CONTINUOUS
10
-16.410215
20
348.002090
30
0.0
11
-17.837905
21
341.602250
31
0.0
0
LINE
8
0
6
CONTINUOUS
10
-15.840265
20
347.672960
30
0.0
11
-15.247075
21
354.689860
31
0.0
0
LINE
8
0
6
CONTINUOUS
10
-15.872575
20
354.879530
30
0.0
11
-16.410215
21
348.002090
31
0.0
0
LINE
8
0
6
CONTINUOUS
10
-18.746795
20
367.072220
30
0.0
11
-17.187115
21
361.081620
31
0.0
0
LINE
8
0
6
CONTINUOUS
10
-16.480865
20
361.539380
30
0.0
11
-18.098295
21
367.843090
31
0.0
0
LINE
8
0
6
CONTINUOUS
10
-35.050005
20
390.276870
30
0.0
11
-29.941865
21
385.579300
31
0.0
0
LINE
8
0
6
CONTINUOUS
10
-29.316485
20
386.340560
30
0.0
11
-34.632565
21
391.198500
31
0.0
0
LINE
8
0
6
CONTINUOUS
10
-29.941865
20
385.579300
30
0.0
11
-25.201185
21
379.881060
31
0.0
0
LINE
8
0
6
CONTINUOUS
10
-24.657825
20
380.647810
30
0.0
11
-29.316485
21
386.340560
31
0.0
0
LINE
8
0
6
CONTINUOUS
10
-25.201185
20
379.881060
30
0.0
11
-21.542665
21
374.054790
31
0.0
0
LINE
8
0
6
CONTINUOUS
10
-20.983165
20
374.756700
30
0.0
11
-24.657825
21
380.647810
31
0.0
0
LINE
8
0
6
CONTINUOUS
10
-21.542665
20
374.054790
30
0.0
11
-18.746795
21
367.072220
31
0.0
0
LINE
8
0
6
CONTINUOUS
10
-18.098295
20
367.843090
30
0.0
11
-20.983165
21
374.756700
31
0.0
0
LINE
8
0
6
CONTINUOUS
10
-17.187115
20
361.081620
30
0.0
11
-16.497995
21
354.453200
31
0.0
0
LINE
8
0
6
CONTINUOUS
10
-15.872575
20
354.879530
30
0.0
11
-16.480865
21
361.539380
31
0.0
0
LINE
8
0
6
CONTINUOUS
10
-34.395065
20
317.622150
30
0.0
11
-40.283165
21
313.443530
31
0.0
0
LINE
8
0
6
CONTINUOUS
10
-39.913845
20
313.343890
30
0.0
11
-33.999285
21
317.686080
31
0.0
0
LINE
8
0
6
CONTINUOUS
10
-40.283165
20
313.443530
30
0.0
11
-47.118755
21
309.587170
31
0.0
0
LINE
8
0
6
CONTINUOUS
10
-46.818355
20
309.547500
30
0.0
11
-39.913845
21
313.343890
31
0.0
0
LINE
8
0
6
CONTINUOUS
10
-47.118755
20
309.587170
30
0.0
11
-50.470045
21
308.042830
31
0.0
0
LINE
8
0
6
CONTINUOUS
10
-50.261995
20
307.983630
30
0.0
11
-46.818355
21
309.547500
31
0.0
0
LINE
8
0
6
CONTINUOUS
10
-50.261995
20
307.983630
30
0.0
11
-52.971765
21
306.919940
31
0.0
0
LINE
8
0
6
CONTINUOUS
10
-52.753125
20
306.286240
30
0.0
11
-50.053865
21
307.308580
31
0.0
0
LINE
8
0
6
CONTINUOUS
10
-65.127865
20
290.368460
30
0.0
11
-64.313675
21
292.113380
31
0.0
0
LINE
8
0
6
CONTINUOUS
10
-69.472465
20
284.223590
30
0.0
11
-67.075615
21
286.793710
31
0.0
0
LINE
8
0
6
CONTINUOUS
10
-67.156735
20
288.051110
30
0.0
11
-69.418545
21
285.318490
31
0.0
0
LINE
8
0
6
CONTINUOUS
10
-62.504505
20
297.499620
30
0.0
11
-61.686325
21
299.451060
31
0.0
0
LINE
8
0
6
CONTINUOUS
10
-63.372915
20
294.909630
30
0.0
11
-62.504505
21
297.499620
31
0.0
0
LINE
8
0
6
CONTINUOUS
10
-74.812625
20
281.644170
30
0.0
11
-72.087785
21
282.594490
31
0.0
0
LINE
8
0
6
CONTINUOUS
10
-71.992225
20
283.552740
30
0.0
11
-74.733505
21
282.604870
31
0.0
0
LINE
8
0
6
CONTINUOUS
10
-77.731975
20
281.200520
30
0.0
11
-74.812625
21
281.644170
31
0.0
0
LINE
8
0
6
CONTINUOUS
10
-74.733505
20
282.604870
30
0.0
11
-77.731975
21
282.255360
31
0.0
0
LINE
8
0
6
CONTINUOUS
10
-72.087785
20
282.594490
30
0.0
11
-69.472465
21
284.223590
31
0.0
0
LINE
8
0
6
CONTINUOUS
10
-69.418545
20
285.318490
30
0.0
11
-71.992225
21
283.552740
31
0.0
0
LINE
8
0
6
CONTINUOUS
10
-67.075615
20
286.793710
30
0.0
11
-65.127865
21
290.368460
31
0.0
0
LINE
8
0
6
CONTINUOUS
10
-64.313675
20
292.113380
30
0.0
11
-63.372915
21
294.909630
31
0.0
0
LINE
8
0
6
CONTINUOUS
10
-59.855705
20
302.239460
30
0.0
11
-58.185195
21
303.794780
31
0.0
0
LINE
8
0
6
CONTINUOUS
10
-52.971765
20
306.919940
30
0.0
11
-55.864275
21
305.797200
31
0.0
0
LINE
8
0
6
CONTINUOUS
10
-55.592455
20
305.239940
30
0.0
11
-52.753125
21
306.286240
31
0.0
0
LINE
8
0
6
CONTINUOUS
10
-58.185195
20
303.794780
30
0.0
11
-55.592455
21
305.239940
31
0.0
0
LINE
8
0
6
CONTINUOUS
10
-60.952265
20
300.789720
30
0.0
11
-59.855705
21
302.239460
31
0.0
0
LINE
8
0
6
CONTINUOUS
10
-61.686325
20
299.451060
30
0.0
11
-60.952265
21
300.789720
31
0.0
0
LINE
8
0
6
CONTINUOUS
10
-66.882185
20
365.686420
30
0.0
11
-72.304705
21
367.499770
31
0.0
0
LINE
8
0
6
CONTINUOUS
10
-100.682885
20
349.288860
30
0.0
11
-99.869495
21
344.450000
31
0.0
0
LINE
8
0
6
CONTINUOUS
10
-99.869495
20
344.450000
30
0.0
11
-97.700655
21
339.917070
31
0.0
0
LINE
8
0
6
CONTINUOUS
10
-97.700655
20
339.917070
30
0.0
11
-97.443805
21
339.607010
31
0.0
0
LINE
8
0
6
CONTINUOUS
10
-58.734815
20
339.605180
30
0.0
11
-58.477875
21
339.915240
31
0.0
0
LINE
8
0
6
CONTINUOUS
10
-56.308705
20
344.447860
30
0.0
11
-55.495295
21
349.286730
31
0.0
0
LINE
8
0
6
CONTINUOUS
10
-72.304705
20
367.499770
30
0.0
11
-78.088665
21
368.179090
31
0.0
0
LINE
8
0
6
CONTINUOUS
10
-62.092325
20
362.663190
30
0.0
11
-66.882185
21
365.686420
31
0.0
0
LINE
8
0
6
CONTINUOUS
10
-58.477515
20
358.655470
30
0.0
11
-62.092325
21
362.663190
31
0.0
0
LINE
8
0
6
CONTINUOUS
10
-55.495295
20
349.286730
30
0.0
11
-56.308515
21
354.122540
31
0.0
0
LINE
8
0
6
CONTINUOUS
10
-78.088665
20
368.179090
30
0.0
11
-83.872775
21
367.500230
31
0.0
0
LINE
8
0
6
CONTINUOUS
10
-83.872775
20
367.500230
30
0.0
11
-89.295215
21
365.687480
31
0.0
0
LINE
8
0
6
CONTINUOUS
10
-89.295215
20
365.687480
30
0.0
11
-94.085195
21
362.664570
31
0.0
0
LINE
8
0
6
CONTINUOUS
10
-94.085195
20
362.664570
30
0.0
11
-97.700305
21
358.657460
31
0.0
0
LINE
8
0
6
CONTINUOUS
10
-99.869305
20
354.124530
30
0.0
11
-100.682885
21
349.288860
31
0.0
0
LINE
8
0
6
CONTINUOUS
10
-97.700305
20
358.657460
30
0.0
11
-99.869305
21
354.124530
31
0.0
0
LINE
8
0
6
CONTINUOUS
10
-56.308515
20
354.122540
30
0.0
11
-58.477515
21
358.655470
31
0.0
0
LINE
8
0
6
CONTINUOUS
10
-47.416205
20
356.876910
30
0.0
11
-50.470715
21
363.260570
31
0.0
0
LINE
8
0
6
CONTINUOUS
10
-50.937555
20
362.665020
30
0.0
11
-47.933955
21
356.388020
31
0.0
0
LINE
8
0
6
CONTINUOUS
10
-62.306745
20
373.161700
30
0.0
11
-69.943085
21
375.715560
31
0.0
0
LINE
8
0
6
CONTINUOUS
10
-70.080735
20
374.908520
30
0.0
11
-62.571675
21
372.397690
31
0.0
0
LINE
8
0
6
CONTINUOUS
10
-78.088415
20
376.672290
30
0.0
11
-86.233995
21
375.716170
31
0.0
0
LINE
8
0
6
CONTINUOUS
10
-86.096415
20
374.909290
30
0.0
11
-78.088455
21
375.849080
31
0.0
0
LINE
8
0
6
CONTINUOUS
10
-62.307625
20
326.973040
30
0.0
11
-55.562055
21
331.225810
31
0.0
0
LINE
8
0
6
CONTINUOUS
10
-55.942035
20
331.169660
30
0.0
11
-62.572535
21
326.989670
31
0.0
0
LINE
8
0
6
CONTINUOUS
10
-93.871115
20
326.974410
30
0.0
11
-90.778996
21
325.938911
31
0.0
0
LINE
8
0
6
CONTINUOUS
10
-86.097355
20
324.476090
30
0.0
11
-93.606245
21
326.991040
31
0.0
0
LINE
8
0
6
CONTINUOUS
10
-47.416455
20
343.252490
30
0.0
11
-46.270945
21
350.066760
31
0.0
0
LINE
8
0
6
CONTINUOUS
10
-46.808055
20
349.693070
30
0.0
11
-47.934185
21
342.993550
31
0.0
0
LINE
8
0
6
CONTINUOUS
10
-55.562055
20
331.225810
30
0.0
11
-50.471225
21
336.869130
31
0.0
0
LINE
8
0
6
CONTINUOUS
10
-50.938055
20
336.717000
30
0.0
11
-55.942035
21
331.169660
31
0.0
0
LINE
8
0
6
CONTINUOUS
10
-105.707325
20
336.871720
30
0.0
11
-100.616515
21
331.227950
31
0.0
0
LINE
8
0
6
CONTINUOUS
10
-100.236585
20
331.171650
30
0.0
11
-105.240555
21
336.719590
31
0.0
0
LINE
8
0
6
CONTINUOUS
10
-100.616515
20
331.227950
30
0.0
11
-93.871115
21
326.974410
31
0.0
0
LINE
8
0
6
CONTINUOUS
10
-93.606245
20
326.991040
30
0.0
11
-100.236585
21
331.171650
31
0.0
0
LINE
8
0
6
CONTINUOUS
10
-86.233995
20
375.716170
30
0.0
11
-93.870235
21
373.163220
31
0.0
0
LINE
8
0
6
CONTINUOUS
10
-93.605385
20
372.399220
30
0.0
11
-86.096415
21
374.909290
31
0.0
0
LINE
8
0
6
CONTINUOUS
10
-70.081745
20
324.475330
30
0.0
11
-78.089465
21
323.535380
31
0.0
0
LINE
8
0
6
CONTINUOUS
10
-69.943085
20
375.715560
30
0.0
11
-78.088415
21
376.672290
31
0.0
0
LINE
8
0
6
CONTINUOUS
10
-78.088455
20
375.849080
30
0.0
11
-70.080735
21
374.908520
31
0.0
0
LINE
8
0
6
CONTINUOUS
10
-108.761385
20
356.879650
30
0.0
11
-109.907095
21
350.069660
31
0.0
0
LINE
8
0
6
CONTINUOUS
10
-109.370075
20
349.695970
30
0.0
11
-108.243735
21
356.390910
31
0.0
0
LINE
8
0
6
CONTINUOUS
10
-108.761655
20
343.255230
30
0.0
11
-105.707325
21
336.871720
31
0.0
0
LINE
8
0
6
CONTINUOUS
10
-105.240555
20
336.719590
30
0.0
11
-108.243975
21
342.996290
31
0.0
0
LINE
8
0
6
CONTINUOUS
10
-55.561335
20
368.904190
30
0.0
11
-62.306745
21
373.161700
31
0.0
0
LINE
8
0
6
CONTINUOUS
10
-62.571675
20
372.397690
30
0.0
11
-55.941355
21
368.212810
31
0.0
0
LINE
8
0
6
CONTINUOUS
10
-50.470715
20
363.260570
30
0.0
11
-55.561335
21
368.904190
31
0.0
0
LINE
8
0
6
CONTINUOUS
10
-55.941355
20
368.212810
30
0.0
11
-50.937555
21
362.665020
31
0.0
0
LINE
8
0
6
CONTINUOUS
10
-78.089465
20
323.535380
30
0.0
11
-86.097355
21
324.476090
31
0.0
0
LINE
8
0
6
CONTINUOUS
10
-64.724521
20
326.163884
30
0.0
11
-62.307625
21
326.973040
31
0.0
0
LINE
8
0
6
CONTINUOUS
10
-62.572535
20
326.989670
30
0.0
11
-70.081745
21
324.475330
31
0.0
0
LINE
8
0
6
CONTINUOUS
10
-46.270945
20
350.066760
30
0.0
11
-47.416205
21
356.876910
31
0.0
0
LINE
8
0
6
CONTINUOUS
10
-47.933955
20
356.388020
30
0.0
11
-46.808055
21
349.693070
31
0.0
0
LINE
8
0
6
CONTINUOUS
10
-93.870235
20
373.163220
30
0.0
11
-100.615805
21
368.906330
31
0.0
0
LINE
8
0
6
CONTINUOUS
10
-100.235885
20
368.214800
30
0.0
11
-93.605385
21
372.399220
31
0.0
0
LINE
8
0
6
CONTINUOUS
10
-108.243735
20
356.390910
30
0.0
11
-105.240055
21
362.667620
31
0.0
0
LINE
8
0
6
CONTINUOUS
10
-105.706825
20
363.263170
30
0.0
11
-108.761385
21
356.879650
31
0.0
0
LINE
8
0
6
CONTINUOUS
10
-50.471225
20
336.869130
30
0.0
11
-47.416455
21
343.252490
31
0.0
0
LINE
8
0
6
CONTINUOUS
10
-47.934185
20
342.993550
30
0.0
11
-50.938055
21
336.717000
31
0.0
0
LINE
8
0
6
CONTINUOUS
10
-100.615805
20
368.906330
30
0.0
11
-105.706825
21
363.263170
31
0.0
0
LINE
8
0
6
CONTINUOUS
10
-105.240055
20
362.667620
30
0.0
11
-100.235885
21
368.214800
31
0.0
0
LINE
8
0
6
CONTINUOUS
10
-109.907095
20
350.069660
30
0.0
11
-108.761655
21
343.255230
31
0.0
0
LINE
8
0
6
CONTINUOUS
10
-108.243975
20
342.996290
30
0.0
11
-109.370075
21
349.695970
31
0.0
0
LINE
8
0
6
CONTINUOUS
10
-43.340985
20
367.414020
30
0.0
11
-39.496995
21
359.380870
31
0.0
0
LINE
8
0
6
CONTINUOUS
10
-67.840075
20
383.082960
30
0.0
11
-58.230095
21
379.869610
31
0.0
0
LINE
8
0
6
CONTINUOUS
10
-88.336635
20
383.084030
30
0.0
11
-78.088205
21
384.286730
31
0.0
0
LINE
8
0
6
CONTINUOUS
10
-49.745635
20
327.106700
30
0.0
11
-58.231205
21
321.757280
31
0.0
0
LINE
8
0
6
CONTINUOUS
10
-38.056105
20
350.812760
30
0.0
11
-39.497335
21
342.238850
31
0.0
0
LINE
8
0
6
CONTINUOUS
10
-43.341595
20
334.206160
30
0.0
11
-49.745635
21
327.106700
31
0.0
0
LINE
8
0
6
CONTINUOUS
10
-106.432955
20
327.109450
30
0.0
11
-112.836955
21
334.209370
31
0.0
0
LINE
8
0
6
CONTINUOUS
10
-97.947575
20
321.759110
30
0.0
11
-106.432955
21
327.109450
31
0.0
0
LINE
8
0
6
CONTINUOUS
10
-97.946475
20
379.871600
30
0.0
11
-88.336635
21
383.084030
31
0.0
0
LINE
8
0
6
CONTINUOUS
10
-78.088205
20
384.286730
30
0.0
11
-67.840075
21
383.082960
31
0.0
0
LINE
8
0
6
CONTINUOUS
10
-118.121835
20
350.816420
30
0.0
11
-116.680335
21
359.384380
31
0.0
0
LINE
8
0
6
CONTINUOUS
10
-112.836955
20
334.209370
30
0.0
11
-116.680645
21
342.242360
31
0.0
0
LINE
8
0
6
CONTINUOUS
10
-58.230095
20
379.869610
30
0.0
11
-49.744755
21
374.513930
31
0.0
0
LINE
8
0
6
CONTINUOUS
10
-49.744755
20
374.513930
30
0.0
11
-43.340985
21
367.414020
31
0.0
0
LINE
8
0
6
CONTINUOUS
10
-39.496995
20
359.380870
30
0.0
11
-38.056105
21
350.812760
31
0.0
0
LINE
8
0
6
CONTINUOUS
10
-106.432035
20
374.516530
30
0.0
11
-97.946475
21
379.871600
31
0.0
0
LINE
8
0
6
CONTINUOUS
10
-116.680335
20
359.384380
30
0.0
11
-112.836325
21
367.417220
31
0.0
0
LINE
8
0
6
CONTINUOUS
10
-39.497335
20
342.238850
30
0.0
11
-43.341595
21
334.206160
31
0.0
0
LINE
8
0
6
CONTINUOUS
10
-112.836325
20
367.417220
30
0.0
11
-106.432035
21
374.516530
31
0.0
0
LINE
8
0
6
CONTINUOUS
10
-116.680645
20
342.242360
30
0.0
11
-118.121835
21
350.816420
31
0.0
0
LINE
8
0
6
CONTINUOUS
10
-35.143695
20
372.445750
30
0.0
11
-30.392915
21
362.517620
31
0.0
0
LINE
8
0
6
CONTINUOUS
10
-65.422205
20
391.811140
30
0.0
11
-53.545225
21
387.839740
31
0.0
0
LINE
8
0
6
CONTINUOUS
10
-90.753995
20
391.812360
30
0.0
11
-78.087925
21
393.298870
31
0.0
0
LINE
8
0
6
CONTINUOUS
10
-43.059235
20
322.629930
30
0.0
11
-53.546595
21
316.018450
31
0.0
0
LINE
8
0
6
CONTINUOUS
10
-28.612135
20
351.928180
30
0.0
11
-30.393375
21
341.331710
31
0.0
0
LINE
8
0
6
CONTINUOUS
10
-35.144495
20
331.404190
30
0.0
11
-43.059235
21
322.629930
31
0.0
0
LINE
8
0
6
CONTINUOUS
10
-113.119295
20
322.633290
30
0.0
11
-121.034015
21
331.408160
31
0.0
0
LINE
8
0
6
CONTINUOUS
10
-102.632175
20
316.020740
30
0.0
11
-113.119295
21
322.633290
31
0.0
0
LINE
8
0
6
CONTINUOUS
10
-102.630805
20
387.842180
30
0.0
11
-90.753995
21
391.812360
31
0.0
0
LINE
8
0
6
CONTINUOUS
10
-78.087925
20
393.298870
30
0.0
11
-65.422205
21
391.811140
31
0.0
0
LINE
8
0
6
CONTINUOUS
10
-127.565615
20
351.932750
30
0.0
11
-125.784075
21
362.522050
31
0.0
0
LINE
8
0
6
CONTINUOUS
10
-121.034015
20
331.408160
30
0.0
11
-125.784495
21
341.336140
31
0.0
0
LINE
8
0
6
CONTINUOUS
10
-53.545225
20
387.839740
30
0.0
11
-43.058165
21
381.220630
31
0.0
0
LINE
8
0
6
CONTINUOUS
10
-43.058165
20
381.220630
30
0.0
11
-35.143695
21
372.445750
31
0.0
0
LINE
8
0
6
CONTINUOUS
10
-30.392915
20
362.517620
30
0.0
11
-28.612135
21
351.928180
31
0.0
0
LINE
8
0
6
CONTINUOUS
10
-113.118155
20
381.223830
30
0.0
11
-102.630805
21
387.842180
31
0.0
0
LINE
8
0
6
CONTINUOUS
10
-125.784075
20
362.522050
30
0.0
11
-121.033205
21
372.449720
31
0.0
0
LINE
8
0
6
CONTINUOUS
10
-30.393375
20
341.331710
30
0.0
11
-35.144495
21
331.404190
31
0.0
0
LINE
8
0
6
CONTINUOUS
10
-121.033205
20
372.449720
30
0.0
11
-113.118155
21
381.223830
31
0.0
0
LINE
8
0
6
CONTINUOUS
10
-125.784495
20
341.336140
30
0.0
11
-127.565615
21
351.932750
31
0.0
0
LINE
8
0
6
CONTINUOUS
10
-100.386985
20
348.855970
30
0.0
11
-99.584255
21
344.080120
31
0.0
0
LINE
8
0
6
CONTINUOUS
10
-78.088725
20
367.498550
30
0.0
11
-83.797075
21
366.828540
31
0.0
0
LINE
8
0
6
CONTINUOUS
10
-83.797755
20
330.878680
30
0.0
11
-78.089405
21
330.208050
31
0.0
0
LINE
8
0
6
CONTINUOUS
10
-67.029645
20
332.670060
30
0.0
11
-62.302415
21
335.650100
31
0.0
0
LINE
8
0
6
CONTINUOUS
10
-67.029035
20
365.038680
30
0.0
11
-72.380525
21
366.827930
31
0.0
0
LINE
8
0
6
CONTINUOUS
10
-56.593855
20
353.626330
30
0.0
11
-58.734455
21
358.099590
31
0.0
0
LINE
8
0
6
CONTINUOUS
10
-58.734815
20
339.605180
30
0.0
11
-56.594045
21
344.078140
31
0.0
0
LINE
8
0
6
CONTINUOUS
10
-78.089405
20
330.208050
30
0.0
11
-72.381205
21
330.878070
31
0.0
0
LINE
8
0
6
CONTINUOUS
10
-97.443805
20
339.607010
30
0.0
11
-93.876225
21
335.651470
31
0.0
0
LINE
8
0
6
CONTINUOUS
10
-56.594045
20
344.078140
30
0.0
11
-55.791285
21
348.853990
31
0.0
0
LINE
8
0
6
CONTINUOUS
10
-72.380525
20
366.827930
30
0.0
11
-78.088725
21
367.498550
31
0.0
0
LINE
8
0
6
CONTINUOUS
10
-99.584085
20
353.628460
30
0.0
11
-100.386985
21
348.855970
31
0.0
0
LINE
8
0
6
CONTINUOUS
10
-97.443465
20
358.101420
30
0.0
11
-99.584085
21
353.628460
31
0.0
0
LINE
8
0
6
CONTINUOUS
10
-93.875715
20
362.056500
30
0.0
11
-97.443465
21
358.101420
31
0.0
0
LINE
8
0
6
CONTINUOUS
10
-89.148485
20
365.039750
30
0.0
11
-93.875715
21
362.056500
31
0.0
0
LINE
8
0
6
CONTINUOUS
10
-55.791285
20
348.853990
30
0.0
11
-56.593855
21
353.626330
31
0.0
0
LINE
8
0
6
CONTINUOUS
10
-58.734455
20
358.099590
30
0.0
11
-62.301905
21
362.055130
31
0.0
0
LINE
8
0
6
CONTINUOUS
10
-62.301905
20
362.055130
30
0.0
11
-67.029035
21
365.038680
31
0.0
0
LINE
8
0
6
CONTINUOUS
10
-99.584255
20
344.080120
30
0.0
11
-97.443805
21
339.607010
31
0.0
0
LINE
8
0
6
CONTINUOUS
10
-62.302415
20
335.650100
30
0.0
11
-58.734815
21
339.605180
31
0.0
0
LINE
8
0
6
CONTINUOUS
10
-83.797075
20
366.828540
30
0.0
11
-89.148485
21
365.039750
31
0.0
0
LINE
8
0
6
CONTINUOUS
10
-72.381205
20
330.878070
30
0.0
11
-67.029645
21
332.670060
31
0.0
0
LINE
8
0
6
CONTINUOUS
10
-93.876225
20
335.651470
30
0.0
11
-89.149095
21
332.671130
31
0.0
0
LINE
8
0
6
CONTINUOUS
10
-89.149095
20
332.671130
30
0.0
11
-83.797755
21
330.878680
31
0.0
0
LINE
8
0
6
CONTINUOUS
10
-363.097955
20
-496.795810
30
0.0
11
-363.098025
21
-496.037660
31
0.0
0
LINE
8
0
6
CONTINUOUS
10
-364.185525
20
-496.795860
30
0.0
11
-363.097955
21
-496.795810
31
0.0
0
LINE
8
0
6
CONTINUOUS
10
-366.721765
20
-496.795850
30
0.0
11
-364.185525
21
-496.795860
31
0.0
0
LINE
8
0
6
CONTINUOUS
10
-370.320625
20
-496.795790
30
0.0
11
-374.434275
21
-496.795850
31
0.0
0
LINE
8
0
6
CONTINUOUS
10
-370.320625
20
-496.037670
30
0.0
11
-370.320625
21
-496.795790
31
0.0
0
LINE
8
0
6
CONTINUOUS
10
-366.721765
20
-496.795850
30
0.0
11
-370.320625
21
-496.795790
31
0.0
0
LINE
8
0
6
CONTINUOUS
10
-381.717685
20
-496.795860
30
0.0
11
-378.436435
21
-496.795850
31
0.0
0
LINE
8
0
6
CONTINUOUS
10
-384.305575
20
-496.037680
30
0.0
11
-384.305535
21
-496.795860
31
0.0
0
LINE
8
0
6
CONTINUOUS
10
-383.778605
20
-496.795820
30
0.0
11
-384.305535
21
-496.795860
31
0.0
0
LINE
8
0
6
CONTINUOUS
10
-378.436435
20
-496.795850
30
0.0
11
-374.434275
21
-496.795850
31
0.0
0
LINE
8
0
6
CONTINUOUS
10
-378.436435
20
-496.037700
30
0.0
11
-378.436435
21
-496.795850
31
0.0
0
LINE
8
0
6
CONTINUOUS
10
-381.717685
20
-496.795860
30
0.0
11
-383.778605
21
-496.795820
31
0.0
0
LINE
8
0
6
CONTINUOUS
10
-362.619745
20
-473.796370
30
0.0
11
-373.705865
21
-473.796400
31
0.0
0
LINE
8
0
6
CONTINUOUS
10
-363.756295
20
-473.796430
30
0.0
11
-362.619745
21
-473.796370
31
0.0
0
LINE
8
0
6
CONTINUOUS
10
-373.705865
20
-473.796400
30
0.0
11
-380.996815
21
-473.796390
31
0.0
0
LINE
8
0
6
CONTINUOUS
10
-365.668675
20
-510.505810
30
0.0
11
-365.668675
21
-496.795854
31
0.0
0
LINE
8
0
6
CONTINUOUS
10
-369.687305
20
-510.505810
30
0.0
11
-369.687305
21
-496.795835
31
0.0
0
LINE
8
0
6
CONTINUOUS
10
-377.724495
20
-510.505810
30
0.0
11
-377.724495
21
-496.795850
31
0.0
0
LINE
8
0
6
CONTINUOUS
10
-381.743045
20
-496.795834
30
0.0
11
-381.743045
21
-510.505810
31
0.0
0
LINE
8
0
6
CONTINUOUS
10
-365.668675
20
-527.390270
30
0.0
11
-365.668675
21
-510.505810
31
0.0
0
LINE
8
0
6
CONTINUOUS
10
-369.687305
20
-527.390270
30
0.0
11
-369.687305
21
-510.505810
31
0.0
0
LINE
8
0
6
CONTINUOUS
10
-377.724495
20
-527.390270
30
0.0
11
-377.724495
21
-510.505810
31
0.0
0
LINE
8
0
6
CONTINUOUS
10
-381.743045
20
-510.505810
30
0.0
11
-381.743045
21
-527.390270
31
0.0
0
LINE
8
0
6
CONTINUOUS
10
-365.668675
20
-544.079880
30
0.0
11
-365.668675
21
-527.390270
31
0.0
0
LINE
8
0
6
CONTINUOUS
10
-369.687305
20
-544.079880
30
0.0
11
-369.687305
21
-527.390270
31
0.0
0
LINE
8
0
6
CONTINUOUS
10
-377.724495
20
-544.079880
30
0.0
11
-377.724495
21
-527.390270
31
0.0
0
LINE
8
0
6
CONTINUOUS
10
-381.743045
20
-527.390270
30
0.0
11
-381.743045
21
-544.079880
31
0.0
0
LINE
8
0
6
CONTINUOUS
10
-365.668675
20
-560.528640
30
0.0
11
-365.668675
21
-544.079880
31
0.0
0
LINE
8
0
6
CONTINUOUS
10
-369.687305
20
-560.528640
30
0.0
11
-369.687305
21
-544.079880
31
0.0
0
LINE
8
0
6
CONTINUOUS
10
-377.724495
20
-560.528640
30
0.0
11
-377.724495
21
-544.079880
31
0.0
0
LINE
8
0
6
CONTINUOUS
10
-381.743045
20
-544.079880
30
0.0
11
-381.743045
21
-560.528640
31
0.0
0
LINE
8
0
6
CONTINUOUS
10
-365.668675
20
-576.690670
30
0.0
11
-365.668675
21
-560.528640
31
0.0
0
LINE
8
0
6
CONTINUOUS
10
-369.687305
20
-576.690670
30
0.0
11
-369.687305
21
-560.528640
31
0.0
0
LINE
8
0
6
CONTINUOUS
10
-377.724495
20
-576.690670
30
0.0
11
-377.724495
21
-560.528640
31
0.0
0
LINE
8
0
6
CONTINUOUS
10
-381.743045
20
-560.528640
30
0.0
11
-381.743045
21
-576.690670
31
0.0
0
LINE
8
0
6
CONTINUOUS
10
-365.668675
20
-592.519990
30
0.0
11
-365.668675
21
-576.690670
31
0.0
0
LINE
8
0
6
CONTINUOUS
10
-369.687305
20
-592.519990
30
0.0
11
-369.687305
21
-576.690670
31
0.0
0
LINE
8
0
6
CONTINUOUS
10
-377.724495
20
-592.519990
30
0.0
11
-377.724495
21
-576.690670
31
0.0
0
LINE
8
0
6
CONTINUOUS
10
-381.743045
20
-576.690670
30
0.0
11
-381.743045
21
-592.519990
31
0.0
0
LINE
8
0
6
CONTINUOUS
10
-365.668675
20
-607.970660
30
0.0
11
-365.668675
21
-592.519990
31
0.0
0
LINE
8
0
6
CONTINUOUS
10
-369.687305
20
-607.970660
30
0.0
11
-369.687305
21
-592.519990
31
0.0
0
LINE
8
0
6
CONTINUOUS
10
-377.724495
20
-607.970660
30
0.0
11
-377.724495
21
-592.519990
31
0.0
0
LINE
8
0
6
CONTINUOUS
10
-381.743045
20
-592.519990
30
0.0
11
-381.743045
21
-607.970660
31
0.0
0
LINE
8
0
6
CONTINUOUS
10
-365.668675
20
-622.996710
30
0.0
11
-365.668675
21
-607.970660
31
0.0
0
LINE
8
0
6
CONTINUOUS
10
-369.687305
20
-622.996710
30
0.0
11
-369.687305
21
-607.970660
31
0.0
0
LINE
8
0
6
CONTINUOUS
10
-377.724495
20
-622.996710
30
0.0
11
-377.724495
21
-607.970660
31
0.0
0
LINE
8
0
6
CONTINUOUS
10
-381.743045
20
-607.970660
30
0.0
11
-381.743045
21
-622.996710
31
0.0
0
LINE
8
0
6
CONTINUOUS
10
-365.668945
20
-637.487430
30
0.0
11
-365.668675
21
-622.996710
31
0.0
0
LINE
8
0
6
CONTINUOUS
10
-369.687425
20
-637.516460
30
0.0
11
-369.687305
21
-622.996710
31
0.0
0
LINE
8
0
6
CONTINUOUS
10
-377.724345
20
-637.581270
30
0.0
11
-377.724495
21
-622.996710
31
0.0
0
LINE
8
0
6
CONTINUOUS
10
-381.743045
20
-622.996710
30
0.0
11
-381.742815
21
-637.617050
31
0.0
0
LINE
8
0
6
CONTINUOUS
10
-365.408055
20
-653.753490
30
0.0
11
-365.668945
21
-637.487430
31
0.0
0
LINE
8
0
6
CONTINUOUS
10
-369.424205
20
-653.885980
30
0.0
11
-369.687425
21
-637.516460
31
0.0
0
LINE
8
0
6
CONTINUOUS
10
-377.455935
20
-654.181750
30
0.0
11
-377.724345
21
-637.581270
31
0.0
0
LINE
8
0
6
CONTINUOUS
10
-381.742815
20
-637.617050
30
0.0
11
-381.471515
21
-654.345040
31
0.0
0
LINE
8
0
6
CONTINUOUS
10
-364.555625
20
-668.589060
30
0.0
11
-365.408055
21
-653.753490
31
0.0
0
LINE
8
0
6
CONTINUOUS
10
-368.561055
20
-668.896370
30
0.0
11
-369.424205
21
-653.885980
31
0.0
0
LINE
8
0
6
CONTINUOUS
10
-376.568945
20
-669.582440
30
0.0
11
-377.455935
21
-654.181750
31
0.0
0
LINE
8
0
6
CONTINUOUS
10
-381.471515
20
-654.345040
30
0.0
11
-380.571325
21
-669.961240
31
0.0
0
LINE
8
0
6
CONTINUOUS
10
-363.012275
20
-682.152790
30
0.0
11
-364.555625
21
-668.589060
31
0.0
0
LINE
8
0
6
CONTINUOUS
10
-366.990695
20
-682.688940
30
0.0
11
-368.561055
21
-668.896370
31
0.0
0
LINE
8
0
6
CONTINUOUS
10
-374.938235
20
-683.885920
30
0.0
11
-376.568945
21
-669.582440
31
0.0
0
LINE
8
0
6
CONTINUOUS
10
-380.571325
20
-669.961240
30
0.0
11
-378.907355
21
-684.546740
31
0.0
0
LINE
8
0
6
CONTINUOUS
10
-360.685695
20
-694.562840
30
0.0
11
-363.012275
21
-682.152790
31
0.0
0
LINE
8
0
6
CONTINUOUS
10
-364.609715
20
-695.382610
30
0.0
11
-366.990695
21
-682.688940
31
0.0
0
LINE
8
0
6
CONTINUOUS
10
-372.435725
20
-697.212830
30
0.0
11
-374.938235
21
-683.885920
31
0.0
0
LINE
8
0
6
CONTINUOUS
10
-378.907355
20
-684.546740
30
0.0
11
-376.337695
21
-698.223270
31
0.0
0
LINE
8
0
6
CONTINUOUS
10
-357.486575
20
-705.955730
30
0.0
11
-360.685695
21
-694.562840
31
0.0
0
LINE
8
0
6
CONTINUOUS
10
-361.316265
20
-707.106480
30
0.0
11
-364.609715
21
-695.382610
31
0.0
0
LINE
8
0
6
CONTINUOUS
10
-368.931765
20
-709.675600
30
0.0
11
-372.435725
21
-697.212830
31
0.0
0
LINE
8
0
6
CONTINUOUS
10
-376.337695
20
-698.223270
30
0.0
11
-372.717555
21
-711.093940
31
0.0
0
LINE
8
0
6
CONTINUOUS
10
-353.318595
20
-716.492270
30
0.0
11
-357.486575
21
-705.955730
31
0.0
0
LINE
8
0
6
CONTINUOUS
10
-357.004815
20
-718.002970
30
0.0
11
-361.316265
21
-707.106480
31
0.0
0
LINE
8
0
6
CONTINUOUS
10
-364.299965
20
-721.375730
30
0.0
11
-368.931765
21
-709.675600
31
0.0
0
LINE
8
0
6
CONTINUOUS
10
-372.717555
20
-711.093940
30
0.0
11
-367.908855
21
-723.237760
31
0.0
0
LINE
8
0
6
CONTINUOUS
10
-348.065565
20
-726.353070
30
0.0
11
-353.318595
21
-716.492270
31
0.0
0
LINE
8
0
6
CONTINUOUS
10
-351.558725
20
-728.225520
30
0.0
11
-357.004815
21
-718.002970
31
0.0
0
LINE
8
0
6
CONTINUOUS
10
-358.422815
20
-732.405930
30
0.0
11
-364.299965
21
-721.375730
31
0.0
0
LINE
8
0
6
CONTINUOUS
10
-367.908855
20
-723.237760
30
0.0
11
-361.793705
21
-734.713900
31
0.0
0
LINE
8
0
6
CONTINUOUS
10
-341.584435
20
-735.722080
30
0.0
11
-348.065565
21
-726.353070
31
0.0
0
LINE
8
0
6
CONTINUOUS
10
-344.846535
20
-737.929380
30
0.0
11
-351.558725
21
-728.225520
31
0.0
0
LINE
8
0
6
CONTINUOUS
10
-351.194835
20
-742.857400
30
0.0
11
-358.422815
21
-732.405930
31
0.0
0
LINE
8
0
6
CONTINUOUS
10
-361.793705
20
-734.713900
30
0.0
11
-354.281005
21
-745.578080
31
0.0
0
LINE
8
0
6
CONTINUOUS
10
-333.711895
20
-744.766200
30
0.0
11
-341.584435
21
-735.722080
31
0.0
0
LINE
8
0
6
CONTINUOUS
10
-336.725655
20
-747.260440
30
0.0
11
-344.846535
21
-737.929380
31
0.0
0
LINE
8
0
6
CONTINUOUS
10
-342.519605
20
-752.828980
30
0.0
11
-351.194835
21
-742.857400
31
0.0
0
LINE
8
0
6
CONTINUOUS
10
-354.281005
20
-745.578080
30
0.0
11
-345.299715
21
-755.903280
31
0.0
0
LINE
8
0
6
CONTINUOUS
10
-324.491305
20
-753.449780
30
0.0
11
-333.711895
21
-744.766200
31
0.0
0
LINE
8
0
6
CONTINUOUS
10
-327.163655
20
-756.256260
30
0.0
11
-336.725655
21
-747.260440
31
0.0
0
LINE
8
0
6
CONTINUOUS
10
-332.204165
20
-762.513890
30
0.0
11
-342.519605
21
-752.828980
31
0.0
0
LINE
8
0
6
CONTINUOUS
10
-345.299715
20
-755.903280
30
0.0
11
-334.572335
21
-765.964970
31
0.0
0
LINE
8
0
6
CONTINUOUS
10
-311.133345
20
-762.595520
30
0.0
11
-324.491305
21
-753.449780
31
0.0
0
LINE
8
0
6
CONTINUOUS
10
-313.292545
20
-765.747600
30
0.0
11
-327.163655
21
-756.256260
31
0.0
0
LINE
8
0
6
CONTINUOUS
10
-317.212715
20
-772.759630
30
0.0
11
-332.204165
21
-762.513890
31
0.0
0
LINE
8
0
6
CONTINUOUS
10
-334.572335
20
-765.964970
30
0.0
11
-318.973655
21
-776.619610
31
0.0
0
LINE
8
0
6
CONTINUOUS
10
-294.944805
20
-769.748000
30
0.0
11
-311.133345
21
-762.595520
31
0.0
0
LINE
8
0
6
CONTINUOUS
10
-296.555175
20
-773.149190
30
0.0
11
-313.292545
21
-765.747600
31
0.0
0
LINE
8
0
6
CONTINUOUS
10
-299.278145
20
-780.704570
30
0.0
11
-317.212715
21
-772.759630
31
0.0
0
LINE
8
0
6
CONTINUOUS
10
-318.973655
20
-776.619610
30
0.0
11
-300.390775
21
-784.858860
31
0.0
0
LINE
8
0
6
CONTINUOUS
10
-276.330795
20
-774.914020
30
0.0
11
-294.944805
21
-769.748000
31
0.0
0
LINE
8
0
6
CONTINUOUS
10
-277.471045
20
-778.448830
30
0.0
11
-296.555175
21
-773.149190
31
0.0
0
LINE
8
0
6
CONTINUOUS
10
-279.163775
20
-786.297070
30
0.0
11
-299.278145
21
-780.704570
31
0.0
0
LINE
8
0
6
CONTINUOUS
10
-300.390775
20
-784.858860
30
0.0
11
-279.716295
21
-790.610580
31
0.0
0
LINE
8
0
6
CONTINUOUS
10
-255.990755
20
-777.963030
30
0.0
11
-276.330795
21
-774.914020
31
0.0
0
LINE
8
0
6
CONTINUOUS
10
-256.716305
20
-781.561430
30
0.0
11
-277.471045
21
-778.448830
31
0.0
0
LINE
8
0
6
CONTINUOUS
10
-257.495305
20
-789.549870
30
0.0
11
-279.163775
21
-786.297070
31
0.0
0
LINE
8
0
6
CONTINUOUS
10
-279.716295
20
-790.610580
30
0.0
11
-257.548755
21
-793.939900
31
0.0
0
LINE
8
0
6
CONTINUOUS
10
-234.627955
20
-778.814770
30
0.0
11
-255.990755
21
-777.963030
31
0.0
0
LINE
8
0
6
CONTINUOUS
10
-234.969295
20
-782.428970
30
0.0
11
-256.716305
21
-781.561430
31
0.0
0
LINE
8
0
6
CONTINUOUS
10
-234.896695
20
-790.452460
30
0.0
11
-257.495305
21
-789.549870
31
0.0
0
LINE
8
0
6
CONTINUOUS
10
-257.548755
20
-793.939900
30
0.0
11
-234.482685
21
-794.861680
31
0.0
0
LINE
8
0
6
CONTINUOUS
10
-212.940525
20
-777.420810
30
0.0
11
-234.627955
21
-778.814770
31
0.0
0
LINE
8
0
6
CONTINUOUS
10
-212.905885
20
-781.010670
30
0.0
11
-234.969295
21
-782.428970
31
0.0
0
LINE
8
0
6
CONTINUOUS
10
-211.994555
20
-788.979800
30
0.0
11
-234.896695
21
-790.452460
31
0.0
0
LINE
8
0
6
CONTINUOUS
10
-234.482685
20
-794.861680
30
0.0
11
-211.117895
21
-793.359070
31
0.0
0
LINE
8
0
6
CONTINUOUS
10
-191.621975
20
-773.756330
30
0.0
11
-212.940525
21
-777.420810
31
0.0
0
LINE
8
0
6
CONTINUOUS
10
-191.199375
20
-777.278630
30
0.0
11
-212.905885
21
-781.010670
31
0.0
0
LINE
8
0
6
CONTINUOUS
10
-189.417835
20
-785.096130
30
0.0
11
-211.994555
21
-788.979800
31
0.0
0
LINE
8
0
6
CONTINUOUS
10
-211.117895
20
-793.359070
30
0.0
11
-188.058775
21
-789.391330
31
0.0
0
LINE
8
0
6
CONTINUOUS
10
-171.361195
20
-767.820130
30
0.0
11
-191.621975
21
-773.756330
31
0.0
0
LINE
8
0
6
CONTINUOUS
10
-170.521015
20
-771.218110
30
0.0
11
-191.199375
21
-777.278630
31
0.0
0
LINE
8
0
6
CONTINUOUS
10
-167.797505
20
-778.755300
30
0.0
11
-189.417835
21
-785.096130
31
0.0
0
LINE
8
0
6
CONTINUOUS
10
-188.058775
20
-789.391330
30
0.0
11
-165.914195
21
-782.894520
31
0.0
0
LINE
8
0
6
CONTINUOUS
10
-152.837295
20
-759.639400
30
0.0
11
-171.361195
21
-767.820130
31
0.0
0
LINE
8
0
6
CONTINUOUS
10
-151.536365
20
-762.830350
30
0.0
11
-170.521015
21
-771.218110
31
0.0
0
LINE
8
0
6
CONTINUOUS
10
-147.769245
20
-769.898640
30
0.0
11
-167.797505
21
-778.755300
31
0.0
0
LINE
8
0
6
CONTINUOUS
10
-165.914195
20
-782.894520
30
0.0
11
-145.303075
21
-773.775940
31
0.0
0
LINE
8
0
6
CONTINUOUS
10
-136.494945
20
-749.118540
30
0.0
11
-152.837295
21
-759.639400
31
0.0
0
LINE
8
0
6
CONTINUOUS
10
-134.778095
20
-752.046740
30
0.0
11
-151.536365
21
-762.830350
31
0.0
0
LINE
8
0
6
CONTINUOUS
10
-130.069925
20
-758.520390
30
0.0
11
-147.769245
21
-769.898640
31
0.0
0
LINE
8
0
6
CONTINUOUS
10
-145.303075
20
-773.775940
30
0.0
11
-127.078515
21
-762.065850
31
0.0
0
LINE
8
0
6
CONTINUOUS
10
-126.909675
20
-741.119730
30
0.0
11
-136.494945
21
-749.118540
31
0.0
0
LINE
8
0
6
CONTINUOUS
10
-124.912985
20
-743.819960
30
0.0
11
-134.778095
21
-752.046740
31
0.0
0
LINE
8
0
6
CONTINUOUS
10
-119.578855
20
-749.783780
30
0.0
11
-130.069925
21
-758.520390
31
0.0
0
LINE
8
0
6
CONTINUOUS
10
-127.078515
20
-762.065850
30
0.0
11
-116.241375
21
-753.047290
31
0.0
0
LINE
8
0
6
CONTINUOUS
10
-118.235285
20
-732.656940
30
0.0
11
-126.909675
21
-741.119730
31
0.0
0
LINE
8
0
6
CONTINUOUS
10
-116.019705
20
-735.142250
30
0.0
11
-124.912985
21
-743.819960
31
0.0
0
LINE
8
0
6
CONTINUOUS
10
-110.202065
20
-740.631330
30
0.0
11
-119.578855
21
-749.783780
31
0.0
0
LINE
8
0
6
CONTINUOUS
10
-116.241375
20
-753.047290
30
0.0
11
-106.599995
21
-743.635100
31
0.0
0
LINE
8
0
6
CONTINUOUS
10
-110.631275
20
-723.759690
30
0.0
11
-118.235285
21
-732.656940
31
0.0
0
LINE
8
0
6
CONTINUOUS
10
-108.191355
20
-725.981060
30
0.0
11
-116.019705
21
-735.142250
31
0.0
0
LINE
8
0
6
CONTINUOUS
10
-101.878225
20
-730.887380
30
0.0
11
-110.202065
21
-740.631330
31
0.0
0
LINE
8
0
6
CONTINUOUS
10
-106.599995
20
-743.635100
30
0.0
11
-98.005005
21
-733.572160
31
0.0
0
LINE
8
0
6
CONTINUOUS
10
-104.066295
20
-714.303890
30
0.0
11
-110.631275
21
-723.759690
31
0.0
0
LINE
8
0
6
CONTINUOUS
10
-101.413095
20
-716.217080
30
0.0
11
-108.191355
21
-725.981060
31
0.0
0
LINE
8
0
6
CONTINUOUS
10
-94.628925
20
-720.442580
30
0.0
11
-101.878225
21
-730.887380
31
0.0
0
LINE
8
0
6
CONTINUOUS
10
-98.005005
20
-733.572160
30
0.0
11
-90.497955
21
-722.754900
31
0.0
0
LINE
8
0
6
CONTINUOUS
10
-98.509535
20
-704.148330
30
0.0
11
-104.066295
21
-714.303890
31
0.0
0
LINE
8
0
6
CONTINUOUS
10
-95.670375
20
-705.721440
30
0.0
11
-101.413095
21
-716.217080
31
0.0
0
LINE
8
0
6
CONTINUOUS
10
-88.475475
20
-709.195710
30
0.0
11
-94.628925
21
-720.442580
31
0.0
0
LINE
8
0
6
CONTINUOUS
10
-90.497955
20
-722.754900
30
0.0
11
-84.119735
21
-711.096950
31
0.0
0
LINE
8
0
6
CONTINUOUS
10
-93.940735
20
-693.138620
30
0.0
11
-98.509535
21
-704.148330
31
0.0
0
LINE
8
0
6
CONTINUOUS
10
-90.954375
20
-694.358060
30
0.0
11
-95.670375
21
-705.721440
31
0.0
0
LINE
8
0
6
CONTINUOUS
10
-83.434445
20
-697.051280
30
0.0
11
-88.475475
21
-709.195710
31
0.0
0
LINE
8
0
6
CONTINUOUS
10
-84.119735
20
-711.096950
30
0.0
11
-78.900835
21
-698.525090
31
0.0
0
LINE
8
0
6
CONTINUOUS
10
-90.355945
20
-681.116940
30
0.0
11
-93.940735
21
-693.138620
31
0.0
0
LINE
8
0
6
CONTINUOUS
10
-87.265295
20
-681.989140
30
0.0
11
-90.954375
21
-694.358060
31
0.0
0
LINE
8
0
6
CONTINUOUS
10
-79.514965
20
-683.915410
30
0.0
11
-83.434445
21
-697.051280
31
0.0
0
LINE
8
0
6
CONTINUOUS
10
-78.900835
20
-698.525090
30
0.0
11
-74.855265
21
-684.969480
31
0.0
0
LINE
8
0
6
CONTINUOUS
10
-87.767125
20
-667.932820
30
0.0
11
-90.355945
21
-681.116940
31
0.0
0
LINE
8
0
6
CONTINUOUS
10
-84.611915
20
-668.480760
30
0.0
11
-87.265295
21
-681.989140
31
0.0
0
LINE
8
0
6
CONTINUOUS
10
-76.718995
20
-669.690860
30
0.0
11
-79.514965
21
-683.915410
31
0.0
0
LINE
8
0
6
CONTINUOUS
10
-74.855265
20
-684.969480
30
0.0
11
-71.981295
21
-670.353090
31
0.0
0
LINE
8
0
6
CONTINUOUS
10
-86.196045
20
-653.448960
30
0.0
11
-87.767125
21
-667.932820
31
0.0
0
LINE
8
0
6
CONTINUOUS
10
-83.008455
20
-653.706260
30
0.0
11
-84.611915
21
-668.480760
31
0.0
0
LINE
8
0
6
CONTINUOUS
10
-75.044055
20
-654.274500
30
0.0
11
-76.718995
21
-669.690860
31
0.0
0
LINE
8
0
6
CONTINUOUS
10
-71.981295
20
-670.353090
30
0.0
11
-70.267235
21
-654.585480
31
0.0
0
LINE
8
0
6
CONTINUOUS
10
-85.666405
20
-637.418590
30
0.0
11
-86.196045
21
-653.448960
31
0.0
0
LINE
8
0
6
CONTINUOUS
10
-82.470125
20
-637.477190
30
0.0
11
-83.008455
21
-653.706260
31
0.0
0
LINE
8
0
6
CONTINUOUS
10
-74.486735
20
-637.610840
30
0.0
11
-75.044055
21
-654.274500
31
0.0
0
LINE
8
0
6
CONTINUOUS
10
-70.267235
20
-654.585480
30
0.0
11
-69.699575
21
-637.685890
31
0.0
0
LINE
8
0
6
CONTINUOUS
10
-85.667515
20
-607.733690
30
0.0
11
-85.666405
21
-637.418590
31
0.0
0
LINE
8
0
6
CONTINUOUS
10
-82.470725
20
-607.728730
30
0.0
11
-82.470125
21
-637.477190
31
0.0
0
LINE
8
0
6
CONTINUOUS
10
-74.486195
20
-607.728120
30
0.0
11
-74.486735
21
-637.610840
31
0.0
0
LINE
8
0
6
CONTINUOUS
10
-69.699575
20
-637.685890
30
0.0
11
-69.698465
21
-607.732430
31
0.0
0
LINE
8
0
6
CONTINUOUS
10
-85.667515
20
-551.280310
30
0.0
11
-85.667515
21
-607.733690
31
0.0
0
LINE
8
0
6
CONTINUOUS
10
-82.470725
20
-551.274220
30
0.0
11
-82.470725
21
-607.728730
31
0.0
0
LINE
8
0
6
CONTINUOUS
10
-74.486195
20
-551.273460
30
0.0
11
-74.486195
21
-607.728120
31
0.0
0
LINE
8
0
6
CONTINUOUS
10
-69.698465
20
-607.732430
30
0.0
11
-69.698465
21
-551.278800
31
0.0
0
LINE
8
0
6
CONTINUOUS
10
-85.667515
20
-474.779450
30
0.0
11
-85.667515
21
-551.280310
31
0.0
0
LINE
8
0
6
CONTINUOUS
10
-82.470725
20
-474.773020
30
0.0
11
-82.470725
21
-551.274220
31
0.0
0
LINE
8
0
6
CONTINUOUS
10
-74.486195
20
-474.772210
30
0.0
11
-74.486195
21
-551.273460
31
0.0
0
LINE
8
0
6
CONTINUOUS
10
-69.698465
20
-551.278800
30
0.0
11
-69.698465
21
-474.777850
31
0.0
0
LINE
8
0
6
CONTINUOUS
10
-85.667515
20
-384.818100
30
0.0
11
-85.667515
21
-474.779450
31
0.0
0
LINE
8
0
6
CONTINUOUS
10
-82.470725
20
-384.811520
30
0.0
11
-85.667515
21
-384.818100
31
0.0
0
LINE
8
0
6
CONTINUOUS
10
-82.470725
20
-384.811520
30
0.0
11
-82.470725
21
-474.773020
31
0.0
0
LINE
8
0
6
CONTINUOUS
10
-74.486195
20
-384.810700
30
0.0
11
-82.470725
21
-384.811520
31
0.0
0
LINE
8
0
6
CONTINUOUS
10
-85.667515
20
-190.861630
30
0.0
11
-85.667515
21
-287.983170
31
0.0
0
LINE
8
0
6
CONTINUOUS
10
-82.470725
20
-190.855080
30
0.0
11
-82.470725
21
-287.976570
31
0.0
0
LINE
8
0
6
CONTINUOUS
10
-74.486195
20
-190.854260
30
0.0
11
-74.486195
21
-287.975750
31
0.0
0
LINE
8
0
6
CONTINUOUS
10
-69.698465
20
-287.981530
30
0.0
11
-69.698465
21
-190.859990
31
0.0
0
LINE
8
0
6
CONTINUOUS
10
-85.667515
20
-100.040380
30
0.0
11
-85.667515
21
-190.861630
31
0.0
0
LINE
8
0
6
CONTINUOUS
10
-82.470725
20
-100.034010
30
0.0
11
-82.470725
21
-190.855080
31
0.0
0
LINE
8
0
6
CONTINUOUS
10
-74.486195
20
-100.033210
30
0.0
11
-74.486195
21
-190.854260
31
0.0
0
LINE
8
0
6
CONTINUOUS
10
-69.698465
20
-190.859990
30
0.0
11
-69.698465
21
-100.038780
31
0.0
0
LINE
8
0
6
CONTINUOUS
10
-85.667515
20
-22.106250
30
0.0
11
-85.667515
21
-100.040380
31
0.0
0
LINE
8
0
6
CONTINUOUS
10
-82.470725
20
-22.100370
30
0.0
11
-82.470725
21
-100.034010
31
0.0
0
LINE
8
0
6
CONTINUOUS
10
-74.486195
20
-22.099610
30
0.0
11
-74.486195
21
-100.033210
31
0.0
0
LINE
8
0
6
CONTINUOUS
10
-69.698465
20
-100.038780
30
0.0
11
-69.698465
21
-22.104800
31
0.0
0
LINE
8
0
6
CONTINUOUS
10
-85.667515
20
36.353760
30
0.0
11
-85.667515
21
-22.106250
31
0.0
0
LINE
8
0
6
CONTINUOUS
10
-82.470725
20
36.358410
30
0.0
11
-82.470725
21
-22.100370
31
0.0
0
LINE
8
0
6
CONTINUOUS
10
-74.486195
20
36.359020
30
0.0
11
-74.486195
21
-22.099610
31
0.0
0
LINE
8
0
6
CONTINUOUS
10
-69.698465
20
-22.104800
30
0.0
11
-69.698465
21
36.354900
31
0.0
0
LINE
8
0
6
CONTINUOUS
10
-85.667515
20
68.759610
30
0.0
11
-85.667515
21
36.353760
31
0.0
0
LINE
8
0
6
CONTINUOUS
10
-82.470725
20
68.706510
30
0.0
11
-82.470725
21
36.358410
31
0.0
0
LINE
8
0
6
CONTINUOUS
10
-74.486195
20
68.699870
30
0.0
11
-74.486195
21
36.359020
31
0.0
0
LINE
8
0
6
CONTINUOUS
10
-69.698465
20
36.354900
30
0.0
11
-69.698465
21
68.746410
31
0.0
0
LINE
8
0
6
CONTINUOUS
10
-85.667515
20
86.576690
30
0.0
11
-85.667515
21
68.759610
31
0.0
0
LINE
8
0
6
CONTINUOUS
10
-82.470725
20
86.353990
30
0.0
11
-82.470725
21
68.706510
31
0.0
0
LINE
8
0
6
CONTINUOUS
10
-74.486195
20
86.326290
30
0.0
11
-74.486195
21
68.699870
31
0.0
0
LINE
8
0
6
CONTINUOUS
10
-69.698465
20
68.746410
30
0.0
11
-69.698465
21
86.521220
31
0.0
0
LINE
8
0
6
CONTINUOUS
10
-85.667515
20
102.906570
30
0.0
11
-85.667515
21
86.576690
31
0.0
0
LINE
8
0
6
CONTINUOUS
10
-82.470725
20
102.457500
30
0.0
11
-82.470725
21
86.353990
31
0.0
0
LINE
8
0
6
CONTINUOUS
10
-74.486195
20
102.401580
30
0.0
11
-74.486195
21
86.326290
31
0.0
0
LINE
8
0
6
CONTINUOUS
10
-69.698465
20
86.521220
30
0.0
11
-69.698465
21
102.794720
31
0.0
0
LINE
8
0
6
CONTINUOUS
10
-85.667515
20
117.788310
30
0.0
11
-85.667515
21
102.906570
31
0.0
0
LINE
8
0
6
CONTINUOUS
10
-82.470725
20
117.111660
30
0.0
11
-82.470725
21
102.457500
31
0.0
0
LINE
8
0
6
CONTINUOUS
10
-74.486195
20
117.027360
30
0.0
11
-74.486195
21
102.401580
31
0.0
0
LINE
8
0
6
CONTINUOUS
10
-69.698465
20
102.794720
30
0.0
11
-69.698465
21
117.619710
31
0.0
0
LINE
8
0
6
CONTINUOUS
10
-85.667515
20
131.267470
30
0.0
11
-85.667515
21
117.788310
31
0.0
0
LINE
8
0
6
CONTINUOUS
10
-82.470725
20
130.364380
30
0.0
11
-82.470725
21
117.111660
31
0.0
0
LINE
8
0
6
CONTINUOUS
10
-74.486195
20
130.251920
30
0.0
11
-74.486195
21
117.027360
31
0.0
0
LINE
8
0
6
CONTINUOUS
10
-69.698465
20
117.619710
30
0.0
11
-69.698465
21
131.042480
31
0.0
0
LINE
8
0
6
CONTINUOUS
10
-85.667515
20
143.389510
30
0.0
11
-85.667515
21
131.267470
31
0.0
0
LINE
8
0
6
CONTINUOUS
10
-82.470725
20
142.264330
30
0.0
11
-82.470725
21
130.364380
31
0.0
0
LINE
8
0
6
CONTINUOUS
10
-74.486195
20
142.124180
30
0.0
11
-74.486195
21
130.251920
31
0.0
0
LINE
8
0
6
CONTINUOUS
10
-69.698465
20
131.042480
30
0.0
11
-69.698465
21
143.109210
31
0.0
0
LINE
8
0
6
CONTINUOUS
10
-85.667515
20
152.913503
30
0.0
11
-85.667515
21
143.389510
31
0.0
0
LINE
8
0
6
CONTINUOUS
10
-82.470725
20
152.590052
30
0.0
11
-82.470725
21
142.264330
31
0.0
0
LINE
8
0
6
CONTINUOUS
10
-74.486195
20
152.491425
30
0.0
11
-74.486195
21
142.124180
31
0.0
0
LINE
8
0
6
CONTINUOUS
10
-69.698465
20
143.109210
30
0.0
11
-69.698465
21
152.953340
31
0.0
0
LINE
8
0
6
CONTINUOUS
10
-85.667515
20
-384.829620
30
0.0
11
-82.470725
21
-384.823040
31
0.0
0
LINE
8
0
6
CONTINUOUS
10
-85.667515
20
-287.983170
30
0.0
11
-85.667515
21
-384.818100
31
0.0
0
LINE
8
0
6
CONTINUOUS
10
-82.470725
20
-384.823040
30
0.0
11
-74.486195
21
-384.823860
31
0.0
0
LINE
8
0
6
CONTINUOUS
10
-82.470725
20
-287.976570
30
0.0
11
-82.470725
21
-384.811520
31
0.0
0
LINE
8
0
6
CONTINUOUS
10
-74.486195
20
-384.823860
30
0.0
11
-69.698465
21
-384.818100
31
0.0
0
LINE
8
0
6
CONTINUOUS
10
-74.486195
20
-287.975750
30
0.0
11
-74.486195
21
-384.810700
31
0.0
0
LINE
8
0
6
CONTINUOUS
10
-69.698465
20
-384.818100
30
0.0
11
-69.698465
21
-287.981530
31
0.0
0
LINE
8
0
6
CONTINUOUS
10
-74.486195
20
-384.810700
30
0.0
11
-74.486195
21
-474.772210
31
0.0
0
LINE
8
0
6
CONTINUOUS
10
-69.698465
20
-384.818100
30
0.0
11
-74.486195
21
-384.810700
31
0.0
0
LINE
8
0
6
CONTINUOUS
10
-69.698465
20
-474.777850
30
0.0
11
-69.698465
21
-384.818100
31
0.0
0
LINE
8
0
6
CONTINUOUS
10
-89.564598
20
209.779435
30
0.0
11
-89.163137
21
203.970790
31
0.0
0
LINE
8
0
6
CONTINUOUS
10
-65.774241
20
208.623606
30
0.0
11
-65.687573
21
209.881829
31
0.0
0
LINE
8
0
6
CONTINUOUS
10
-366.084095
20
-475.295740
30
0.0
11
-370.011675
21
-475.295720
31
0.0
0
LINE
8
0
6
CONTINUOUS
10
-370.320625
20
-494.449400
30
0.0
11
-366.721765
21
-494.449420
31
0.0
0
LINE
8
0
6
CONTINUOUS
10
-384.698985
20
-475.295730
30
0.0
11
-385.274085
21
-475.295730
31
0.0
0
LINE
8
0
6
CONTINUOUS
10
-384.305575
20
-494.449420
30
0.0
11
-383.778645
21
-494.449430
31
0.0
0
LINE
8
0
6
CONTINUOUS
10
-385.274085
20
-475.295730
30
0.0
11
-384.305575
21
-494.449420
31
0.0
0
LINE
8
0
6
CONTINUOUS
10
-362.129325
20
-475.295720
30
0.0
11
-363.316155
21
-475.295740
31
0.0
0
LINE
8
0
6
CONTINUOUS
10
-363.098025
20
-494.449390
30
0.0
11
-362.129325
21
-475.295720
31
0.0
0
LINE
8
0
6
CONTINUOUS
10
-364.185525
20
-494.449420
30
0.0
11
-363.098025
21
-494.449390
31
0.0
0
LINE
8
0
6
CONTINUOUS
10
-363.316155
20
-475.295740
30
0.0
11
-366.084095
21
-475.295740
31
0.0
0
LINE
8
0
6
CONTINUOUS
10
-366.721765
20
-494.449420
30
0.0
11
-364.185525
21
-494.449420
31
0.0
0
LINE
8
0
6
CONTINUOUS
10
-374.501075
20
-475.295730
30
0.0
11
-378.868825
21
-475.295730
31
0.0
0
LINE
8
0
6
CONTINUOUS
10
-378.436435
20
-494.449420
30
0.0
11
-374.434275
21
-494.449420
31
0.0
0
LINE
8
0
6
CONTINUOUS
10
-382.449795
20
-475.295730
30
0.0
11
-384.698985
21
-475.295730
31
0.0
0
LINE
8
0
6
CONTINUOUS
10
-383.778645
20
-494.449430
30
0.0
11
-381.743045
21
-494.449420
31
0.0
0
LINE
8
0
6
CONTINUOUS
10
-378.868825
20
-475.295730
30
0.0
11
-382.449795
21
-475.295730
31
0.0
0
LINE
8
0
6
CONTINUOUS
10
-381.717685
20
-494.449420
30
0.0
11
-378.436435
21
-494.449420
31
0.0
0
LINE
8
0
6
CONTINUOUS
10
-370.011675
20
-475.295720
30
0.0
11
-374.501075
21
-475.295730
31
0.0
0
LINE
8
0
6
CONTINUOUS
10
-374.434275
20
-494.449420
30
0.0
11
-370.320625
21
-494.449400
31
0.0
0
LINE
8
0
6
CONTINUOUS
10
-384.305575
20
-495.121660
30
0.0
11
-384.305575
21
-496.037680
31
0.0
0
LINE
8
0
6
CONTINUOUS
10
-383.778645
20
-495.121680
30
0.0
11
-384.305575
21
-495.121660
31
0.0
0
LINE
8
0
6
CONTINUOUS
10
-381.717685
20
-495.121670
30
0.0
11
-383.778645
21
-495.121680
31
0.0
0
LINE
8
0
6
CONTINUOUS
10
-363.098025
20
-496.037660
30
0.0
11
-363.098025
21
-495.121640
31
0.0
0
LINE
8
0
6
CONTINUOUS
10
-363.098025
20
-495.121640
30
0.0
11
-364.185525
21
-495.121670
31
0.0
0
LINE
8
0
6
CONTINUOUS
10
-374.434275
20
-495.121670
30
0.0
11
-378.436435
21
-495.121680
31
0.0
0
LINE
8
0
6
CONTINUOUS
10
-366.721765
20
-495.121670
30
0.0
11
-370.320625
21
-495.121650
31
0.0
0
LINE
8
0
6
CONTINUOUS
10
-364.185525
20
-495.121670
30
0.0
11
-366.721765
21
-495.121670
31
0.0
0
LINE
8
0
6
CONTINUOUS
10
-378.436435
20
-496.037700
30
0.0
11
-378.436435
21
-495.121680
31
0.0
0
LINE
8
0
6
CONTINUOUS
10
-378.436435
20
-495.121680
30
0.0
11
-381.717685
21
-495.121670
31
0.0
0
LINE
8
0
6
CONTINUOUS
10
-370.320625
20
-496.037670
30
0.0
11
-370.320625
21
-495.121650
31
0.0
0
LINE
8
0
6
CONTINUOUS
10
-370.320625
20
-495.121650
30
0.0
11
-374.434275
21
-495.121670
31
0.0
0
LINE
8
0
6
CONTINUOUS
10
-384.783825
20
-473.796400
30
0.0
11
-384.233095
21
-473.796410
31
0.0
0
LINE
8
0
6
CONTINUOUS
10
-381.717685
20
-494.449420
30
0.0
11
-383.778645
21
-494.449430
31
0.0
0
LINE
8
0
6
CONTINUOUS
10
-366.721765
20
-494.449420
30
0.0
11
-370.320625
21
-494.449400
31
0.0
0
LINE
8
0
6
CONTINUOUS
10
-384.305575
20
-494.449420
30
0.0
11
-384.135245
21
-494.780120
31
0.0
0
LINE
8
0
6
CONTINUOUS
10
-383.778645
20
-494.449430
30
0.0
11
-384.305575
21
-494.449420
31
0.0
0
LINE
8
0
6
CONTINUOUS
10
-364.185525
20
-494.449420
30
0.0
11
-366.721765
21
-494.449420
31
0.0
0
LINE
8
0
6
CONTINUOUS
10
-366.406975
20
-473.796410
30
0.0
11
-370.168115
21
-473.796410
31
0.0
0
LINE
8
0
6
CONTINUOUS
10
-370.011675
20
-475.295720
30
0.0
11
-366.084095
21
-475.295740
31
0.0
0
LINE
8
0
6
CONTINUOUS
10
-363.756295
20
-473.796430
30
0.0
11
-366.406975
21
-473.796410
31
0.0
0
LINE
8
0
6
CONTINUOUS
10
-366.084095
20
-475.295740
30
0.0
11
-363.316155
21
-475.295740
31
0.0
0
LINE
8
0
6
CONTINUOUS
10
-374.434275
20
-494.449420
30
0.0
11
-378.436435
21
-494.449420
31
0.0
0
LINE
8
0
6
CONTINUOUS
10
-370.320625
20
-494.449400
30
0.0
11
-374.434275
21
-494.449420
31
0.0
0
LINE
8
0
6
CONTINUOUS
10
-363.268355
20
-494.780080
30
0.0
11
-363.098025
21
-494.449390
31
0.0
0
LINE
8
0
6
CONTINUOUS
10
-363.098025
20
-494.449390
30
0.0
11
-364.185525
21
-494.449420
31
0.0
0
LINE
8
0
6
CONTINUOUS
10
-378.436435
20
-494.449420
30
0.0
11
-381.717685
21
-494.449420
31
0.0
0
LINE
8
0
6
CONTINUOUS
10
-378.436435
20
-495.121680
30
0.0
11
-374.434275
21
-495.121670
31
0.0
0
LINE
8
0
6
CONTINUOUS
10
-374.422535
20
-494.780130
30
0.0
11
-378.360405
21
-494.780140
31
0.0
0
LINE
8
0
6
CONTINUOUS
10
-370.320625
20
-495.121650
30
0.0
11
-366.721765
21
-495.121670
31
0.0
0
LINE
8
0
6
CONTINUOUS
10
-366.833915
20
-494.780130
30
0.0
11
-370.374945
21
-494.780100
31
0.0
0
LINE
8
0
6
CONTINUOUS
10
-363.098025
20
-495.121640
30
0.0
11
-363.268355
21
-494.780080
31
0.0
0
LINE
8
0
6
CONTINUOUS
10
-364.185525
20
-495.121670
30
0.0
11
-363.098025
21
-495.121640
31
0.0
0
LINE
8
0
6
CONTINUOUS
10
-363.268355
20
-494.780080
30
0.0
11
-364.338415
21
-494.780120
31
0.0
0
LINE
8
0
6
CONTINUOUS
10
-383.778645
20
-495.121680
30
0.0
11
-381.743045
21
-495.121670
31
0.0
0
LINE
8
0
6
CONTINUOUS
10
-381.588935
20
-494.780110
30
0.0
11
-383.616755
21
-494.780140
31
0.0
0
LINE
8
0
6
CONTINUOUS
10
-366.721765
20
-495.121670
30
0.0
11
-364.185525
21
-495.121670
31
0.0
0
LINE
8
0
6
CONTINUOUS
10
-364.338415
20
-494.780120
30
0.0
11
-366.833915
21
-494.780130
31
0.0
0
LINE
8
0
6
CONTINUOUS
10
-374.434275
20
-495.121670
30
0.0
11
-370.320625
21
-495.121650
31
0.0
0
LINE
8
0
6
CONTINUOUS
10
-370.374945
20
-494.780100
30
0.0
11
-374.422535
21
-494.780130
31
0.0
0
LINE
8
0
6
CONTINUOUS
10
-381.717685
20
-495.121670
30
0.0
11
-378.436435
21
-495.121680
31
0.0
0
LINE
8
0
6
CONTINUOUS
10
-378.360405
20
-494.780140
30
0.0
11
-381.588935
21
-494.780110
31
0.0
0
LINE
8
0
6
CONTINUOUS
10
-384.305575
20
-495.121660
30
0.0
11
-383.778645
21
-495.121680
31
0.0
0
LINE
8
0
6
CONTINUOUS
10
-384.135245
20
-494.780120
30
0.0
11
-384.305575
21
-495.121660
31
0.0
0
LINE
8
0
6
CONTINUOUS
10
-383.616755
20
-494.780140
30
0.0
11
-384.135245
21
-494.780120
31
0.0
0
LINE
8
0
6
CONTINUOUS
10
-382.079195
20
-473.796410
30
0.0
11
-384.233095
21
-473.796410
31
0.0
0
LINE
8
0
6
CONTINUOUS
10
-384.698985
20
-475.295730
30
0.0
11
-382.449795
21
-475.295730
31
0.0
0
LINE
8
0
6
CONTINUOUS
10
-370.168115
20
-473.796410
30
0.0
11
-374.467315
21
-473.796400
31
0.0
0
LINE
8
0
6
CONTINUOUS
10
-374.501075
20
-475.295730
30
0.0
11
-370.011675
21
-475.295720
31
0.0
0
LINE
8
0
6
CONTINUOUS
10
-378.649975
20
-473.796390
30
0.0
11
-382.079195
21
-473.796410
31
0.0
0
LINE
8
0
6
CONTINUOUS
10
-382.449795
20
-475.295730
30
0.0
11
-378.868825
21
-475.295730
31
0.0
0
LINE
8
0
6
CONTINUOUS
10
-384.783825
20
-473.796400
30
0.0
11
-385.274085
21
-475.295730
31
0.0
0
LINE
8
0
6
CONTINUOUS
10
-384.233095
20
-473.796410
30
0.0
11
-384.783825
21
-473.796400
31
0.0
0
LINE
8
0
6
CONTINUOUS
10
-385.274085
20
-475.295730
30
0.0
11
-384.698985
21
-475.295730
31
0.0
0
LINE
8
0
6
CONTINUOUS
10
-362.619745
20
-473.796370
30
0.0
11
-363.756295
21
-473.796430
31
0.0
0
LINE
8
0
6
CONTINUOUS
10
-362.129325
20
-475.295720
30
0.0
11
-362.619745
21
-473.796370
31
0.0
0
LINE
8
0
6
CONTINUOUS
10
-363.316155
20
-475.295740
30
0.0
11
-362.129325
21
-475.295720
31
0.0
0
LINE
8
0
6
CONTINUOUS
10
-374.467315
20
-473.796400
30
0.0
11
-378.649975
21
-473.796390
31
0.0
0
LINE
8
0
6
CONTINUOUS
10
-378.868825
20
-475.295730
30
0.0
11
-374.501075
21
-475.295730
31
0.0
0
LINE
8
0
6
CONTINUOUS
10
-123.065258
20
358.062330
30
0.0
11
-120.959285
21
357.606318
31
0.0
0
LINE
8
0
6
CONTINUOUS
10
-119.668149
20
366.598129
30
0.0
11
-117.684820
21
365.702490
31
0.0
0
LINE
8
0
6
CONTINUOUS
10
-116.242398
20
372.043432
30
0.0
11
-116.070365
21
373.934171
31
0.0
0
LINE
8
0
6
CONTINUOUS
10
-108.633005
20
380.984080
30
0.0
11
-106.554925
21
381.208065
31
0.0
0
LINE
8
0
6
CONTINUOUS
10
-96.291085
20
384.295423
30
0.0
11
-97.277735
21
386.135296
31
0.0
0
LINE
8
0
6
CONTINUOUS
10
-86.327385
20
387.090224
30
0.0
11
-86.832825
21
389.084001
31
0.0
0
LINE
8
0
6
CONTINUOUS
10
-110.565473
20
318.699258
30
0.0
11
-111.877509
21
317.622737
31
0.0
0
LINE
8
0
6
CONTINUOUS
10
-117.535662
20
324.350188
30
0.0
11
-115.531043
21
323.611364
31
0.0
0
LINE
8
0
6
CONTINUOUS
10
-115.128950
20
322.030937
30
0.0
11
-115.531043
21
323.611364
31
0.0
0
LINE
8
0
6
CONTINUOUS
10
-123.043776
20
330.911154
30
0.0
11
-121.374095
21
329.976677
31
0.0
0
LINE
8
0
6
CONTINUOUS
10
-123.211705
20
331.009456
30
0.0
11
-123.043776
21
330.911154
31
0.0
0
LINE
8
0
6
CONTINUOUS
10
-129.102895
20
336.371104
30
0.0
11
-128.700669
21
337.958845
31
0.0
0
LINE
8
0
6
CONTINUOUS
10
-126.696011
20
338.217357
30
0.0
11
-125.093495
21
336.888111
31
0.0
0
LINE
8
0
6
CONTINUOUS
10
-131.268115
20
346.050090
30
0.0
11
-129.168205
21
345.976721
31
0.0
0
LINE
8
0
6
CONTINUOUS
10
-132.885807
20
352.889720
30
0.0
11
-132.515148
21
353.310973
31
0.0
0
LINE
8
0
6
CONTINUOUS
10
-132.515148
20
353.310973
30
0.0
11
-131.740109
21
354.219702
31
0.0
0
LINE
8
0
6
CONTINUOUS
10
-128.981554
20
352.664111
30
0.0
11
-129.621391
21
353.813773
31
0.0
0
LINE
8
0
6
CONTINUOUS
10
-131.826205
20
362.032671
30
0.0
11
-130.364151
21
363.149250
31
0.0
0
LINE
8
0
6
CONTINUOUS
10
-127.702633
20
360.554385
30
0.0
11
-128.302345
21
362.410048
31
0.0
0
LINE
8
0
6
CONTINUOUS
10
-126.948885
20
371.598889
30
0.0
11
-125.019752
21
370.561698
31
0.0
0
LINE
8
0
6
CONTINUOUS
10
-121.705698
20
379.304290
30
0.0
11
-119.978675
21
377.962727
31
0.0
0
LINE
8
0
6
CONTINUOUS
10
-108.475985
20
391.489011
30
0.0
11
-106.357405
21
391.422664
31
0.0
0
LINE
8
0
6
CONTINUOUS
10
-109.446679
20
389.760698
30
0.0
11
-108.475985
21
391.489011
31
0.0
0
LINE
8
0
6
CONTINUOUS
10
-96.101687
20
393.417053
30
0.0
11
-96.889995
21
395.366058
31
0.0
0
LINE
8
0
6
CONTINUOUS
10
-98.989465
20
395.758065
30
0.0
11
-98.587865
21
395.677295
31
0.0
0
LINE
8
0
6
CONTINUOUS
10
-98.587865
20
395.677295
30
0.0
11
-96.889995
21
395.366058
31
0.0
0
LINE
8
0
6
CONTINUOUS
10
-100.300635
20
394.230536
30
0.0
11
-98.989465
21
395.758065
31
0.0
0
LINE
8
0
6
CONTINUOUS
10
-88.609949
20
398.397491
30
0.0
11
-86.606445
21
397.665390
31
0.0
0
LINE
8
0
6
CONTINUOUS
10
-90.214725
20
397.082349
30
0.0
11
-88.609949
21
398.397491
31
0.0
0
LINE
8
0
6
CONTINUOUS
10
-46.299484
20
318.411547
30
0.0
11
-44.898569
21
318.699278
31
0.0
0
LINE
8
0
6
CONTINUOUS
10
-47.785147
20
316.807820
30
0.0
11
-46.997877
21
318.279940
31
0.0
0
LINE
8
0
6
CONTINUOUS
10
-27.604555
20
344.431985
30
0.0
11
-26.295922
21
345.976784
31
0.0
0
LINE
8
0
6
CONTINUOUS
10
-30.600680
20
369.061942
30
0.0
11
-30.444415
21
370.561773
31
0.0
0
LINE
8
0
6
CONTINUOUS
10
-89.435409
20
347.609125
30
0.0
11
-89.299724
21
347.653250
31
0.0
0
LINE
8
0
6
CONTINUOUS
10
-90.418109
20
347.267219
30
0.0
11
-89.435409
21
347.609125
31
0.0
0
LINE
8
0
6
CONTINUOUS
10
-89.299724
20
347.653250
30
0.0
11
-88.152682
21
347.770595
31
0.0
0
LINE
8
0
6
CONTINUOUS
10
-88.152682
20
347.770595
30
0.0
11
-86.995686
21
347.608743
31
0.0
0
LINE
8
0
6
CONTINUOUS
10
-86.995686
20
347.608743
30
0.0
11
-85.895155
21
347.264333
31
0.0
0
LINE
8
0
6
CONTINUOUS
10
-85.895155
20
347.264333
30
0.0
11
-84.972307
21
346.683178
31
0.0
0
LINE
8
0
6
CONTINUOUS
10
-84.256987
20
345.905617
30
0.0
11
-84.325103
21
345.975651
31
0.0
0
LINE
8
0
6
CONTINUOUS
10
-84.325103
20
345.975651
30
0.0
11
-84.972307
21
346.683178
31
0.0
0
LINE
8
0
6
CONTINUOUS
10
-92.431643
20
345.068874
30
0.0
11
-92.073324
21
345.878140
31
0.0
0
LINE
8
0
6
CONTINUOUS
10
-92.127712
20
342.207879
30
0.0
11
-92.537218
21
343.029852
31
0.0
0
LINE
8
0
6
CONTINUOUS
10
-91.338588
20
341.293630
30
0.0
11
-91.984044
21
341.999516
31
0.0
0
LINE
8
0
6
CONTINUOUS
10
-84.236850
20
342.099032
30
0.0
11
-83.824884
21
343.018286
31
0.0
0
LINE
8
0
6
CONTINUOUS
10
-83.824884
20
343.018286
30
0.0
11
-83.631265
21
343.985650
31
0.0
0
LINE
8
0
6
CONTINUOUS
10
-83.631265
20
343.985650
30
0.0
11
-83.772583
21
344.946114
31
0.0
0
LINE
8
0
6
CONTINUOUS
10
-83.772583
20
344.946114
30
0.0
11
-84.181174
21
345.767669
31
0.0
0
LINE
8
0
6
CONTINUOUS
10
-84.181174
20
345.767669
30
0.0
11
-84.233915
21
345.881093
31
0.0
0
LINE
8
0
6
CONTINUOUS
10
-74.178411
20
356.682190
30
0.0
11
-73.725688
21
357.572888
31
0.0
0
LINE
8
0
6
CONTINUOUS
10
-72.294894
20
342.915281
30
0.0
11
-72.346632
21
343.026265
31
0.0
0
LINE
8
0
6
CONTINUOUS
10
-71.936812
20
342.105792
30
0.0
11
-72.294894
21
342.915281
31
0.0
0
LINE
8
0
6
CONTINUOUS
10
-72.520478
20
343.877053
30
0.0
11
-72.541977
21
343.994901
31
0.0
0
LINE
8
0
6
CONTINUOUS
10
-72.346632
20
343.026265
30
0.0
11
-72.520478
21
343.877053
31
0.0
0
LINE
8
0
6
CONTINUOUS
10
-72.541977
20
343.994901
30
0.0
11
-72.401169
21
344.954810
31
0.0
0
LINE
8
0
6
CONTINUOUS
10
-71.992732
20
345.775956
30
0.0
11
-71.939777
21
345.890066
31
0.0
0
LINE
8
0
6
CONTINUOUS
10
-72.401169
20
344.954810
30
0.0
11
-71.992732
21
345.775956
31
0.0
0
LINE
8
0
6
CONTINUOUS
10
-63.688889
20
344.966489
30
0.0
11
-63.740666
21
345.077175
31
0.0
0
LINE
8
0
6
CONTINUOUS
10
-63.740666
20
345.077175
30
0.0
11
-64.098188
21
345.885885
31
0.0
0
LINE
8
0
6
CONTINUOUS
10
-63.492950
20
343.998460
30
0.0
11
-63.514392
21
344.116448
31
0.0
0
LINE
8
0
6
CONTINUOUS
10
-63.514392
20
344.116448
30
0.0
11
-63.688889
21
344.966489
31
0.0
0
LINE
8
0
6
CONTINUOUS
10
-63.633997
20
343.037861
30
0.0
11
-63.492950
21
343.998460
31
0.0
0
LINE
8
0
6
CONTINUOUS
10
-64.072662
20
342.152364
30
0.0
11
-64.042331
21
342.217106
31
0.0
0
LINE
8
0
6
CONTINUOUS
10
-64.042331
20
342.217106
30
0.0
11
-63.633997
21
343.037861
31
0.0
0
LINE
8
0
6
CONTINUOUS
10
-66.735656
20
347.618762
30
0.0
11
-65.754171
21
347.275623
31
0.0
0
LINE
8
0
6
CONTINUOUS
10
-69.036157
20
347.635646
30
0.0
11
-68.020038
21
347.779261
31
0.0
0
LINE
8
0
6
CONTINUOUS
10
-71.848269
20
345.986255
30
0.0
11
-71.201549
21
346.693173
31
0.0
0
LINE
8
0
6
CONTINUOUS
10
-35.384160
20
356.010131
30
0.0
11
-34.815108
21
357.215572
31
0.0
0
LINE
8
0
6
CONTINUOUS
10
-31.952075
20
356.889874
30
0.0
11
-32.709162
21
357.671578
31
0.0
0
LINE
8
0
6
CONTINUOUS
10
-77.732024
20
328.778861
30
0.0
11
-75.895134
21
327.968141
31
0.0
0
LINE
8
0
6
CONTINUOUS
10
-57.045746
20
327.756048
30
0.0
11
-55.974845
21
327.909773
31
0.0
0
LINE
8
0
6
CONTINUOUS
10
-50.920405
20
332.137857
30
0.0
11
-50.807415
21
332.970804
31
0.0
0
LINE
8
0
6
CONTINUOUS
10
-45.964045
20
341.605333
30
0.0
11
-44.412720
21
342.874303
31
0.0
0
LINE
8
0
6
CONTINUOUS
10
-54.727141
20
374.453302
30
0.0
11
-55.119231
21
375.229507
31
0.0
0
LINE
8
0
6
CONTINUOUS
10
-64.684985
20
321.612526
30
0.0
11
-65.339355
21
323.152344
31
0.0
0
LINE
8
0
6
CONTINUOUS
10
-58.945655
20
326.091403
30
0.0
11
-58.084145
21
327.611564
31
0.0
0
LINE
8
0
6
CONTINUOUS
10
-58.084145
20
327.611564
30
0.0
11
-57.045746
21
327.756048
31
0.0
0
LINE
8
0
6
CONTINUOUS
10
-45.521967
20
360.728798
30
0.0
11
-43.504360
21
361.483819
31
0.0
0
LINE
8
0
6
CONTINUOUS
10
-43.504360
20
361.483819
30
0.0
11
-41.928872
21
360.394513
31
0.0
0
LINE
8
0
6
CONTINUOUS
10
-47.044031
20
367.340142
30
0.0
11
-47.267042
21
369.202527
31
0.0
0
LINE
8
0
6
CONTINUOUS
10
-49.205251
20
369.825560
30
0.0
11
-48.251125
21
369.512240
31
0.0
0
LINE
8
0
6
CONTINUOUS
10
-43.209187
20
351.925163
30
0.0
11
-41.088131
21
352.134878
31
0.0
0
LINE
8
0
6
CONTINUOUS
10
-68.025900
20
329.919245
30
0.0
11
-67.486437
21
330.557964
31
0.0
0
LINE
8
0
6
CONTINUOUS
10
-67.486437
20
330.557964
30
0.0
11
-67.123735
21
330.976182
31
0.0
0
LINE
8
0
6
CONTINUOUS
10
-67.123735
20
330.976182
30
0.0
11
-66.870643
21
330.970762
31
0.0
0
LINE
8
0
6
CONTINUOUS
10
-64.685078
20
379.232126
30
0.0
11
-66.105199
21
380.654035
31
0.0
0
LINE
8
0
6
CONTINUOUS
10
-68.583109
20
379.008782
30
0.0
11
-68.179671
21
380.178633
31
0.0
0
LINE
8
0
6
CONTINUOUS
10
-68.179671
20
380.178633
30
0.0
11
-66.105199
21
380.654035
31
0.0
0
LINE
8
0
6
CONTINUOUS
10
-68.834037
20
378.281648
30
0.0
11
-68.583109
21
379.008782
31
0.0
0
LINE
8
0
6
CONTINUOUS
10
-77.732085
20
382.248130
30
0.0
11
-75.895195
21
381.268327
31
0.0
0
LINE
8
0
6
CONTINUOUS
10
-55.182811
20
364.249198
30
0.0
11
-55.275788
21
364.795722
31
0.0
0
LINE
8
0
6
CONTINUOUS
10
-58.908239
20
364.067399
30
0.0
11
-57.250600
21
365.359927
31
0.0
0
LINE
8
0
6
CONTINUOUS
10
-54.958579
20
362.952181
30
0.0
11
-55.182811
21
364.249198
31
0.0
0
LINE
8
0
6
CONTINUOUS
10
-53.257758
20
355.783935
30
0.0
11
-51.189350
21
356.360104
31
0.0
0
LINE
8
0
6
CONTINUOUS
10
-53.885228
20
353.988893
30
0.0
11
-53.579362
21
354.858292
31
0.0
0
LINE
8
0
6
CONTINUOUS
10
-50.542221
20
355.807694
30
0.0
11
-49.748421
21
355.143384
31
0.0
0
LINE
8
0
6
CONTINUOUS
10
-44.388548
20
342.894906
30
0.0
11
-43.834271
21
342.800470
31
0.0
0
LINE
8
0
6
CONTINUOUS
10
-66.870643
20
330.970762
30
0.0
11
-65.860166
21
330.961096
31
0.0
0
LINE
8
0
6
CONTINUOUS
10
-65.860166
20
330.961096
30
0.0
11
-65.008545
21
330.944597
31
0.0
0
LINE
8
0
6
CONTINUOUS
10
-64.087595
20
329.528348
30
0.0
11
-65.008545
21
330.944597
31
0.0
0
LINE
8
0
6
CONTINUOUS
10
-68.317965
20
329.584846
30
0.0
11
-68.025900
21
329.919245
31
0.0
0
LINE
8
0
6
CONTINUOUS
10
-50.807415
20
332.970804
30
0.0
11
-50.697405
21
333.794315
31
0.0
0
LINE
8
0
6
CONTINUOUS
10
-50.697405
20
333.794315
30
0.0
11
-48.759197
21
334.627082
31
0.0
0
LINE
8
0
6
CONTINUOUS
10
-53.347265
20
321.286326
30
0.0
11
-52.360605
21
319.959185
31
0.0
0
LINE
8
0
6
CONTINUOUS
10
-37.857188
20
365.266785
30
0.0
11
-37.779350
21
365.702613
31
0.0
0
LINE
8
0
6
CONTINUOUS
10
-35.796045
20
366.598254
30
0.0
11
-35.554040
21
366.449268
31
0.0
0
LINE
8
0
6
CONTINUOUS
10
-54.934393
20
384.693128
30
0.0
11
-55.029554
21
384.828252
31
0.0
0
LINE
8
0
6
CONTINUOUS
10
-66.093923
20
389.251304
30
0.0
11
-65.063443
21
388.346420
31
0.0
0
LINE
8
0
6
CONTINUOUS
10
-50.316125
20
323.104972
30
0.0
11
-49.645005
21
324.665541
31
0.0
0
LINE
8
0
6
CONTINUOUS
10
-49.645005
20
324.665541
30
0.0
11
-47.566905
21
325.143367
31
0.0
0
LINE
8
0
6
CONTINUOUS
10
-67.058308
20
371.263116
30
0.0
11
-65.281888
21
371.451946
31
0.0
0
LINE
8
0
6
CONTINUOUS
10
-68.318029
20
369.446630
30
0.0
11
-67.397078
21
371.231973
31
0.0
0
LINE
8
0
6
CONTINUOUS
10
-67.397078
20
371.231973
30
0.0
11
-67.058308
21
371.263116
31
0.0
0
LINE
8
0
6
CONTINUOUS
10
-55.029554
20
384.828252
30
0.0
11
-56.067129
21
386.332763
31
0.0
0
LINE
8
0
6
CONTINUOUS
10
-58.186519
20
386.135321
30
0.0
11
-56.067129
21
386.332763
31
0.0
0
LINE
8
0
6
CONTINUOUS
10
-35.649298
20
346.931911
30
0.0
11
-34.377520
21
348.488214
31
0.0
0
LINE
8
0
6
CONTINUOUS
10
-31.437383
20
346.997017
30
0.0
11
-32.271575
21
348.520818
31
0.0
0
LINE
8
0
6
CONTINUOUS
10
-38.119929
20
363.795235
30
0.0
11
-37.857188
21
365.266785
31
0.0
0
LINE
8
0
6
CONTINUOUS
10
-35.554040
20
366.449268
30
0.0
11
-34.153261
21
365.586424
31
0.0
0
LINE
8
0
6
CONTINUOUS
10
-43.055460
20
373.280368
30
0.0
11
-41.310639
21
374.552652
31
0.0
0
LINE
8
0
6
CONTINUOUS
10
-40.966547
20
331.934744
30
0.0
11
-39.221708
21
331.170971
31
0.0
0
LINE
8
0
6
CONTINUOUS
10
-58.078787
20
336.837666
30
0.0
11
-56.616196
21
337.396671
31
0.0
0
LINE
8
0
6
CONTINUOUS
10
-56.616196
20
337.396671
30
0.0
11
-54.958558
21
336.474180
31
0.0
0
LINE
8
0
6
CONTINUOUS
10
-52.444307
20
346.266525
30
0.0
11
-50.375898
21
346.058415
31
0.0
0
LINE
8
0
6
CONTINUOUS
10
-66.594704
20
389.700766
30
0.0
11
-66.093923
21
389.251304
31
0.0
0
LINE
8
0
6
CONTINUOUS
10
-68.631407
20
389.084011
30
0.0
11
-66.594704
21
389.700766
31
0.0
0
LINE
8
0
6
CONTINUOUS
10
-46.160069
20
379.163003
30
0.0
11
-46.831209
21
380.984178
31
0.0
0
LINE
8
0
6
CONTINUOUS
10
-50.316238
20
379.611054
30
0.0
11
-48.909273
21
381.208160
31
0.0
0
LINE
8
0
6
CONTINUOUS
10
-35.649299
20
355.455337
30
0.0
11
-35.384160
21
356.010131
31
0.0
0
LINE
8
0
6
CONTINUOUS
10
-31.437383
20
356.368198
30
0.0
11
-31.952075
21
356.889874
31
0.0
0
LINE
8
0
6
CONTINUOUS
10
-38.119887
20
338.614729
30
0.0
11
-36.477125
21
339.868965
31
0.0
0
LINE
8
0
6
CONTINUOUS
10
-34.153215
20
337.847952
30
0.0
11
-34.493785
21
339.485502
31
0.0
0
LINE
8
0
6
CONTINUOUS
10
-99.489193
20
327.909770
30
0.0
11
-100.736971
21
326.679976
31
0.0
0
LINE
8
0
6
CONTINUOUS
10
-113.093139
20
342.553751
30
0.0
11
-111.628995
21
342.800575
31
0.0
0
LINE
8
0
6
CONTINUOUS
10
-113.535248
20
340.924105
30
0.0
11
-113.093139
21
342.553751
31
0.0
0
LINE
8
0
6
CONTINUOUS
10
-87.070312
20
322.429245
30
0.0
11
-86.630093
21
321.999987
31
0.0
0
LINE
8
0
6
CONTINUOUS
10
-90.124683
20
323.152353
30
0.0
11
-90.058820
21
323.156672
31
0.0
0
LINE
8
0
6
CONTINUOUS
10
-90.058820
20
323.156672
30
0.0
11
-88.947107
21
323.291641
31
0.0
0
LINE
8
0
6
CONTINUOUS
10
-113.535263
20
360.394394
30
0.0
11
-111.959782
21
361.483702
31
0.0
0
LINE
8
0
6
CONTINUOUS
10
-109.500063
20
358.884348
30
0.0
11
-109.942165
21
360.728688
31
0.0
0
LINE
8
0
6
CONTINUOUS
10
-108.197112
20
369.202423
30
0.0
11
-107.212957
21
369.512169
31
0.0
0
LINE
8
0
6
CONTINUOUS
10
-106.258902
20
369.825504
30
0.0
11
-104.543685
21
368.574175
31
0.0
0
LINE
8
0
6
CONTINUOUS
10
-107.212957
20
369.512169
30
0.0
11
-106.258902
21
369.825504
31
0.0
0
LINE
8
0
6
CONTINUOUS
10
-115.320460
20
350.863291
30
0.0
11
-114.375992
21
352.134869
31
0.0
0
LINE
8
0
6
CONTINUOUS
10
-112.148841
20
351.761363
30
0.0
11
-112.254923
21
351.925159
31
0.0
0
LINE
8
0
6
CONTINUOUS
10
-115.436515
20
350.705692
30
0.0
11
-115.320460
21
350.863291
31
0.0
0
LINE
8
0
6
CONTINUOUS
10
-111.194392
20
350.268475
30
0.0
11
-112.148841
21
351.761363
31
0.0
0
LINE
8
0
6
CONTINUOUS
10
-96.518425
20
374.621628
30
0.0
11
-97.766185
21
376.265426
31
0.0
0
LINE
8
0
6
CONTINUOUS
10
-99.875501
20
376.174269
30
0.0
11
-97.766185
21
376.265426
31
0.0
0
LINE
8
0
6
CONTINUOUS
10
-100.344985
20
375.229434
30
0.0
11
-99.875501
21
376.174269
31
0.0
0
LINE
8
0
6
CONTINUOUS
10
-120.970332
20
339.485433
30
0.0
11
-118.986961
21
339.868828
31
0.0
0
LINE
8
0
6
CONTINUOUS
10
-109.237510
20
326.471060
30
0.0
11
-107.819152
21
326.125527
31
0.0
0
LINE
8
0
6
CONTINUOUS
10
-98.864613
20
319.794978
30
0.0
11
-99.190659
21
320.199868
31
0.0
0
LINE
8
0
6
CONTINUOUS
10
-90.779095
20
379.232152
30
0.0
11
-89.358975
21
380.653980
31
0.0
0
LINE
8
0
6
CONTINUOUS
10
-100.188362
20
364.795743
30
0.0
11
-98.213532
21
365.359852
31
0.0
0
LINE
8
0
6
CONTINUOUS
10
-105.715692
20
344.447951
30
0.0
11
-105.088212
21
346.058386
31
0.0
0
LINE
8
0
6
CONTINUOUS
10
-103.019803
20
346.266487
30
0.0
11
-101.578864
21
344.864164
31
0.0
0
LINE
8
0
6
CONTINUOUS
10
-104.921940
20
355.807544
30
0.0
11
-104.274762
21
356.359985
31
0.0
0
LINE
8
0
6
CONTINUOUS
10
-101.884737
20
354.858124
30
0.0
11
-102.206363
21
355.783807
31
0.0
0
LINE
8
0
6
CONTINUOUS
10
-88.947107
20
323.291641
30
0.0
11
-88.050214
21
323.356599
31
0.0
0
LINE
8
0
6
CONTINUOUS
10
-88.050214
20
323.356599
30
0.0
11
-87.898551
21
323.205184
31
0.0
0
LINE
8
0
6
CONTINUOUS
10
-98.847881
20
337.396677
30
0.0
11
-97.385334
21
336.837643
31
0.0
0
LINE
8
0
6
CONTINUOUS
10
-97.385334
20
336.837643
30
0.0
11
-96.873054
21
336.646564
31
0.0
0
LINE
8
0
6
CONTINUOUS
10
-96.555863
20
334.992454
30
0.0
11
-96.873054
21
336.646564
31
0.0
0
LINE
8
0
6
CONTINUOUS
10
-114.497501
20
331.934662
30
0.0
11
-112.580662
21
331.047513
31
0.0
0
LINE
8
0
6
CONTINUOUS
10
-112.408651
20
329.396696
30
0.0
11
-112.580662
21
331.047513
31
0.0
0
LINE
8
0
6
CONTINUOUS
10
-123.192548
20
348.520683
30
0.0
11
-121.086570
21
348.488160
31
0.0
0
LINE
8
0
6
CONTINUOUS
10
-108.420082
20
333.789775
30
0.0
11
-106.704863
21
334.627034
31
0.0
0
LINE
8
0
6
CONTINUOUS
10
-104.656647
20
332.970816
30
0.0
11
-104.766653
21
333.794302
31
0.0
0
LINE
8
0
6
CONTINUOUS
10
-102.116733
20
321.286253
30
0.0
11
-101.478587
21
321.262743
31
0.0
0
LINE
8
0
6
CONTINUOUS
10
-79.568975
20
372.917550
30
0.0
11
-77.732085
21
373.887337
31
0.0
0
LINE
8
0
6
CONTINUOUS
10
-101.478587
20
321.262743
30
0.0
11
-99.997343
21
321.203460
31
0.0
0
LINE
8
0
6
CONTINUOUS
10
-99.190659
20
320.199868
30
0.0
11
-99.997343
21
321.203460
31
0.0
0
LINE
8
0
6
CONTINUOUS
10
-88.405840
20
371.263116
30
0.0
11
-88.067078
21
371.231913
31
0.0
0
LINE
8
0
6
CONTINUOUS
10
-90.182265
20
371.451974
30
0.0
11
-88.405840
21
371.263116
31
0.0
0
LINE
8
0
6
CONTINUOUS
10
-91.376495
20
369.890772
30
0.0
11
-90.182265
21
371.451974
31
0.0
0
LINE
8
0
6
CONTINUOUS
10
-100.505545
20
362.952119
30
0.0
11
-100.281343
21
364.249080
31
0.0
0
LINE
8
0
6
CONTINUOUS
10
-101.578882
20
353.988772
30
0.0
11
-101.884737
21
354.858124
31
0.0
0
LINE
8
0
6
CONTINUOUS
10
-87.898551
20
323.205184
30
0.0
11
-87.070312
21
322.429245
31
0.0
0
LINE
8
0
6
CONTINUOUS
10
-111.628995
20
342.800575
30
0.0
11
-111.075551
21
342.894883
31
0.0
0
ENDSEC
0
EOF
