999
Erzeugt mit innoplus bad 
0
SECTION
2
HEADER
9
$ACADVER
1
AC1009
9
$DWGCODEPAGE
3
ISO8859-1
0
ENDSEC
0
SECTION
2
TABLES
0
TABLE
2
LAYER
70
1
0
LAYER
2
0
70
0
62
7
6
CONTINUOUS
0
ENDTAB
0
ENDSEC
0
SECTION
2
ENTITIES
0
LINE
8
0
6
CONTINUOUS
10
89.633405
20
638.490825
30
0.0
11
90.225225
21
644.493485
31
0.0
0
LINE
8
0
6
CONTINUOUS
10
87.914275
20
632.704015
30
0.0
11
89.633405
21
638.490825
31
0.0
0
LINE
8
0
6
CONTINUOUS
10
85.012365
20
627.336195
30
0.0
11
87.914275
21
632.704015
31
0.0
0
LINE
8
0
6
CONTINUOUS
10
81.159075
20
622.698285
30
0.0
11
85.012365
21
627.336195
31
0.0
0
LINE
8
0
6
CONTINUOUS
10
76.502095
20
618.874355
30
0.0
11
81.159075
21
622.698285
31
0.0
0
LINE
8
0
6
CONTINUOUS
10
72.024855
20
616.502251
30
0.0
11
76.502095
21
618.874355
31
0.0
0
LINE
8
0
6
CONTINUOUS
10
42.339005
20
619.033965
30
0.0
11
47.024615
21
616.498874
31
0.0
0
LINE
8
0
6
CONTINUOUS
10
37.667945
20
622.850035
30
0.0
11
42.339005
21
619.033965
31
0.0
0
LINE
8
0
6
CONTINUOUS
10
33.914075
20
627.543565
30
0.0
11
37.667945
21
622.850035
31
0.0
0
LINE
8
0
6
CONTINUOUS
10
31.130965
20
632.807315
30
0.0
11
33.914075
21
627.543565
31
0.0
0
LINE
8
0
6
CONTINUOUS
10
29.372385
20
638.496325
30
0.0
11
31.130965
21
632.807315
31
0.0
0
LINE
8
0
6
CONTINUOUS
10
28.824765
20
644.530105
30
0.0
11
29.372385
21
638.496325
31
0.0
0
LINE
8
0
6
CONTINUOUS
10
29.421105
20
650.443495
30
0.0
11
28.824765
21
644.530105
31
0.0
0
LINE
8
0
6
CONTINUOUS
10
31.104295
20
656.148525
30
0.0
11
29.421105
21
650.443495
31
0.0
0
LINE
8
0
6
CONTINUOUS
10
33.975085
20
661.483915
30
0.0
11
31.104295
21
656.148525
31
0.0
0
LINE
8
0
6
CONTINUOUS
10
37.748225
20
666.082305
30
0.0
11
33.975085
21
661.483915
31
0.0
0
LINE
8
0
6
CONTINUOUS
10
42.315805
20
669.906765
30
0.0
11
37.748225
21
666.082305
31
0.0
0
LINE
8
0
6
CONTINUOUS
10
47.024615
20
672.435109
30
0.0
11
42.315805
21
669.906765
31
0.0
0
LINE
8
0
6
CONTINUOUS
10
76.419655
20
670.097965
30
0.0
11
72.024855
21
672.394654
31
0.0
0
LINE
8
0
6
CONTINUOUS
10
81.160945
20
666.274715
30
0.0
11
76.419655
21
670.097965
31
0.0
0
LINE
8
0
6
CONTINUOUS
10
84.973605
20
661.617965
30
0.0
11
81.160945
21
666.274715
31
0.0
0
LINE
8
0
6
CONTINUOUS
10
87.840655
20
656.323085
30
0.0
11
84.973605
21
661.617965
31
0.0
0
LINE
8
0
6
CONTINUOUS
10
89.668235
20
650.511015
30
0.0
11
87.840655
21
656.323085
31
0.0
0
LINE
8
0
6
CONTINUOUS
10
90.225225
20
644.493485
30
0.0
11
89.668235
21
650.511015
31
0.0
0
LINE
8
0
6
CONTINUOUS
10
89.075245
20
638.593295
30
0.0
11
89.657955
21
644.508975
31
0.0
0
LINE
8
0
6
CONTINUOUS
10
87.351895
20
632.903595
30
0.0
11
89.075245
21
638.593295
31
0.0
0
LINE
8
0
6
CONTINUOUS
10
84.549405
20
627.669445
30
0.0
11
87.351895
21
632.903595
31
0.0
0
LINE
8
0
6
CONTINUOUS
10
80.774345
20
623.077245
30
0.0
11
84.549405
21
627.669445
31
0.0
0
LINE
8
0
6
CONTINUOUS
10
76.178135
20
619.307325
30
0.0
11
80.774345
21
623.077245
31
0.0
0
LINE
8
0
6
CONTINUOUS
10
72.024855
20
617.090468
30
0.0
11
76.178135
21
619.307325
31
0.0
0
LINE
8
0
6
CONTINUOUS
10
42.502915
20
619.323505
30
0.0
11
47.024615
21
616.888616
31
0.0
0
LINE
8
0
6
CONTINUOUS
10
37.906435
20
623.088155
30
0.0
11
42.502915
21
619.323505
31
0.0
0
LINE
8
0
6
CONTINUOUS
10
34.174825
20
627.699735
30
0.0
11
37.906435
21
623.088155
31
0.0
0
LINE
8
0
6
CONTINUOUS
10
31.392555
20
632.936025
30
0.0
11
34.174825
21
627.699735
31
0.0
0
LINE
8
0
6
CONTINUOUS
10
29.660245
20
638.606495
30
0.0
11
31.392555
21
632.936025
31
0.0
0
LINE
8
0
6
CONTINUOUS
10
29.104785
20
644.507905
30
0.0
11
29.660245
21
638.606495
31
0.0
0
LINE
8
0
6
CONTINUOUS
10
29.692635
20
650.401765
30
0.0
11
29.104785
21
644.507905
31
0.0
0
LINE
8
0
6
CONTINUOUS
10
31.392995
20
656.078105
30
0.0
11
29.692635
21
650.401765
31
0.0
0
LINE
8
0
6
CONTINUOUS
10
34.196055
20
661.301345
30
0.0
11
31.392995
21
656.078105
31
0.0
0
LINE
8
0
6
CONTINUOUS
10
37.953935
20
665.883715
30
0.0
11
34.196055
21
661.301345
31
0.0
0
LINE
8
0
6
CONTINUOUS
10
42.520355
20
669.668885
30
0.0
11
37.953935
21
665.883715
31
0.0
0
LINE
8
0
6
CONTINUOUS
10
47.024615
20
672.082442
30
0.0
11
42.520355
21
669.668885
31
0.0
0
LINE
8
0
6
CONTINUOUS
10
76.176145
20
669.696965
30
0.0
11
72.024855
21
671.954865
31
0.0
0
LINE
8
0
6
CONTINUOUS
10
80.769715
20
665.936665
30
0.0
11
76.176145
21
669.696965
31
0.0
0
LINE
8
0
6
CONTINUOUS
10
84.541135
20
661.343305
30
0.0
11
80.769715
21
665.936665
31
0.0
0
LINE
8
0
6
CONTINUOUS
10
87.346915
20
656.103975
30
0.0
11
84.541135
21
661.343305
31
0.0
0
LINE
8
0
6
CONTINUOUS
10
89.077835
20
650.425335
30
0.0
11
87.346915
21
656.103975
31
0.0
0
LINE
8
0
6
CONTINUOUS
10
89.657955
20
644.508975
30
0.0
11
89.077835
21
650.425335
31
0.0
0
LINE
8
0
6
CONTINUOUS
10
28.824715
20
644.530105
30
0.0
11
29.372385
21
638.496325
31
0.0
0
LINE
8
0
6
CONTINUOUS
10
29.372385
20
638.496325
30
0.0
11
28.824765
21
644.530105
31
0.0
0
LINE
8
0
6
CONTINUOUS
10
49.411905
20
680.209885
30
0.0
11
52.177335
21
680.209885
31
0.0
0
LINE
8
0
6
CONTINUOUS
10
52.177335
20
680.209885
30
0.0
11
55.661985
21
680.209885
31
0.0
0
LINE
8
0
6
CONTINUOUS
10
66.872105
20
680.209885
30
0.0
11
69.637505
21
680.209885
31
0.0
0
LINE
8
0
6
CONTINUOUS
10
59.524705
20
680.209885
30
0.0
11
63.387455
21
680.209885
31
0.0
0
LINE
8
0
6
CONTINUOUS
10
55.661985
20
680.209885
30
0.0
11
59.524705
21
680.209885
31
0.0
0
LINE
8
0
6
CONTINUOUS
10
72.024855
20
680.209965
30
0.0
11
72.024855
21
680.961535
31
0.0
0
LINE
8
0
6
CONTINUOUS
10
71.413025
20
680.209885
30
0.0
11
72.024855
21
680.209965
31
0.0
0
LINE
8
0
6
CONTINUOUS
10
69.637505
20
680.209885
30
0.0
11
71.413025
21
680.209885
31
0.0
0
LINE
8
0
6
CONTINUOUS
10
47.636395
20
680.209885
30
0.0
11
49.411905
21
680.209885
31
0.0
0
LINE
8
0
6
CONTINUOUS
10
63.387455
20
680.209885
30
0.0
11
66.872105
21
680.209885
31
0.0
0
LINE
8
0
6
CONTINUOUS
10
47.024615
20
679.713055
30
0.0
11
47.024615
21
319.908485
31
0.0
0
LINE
8
0
6
CONTINUOUS
10
47.024615
20
267.908555
30
0.0
11
47.024615
21
-290.790405
31
0.0
0
LINE
8
0
6
CONTINUOUS
10
47.636395
20
679.713055
30
0.0
11
47.024615
21
679.713055
31
0.0
0
LINE
8
0
6
CONTINUOUS
10
47.024615
20
-290.790405
30
0.0
11
47.636395
21
-290.790405
31
0.0
0
LINE
8
0
6
CONTINUOUS
10
52.177335
20
679.713055
30
0.0
11
49.411905
21
679.713055
31
0.0
0
LINE
8
0
6
CONTINUOUS
10
49.411905
20
-290.790405
30
0.0
11
52.177335
21
-290.790405
31
0.0
0
LINE
8
0
6
CONTINUOUS
10
63.387455
20
679.713055
30
0.0
11
59.524705
21
679.713055
31
0.0
0
LINE
8
0
6
CONTINUOUS
10
59.524705
20
-290.790405
30
0.0
11
63.387455
21
-290.790405
31
0.0
0
LINE
8
0
6
CONTINUOUS
10
68.068775
20
682.141805
30
0.0
11
69.637505
21
682.141805
31
0.0
0
LINE
8
0
6
CONTINUOUS
10
71.413025
20
679.713055
30
0.0
11
69.637505
21
679.713055
31
0.0
0
LINE
8
0
6
CONTINUOUS
10
69.637505
20
-290.790405
30
0.0
11
71.413025
21
-290.790405
31
0.0
0
LINE
8
0
6
CONTINUOUS
10
47.024615
20
680.209885
30
0.0
11
47.636395
21
680.209885
31
0.0
0
LINE
8
0
6
CONTINUOUS
10
47.024615
20
680.961455
30
0.0
11
47.024615
21
680.209885
31
0.0
0
LINE
8
0
6
CONTINUOUS
10
49.411905
20
679.713055
30
0.0
11
47.636395
21
679.713055
31
0.0
0
LINE
8
0
6
CONTINUOUS
10
47.636395
20
-290.790405
30
0.0
11
49.411905
21
-290.790405
31
0.0
0
LINE
8
0
6
CONTINUOUS
10
69.637505
20
679.713055
30
0.0
11
66.872105
21
679.713055
31
0.0
0
LINE
8
0
6
CONTINUOUS
10
66.872105
20
-290.790405
30
0.0
11
69.637505
21
-290.790405
31
0.0
0
LINE
8
0
6
CONTINUOUS
10
59.524705
20
679.713055
30
0.0
11
55.661985
21
679.713055
31
0.0
0
LINE
8
0
6
CONTINUOUS
10
55.661985
20
-290.790405
30
0.0
11
59.524705
21
-290.790405
31
0.0
0
LINE
8
0
6
CONTINUOUS
10
55.661985
20
679.713055
30
0.0
11
52.177335
21
679.713055
31
0.0
0
LINE
8
0
6
CONTINUOUS
10
52.177335
20
-290.790405
30
0.0
11
55.661985
21
-290.790405
31
0.0
0
LINE
8
0
6
CONTINUOUS
10
66.872105
20
679.713055
30
0.0
11
63.387455
21
679.713055
31
0.0
0
LINE
8
0
6
CONTINUOUS
10
63.387455
20
-290.790405
30
0.0
11
66.872105
21
-290.790405
31
0.0
0
LINE
8
0
6
CONTINUOUS
10
72.024855
20
679.713135
30
0.0
11
71.413025
21
679.713055
31
0.0
0
LINE
8
0
6
CONTINUOUS
10
72.024855
20
-290.790405
30
0.0
11
72.024855
21
267.908555
31
0.0
0
LINE
8
0
6
CONTINUOUS
10
72.024855
20
319.908485
30
0.0
11
72.024855
21
427.235315
31
0.0
0
LINE
8
0
6
CONTINUOUS
10
72.024855
20
515.269300
30
0.0
11
72.024855
21
679.713135
31
0.0
0
LINE
8
0
6
CONTINUOUS
10
71.413025
20
-290.790405
30
0.0
11
72.024855
21
-290.790405
31
0.0
0
LINE
8
0
6
CONTINUOUS
10
72.024855
20
680.961535
30
0.0
11
72.024855
21
682.141875
31
0.0
0
LINE
8
0
6
CONTINUOUS
10
72.024855
20
682.141875
30
0.0
11
71.413025
21
682.141875
31
0.0
0
LINE
8
0
6
CONTINUOUS
10
66.872085
20
682.141805
30
0.0
11
63.387455
21
682.141805
31
0.0
0
LINE
8
0
6
CONTINUOUS
10
55.661985
20
682.141805
30
0.0
11
52.177335
21
682.141805
31
0.0
0
LINE
8
0
6
CONTINUOUS
10
59.524705
20
682.141805
30
0.0
11
55.661985
21
682.141805
31
0.0
0
LINE
8
0
6
CONTINUOUS
10
69.637505
20
682.141805
30
0.0
11
66.872085
21
682.141805
31
0.0
0
LINE
8
0
6
CONTINUOUS
10
49.411905
20
682.141805
30
0.0
11
47.636395
21
682.141805
31
0.0
0
LINE
8
0
6
CONTINUOUS
10
47.024615
20
682.141805
30
0.0
11
47.024615
21
680.961455
31
0.0
0
LINE
8
0
6
CONTINUOUS
10
47.636395
20
682.141805
30
0.0
11
47.024615
21
682.141805
31
0.0
0
LINE
8
0
6
CONTINUOUS
10
71.413025
20
682.141875
30
0.0
11
69.637505
21
682.141805
31
0.0
0
LINE
8
0
6
CONTINUOUS
10
63.387455
20
682.141805
30
0.0
11
59.524705
21
682.141805
31
0.0
0
LINE
8
0
6
CONTINUOUS
10
52.177335
20
682.141805
30
0.0
11
49.411905
21
682.141805
31
0.0
0
LINE
8
0
6
CONTINUOUS
10
65.732345
20
682.141805
30
0.0
11
62.788255
21
682.141805
31
0.0
0
LINE
8
0
6
CONTINUOUS
10
62.788255
20
682.141805
30
0.0
11
59.524725
21
682.141805
31
0.0
0
LINE
8
0
6
CONTINUOUS
10
59.524725
20
682.141805
30
0.0
11
56.261195
21
682.141805
31
0.0
0
LINE
8
0
6
CONTINUOUS
10
56.261195
20
682.141805
30
0.0
11
53.317085
21
682.141805
31
0.0
0
LINE
8
0
6
CONTINUOUS
10
53.317085
20
682.141805
30
0.0
11
50.980685
21
682.141805
31
0.0
0
LINE
8
0
6
CONTINUOUS
10
50.980685
20
682.141805
30
0.0
11
49.480575
21
682.141805
31
0.0
0
LINE
8
0
6
CONTINUOUS
10
49.480575
20
682.141805
30
0.0
11
48.963695
21
682.141805
31
0.0
0
LINE
8
0
6
CONTINUOUS
10
49.411905
20
679.713055
30
0.0
11
52.177335
21
679.713055
31
0.0
0
LINE
8
0
6
CONTINUOUS
10
52.177335
20
680.209885
30
0.0
11
49.411905
21
680.209885
31
0.0
0
LINE
8
0
6
CONTINUOUS
10
49.605385
20
679.961475
30
0.0
11
52.317905
21
679.961475
31
0.0
0
LINE
8
0
6
CONTINUOUS
10
59.524705
20
679.713055
30
0.0
11
63.387455
21
679.713055
31
0.0
0
LINE
8
0
6
CONTINUOUS
10
63.387455
20
680.209885
30
0.0
11
59.524705
21
680.209885
31
0.0
0
LINE
8
0
6
CONTINUOUS
10
59.524705
20
679.961475
30
0.0
11
63.313545
21
679.961475
31
0.0
0
LINE
8
0
6
CONTINUOUS
10
69.637505
20
679.713055
30
0.0
11
71.413025
21
679.713055
31
0.0
0
LINE
8
0
6
CONTINUOUS
10
71.413025
20
680.209885
30
0.0
11
69.637505
21
680.209885
31
0.0
0
LINE
8
0
6
CONTINUOUS
10
69.444025
20
679.961475
30
0.0
11
71.185565
21
679.961475
31
0.0
0
LINE
8
0
6
CONTINUOUS
10
47.263755
20
679.961475
30
0.0
11
47.024615
21
679.713055
31
0.0
0
LINE
8
0
6
CONTINUOUS
10
47.024615
20
679.713055
30
0.0
11
47.636395
21
679.713055
31
0.0
0
LINE
8
0
6
CONTINUOUS
10
47.024615
20
680.209885
30
0.0
11
47.263755
21
679.961475
31
0.0
0
LINE
8
0
6
CONTINUOUS
10
47.636395
20
680.209885
30
0.0
11
47.024615
21
680.209885
31
0.0
0
LINE
8
0
6
CONTINUOUS
10
47.263755
20
679.961475
30
0.0
11
47.863845
21
679.961475
31
0.0
0
LINE
8
0
6
CONTINUOUS
10
47.636395
20
679.713055
30
0.0
11
49.411905
21
679.713055
31
0.0
0
LINE
8
0
6
CONTINUOUS
10
49.411905
20
680.209885
30
0.0
11
47.636395
21
680.209885
31
0.0
0
LINE
8
0
6
CONTINUOUS
10
47.863845
20
679.961475
30
0.0
11
49.605385
21
679.961475
31
0.0
0
LINE
8
0
6
CONTINUOUS
10
66.872105
20
679.713055
30
0.0
11
69.637505
21
679.713055
31
0.0
0
LINE
8
0
6
CONTINUOUS
10
69.637505
20
680.209885
30
0.0
11
66.872105
21
680.209885
31
0.0
0
LINE
8
0
6
CONTINUOUS
10
66.731525
20
679.961475
30
0.0
11
69.444025
21
679.961475
31
0.0
0
LINE
8
0
6
CONTINUOUS
10
55.661985
20
679.713055
30
0.0
11
59.524705
21
679.713055
31
0.0
0
LINE
8
0
6
CONTINUOUS
10
59.524705
20
680.209885
30
0.0
11
55.661985
21
680.209885
31
0.0
0
LINE
8
0
6
CONTINUOUS
10
55.735895
20
679.961475
30
0.0
11
59.524705
21
679.961475
31
0.0
0
LINE
8
0
6
CONTINUOUS
10
52.177335
20
679.713055
30
0.0
11
55.661985
21
679.713055
31
0.0
0
LINE
8
0
6
CONTINUOUS
10
55.661985
20
680.209885
30
0.0
11
52.177335
21
680.209885
31
0.0
0
LINE
8
0
6
CONTINUOUS
10
52.317905
20
679.961475
30
0.0
11
55.735895
21
679.961475
31
0.0
0
LINE
8
0
6
CONTINUOUS
10
63.387455
20
679.713055
30
0.0
11
66.872105
21
679.713055
31
0.0
0
LINE
8
0
6
CONTINUOUS
10
66.872105
20
680.209885
30
0.0
11
63.387455
21
680.209885
31
0.0
0
LINE
8
0
6
CONTINUOUS
10
63.313545
20
679.961475
30
0.0
11
66.731525
21
679.961475
31
0.0
0
LINE
8
0
6
CONTINUOUS
10
72.024855
20
679.713135
30
0.0
11
71.785715
21
679.961545
31
0.0
0
LINE
8
0
6
CONTINUOUS
10
71.413025
20
679.713055
30
0.0
11
72.024855
21
679.713135
31
0.0
0
LINE
8
0
6
CONTINUOUS
10
72.024855
20
680.209965
30
0.0
11
71.413025
21
680.209885
31
0.0
0
LINE
8
0
6
CONTINUOUS
10
71.785715
20
679.961545
30
0.0
11
72.024855
21
680.209965
31
0.0
0
LINE
8
0
6
CONTINUOUS
10
71.185565
20
679.961475
30
0.0
11
71.785715
21
679.961545
31
0.0
0
LINE
8
0
6
CONTINUOUS
10
47.024615
20
-291.287235
30
0.0
11
47.024615
21
-292.038805
31
0.0
0
LINE
8
0
6
CONTINUOUS
10
47.636395
20
-291.287235
30
0.0
11
47.024615
21
-291.287235
31
0.0
0
LINE
8
0
6
CONTINUOUS
10
49.411905
20
-291.287235
30
0.0
11
47.636395
21
-291.287235
31
0.0
0
LINE
8
0
6
CONTINUOUS
10
71.413025
20
-291.287235
30
0.0
11
69.637505
21
-291.287235
31
0.0
0
LINE
8
0
6
CONTINUOUS
10
72.024855
20
-291.287305
30
0.0
11
71.413025
21
-291.287235
31
0.0
0
LINE
8
0
6
CONTINUOUS
10
72.024855
20
-292.038875
30
0.0
11
72.024855
21
-291.287305
31
0.0
0
LINE
8
0
6
CONTINUOUS
10
59.524705
20
-291.287235
30
0.0
11
55.661985
21
-291.287235
31
0.0
0
LINE
8
0
6
CONTINUOUS
10
63.387455
20
-291.287235
30
0.0
11
59.524705
21
-291.287235
31
0.0
0
LINE
8
0
6
CONTINUOUS
10
69.637505
20
-291.287235
30
0.0
11
66.872105
21
-291.287235
31
0.0
0
LINE
8
0
6
CONTINUOUS
10
55.661985
20
-291.287235
30
0.0
11
52.177335
21
-291.287235
31
0.0
0
LINE
8
0
6
CONTINUOUS
10
52.177335
20
-291.287235
30
0.0
11
49.411905
21
-291.287235
31
0.0
0
LINE
8
0
6
CONTINUOUS
10
66.872105
20
-291.287235
30
0.0
11
63.387455
21
-291.287235
31
0.0
0
LINE
8
0
6
CONTINUOUS
10
59.524705
20
-290.790405
30
0.0
11
55.661985
21
-290.790405
31
0.0
0
LINE
8
0
6
CONTINUOUS
10
59.524705
20
-291.038815
30
0.0
11
55.735895
21
-291.038815
31
0.0
0
LINE
8
0
6
CONTINUOUS
10
55.661985
20
-291.287235
30
0.0
11
59.524705
21
-291.287235
31
0.0
0
LINE
8
0
6
CONTINUOUS
10
49.411905
20
-290.790405
30
0.0
11
47.636395
21
-290.790405
31
0.0
0
LINE
8
0
6
CONTINUOUS
10
49.605385
20
-291.038815
30
0.0
11
47.863845
21
-291.038815
31
0.0
0
LINE
8
0
6
CONTINUOUS
10
47.636395
20
-291.287235
30
0.0
11
49.411905
21
-291.287235
31
0.0
0
LINE
8
0
6
CONTINUOUS
10
66.872105
20
-291.287235
30
0.0
11
69.637505
21
-291.287235
31
0.0
0
LINE
8
0
6
CONTINUOUS
10
55.661985
20
-290.790405
30
0.0
11
52.177335
21
-290.790405
31
0.0
0
LINE
8
0
6
CONTINUOUS
10
72.024855
20
-290.790485
30
0.0
11
71.413025
21
-290.790405
31
0.0
0
LINE
8
0
6
CONTINUOUS
10
71.785715
20
-291.038895
30
0.0
11
72.024855
21
-290.790485
31
0.0
0
LINE
8
0
6
CONTINUOUS
10
66.872105
20
-290.790405
30
0.0
11
63.387455
21
-290.790405
31
0.0
0
LINE
8
0
6
CONTINUOUS
10
55.735895
20
-291.038815
30
0.0
11
52.317905
21
-291.038815
31
0.0
0
LINE
8
0
6
CONTINUOUS
10
52.177335
20
-291.287235
30
0.0
11
55.661985
21
-291.287235
31
0.0
0
LINE
8
0
6
CONTINUOUS
10
66.731525
20
-291.038815
30
0.0
11
63.313545
21
-291.038815
31
0.0
0
LINE
8
0
6
CONTINUOUS
10
63.387455
20
-291.287235
30
0.0
11
66.872105
21
-291.287235
31
0.0
0
LINE
8
0
6
CONTINUOUS
10
59.524705
20
-291.287235
30
0.0
11
63.387455
21
-291.287235
31
0.0
0
LINE
8
0
6
CONTINUOUS
10
47.024615
20
-291.287235
30
0.0
11
47.636395
21
-291.287235
31
0.0
0
LINE
8
0
6
CONTINUOUS
10
47.263755
20
-291.038815
30
0.0
11
47.024615
21
-291.287235
31
0.0
0
LINE
8
0
6
CONTINUOUS
10
71.413025
20
-290.790405
30
0.0
11
69.637505
21
-290.790405
31
0.0
0
LINE
8
0
6
CONTINUOUS
10
71.185565
20
-291.038815
30
0.0
11
69.444025
21
-291.038815
31
0.0
0
LINE
8
0
6
CONTINUOUS
10
69.637505
20
-291.287235
30
0.0
11
71.413025
21
-291.287235
31
0.0
0
LINE
8
0
6
CONTINUOUS
10
71.785715
20
-291.038895
30
0.0
11
71.185565
21
-291.038815
31
0.0
0
LINE
8
0
6
CONTINUOUS
10
72.024855
20
-291.287305
30
0.0
11
71.785715
21
-291.038895
31
0.0
0
LINE
8
0
6
CONTINUOUS
10
71.413025
20
-291.287235
30
0.0
11
72.024855
21
-291.287305
31
0.0
0
LINE
8
0
6
CONTINUOUS
10
47.636395
20
-290.790405
30
0.0
11
47.024615
21
-290.790405
31
0.0
0
LINE
8
0
6
CONTINUOUS
10
47.263755
20
-291.038815
30
0.0
11
47.863845
21
-291.038815
31
0.0
0
LINE
8
0
6
CONTINUOUS
10
47.024615
20
-290.790405
30
0.0
11
47.263755
21
-291.038815
31
0.0
0
LINE
8
0
6
CONTINUOUS
10
71.413025
20
-293.219225
30
0.0
11
72.024855
21
-293.219225
31
0.0
0
LINE
8
0
6
CONTINUOUS
10
72.024855
20
-293.219225
30
0.0
11
72.024855
21
-292.038875
31
0.0
0
LINE
8
0
6
CONTINUOUS
10
52.177335
20
-290.790405
30
0.0
11
49.411905
21
-290.790405
31
0.0
0
LINE
8
0
6
CONTINUOUS
10
69.637505
20
-290.790405
30
0.0
11
66.872105
21
-290.790405
31
0.0
0
LINE
8
0
6
CONTINUOUS
10
66.731525
20
-291.038815
30
0.0
11
69.444025
21
-291.038815
31
0.0
0
LINE
8
0
6
CONTINUOUS
10
47.024615
20
-293.219145
30
0.0
11
47.636395
21
-293.219145
31
0.0
0
LINE
8
0
6
CONTINUOUS
10
47.024615
20
-292.038805
30
0.0
11
47.024615
21
-293.219145
31
0.0
0
LINE
8
0
6
CONTINUOUS
10
49.411905
20
-293.219145
30
0.0
11
52.177335
21
-293.219145
31
0.0
0
LINE
8
0
6
CONTINUOUS
10
52.317905
20
-291.038815
30
0.0
11
49.605385
21
-291.038815
31
0.0
0
LINE
8
0
6
CONTINUOUS
10
49.411905
20
-291.287235
30
0.0
11
52.177335
21
-291.287235
31
0.0
0
LINE
8
0
6
CONTINUOUS
10
63.387455
20
-293.219145
30
0.0
11
66.872085
21
-293.219145
31
0.0
0
LINE
8
0
6
CONTINUOUS
10
63.387455
20
-290.790405
30
0.0
11
59.524705
21
-290.790405
31
0.0
0
LINE
8
0
6
CONTINUOUS
10
59.524705
20
-291.038815
30
0.0
11
63.313545
21
-291.038815
31
0.0
0
LINE
8
0
6
CONTINUOUS
10
69.637505
20
-293.219145
30
0.0
11
71.413025
21
-293.219225
31
0.0
0
LINE
8
0
6
CONTINUOUS
10
52.177335
20
-293.219145
30
0.0
11
55.661985
21
-293.219145
31
0.0
0
LINE
8
0
6
CONTINUOUS
10
55.661985
20
-293.219145
30
0.0
11
59.524705
21
-293.219145
31
0.0
0
LINE
8
0
6
CONTINUOUS
10
66.872085
20
-293.219145
30
0.0
11
69.637505
21
-293.219145
31
0.0
0
LINE
8
0
6
CONTINUOUS
10
47.636395
20
-293.219145
30
0.0
11
49.411905
21
-293.219145
31
0.0
0
LINE
8
0
6
CONTINUOUS
10
59.524705
20
-293.219145
30
0.0
11
63.387455
21
-293.219145
31
0.0
0
LINE
8
0
6
CONTINUOUS
10
89.633405
20
-261.537625
30
0.0
11
90.225225
21
-255.534975
31
0.0
0
LINE
8
0
6
CONTINUOUS
10
87.914275
20
-267.324445
30
0.0
11
89.633405
21
-261.537625
31
0.0
0
LINE
8
0
6
CONTINUOUS
10
85.012365
20
-272.692265
30
0.0
11
87.914275
21
-267.324445
31
0.0
0
LINE
8
0
6
CONTINUOUS
10
81.159075
20
-277.330165
30
0.0
11
85.012365
21
-272.692265
31
0.0
0
LINE
8
0
6
CONTINUOUS
10
76.502095
20
-281.154095
30
0.0
11
81.159075
21
-277.330165
31
0.0
0
LINE
8
0
6
CONTINUOUS
10
72.024855
20
-283.526207
30
0.0
11
76.502095
21
-281.154095
31
0.0
0
LINE
8
0
6
CONTINUOUS
10
42.339005
20
-280.994495
30
0.0
11
47.024615
21
-283.529586
31
0.0
0
LINE
8
0
6
CONTINUOUS
10
37.667945
20
-277.178425
30
0.0
11
42.339005
21
-280.994495
31
0.0
0
LINE
8
0
6
CONTINUOUS
10
33.914075
20
-272.484895
30
0.0
11
37.667945
21
-277.178425
31
0.0
0
LINE
8
0
6
CONTINUOUS
10
31.130965
20
-267.221145
30
0.0
11
33.914075
21
-272.484895
31
0.0
0
LINE
8
0
6
CONTINUOUS
10
29.372385
20
-261.532135
30
0.0
11
31.130965
21
-267.221145
31
0.0
0
LINE
8
0
6
CONTINUOUS
10
28.824765
20
-255.498355
30
0.0
11
29.372385
21
-261.532135
31
0.0
0
LINE
8
0
6
CONTINUOUS
10
29.421105
20
-249.584965
30
0.0
11
28.824765
21
-255.498355
31
0.0
0
LINE
8
0
6
CONTINUOUS
10
31.104295
20
-243.879925
30
0.0
11
29.421105
21
-249.584965
31
0.0
0
LINE
8
0
6
CONTINUOUS
10
33.975085
20
-238.544545
30
0.0
11
31.104295
21
-243.879925
31
0.0
0
LINE
8
0
6
CONTINUOUS
10
37.748225
20
-233.946155
30
0.0
11
33.975085
21
-238.544545
31
0.0
0
LINE
8
0
6
CONTINUOUS
10
42.315805
20
-230.121685
30
0.0
11
37.748225
21
-233.946155
31
0.0
0
LINE
8
0
6
CONTINUOUS
10
47.024615
20
-227.593350
30
0.0
11
42.315805
21
-230.121685
31
0.0
0
LINE
8
0
6
CONTINUOUS
10
76.419655
20
-229.930495
30
0.0
11
72.024855
21
-227.633806
31
0.0
0
LINE
8
0
6
CONTINUOUS
10
81.160945
20
-233.753735
30
0.0
11
76.419655
21
-229.930495
31
0.0
0
LINE
8
0
6
CONTINUOUS
10
84.973605
20
-238.410495
30
0.0
11
81.160945
21
-233.753735
31
0.0
0
LINE
8
0
6
CONTINUOUS
10
87.840655
20
-243.705365
30
0.0
11
84.973605
21
-238.410495
31
0.0
0
LINE
8
0
6
CONTINUOUS
10
89.668235
20
-249.517445
30
0.0
11
87.840655
21
-243.705365
31
0.0
0
LINE
8
0
6
CONTINUOUS
10
90.225225
20
-255.534975
30
0.0
11
89.668235
21
-249.517445
31
0.0
0
LINE
8
0
6
CONTINUOUS
10
89.075245
20
-261.435165
30
0.0
11
89.657955
21
-255.519485
31
0.0
0
LINE
8
0
6
CONTINUOUS
10
87.351895
20
-267.124865
30
0.0
11
89.075245
21
-261.435165
31
0.0
0
LINE
8
0
6
CONTINUOUS
10
84.549405
20
-272.359005
30
0.0
11
87.351895
21
-267.124865
31
0.0
0
LINE
8
0
6
CONTINUOUS
10
80.774345
20
-276.951215
30
0.0
11
84.549405
21
-272.359005
31
0.0
0
LINE
8
0
6
CONTINUOUS
10
76.178135
20
-280.721135
30
0.0
11
80.774345
21
-276.951215
31
0.0
0
LINE
8
0
6
CONTINUOUS
10
72.024855
20
-282.937984
30
0.0
11
76.178135
21
-280.721135
31
0.0
0
LINE
8
0
6
CONTINUOUS
10
42.502915
20
-280.704955
30
0.0
11
47.024615
21
-283.139844
31
0.0
0
LINE
8
0
6
CONTINUOUS
10
37.906435
20
-276.940305
30
0.0
11
42.502915
21
-280.704955
31
0.0
0
LINE
8
0
6
CONTINUOUS
10
34.174825
20
-272.328715
30
0.0
11
37.906435
21
-276.940305
31
0.0
0
LINE
8
0
6
CONTINUOUS
10
31.392555
20
-267.092435
30
0.0
11
34.174825
21
-272.328715
31
0.0
0
LINE
8
0
6
CONTINUOUS
10
29.660245
20
-261.421965
30
0.0
11
31.392555
21
-267.092435
31
0.0
0
LINE
8
0
6
CONTINUOUS
10
29.104785
20
-255.520555
30
0.0
11
29.660245
21
-261.421965
31
0.0
0
LINE
8
0
6
CONTINUOUS
10
29.692635
20
-249.626695
30
0.0
11
29.104785
21
-255.520555
31
0.0
0
LINE
8
0
6
CONTINUOUS
10
31.392995
20
-243.950345
30
0.0
11
29.692635
21
-249.626695
31
0.0
0
LINE
8
0
6
CONTINUOUS
10
34.196055
20
-238.727115
30
0.0
11
31.392995
21
-243.950345
31
0.0
0
LINE
8
0
6
CONTINUOUS
10
37.953935
20
-234.144745
30
0.0
11
34.196055
21
-238.727115
31
0.0
0
LINE
8
0
6
CONTINUOUS
10
42.520355
20
-230.359575
30
0.0
11
37.953935
21
-234.144745
31
0.0
0
LINE
8
0
6
CONTINUOUS
10
47.024615
20
-227.946010
30
0.0
11
42.520355
21
-230.359575
31
0.0
0
LINE
8
0
6
CONTINUOUS
10
76.176145
20
-230.331495
30
0.0
11
72.024855
21
-228.073595
31
0.0
0
LINE
8
0
6
CONTINUOUS
10
80.769715
20
-234.091795
30
0.0
11
76.176145
21
-230.331495
31
0.0
0
LINE
8
0
6
CONTINUOUS
10
84.541135
20
-238.685145
30
0.0
11
80.769715
21
-234.091795
31
0.0
0
LINE
8
0
6
CONTINUOUS
10
87.346915
20
-243.924485
30
0.0
11
84.541135
21
-238.685145
31
0.0
0
LINE
8
0
6
CONTINUOUS
10
89.077835
20
-249.603115
30
0.0
11
87.346915
21
-243.924485
31
0.0
0
LINE
8
0
6
CONTINUOUS
10
89.657955
20
-255.519485
30
0.0
11
89.077835
21
-249.603115
31
0.0
0
LINE
8
0
6
CONTINUOUS
10
28.824715
20
-255.498355
30
0.0
11
29.372385
21
-261.532135
31
0.0
0
LINE
8
0
6
CONTINUOUS
10
29.372385
20
-261.532135
30
0.0
11
28.824765
21
-255.498355
31
0.0
0
LINE
8
0
6
CONTINUOUS
10
98.494382
20
307.259990
30
0.0
11
89.819735
21
307.259945
31
0.0
0
LINE
8
0
6
CONTINUOUS
10
89.819765
20
280.622745
30
0.0
11
98.419593
21
280.622771
31
0.0
0
LINE
8
0
6
CONTINUOUS
10
102.171992
20
321.457337
30
0.0
11
100.460715
21
320.828815
31
0.0
0
LINE
8
0
6
CONTINUOUS
10
100.460715
20
320.828815
30
0.0
11
99.068805
21
319.955945
31
0.0
0
LINE
8
0
6
CONTINUOUS
10
99.068805
20
319.955945
30
0.0
11
98.527145
21
318.927875
31
0.0
0
LINE
8
0
6
CONTINUOUS
10
126.373995
20
321.249845
30
0.0
11
125.893364
21
321.402399
31
0.0
0
LINE
8
0
6
CONTINUOUS
10
122.330135
20
316.697965
30
0.0
11
121.961175
21
316.628605
31
0.0
0
LINE
8
0
6
CONTINUOUS
10
122.723075
20
316.697965
30
0.0
11
122.330135
21
316.697965
31
0.0
0
LINE
8
0
6
CONTINUOUS
10
126.666625
20
316.697965
30
0.0
11
125.993805
21
316.697965
31
0.0
0
LINE
8
0
6
CONTINUOUS
10
126.666635
20
321.156995
30
0.0
11
126.373995
21
321.249845
31
0.0
0
LINE
8
0
6
CONTINUOUS
10
89.485625
20
305.427785
30
0.0
11
89.485625
21
306.776735
31
0.0
0
LINE
8
0
6
CONTINUOUS
10
89.485625
20
307.259945
30
0.0
11
89.230195
21
307.259945
31
0.0
0
LINE
8
0
6
CONTINUOUS
10
89.485625
20
300.620115
30
0.0
11
89.485615
21
303.363035
31
0.0
0
LINE
8
0
6
CONTINUOUS
10
89.485625
20
293.963965
30
0.0
11
89.485625
21
297.462155
31
0.0
0
LINE
8
0
6
CONTINUOUS
10
89.485645
20
287.301595
30
0.0
11
89.485635
21
290.464135
31
0.0
0
LINE
8
0
6
CONTINUOUS
10
89.485655
20
284.551465
30
0.0
11
89.485645
21
287.301595
31
0.0
0
LINE
8
0
6
CONTINUOUS
10
89.485655
20
280.622745
30
0.0
11
89.485655
21
281.117745
31
0.0
0
LINE
8
0
6
CONTINUOUS
10
89.230235
20
280.622745
30
0.0
11
89.485655
21
280.622745
31
0.0
0
LINE
8
0
6
CONTINUOUS
10
89.485655
20
281.117745
30
0.0
11
89.485645
21
282.477645
31
0.0
0
LINE
8
0
6
CONTINUOUS
10
89.553365
20
303.103985
30
0.0
11
89.553365
21
305.111965
31
0.0
0
LINE
8
0
6
CONTINUOUS
10
89.496545
20
306.423835
30
0.0
11
89.496545
21
305.111965
31
0.0
0
LINE
8
0
6
CONTINUOUS
10
89.553365
20
306.893765
30
0.0
11
89.496545
21
306.893765
31
0.0
0
LINE
8
0
6
CONTINUOUS
10
89.496545
20
303.103985
30
0.0
11
89.496545
21
300.436475
31
0.0
0
LINE
8
0
6
CONTINUOUS
10
89.553375
20
297.365345
30
0.0
11
89.553365
21
300.436475
31
0.0
0
LINE
8
0
6
CONTINUOUS
10
89.553375
20
293.963315
30
0.0
11
89.553375
21
297.365345
31
0.0
0
LINE
8
0
6
CONTINUOUS
10
89.496545
20
297.365345
30
0.0
11
89.496555
21
293.963315
31
0.0
0
LINE
8
0
6
CONTINUOUS
10
89.553385
20
287.484135
30
0.0
11
89.553375
21
290.559735
31
0.0
0
LINE
8
0
6
CONTINUOUS
10
89.496565
20
290.559735
30
0.0
11
89.496565
21
287.484135
31
0.0
0
LINE
8
0
6
CONTINUOUS
10
89.496565
20
287.484135
30
0.0
11
89.496575
21
284.809605
31
0.0
0
LINE
8
0
6
CONTINUOUS
10
89.553395
20
280.988995
30
0.0
11
89.553395
21
281.470375
31
0.0
0
LINE
8
0
6
CONTINUOUS
10
89.496585
20
280.988995
30
0.0
11
89.553395
21
280.988995
31
0.0
0
LINE
8
0
6
CONTINUOUS
10
89.496575
20
281.470375
30
0.0
11
89.496585
21
280.988995
31
0.0
0
LINE
8
0
6
CONTINUOUS
10
89.496575
20
282.792855
30
0.0
11
89.496575
21
281.470375
31
0.0
0
LINE
8
0
6
CONTINUOUS
10
89.553395
20
282.792855
30
0.0
11
89.553395
21
284.809605
31
0.0
0
LINE
8
0
6
CONTINUOUS
10
89.553365
20
306.423835
30
0.0
11
89.553365
21
305.111965
31
0.0
0
LINE
8
0
6
CONTINUOUS
10
89.485625
20
293.963965
30
0.0
11
89.485635
21
290.464135
31
0.0
0
LINE
8
0
6
CONTINUOUS
10
89.496565
20
290.559735
30
0.0
11
89.496555
21
293.963315
31
0.0
0
LINE
8
0
6
CONTINUOUS
10
89.553365
20
303.103985
30
0.0
11
89.553365
21
300.436475
31
0.0
0
LINE
8
0
6
CONTINUOUS
10
89.553385
20
287.484135
30
0.0
11
89.553395
21
284.809605
31
0.0
0
LINE
8
0
6
CONTINUOUS
10
89.553395
20
282.792855
30
0.0
11
89.553395
21
281.470375
31
0.0
0
LINE
8
0
6
CONTINUOUS
10
89.485625
20
307.259945
30
0.0
11
89.485625
21
306.776735
31
0.0
0
LINE
8
0
6
CONTINUOUS
10
89.496545
20
306.423835
30
0.0
11
89.496545
21
306.893765
31
0.0
0
LINE
8
0
6
CONTINUOUS
10
89.485625
20
300.620115
30
0.0
11
89.485625
21
297.462155
31
0.0
0
LINE
8
0
6
CONTINUOUS
10
89.496545
20
297.365345
30
0.0
11
89.496545
21
300.436475
31
0.0
0
LINE
8
0
6
CONTINUOUS
10
89.553375
20
293.963315
30
0.0
11
89.553375
21
290.559735
31
0.0
0
LINE
8
0
6
CONTINUOUS
10
89.485655
20
284.551465
30
0.0
11
89.485645
21
282.477645
31
0.0
0
LINE
8
0
6
CONTINUOUS
10
89.496575
20
282.792855
30
0.0
11
89.496575
21
284.809605
31
0.0
0
LINE
8
0
6
CONTINUOUS
10
89.485625
20
305.427785
30
0.0
11
89.485615
21
303.363035
31
0.0
0
LINE
8
0
6
CONTINUOUS
10
89.496545
20
303.103985
30
0.0
11
89.496545
21
305.111965
31
0.0
0
LINE
8
0
6
CONTINUOUS
10
89.553365
20
306.893765
30
0.0
11
89.553365
21
306.423835
31
0.0
0
LINE
8
0
6
CONTINUOUS
10
89.564295
20
305.427785
30
0.0
11
89.564295
21
303.363035
31
0.0
0
LINE
8
0
6
CONTINUOUS
10
89.564295
20
306.776735
30
0.0
11
89.564295
21
305.427785
31
0.0
0
LINE
8
0
6
CONTINUOUS
10
89.819735
20
307.259945
30
0.0
11
89.564295
21
307.259945
31
0.0
0
LINE
8
0
6
CONTINUOUS
10
89.564295
20
307.259945
30
0.0
11
89.564295
21
306.776735
31
0.0
0
LINE
8
0
6
CONTINUOUS
10
89.564295
20
303.363035
30
0.0
11
89.564295
21
300.620115
31
0.0
0
LINE
8
0
6
CONTINUOUS
10
89.564295
20
300.620115
30
0.0
11
89.564295
21
297.462155
31
0.0
0
LINE
8
0
6
CONTINUOUS
10
89.564295
20
297.462155
30
0.0
11
89.564295
21
293.963965
31
0.0
0
LINE
8
0
6
CONTINUOUS
10
89.564295
20
293.963965
30
0.0
11
89.564305
21
290.464135
31
0.0
0
LINE
8
0
6
CONTINUOUS
10
89.564305
20
290.464135
30
0.0
11
89.564315
21
287.301595
31
0.0
0
LINE
8
0
6
CONTINUOUS
10
89.564315
20
287.301595
30
0.0
11
89.564315
21
284.551465
31
0.0
0
LINE
8
0
6
CONTINUOUS
10
89.564325
20
280.622745
30
0.0
11
89.819765
21
280.622745
31
0.0
0
LINE
8
0
6
CONTINUOUS
10
89.564315
20
281.117745
30
0.0
11
89.564325
21
280.622745
31
0.0
0
LINE
8
0
6
CONTINUOUS
10
89.564315
20
282.477645
30
0.0
11
89.564315
21
281.117745
31
0.0
0
LINE
8
0
6
CONTINUOUS
10
89.564315
20
284.551465
30
0.0
11
89.564315
21
282.477645
31
0.0
0
LINE
8
0
6
CONTINUOUS
10
89.230195
20
307.259945
30
0.0
11
75.516115
21
307.259945
31
0.0
0
LINE
8
0
6
CONTINUOUS
10
75.516115
20
280.622745
30
0.0
11
89.230235
21
280.622745
31
0.0
0
LINE
8
0
6
CONTINUOUS
10
125.993805
20
316.697965
30
0.0
11
122.723075
21
316.697965
31
0.0
0
LINE
8
0
6
CONTINUOUS
10
43.532565
20
268.698575
30
0.0
11
43.532565
21
268.503225
31
0.0
0
LINE
8
0
6
CONTINUOUS
10
75.516115
20
268.698575
30
0.0
11
75.516115
21
280.622745
31
0.0
0
LINE
8
0
6
CONTINUOUS
10
75.516115
20
307.259945
30
0.0
11
75.516115
21
319.161415
31
0.0
0
LINE
8
0
6
CONTINUOUS
10
43.532565
20
319.313735
30
0.0
11
43.532565
21
319.161415
31
0.0
0
LINE
8
0
6
CONTINUOUS
10
75.516115
20
319.161415
30
0.0
11
75.516115
21
319.313735
31
0.0
0
LINE
8
0
6
CONTINUOUS
10
43.532565
20
319.161415
30
0.0
11
43.532565
21
268.698575
31
0.0
0
LINE
8
0
6
CONTINUOUS
10
75.516115
20
268.503225
30
0.0
11
75.516115
21
268.698575
31
0.0
0
LINE
8
0
6
CONTINUOUS
10
125.993815
20
321.156995
30
0.0
11
125.876460
21
321.156995
31
0.0
0
LINE
8
0
6
CONTINUOUS
10
126.666635
20
321.156995
30
0.0
11
125.993815
21
321.156995
31
0.0
0
LINE
8
0
6
CONTINUOUS
10
126.664085
20
320.248605
30
0.0
11
126.666635
21
321.156995
31
0.0
0
LINE
8
0
6
CONTINUOUS
10
126.654131
20
316.697965
30
0.0
11
126.664085
21
320.248605
31
0.0
0
LINE
8
0
6
CONTINUOUS
10
55.494395
20
267.908555
30
0.0
11
59.524345
21
267.908555
31
0.0
0
LINE
8
0
6
CONTINUOUS
10
59.524345
20
268.503225
30
0.0
11
55.430465
21
268.503225
31
0.0
0
LINE
8
0
6
CONTINUOUS
10
51.784305
20
267.908555
30
0.0
11
55.494395
21
267.908555
31
0.0
0
LINE
8
0
6
CONTINUOUS
10
55.430465
20
268.503225
30
0.0
11
51.592435
21
268.503225
31
0.0
0
LINE
8
0
6
CONTINUOUS
10
48.521985
20
267.908555
30
0.0
11
51.784305
21
267.908555
31
0.0
0
LINE
8
0
6
CONTINUOUS
10
51.592435
20
268.503225
30
0.0
11
48.202165
21
268.503225
31
0.0
0
LINE
8
0
6
CONTINUOUS
10
46.027255
20
267.908555
30
0.0
11
48.521985
21
267.908555
31
0.0
0
LINE
8
0
6
CONTINUOUS
10
48.202165
20
268.503225
30
0.0
11
45.643465
21
268.503225
31
0.0
0
LINE
8
0
6
CONTINUOUS
10
44.492075
20
267.908555
30
0.0
11
46.027255
21
267.908555
31
0.0
0
LINE
8
0
6
CONTINUOUS
10
45.643465
20
268.503225
30
0.0
11
44.108275
21
268.503225
31
0.0
0
LINE
8
0
6
CONTINUOUS
10
43.916355
20
267.908555
30
0.0
11
44.492075
21
267.908555
31
0.0
0
LINE
8
0
6
CONTINUOUS
10
43.532565
20
268.503225
30
0.0
11
43.916355
21
267.908555
31
0.0
0
LINE
8
0
6
CONTINUOUS
10
44.108275
20
268.503225
30
0.0
11
43.532565
21
268.503225
31
0.0
0
LINE
8
0
6
CONTINUOUS
10
63.618235
20
268.503225
30
0.0
11
59.524345
21
268.503225
31
0.0
0
LINE
8
0
6
CONTINUOUS
10
59.524345
20
267.908555
30
0.0
11
63.554255
21
267.908555
31
0.0
0
LINE
8
0
6
CONTINUOUS
10
67.456265
20
268.503225
30
0.0
11
63.618235
21
268.503225
31
0.0
0
LINE
8
0
6
CONTINUOUS
10
63.554255
20
267.908555
30
0.0
11
67.264345
21
267.908555
31
0.0
0
LINE
8
0
6
CONTINUOUS
10
70.846525
20
268.503225
30
0.0
11
67.456265
21
268.503225
31
0.0
0
LINE
8
0
6
CONTINUOUS
10
67.264345
20
267.908555
30
0.0
11
70.526665
21
267.908555
31
0.0
0
LINE
8
0
6
CONTINUOUS
10
73.405185
20
268.503225
30
0.0
11
70.846525
21
268.503225
31
0.0
0
LINE
8
0
6
CONTINUOUS
10
70.526665
20
267.908555
30
0.0
11
73.021385
21
267.908555
31
0.0
0
LINE
8
0
6
CONTINUOUS
10
74.940405
20
268.503225
30
0.0
11
73.405185
21
268.503225
31
0.0
0
LINE
8
0
6
CONTINUOUS
10
73.021385
20
267.908555
30
0.0
11
74.556605
21
267.908555
31
0.0
0
LINE
8
0
6
CONTINUOUS
10
75.516115
20
268.503225
30
0.0
11
74.940405
21
268.503225
31
0.0
0
LINE
8
0
6
CONTINUOUS
10
75.132315
20
267.908555
30
0.0
11
75.516115
21
268.503225
31
0.0
0
LINE
8
0
6
CONTINUOUS
10
74.556605
20
267.908555
30
0.0
11
75.132315
21
267.908555
31
0.0
0
LINE
8
0
6
CONTINUOUS
10
55.430465
20
319.313735
30
0.0
11
59.524345
21
319.313735
31
0.0
0
LINE
8
0
6
CONTINUOUS
10
59.524345
20
319.908485
30
0.0
11
55.494395
21
319.908485
31
0.0
0
LINE
8
0
6
CONTINUOUS
10
51.592435
20
319.313735
30
0.0
11
55.430465
21
319.313735
31
0.0
0
LINE
8
0
6
CONTINUOUS
10
55.494395
20
319.908485
30
0.0
11
51.784305
21
319.908485
31
0.0
0
LINE
8
0
6
CONTINUOUS
10
48.202165
20
319.313735
30
0.0
11
51.592435
21
319.313735
31
0.0
0
LINE
8
0
6
CONTINUOUS
10
51.784305
20
319.908485
30
0.0
11
48.521985
21
319.908485
31
0.0
0
LINE
8
0
6
CONTINUOUS
10
45.643465
20
319.313735
30
0.0
11
48.202165
21
319.313735
31
0.0
0
LINE
8
0
6
CONTINUOUS
10
48.521985
20
319.908485
30
0.0
11
46.027255
21
319.908485
31
0.0
0
LINE
8
0
6
CONTINUOUS
10
44.108275
20
319.313735
30
0.0
11
45.643465
21
319.313735
31
0.0
0
LINE
8
0
6
CONTINUOUS
10
46.027255
20
319.908485
30
0.0
11
44.492075
21
319.908485
31
0.0
0
LINE
8
0
6
CONTINUOUS
10
43.532565
20
319.313735
30
0.0
11
44.108275
21
319.313735
31
0.0
0
LINE
8
0
6
CONTINUOUS
10
43.916355
20
319.908485
30
0.0
11
43.532565
21
319.313735
31
0.0
0
LINE
8
0
6
CONTINUOUS
10
44.492075
20
319.908485
30
0.0
11
43.916355
21
319.908485
31
0.0
0
LINE
8
0
6
CONTINUOUS
10
63.554255
20
319.908485
30
0.0
11
59.524345
21
319.908485
31
0.0
0
LINE
8
0
6
CONTINUOUS
10
59.524345
20
319.313735
30
0.0
11
63.618235
21
319.313735
31
0.0
0
LINE
8
0
6
CONTINUOUS
10
67.264345
20
319.908485
30
0.0
11
63.554255
21
319.908485
31
0.0
0
LINE
8
0
6
CONTINUOUS
10
63.618235
20
319.313735
30
0.0
11
67.456265
21
319.313735
31
0.0
0
LINE
8
0
6
CONTINUOUS
10
70.526665
20
319.908485
30
0.0
11
67.264345
21
319.908485
31
0.0
0
LINE
8
0
6
CONTINUOUS
10
67.456265
20
319.313735
30
0.0
11
70.846525
21
319.313735
31
0.0
0
LINE
8
0
6
CONTINUOUS
10
73.021385
20
319.908485
30
0.0
11
70.526665
21
319.908485
31
0.0
0
LINE
8
0
6
CONTINUOUS
10
70.846525
20
319.313735
30
0.0
11
73.405185
21
319.313735
31
0.0
0
LINE
8
0
6
CONTINUOUS
10
74.556605
20
319.908485
30
0.0
11
73.021385
21
319.908485
31
0.0
0
LINE
8
0
6
CONTINUOUS
10
73.405185
20
319.313735
30
0.0
11
74.940405
21
319.313735
31
0.0
0
LINE
8
0
6
CONTINUOUS
10
75.132315
20
319.908485
30
0.0
11
74.556605
21
319.908485
31
0.0
0
LINE
8
0
6
CONTINUOUS
10
75.516115
20
319.313735
30
0.0
11
75.132315
21
319.908485
31
0.0
0
LINE
8
0
6
CONTINUOUS
10
74.940405
20
319.313735
30
0.0
11
75.516115
21
319.313735
31
0.0
0
LINE
8
0
6
CONTINUOUS
10
126.666625
20
316.697965
30
0.0
11
126.378435
21
316.606525
31
0.0
0
LINE
8
0
6
CONTINUOUS
10
126.664075
20
315.789645
30
0.0
11
126.666625
21
316.697965
31
0.0
0
LINE
8
0
6
CONTINUOUS
10
117.993635
20
315.165215
30
0.0
11
113.990785
21
315.025825
31
0.0
0
LINE
8
0
6
CONTINUOUS
10
113.990785
20
315.025825
30
0.0
11
109.987945
21
315.165215
31
0.0
0
LINE
8
0
6
CONTINUOUS
10
109.987945
20
315.165215
30
0.0
11
106.207185
21
315.555345
31
0.0
0
LINE
8
0
6
CONTINUOUS
10
106.207185
20
315.555345
30
0.0
11
102.871675
21
316.140555
31
0.0
0
LINE
8
0
6
CONTINUOUS
10
102.871675
20
316.140555
30
0.0
11
100.769245
21
316.833005
31
0.0
0
LINE
8
0
6
CONTINUOUS
10
100.769245
20
316.833005
30
0.0
11
99.068815
21
317.783475
31
0.0
0
LINE
8
0
6
CONTINUOUS
10
98.527145
20
318.927875
30
0.0
11
98.524595
21
318.020935
31
0.0
0
LINE
8
0
6
CONTINUOUS
10
99.068815
20
317.783475
30
0.0
11
98.527145
21
318.927875
31
0.0
0
LINE
8
0
6
CONTINUOUS
10
124.998365
20
316.168515
30
0.0
11
121.884925
21
315.555345
31
0.0
0
LINE
8
0
6
CONTINUOUS
10
121.884925
20
315.555345
30
0.0
11
117.993635
21
315.165215
31
0.0
0
LINE
8
0
6
CONTINUOUS
10
126.378435
20
316.606525
30
0.0
11
124.998365
21
316.168515
31
0.0
0
LINE
8
0
6
CONTINUOUS
10
126.238495
20
266.685945
30
0.0
11
126.526675
21
266.777385
31
0.0
0
LINE
8
0
6
CONTINUOUS
10
126.526675
20
266.777385
30
0.0
11
126.528315
21
267.361335
31
0.0
0
LINE
8
0
6
CONTINUOUS
10
113.850845
20
265.105245
30
0.0
11
117.853695
21
265.244565
31
0.0
0
LINE
8
0
6
CONTINUOUS
10
109.848005
20
265.244565
30
0.0
11
113.850845
21
265.105245
31
0.0
0
LINE
8
0
6
CONTINUOUS
10
106.067245
20
265.634725
30
0.0
11
109.848005
21
265.244565
31
0.0
0
LINE
8
0
6
CONTINUOUS
10
102.731735
20
266.219975
30
0.0
11
106.067245
21
265.634725
31
0.0
0
LINE
8
0
6
CONTINUOUS
10
100.706695
20
266.834835
30
0.0
11
102.731735
21
266.219975
31
0.0
0
LINE
8
0
6
CONTINUOUS
10
98.774095
20
267.979275
30
0.0
11
100.706695
21
266.834835
31
0.0
0
LINE
8
0
6
CONTINUOUS
10
98.387195
20
269.084895
30
0.0
11
98.774095
21
267.979275
31
0.0
0
LINE
8
0
6
CONTINUOUS
10
98.388835
20
269.667935
30
0.0
11
98.387195
21
269.084895
31
0.0
0
LINE
8
0
6
CONTINUOUS
10
121.744985
20
265.634725
30
0.0
11
124.858395
21
266.247865
31
0.0
0
LINE
8
0
6
CONTINUOUS
10
117.853695
20
265.244565
30
0.0
11
121.744985
21
265.634725
31
0.0
0
LINE
8
0
6
CONTINUOUS
10
124.858395
20
266.247865
30
0.0
11
126.238495
21
266.685945
31
0.0
0
LINE
8
0
6
CONTINUOUS
10
126.528315
20
267.361335
30
0.0
11
126.664075
21
315.789645
31
0.0
0
LINE
8
0
6
CONTINUOUS
10
98.524595
20
318.020935
30
0.0
11
98.494382
21
307.259990
31
0.0
0
LINE
8
0
6
CONTINUOUS
10
98.419593
20
280.622771
30
0.0
11
98.388835
21
269.667935
31
0.0
0
LINE
8
0
6
CONTINUOUS
10
76.483225
20
426.170655
30
0.0
11
83.318815
21
422.314305
31
0.0
0
LINE
8
0
6
CONTINUOUS
10
70.595135
20
430.349275
30
0.0
11
76.483225
21
426.170655
31
0.0
0
LINE
8
0
6
CONTINUOUS
10
113.931955
20
517.688825
30
0.0
11
106.009185
21
517.221375
31
0.0
0
LINE
8
0
6
CONTINUOUS
10
71.249915
20
503.003995
30
0.0
11
66.141795
21
498.306425
31
0.0
0
LINE
8
0
6
CONTINUOUS
10
66.141795
20
498.306425
30
0.0
11
61.401125
21
492.608105
31
0.0
0
LINE
8
0
6
CONTINUOUS
10
61.401125
20
492.608105
30
0.0
11
57.742605
21
486.781845
31
0.0
0
LINE
8
0
6
CONTINUOUS
10
57.742605
20
486.781845
30
0.0
11
54.946745
21
479.799345
31
0.0
0
LINE
8
0
6
CONTINUOUS
10
54.946745
20
479.799345
30
0.0
11
53.387045
21
473.808745
31
0.0
0
LINE
8
0
6
CONTINUOUS
10
53.387045
20
473.808745
30
0.0
11
52.697975
21
467.180325
31
0.0
0
LINE
8
0
6
CONTINUOUS
10
113.932045
20
435.686875
30
0.0
11
113.956445
21
437.233585
31
0.0
0
LINE
8
0
6
CONTINUOUS
10
83.318815
20
422.314305
30
0.0
11
86.670105
21
420.769885
31
0.0
0
LINE
8
0
6
CONTINUOUS
10
98.969275
20
410.386355
30
0.0
11
99.509515
21
408.983765
31
0.0
0
LINE
8
0
6
CONTINUOUS
10
99.509515
20
408.983765
30
0.0
11
100.559725
21
406.174695
31
0.0
0
LINE
8
0
6
CONTINUOUS
10
100.559725
20
406.174695
30
0.0
11
101.373995
21
404.444355
31
0.0
0
LINE
8
0
6
CONTINUOUS
10
94.732175
20
417.047195
30
0.0
11
96.323375
21
415.528185
31
0.0
0
LINE
8
0
6
CONTINUOUS
10
89.390395
20
419.664995
30
0.0
11
92.336085
21
418.465805
31
0.0
0
LINE
8
0
6
CONTINUOUS
10
105.564665
20
398.524555
30
0.0
11
108.096695
21
396.622235
31
0.0
0
LINE
8
0
6
CONTINUOUS
10
110.854435
20
395.676725
30
0.0
11
113.932075
21
395.421445
31
0.0
0
LINE
8
0
6
CONTINUOUS
10
108.096695
20
396.622235
30
0.0
11
110.854435
21
395.676725
31
0.0
0
LINE
8
0
6
CONTINUOUS
10
98.429025
20
411.788945
30
0.0
11
98.969275
21
410.386355
31
0.0
0
LINE
8
0
6
CONTINUOUS
10
54.615555
20
454.192125
30
0.0
11
57.202085
21
447.309035
31
0.0
0
LINE
8
0
6
CONTINUOUS
10
57.202085
20
447.309035
30
0.0
11
60.793535
21
441.092915
31
0.0
0
LINE
8
0
6
CONTINUOUS
10
99.062875
20
515.999225
30
0.0
11
90.984405
21
513.735195
31
0.0
0
LINE
8
0
6
CONTINUOUS
10
77.230005
20
507.298055
30
0.0
11
71.249915
21
503.003995
31
0.0
0
LINE
8
0
6
CONTINUOUS
10
83.987525
20
510.929185
30
0.0
11
77.230005
21
507.298055
31
0.0
0
LINE
8
0
6
CONTINUOUS
10
90.984405
20
513.735195
30
0.0
11
83.987525
21
510.929185
31
0.0
0
LINE
8
0
6
CONTINUOUS
10
106.009185
20
517.221375
30
0.0
11
99.062875
21
515.999225
31
0.0
0
LINE
8
0
6
CONTINUOUS
10
65.308945
20
435.571445
30
0.0
11
70.595135
21
430.349275
31
0.0
0
LINE
8
0
6
CONTINUOUS
10
60.793535
20
441.092915
30
0.0
11
65.308945
21
435.571445
31
0.0
0
LINE
8
0
6
CONTINUOUS
10
53.180135
20
460.442425
30
0.0
11
54.615555
21
454.192125
31
0.0
0
LINE
8
0
6
CONTINUOUS
10
52.697975
20
467.180325
30
0.0
11
53.180135
21
460.442425
31
0.0
0
LINE
8
0
6
CONTINUOUS
10
92.336085
20
418.465805
30
0.0
11
94.732175
21
417.047195
31
0.0
0
LINE
8
0
6
CONTINUOUS
10
113.956445
20
437.233585
30
0.0
11
113.954840
21
437.687851
31
0.0
0
LINE
8
0
6
CONTINUOUS
10
113.942360
20
441.219385
30
0.0
11
113.936146
21
442.977686
31
0.0
0
LINE
8
0
6
CONTINUOUS
10
96.323375
20
415.528185
30
0.0
11
97.888775
21
413.191525
31
0.0
0
LINE
8
0
6
CONTINUOUS
10
104.824545
20
415.741655
30
0.0
11
103.180705
21
412.120135
31
0.0
0
LINE
8
0
6
CONTINUOUS
10
86.670105
20
420.769885
30
0.0
11
89.390395
21
419.664995
31
0.0
0
LINE
8
0
6
CONTINUOUS
10
101.373995
20
404.444355
30
0.0
11
103.152375
21
401.280515
31
0.0
0
LINE
8
0
6
CONTINUOUS
10
103.152375
20
401.280515
30
0.0
11
105.564665
21
398.524555
31
0.0
0
LINE
8
0
6
CONTINUOUS
10
97.888775
20
413.191525
30
0.0
11
98.429025
21
411.788945
31
0.0
0
LINE
8
0
6
CONTINUOUS
10
144.545295
20
422.314375
30
0.0
11
151.380875
21
426.170735
31
0.0
0
LINE
8
0
6
CONTINUOUS
10
151.380875
20
426.170735
30
0.0
11
157.268975
21
430.349355
31
0.0
0
LINE
8
0
6
CONTINUOUS
10
121.854735
20
517.221375
30
0.0
11
113.931955
21
517.688825
31
0.0
0
LINE
8
0
6
CONTINUOUS
10
161.722175
20
498.306505
30
0.0
11
156.614025
21
503.003995
31
0.0
0
LINE
8
0
6
CONTINUOUS
10
166.462825
20
492.608185
30
0.0
11
161.722175
21
498.306505
31
0.0
0
LINE
8
0
6
CONTINUOUS
10
170.121375
20
486.781925
30
0.0
11
166.462825
21
492.608185
31
0.0
0
LINE
8
0
6
CONTINUOUS
10
172.917255
20
479.799345
30
0.0
11
170.121375
21
486.781925
31
0.0
0
LINE
8
0
6
CONTINUOUS
10
174.476955
20
473.808825
30
0.0
11
172.917255
21
479.799345
31
0.0
0
LINE
8
0
6
CONTINUOUS
10
175.166045
20
467.180405
30
0.0
11
174.476955
21
473.808825
31
0.0
0
LINE
8
0
6
CONTINUOUS
10
113.907625
20
437.233585
30
0.0
11
113.932045
21
435.686875
31
0.0
0
LINE
8
0
6
CONTINUOUS
10
141.194005
20
420.769955
30
0.0
11
144.545295
21
422.314375
31
0.0
0
LINE
8
0
6
CONTINUOUS
10
128.354605
20
408.983765
30
0.0
11
128.894865
21
410.386355
31
0.0
0
LINE
8
0
6
CONTINUOUS
10
126.490145
20
404.444355
30
0.0
11
127.304415
21
406.174775
31
0.0
0
LINE
8
0
6
CONTINUOUS
10
127.304415
20
406.174775
30
0.0
11
128.354605
21
408.983765
31
0.0
0
LINE
8
0
6
CONTINUOUS
10
131.540745
20
415.528185
30
0.0
11
133.131955
21
417.047195
31
0.0
0
LINE
8
0
6
CONTINUOUS
10
135.528035
20
418.465805
30
0.0
11
138.473725
21
419.665065
31
0.0
0
LINE
8
0
6
CONTINUOUS
10
119.767445
20
396.622235
30
0.0
11
122.299475
21
398.524555
31
0.0
0
LINE
8
0
6
CONTINUOUS
10
113.932075
20
395.421445
30
0.0
11
117.009705
21
395.676725
31
0.0
0
LINE
8
0
6
CONTINUOUS
10
117.009705
20
395.676725
30
0.0
11
119.767445
21
396.622235
31
0.0
0
LINE
8
0
6
CONTINUOUS
10
128.894865
20
410.386355
30
0.0
11
129.435105
21
411.788945
31
0.0
0
LINE
8
0
6
CONTINUOUS
10
170.661975
20
447.309115
30
0.0
11
173.248485
21
454.192195
31
0.0
0
LINE
8
0
6
CONTINUOUS
10
167.070545
20
441.092985
30
0.0
11
170.661975
21
447.309115
31
0.0
0
LINE
8
0
6
CONTINUOUS
10
136.879515
20
513.735195
30
0.0
11
128.801055
21
515.999225
31
0.0
0
LINE
8
0
6
CONTINUOUS
10
156.614025
20
503.003995
30
0.0
11
150.633935
21
507.298125
31
0.0
0
LINE
8
0
6
CONTINUOUS
10
150.633935
20
507.298125
30
0.0
11
143.876405
21
510.929265
31
0.0
0
LINE
8
0
6
CONTINUOUS
10
143.876405
20
510.929265
30
0.0
11
136.879515
21
513.735195
31
0.0
0
LINE
8
0
6
CONTINUOUS
10
128.801055
20
515.999225
30
0.0
11
121.854735
21
517.221375
31
0.0
0
LINE
8
0
6
CONTINUOUS
10
157.268975
20
430.349355
30
0.0
11
162.555135
21
435.571445
31
0.0
0
LINE
8
0
6
CONTINUOUS
10
162.555135
20
435.571445
30
0.0
11
167.070545
21
441.092985
31
0.0
0
LINE
8
0
6
CONTINUOUS
10
173.248485
20
454.192195
30
0.0
11
174.683905
21
460.442505
31
0.0
0
LINE
8
0
6
CONTINUOUS
10
174.683905
20
460.442505
30
0.0
11
175.166045
21
467.180405
31
0.0
0
LINE
8
0
6
CONTINUOUS
10
133.131955
20
417.047195
30
0.0
11
135.528035
21
418.465805
31
0.0
0
LINE
8
0
6
CONTINUOUS
10
113.927920
20
442.976721
30
0.0
11
113.922738
21
441.510097
31
0.0
0
LINE
8
0
6
CONTINUOUS
10
129.975355
20
413.191525
30
0.0
11
131.540745
21
415.528185
31
0.0
0
LINE
8
0
6
CONTINUOUS
10
124.683415
20
412.120135
30
0.0
11
123.039575
21
415.741725
31
0.0
0
LINE
8
0
6
CONTINUOUS
10
138.473725
20
419.665065
30
0.0
11
141.194005
21
420.769955
31
0.0
0
LINE
8
0
6
CONTINUOUS
10
124.711765
20
401.280595
30
0.0
11
126.490145
21
404.444355
31
0.0
0
LINE
8
0
6
CONTINUOUS
10
122.299475
20
398.524555
30
0.0
11
124.711765
21
401.280595
31
0.0
0
LINE
8
0
6
CONTINUOUS
10
129.435105
20
411.788945
30
0.0
11
129.975355
21
413.191525
31
0.0
0
LINE
8
0
6
CONTINUOUS
10
121.340905
20
412.846065
30
0.0
11
119.943395
21
416.641385
31
0.0
0
LINE
8
0
6
CONTINUOUS
10
105.842385
20
403.779985
30
0.0
11
108.250115
21
401.407855
31
0.0
0
LINE
8
0
6
CONTINUOUS
10
108.212515
20
401.488415
30
0.0
11
105.923455
21
403.765415
31
0.0
0
LINE
8
0
6
CONTINUOUS
10
110.798185
20
400.058825
30
0.0
11
113.932065
21
399.620365
31
0.0
0
LINE
8
0
6
CONTINUOUS
10
113.932065
20
399.682085
30
0.0
11
110.787765
21
400.122145
31
0.0
0
LINE
8
0
6
CONTINUOUS
10
104.394185
20
406.573715
30
0.0
11
105.842385
21
403.779985
31
0.0
0
LINE
8
0
6
CONTINUOUS
10
104.503955
20
406.464005
30
0.0
11
105.923455
21
403.765415
31
0.0
0
LINE
8
0
6
CONTINUOUS
10
105.304355
20
415.062635
30
0.0
11
103.790535
21
411.746365
31
0.0
0
LINE
8
0
6
CONTINUOUS
10
103.632145
20
409.334185
30
0.0
11
103.790535
21
411.746365
31
0.0
0
LINE
8
0
6
CONTINUOUS
10
111.416005
20
418.668825
30
0.0
11
108.236175
21
417.603535
31
0.0
0
LINE
8
0
6
CONTINUOUS
10
111.359385
20
418.408055
30
0.0
11
108.167715
21
417.343065
31
0.0
0
LINE
8
0
6
CONTINUOUS
10
113.932055
20
418.913265
30
0.0
11
111.416005
21
418.668825
31
0.0
0
LINE
8
0
6
CONTINUOUS
10
113.932055
20
418.656545
30
0.0
11
111.359385
21
418.408055
31
0.0
0
LINE
8
0
6
CONTINUOUS
10
108.002435
20
416.863255
30
0.0
11
108.167715
21
417.343065
31
0.0
0
LINE
8
0
6
CONTINUOUS
10
108.167715
20
417.343065
30
0.0
11
105.304355
21
415.062635
31
0.0
0
LINE
8
0
6
CONTINUOUS
10
103.538495
20
409.408795
30
0.0
11
104.394185
21
406.573715
31
0.0
0
LINE
8
0
6
CONTINUOUS
10
103.632145
20
409.334185
30
0.0
11
104.503955
21
406.464005
31
0.0
0
LINE
8
0
6
CONTINUOUS
10
108.250115
20
401.407855
30
0.0
11
110.798185
21
400.058825
31
0.0
0
LINE
8
0
6
CONTINUOUS
10
110.787765
20
400.122145
30
0.0
11
108.212515
21
401.488415
31
0.0
0
LINE
8
0
6
CONTINUOUS
10
119.614025
20
401.407855
30
0.0
11
122.021755
21
403.779985
31
0.0
0
LINE
8
0
6
CONTINUOUS
10
119.651625
20
401.488415
30
0.0
11
121.943725
21
403.768385
31
0.0
0
LINE
8
0
6
CONTINUOUS
10
113.932065
20
399.620365
30
0.0
11
117.065955
21
400.058825
31
0.0
0
LINE
8
0
6
CONTINUOUS
10
113.932065
20
399.682085
30
0.0
11
117.076375
21
400.122145
31
0.0
0
LINE
8
0
6
CONTINUOUS
10
122.021755
20
403.779985
30
0.0
11
123.469945
21
406.573795
31
0.0
0
LINE
8
0
6
CONTINUOUS
10
123.344275
20
406.458895
30
0.0
11
121.943725
21
403.768385
31
0.0
0
LINE
8
0
6
CONTINUOUS
10
122.522615
20
415.092235
30
0.0
11
124.047165
21
411.757275
31
0.0
0
LINE
8
0
6
CONTINUOUS
10
119.627935
20
417.603605
30
0.0
11
116.448105
21
418.668825
31
0.0
0
LINE
8
0
6
CONTINUOUS
10
116.504725
20
418.408055
30
0.0
11
119.696395
21
417.343065
31
0.0
0
LINE
8
0
6
CONTINUOUS
10
116.448105
20
418.668825
30
0.0
11
113.932055
21
418.913265
31
0.0
0
LINE
8
0
6
CONTINUOUS
10
113.932055
20
418.656545
30
0.0
11
116.504725
21
418.408055
31
0.0
0
LINE
8
0
6
CONTINUOUS
10
119.696395
20
417.343065
30
0.0
11
122.522615
21
415.092235
31
0.0
0
LINE
8
0
6
CONTINUOUS
10
123.469945
20
406.573795
30
0.0
11
124.325635
21
409.408795
31
0.0
0
LINE
8
0
6
CONTINUOUS
10
124.207355
20
409.334105
30
0.0
11
123.344275
21
406.458895
31
0.0
0
LINE
8
0
6
CONTINUOUS
10
117.065955
20
400.058825
30
0.0
11
119.614025
21
401.407855
31
0.0
0
LINE
8
0
6
CONTINUOUS
10
117.076375
20
400.122145
30
0.0
11
119.651625
21
401.488415
31
0.0
0
LINE
8
0
6
CONTINUOUS
10
106.523215
20
412.846065
30
0.0
11
107.920665
21
416.641235
31
0.0
0
LINE
8
0
6
CONTINUOUS
10
51.974525
20
474.108275
30
0.0
11
53.649715
21
480.725025
31
0.0
0
LINE
8
0
6
CONTINUOUS
10
69.142125
20
513.172305
30
0.0
11
63.689145
21
507.891695
31
0.0
0
LINE
8
0
6
CONTINUOUS
10
63.689145
20
507.891695
30
0.0
11
59.027935
21
502.062685
31
0.0
0
LINE
8
0
6
CONTINUOUS
10
59.027935
20
502.062685
30
0.0
11
58.655035
21
501.502915
31
0.0
0
LINE
8
0
6
CONTINUOUS
10
71.249925
20
503.003995
30
0.0
11
77.230015
21
507.298125
31
0.0
0
LINE
8
0
6
CONTINUOUS
10
77.230015
20
507.298125
30
0.0
11
83.987535
21
510.929265
31
0.0
0
LINE
8
0
6
CONTINUOUS
10
83.987535
20
510.929265
30
0.0
11
90.984425
21
513.735195
31
0.0
0
LINE
8
0
6
CONTINUOUS
10
90.984425
20
513.735195
30
0.0
11
99.062885
21
515.999295
31
0.0
0
LINE
8
0
6
CONTINUOUS
10
99.062885
20
515.999295
30
0.0
11
106.009195
21
517.221375
31
0.0
0
LINE
8
0
6
CONTINUOUS
10
106.009195
20
517.221375
30
0.0
11
113.931975
21
517.688905
31
0.0
0
LINE
8
0
6
CONTINUOUS
10
69.420115
20
505.338445
30
0.0
11
63.862175
21
500.194395
31
0.0
0
LINE
8
0
6
CONTINUOUS
10
64.890935
20
499.213105
30
0.0
11
70.414985
21
504.231265
31
0.0
0
LINE
8
0
6
CONTINUOUS
10
63.862175
20
500.194395
30
0.0
11
59.187175
21
494.487455
31
0.0
0
LINE
8
0
6
CONTINUOUS
10
60.314245
20
493.525845
30
0.0
11
64.890935
21
499.213105
31
0.0
0
LINE
8
0
6
CONTINUOUS
10
56.623525
20
487.569885
30
0.0
11
60.314245
21
493.525845
31
0.0
0
LINE
8
0
6
CONTINUOUS
10
53.649715
20
480.725025
30
0.0
11
56.623525
21
487.569885
31
0.0
0
LINE
8
0
6
CONTINUOUS
10
51.447075
20
467.416995
30
0.0
11
51.974525
21
474.108275
31
0.0
0
LINE
8
0
6
CONTINUOUS
10
55.380955
20
488.155515
30
0.0
11
59.187175
21
494.487455
31
0.0
0
LINE
8
0
6
CONTINUOUS
10
52.584805
20
481.301115
30
0.0
11
55.380955
21
488.155515
31
0.0
0
LINE
8
0
6
CONTINUOUS
10
50.890905
20
474.522705
30
0.0
11
52.584805
21
481.301115
31
0.0
0
LINE
8
0
6
CONTINUOUS
10
50.495035
20
475.084155
30
0.0
11
49.877485
21
468.153835
31
0.0
0
LINE
8
0
6
CONTINUOUS
10
50.191085
20
467.630465
30
0.0
11
50.890905
21
474.522705
31
0.0
0
LINE
8
0
6
CONTINUOUS
10
70.595145
20
430.349275
30
0.0
11
65.308955
21
435.571445
31
0.0
0
LINE
8
0
6
CONTINUOUS
10
65.308955
20
435.571445
30
0.0
11
60.793545
21
441.092985
31
0.0
0
LINE
8
0
6
CONTINUOUS
10
60.793545
20
441.092985
30
0.0
11
57.202095
21
447.309115
31
0.0
0
LINE
8
0
6
CONTINUOUS
10
57.202095
20
447.309115
30
0.0
11
54.615565
21
454.192195
31
0.0
0
LINE
8
0
6
CONTINUOUS
10
54.615565
20
454.192195
30
0.0
11
53.180135
21
460.442505
31
0.0
0
LINE
8
0
6
CONTINUOUS
10
53.180135
20
460.442505
30
0.0
11
52.697985
21
467.180325
31
0.0
0
LINE
8
0
6
CONTINUOUS
10
54.717045
20
447.550505
30
0.0
11
54.905045
21
447.120595
31
0.0
0
LINE
8
0
6
CONTINUOUS
10
52.007835
20
454.280095
30
0.0
11
52.230875
21
453.708035
31
0.0
0
LINE
8
0
6
CONTINUOUS
10
50.418785
20
461.050035
30
0.0
11
52.007835
21
454.280095
31
0.0
0
LINE
8
0
6
CONTINUOUS
10
49.877485
20
468.153835
30
0.0
11
50.418785
21
461.050035
31
0.0
0
LINE
8
0
6
CONTINUOUS
10
68.946615
20
429.517515
30
0.0
11
75.079275
21
424.970775
31
0.0
0
LINE
8
0
6
CONTINUOUS
10
75.744515
20
425.355455
30
0.0
11
69.803515
21
429.861225
31
0.0
0
LINE
8
0
6
CONTINUOUS
10
75.079275
20
424.970775
30
0.0
11
81.878765
21
421.140445
31
0.0
0
LINE
8
0
6
CONTINUOUS
10
82.717945
20
421.619035
30
0.0
11
75.744515
21
425.355455
31
0.0
0
LINE
8
0
6
CONTINUOUS
10
81.878765
20
421.140445
30
0.0
11
85.523175
21
419.462895
31
0.0
0
LINE
8
0
6
CONTINUOUS
10
86.253945
20
420.035705
30
0.0
11
82.717945
21
421.619035
31
0.0
0
LINE
8
0
6
CONTINUOUS
10
53.649715
20
480.725025
30
0.0
11
51.974525
21
474.108275
31
0.0
0
LINE
8
0
6
CONTINUOUS
10
70.414985
20
504.231265
30
0.0
11
76.407405
21
508.431095
31
0.0
0
LINE
8
0
6
CONTINUOUS
10
75.597685
20
509.513095
30
0.0
11
69.420115
21
505.338445
31
0.0
0
LINE
8
0
6
CONTINUOUS
10
76.407405
20
508.431095
30
0.0
11
83.402835
21
512.370605
31
0.0
0
LINE
8
0
6
CONTINUOUS
10
82.445705
20
513.412475
30
0.0
11
75.597685
21
509.513095
31
0.0
0
LINE
8
0
6
CONTINUOUS
10
83.402835
20
512.370605
30
0.0
11
90.577375
21
515.084075
31
0.0
0
LINE
8
0
6
CONTINUOUS
10
89.775735
20
516.351165
30
0.0
11
82.445705
21
513.412475
31
0.0
0
LINE
8
0
6
CONTINUOUS
10
90.577375
20
515.084075
30
0.0
11
98.827115
21
517.197035
31
0.0
0
LINE
8
0
6
CONTINUOUS
10
98.308945
20
518.657225
30
0.0
11
89.775735
21
516.351165
31
0.0
0
LINE
8
0
6
CONTINUOUS
10
98.827115
20
517.197035
30
0.0
11
105.907215
21
518.459625
31
0.0
0
LINE
8
0
6
CONTINUOUS
10
105.729805
20
519.826505
30
0.0
11
98.308945
21
518.657225
31
0.0
0
LINE
8
0
6
CONTINUOUS
10
105.907215
20
518.459625
30
0.0
11
113.931975
21
518.941955
31
0.0
0
LINE
8
0
6
CONTINUOUS
10
113.931975
20
520.370025
30
0.0
11
105.729805
21
519.826505
31
0.0
0
LINE
8
0
6
CONTINUOUS
10
70.414985
20
504.231265
30
0.0
11
64.890935
21
499.213105
31
0.0
0
LINE
8
0
6
CONTINUOUS
10
64.890935
20
499.213105
30
0.0
11
60.314245
21
493.525845
31
0.0
0
LINE
8
0
6
CONTINUOUS
10
60.314245
20
493.525845
30
0.0
11
56.623525
21
487.569885
31
0.0
0
LINE
8
0
6
CONTINUOUS
10
56.623525
20
487.569885
30
0.0
11
53.649715
21
480.725025
31
0.0
0
LINE
8
0
6
CONTINUOUS
10
51.974525
20
474.108275
30
0.0
11
51.447075
21
467.416995
31
0.0
0
LINE
8
0
6
CONTINUOUS
10
69.803515
20
429.861225
30
0.0
11
64.259325
21
435.122145
31
0.0
0
LINE
8
0
6
CONTINUOUS
10
63.328855
20
434.826965
30
0.0
11
68.946615
21
429.517515
31
0.0
0
LINE
8
0
6
CONTINUOUS
10
64.259325
20
435.122145
30
0.0
11
59.838065
21
440.644535
31
0.0
0
LINE
8
0
6
CONTINUOUS
10
58.669145
20
440.539245
30
0.0
11
63.328855
21
434.826965
31
0.0
0
LINE
8
0
6
CONTINUOUS
10
59.838065
20
440.644535
30
0.0
11
55.937775
21
447.361985
31
0.0
0
LINE
8
0
6
CONTINUOUS
10
54.905045
20
447.120595
30
0.0
11
58.669145
21
440.539245
31
0.0
0
LINE
8
0
6
CONTINUOUS
10
55.937775
20
447.361985
30
0.0
11
53.460205
21
453.850705
31
0.0
0
LINE
8
0
6
CONTINUOUS
10
52.230875
20
453.708035
30
0.0
11
54.905045
21
447.120595
31
0.0
0
LINE
8
0
6
CONTINUOUS
10
53.460205
20
453.850705
30
0.0
11
52.040255
21
460.400005
31
0.0
0
LINE
8
0
6
CONTINUOUS
10
50.706995
20
460.510555
30
0.0
11
52.230875
21
453.708035
31
0.0
0
LINE
8
0
6
CONTINUOUS
10
52.040255
20
460.400005
30
0.0
11
51.447075
21
467.416995
31
0.0
0
LINE
8
0
6
CONTINUOUS
10
50.191085
20
467.630465
30
0.0
11
50.706995
21
460.510555
31
0.0
0
LINE
8
0
6
CONTINUOUS
10
69.803515
20
429.861225
30
0.0
11
75.744515
21
425.355455
31
0.0
0
LINE
8
0
6
CONTINUOUS
10
75.744515
20
425.355455
30
0.0
11
82.717945
21
421.619035
31
0.0
0
LINE
8
0
6
CONTINUOUS
10
82.717945
20
421.619035
30
0.0
11
86.253945
21
420.035705
31
0.0
0
LINE
8
0
6
CONTINUOUS
10
97.758815
20
526.864545
30
0.0
11
89.696185
21
524.634855
31
0.0
0
LINE
8
0
6
CONTINUOUS
10
82.378055
20
521.661835
30
0.0
11
75.434135
21
517.749325
31
0.0
0
LINE
8
0
6
CONTINUOUS
10
75.434135
20
517.749325
30
0.0
11
69.142125
21
513.172305
31
0.0
0
LINE
8
0
6
CONTINUOUS
10
105.776105
20
528.234105
30
0.0
11
113.931975
21
528.781125
31
0.0
0
LINE
8
0
6
CONTINUOUS
10
113.931975
20
528.797305
30
0.0
11
105.799405
21
528.251035
31
0.0
0
LINE
8
0
6
CONTINUOUS
10
97.758815
20
526.864545
30
0.0
11
105.776105
21
528.234105
31
0.0
0
LINE
8
0
6
CONTINUOUS
10
97.921945
20
526.902615
30
0.0
11
97.758815
21
526.864545
31
0.0
0
LINE
8
0
6
CONTINUOUS
10
105.799405
20
528.251035
30
0.0
11
97.921945
21
526.902615
31
0.0
0
LINE
8
0
6
CONTINUOUS
10
89.696185
20
524.634855
30
0.0
11
82.494585
21
521.725695
31
0.0
0
LINE
8
0
6
CONTINUOUS
10
82.494585
20
521.725695
30
0.0
11
82.378055
21
521.661835
31
0.0
0
LINE
8
0
6
CONTINUOUS
10
99.143515
20
396.540525
30
0.0
11
100.620815
21
324.584735
31
0.0
0
LINE
8
0
6
CONTINUOUS
10
108.863385
20
320.868375
30
0.0
11
111.357475
21
320.689205
31
0.0
0
LINE
8
0
6
CONTINUOUS
10
111.357475
20
320.689205
30
0.0
11
113.932155
21
320.625765
31
0.0
0
LINE
8
0
6
CONTINUOUS
10
100.620815
20
324.584735
30
0.0
11
100.622775
21
324.051325
31
0.0
0
LINE
8
0
6
CONTINUOUS
10
100.622775
20
324.051325
30
0.0
11
100.877675
21
323.377915
31
0.0
0
LINE
8
0
6
CONTINUOUS
10
106.572185
20
321.187785
30
0.0
11
108.863385
21
320.868375
31
0.0
0
LINE
8
0
6
CONTINUOUS
10
102.867805
20
322.135235
30
0.0
11
104.532335
21
321.615415
31
0.0
0
LINE
8
0
6
CONTINUOUS
10
101.257095
20
323.054195
30
0.0
11
101.636515
21
322.730485
31
0.0
0
LINE
8
0
6
CONTINUOUS
10
101.636515
20
322.730485
30
0.0
11
102.867805
21
322.135235
31
0.0
0
LINE
8
0
6
CONTINUOUS
10
104.532335
20
321.615415
30
0.0
11
106.572185
21
321.187785
31
0.0
0
LINE
8
0
6
CONTINUOUS
10
89.390405
20
419.665065
30
0.0
11
86.670125
21
420.769955
31
0.0
0
LINE
8
0
6
CONTINUOUS
10
105.564685
20
398.524625
30
0.0
11
103.152395
21
401.280595
31
0.0
0
LINE
8
0
6
CONTINUOUS
10
110.854455
20
395.676805
30
0.0
11
108.096715
21
396.622315
31
0.0
0
LINE
8
0
6
CONTINUOUS
10
113.932085
20
395.421525
30
0.0
11
110.854455
21
395.676805
31
0.0
0
LINE
8
0
6
CONTINUOUS
10
108.096715
20
396.622315
30
0.0
11
105.564685
21
398.524625
31
0.0
0
LINE
8
0
6
CONTINUOUS
10
92.486055
20
416.726685
30
0.0
11
94.310175
21
415.259785
31
0.0
0
LINE
8
0
6
CONTINUOUS
10
96.055795
20
414.966655
30
0.0
11
94.385275
21
416.521915
31
0.0
0
LINE
8
0
6
CONTINUOUS
10
87.493825
20
418.693235
30
0.0
11
90.197035
21
417.640075
31
0.0
0
LINE
8
0
6
CONTINUOUS
10
91.792535
20
417.967075
30
0.0
11
88.953205
21
419.013365
31
0.0
0
LINE
8
0
6
CONTINUOUS
10
90.197035
20
417.640075
30
0.0
11
92.486055
21
416.726685
31
0.0
0
LINE
8
0
6
CONTINUOUS
10
94.385275
20
416.521915
30
0.0
11
91.792535
21
417.967075
31
0.0
0
LINE
8
0
6
CONTINUOUS
10
92.336095
20
418.465885
30
0.0
11
89.390405
21
419.665065
31
0.0
0
LINE
8
0
6
CONTINUOUS
10
85.523175
20
419.462895
30
0.0
11
87.493825
21
418.693235
31
0.0
0
LINE
8
0
6
CONTINUOUS
10
88.953205
20
419.013365
30
0.0
11
86.253945
21
420.035705
31
0.0
0
LINE
8
0
6
CONTINUOUS
10
52.410285
20
488.719025
30
0.0
11
50.732265
21
481.781155
31
0.0
0
LINE
8
0
6
CONTINUOUS
10
50.732265
20
481.781155
30
0.0
11
50.698005
21
481.451725
31
0.0
0
LINE
8
0
6
CONTINUOUS
10
55.020575
20
495.344545
30
0.0
11
52.410285
21
488.719025
31
0.0
0
LINE
8
0
6
CONTINUOUS
10
58.655035
20
501.502915
30
0.0
11
55.020575
21
495.344545
31
0.0
0
LINE
8
0
6
CONTINUOUS
10
50.698005
20
481.451725
30
0.0
11
50.079705
21
474.921115
31
0.0
0
LINE
8
0
6
CONTINUOUS
10
50.079705
20
474.921115
30
0.0
11
50.079705
21
474.595335
31
0.0
0
LINE
8
0
6
CONTINUOUS
10
50.079705
20
474.595335
30
0.0
11
49.903265
21
468.429415
31
0.0
0
LINE
8
0
6
CONTINUOUS
10
94.310175
20
415.259785
30
0.0
11
96.134295
21
413.792875
31
0.0
0
LINE
8
0
6
CONTINUOUS
10
97.152335
20
413.516845
30
0.0
11
96.055795
21
414.966655
31
0.0
0
LINE
8
0
6
CONTINUOUS
10
101.327955
20
403.095625
30
0.0
11
100.513775
21
404.840545
31
0.0
0
LINE
8
0
6
CONTINUOUS
10
105.672565
20
396.950835
30
0.0
11
103.275725
21
399.520875
31
0.0
0
LINE
8
0
6
CONTINUOUS
10
111.012715
20
394.371335
30
0.0
11
108.287895
21
395.321655
31
0.0
0
LINE
8
0
6
CONTINUOUS
10
97.809365
20
410.618745
30
0.0
11
99.143515
21
396.540525
31
0.0
0
LINE
8
0
6
CONTINUOUS
10
113.932085
20
393.927765
30
0.0
11
111.012715
21
394.371335
31
0.0
0
LINE
8
0
6
CONTINUOUS
10
108.287895
20
395.321655
30
0.0
11
105.672565
21
396.950835
31
0.0
0
LINE
8
0
6
CONTINUOUS
10
103.275725
20
399.520875
30
0.0
11
101.327955
21
403.095625
31
0.0
0
LINE
8
0
6
CONTINUOUS
10
100.513775
20
404.840545
30
0.0
11
99.573015
21
407.636875
31
0.0
0
LINE
8
0
6
CONTINUOUS
10
99.573015
20
407.636875
30
0.0
11
98.704585
21
410.226745
31
0.0
0
LINE
8
0
6
CONTINUOUS
10
96.134295
20
413.792875
30
0.0
11
96.971825
21
412.205815
31
0.0
0
LINE
8
0
6
CONTINUOUS
10
97.886405
20
412.178195
30
0.0
11
97.152335
21
413.516845
31
0.0
0
LINE
8
0
6
CONTINUOUS
10
96.971825
20
412.205815
30
0.0
11
97.809365
21
410.618745
31
0.0
0
LINE
8
0
6
CONTINUOUS
10
98.704585
20
410.226745
30
0.0
11
97.886405
21
412.178195
31
0.0
0
LINE
8
0
6
CONTINUOUS
10
100.877675
20
323.377915
30
0.0
11
101.257095
21
323.054195
31
0.0
0
LINE
8
0
6
CONTINUOUS
10
70.832495
20
503.925625
30
0.0
11
76.818745
21
508.172605
31
0.0
0
LINE
8
0
6
CONTINUOUS
10
76.407405
20
508.431095
30
0.0
11
70.414985
21
504.231265
31
0.0
0
LINE
8
0
6
CONTINUOUS
10
76.818745
20
508.172605
30
0.0
11
83.695225
21
511.957855
31
0.0
0
LINE
8
0
6
CONTINUOUS
10
83.402835
20
512.370605
30
0.0
11
76.407405
21
508.431095
31
0.0
0
LINE
8
0
6
CONTINUOUS
10
83.695225
20
511.957855
30
0.0
11
90.780935
21
514.717565
31
0.0
0
LINE
8
0
6
CONTINUOUS
10
90.577375
20
515.084075
30
0.0
11
83.402835
21
512.370605
31
0.0
0
LINE
8
0
6
CONTINUOUS
10
90.780935
20
514.717565
30
0.0
11
98.945035
21
516.906125
31
0.0
0
LINE
8
0
6
CONTINUOUS
10
98.827115
20
517.197035
30
0.0
11
90.577375
21
515.084075
31
0.0
0
LINE
8
0
6
CONTINUOUS
10
98.945035
20
516.906125
30
0.0
11
105.958245
21
518.148495
31
0.0
0
LINE
8
0
6
CONTINUOUS
10
105.907215
20
518.459625
30
0.0
11
98.827115
21
517.197035
31
0.0
0
LINE
8
0
6
CONTINUOUS
10
105.958245
20
518.148495
30
0.0
11
113.931975
21
518.623355
31
0.0
0
LINE
8
0
6
CONTINUOUS
10
113.931975
20
518.941955
30
0.0
11
105.907215
21
518.459625
31
0.0
0
LINE
8
0
6
CONTINUOUS
10
70.199355
20
430.413205
30
0.0
11
64.784165
21
435.654755
31
0.0
0
LINE
8
0
6
CONTINUOUS
10
64.259325
20
435.122145
30
0.0
11
69.803515
21
429.861225
31
0.0
0
LINE
8
0
6
CONTINUOUS
10
64.784165
20
435.654755
30
0.0
11
60.315835
21
441.176755
31
0.0
0
LINE
8
0
6
CONTINUOUS
10
59.838065
20
440.644535
30
0.0
11
64.259325
21
435.122145
31
0.0
0
LINE
8
0
6
CONTINUOUS
10
60.315835
20
441.176755
30
0.0
11
56.569975
21
447.643585
31
0.0
0
LINE
8
0
6
CONTINUOUS
10
55.937775
20
447.361985
30
0.0
11
59.838065
21
440.644535
31
0.0
0
LINE
8
0
6
CONTINUOUS
10
56.569975
20
447.643585
30
0.0
11
54.037925
21
454.329375
31
0.0
0
LINE
8
0
6
CONTINUOUS
10
53.460205
20
453.850705
30
0.0
11
55.937775
21
447.361985
31
0.0
0
LINE
8
0
6
CONTINUOUS
10
54.037925
20
454.329375
30
0.0
11
52.610235
21
460.729215
31
0.0
0
LINE
8
0
6
CONTINUOUS
10
52.040255
20
460.400005
30
0.0
11
53.460205
21
453.850705
31
0.0
0
LINE
8
0
6
CONTINUOUS
10
52.610235
20
460.729215
30
0.0
11
52.072565
21
467.606655
31
0.0
0
LINE
8
0
6
CONTINUOUS
10
51.447075
20
467.416995
30
0.0
11
52.040255
21
460.400005
31
0.0
0
LINE
8
0
6
CONTINUOUS
10
54.298275
20
480.570225
30
0.0
11
52.680825
21
474.266515
31
0.0
0
LINE
8
0
6
CONTINUOUS
10
53.387055
20
473.808745
30
0.0
11
54.946755
21
479.799345
31
0.0
0
LINE
8
0
6
CONTINUOUS
10
70.832495
20
503.925625
30
0.0
11
65.516405
21
499.067685
31
0.0
0
LINE
8
0
6
CONTINUOUS
10
66.141805
20
498.306425
30
0.0
11
71.249925
21
503.003995
31
0.0
0
LINE
8
0
6
CONTINUOUS
10
65.516405
20
499.067685
30
0.0
11
60.857725
21
493.374935
31
0.0
0
LINE
8
0
6
CONTINUOUS
10
61.401145
20
492.608185
30
0.0
11
66.141805
21
498.306425
31
0.0
0
LINE
8
0
6
CONTINUOUS
10
60.857725
20
493.374935
30
0.0
11
57.183105
21
487.483825
31
0.0
0
LINE
8
0
6
CONTINUOUS
10
57.742615
20
486.781925
30
0.0
11
61.401145
21
492.608185
31
0.0
0
LINE
8
0
6
CONTINUOUS
10
57.183105
20
487.483825
30
0.0
11
54.298275
21
480.570225
31
0.0
0
LINE
8
0
6
CONTINUOUS
10
54.946755
20
479.799345
30
0.0
11
57.742615
21
486.781925
31
0.0
0
LINE
8
0
6
CONTINUOUS
10
52.680825
20
474.266515
30
0.0
11
52.072565
21
467.606655
31
0.0
0
LINE
8
0
6
CONTINUOUS
10
52.697985
20
467.180325
30
0.0
11
53.387055
21
473.808745
31
0.0
0
LINE
8
0
6
CONTINUOUS
10
70.199355
20
430.413205
30
0.0
11
76.113905
21
426.071015
31
0.0
0
LINE
8
0
6
CONTINUOUS
10
76.483235
20
426.170655
30
0.0
11
70.595145
21
430.349275
31
0.0
0
LINE
8
0
6
CONTINUOUS
10
76.113905
20
426.071015
30
0.0
11
83.018415
21
422.274625
31
0.0
0
LINE
8
0
6
CONTINUOUS
10
83.318825
20
422.314375
30
0.0
11
76.483235
21
426.170655
31
0.0
0
LINE
8
0
6
CONTINUOUS
10
83.018415
20
422.274625
30
0.0
11
86.462065
21
420.710755
31
0.0
0
LINE
8
0
6
CONTINUOUS
10
86.670125
20
420.769955
30
0.0
11
83.318825
21
422.314375
31
0.0
0
LINE
8
0
6
CONTINUOUS
10
86.253945
20
420.035705
30
0.0
11
88.953205
21
419.013365
31
0.0
0
LINE
8
0
6
CONTINUOUS
10
89.171835
20
419.647145
30
0.0
11
86.462065
21
420.710755
31
0.0
0
LINE
8
0
6
CONTINUOUS
10
100.513775
20
404.840545
30
0.0
11
101.327955
21
403.095625
31
0.0
0
LINE
8
0
6
CONTINUOUS
10
105.618655
20
398.045655
30
0.0
11
103.356835
21
400.778275
31
0.0
0
LINE
8
0
6
CONTINUOUS
10
103.275725
20
399.520875
30
0.0
11
105.672565
21
396.950835
31
0.0
0
LINE
8
0
6
CONTINUOUS
10
97.886405
20
412.178195
30
0.0
11
98.704585
21
410.226745
31
0.0
0
LINE
8
0
6
CONTINUOUS
10
98.704585
20
410.226745
30
0.0
11
99.573015
21
407.636875
31
0.0
0
LINE
8
0
6
CONTINUOUS
10
110.933615
20
395.332035
30
0.0
11
108.192335
21
396.279905
31
0.0
0
LINE
8
0
6
CONTINUOUS
10
108.287895
20
395.321655
30
0.0
11
111.012715
21
394.371335
31
0.0
0
LINE
8
0
6
CONTINUOUS
10
113.932085
20
394.982605
30
0.0
11
110.933615
21
395.332035
31
0.0
0
LINE
8
0
6
CONTINUOUS
10
111.012715
20
394.371335
30
0.0
11
113.932085
21
393.927765
31
0.0
0
LINE
8
0
6
CONTINUOUS
10
108.192335
20
396.279905
30
0.0
11
105.618655
21
398.045655
31
0.0
0
LINE
8
0
6
CONTINUOUS
10
105.672565
20
396.950835
30
0.0
11
108.287895
21
395.321655
31
0.0
0
LINE
8
0
6
CONTINUOUS
10
101.327955
20
403.095625
30
0.0
11
103.275725
21
399.520875
31
0.0
0
LINE
8
0
6
CONTINUOUS
10
99.573015
20
407.636875
30
0.0
11
100.513775
21
404.840545
31
0.0
0
LINE
8
0
6
CONTINUOUS
10
94.385275
20
416.521915
30
0.0
11
96.055795
21
414.966655
31
0.0
0
LINE
8
0
6
CONTINUOUS
10
88.953205
20
419.013365
30
0.0
11
91.792535
21
417.967075
31
0.0
0
LINE
8
0
6
CONTINUOUS
10
92.064355
20
418.524395
30
0.0
11
89.171835
21
419.647145
31
0.0
0
LINE
8
0
6
CONTINUOUS
10
91.792535
20
417.967075
30
0.0
11
94.385275
21
416.521915
31
0.0
0
LINE
8
0
6
CONTINUOUS
10
96.055795
20
414.966655
30
0.0
11
97.152335
21
413.516845
31
0.0
0
LINE
8
0
6
CONTINUOUS
10
97.152335
20
413.516845
30
0.0
11
97.886405
21
412.178195
31
0.0
0
LINE
8
0
6
CONTINUOUS
10
174.214315
20
480.725095
30
0.0
11
175.889495
21
474.108355
31
0.0
0
LINE
8
0
6
CONTINUOUS
10
164.174835
20
507.891695
30
0.0
11
158.721855
21
513.172455
31
0.0
0
LINE
8
0
6
CONTINUOUS
10
169.208955
20
501.502995
30
0.0
11
168.836065
21
502.062685
31
0.0
0
LINE
8
0
6
CONTINUOUS
10
168.836065
20
502.062685
30
0.0
11
164.174835
21
507.891695
31
0.0
0
LINE
8
0
6
CONTINUOUS
10
150.633955
20
507.298125
30
0.0
11
156.614045
21
503.004155
31
0.0
0
LINE
8
0
6
CONTINUOUS
10
143.876425
20
510.929265
30
0.0
11
150.633955
21
507.298125
31
0.0
0
LINE
8
0
6
CONTINUOUS
10
136.879535
20
513.735195
30
0.0
11
143.876425
21
510.929265
31
0.0
0
LINE
8
0
6
CONTINUOUS
10
128.801075
20
515.999295
30
0.0
11
136.879535
21
513.735195
31
0.0
0
LINE
8
0
6
CONTINUOUS
10
121.854755
20
517.221375
30
0.0
11
128.801075
21
515.999295
31
0.0
0
LINE
8
0
6
CONTINUOUS
10
113.931975
20
517.688905
30
0.0
11
121.854755
21
517.221375
31
0.0
0
LINE
8
0
6
CONTINUOUS
10
157.448985
20
504.231265
30
0.0
11
162.973065
21
499.213105
31
0.0
0
LINE
8
0
6
CONTINUOUS
10
164.001815
20
500.194545
30
0.0
11
158.443855
21
505.338445
31
0.0
0
LINE
8
0
6
CONTINUOUS
10
162.973065
20
499.213105
30
0.0
11
167.549755
21
493.526005
31
0.0
0
LINE
8
0
6
CONTINUOUS
10
168.676825
20
494.487615
30
0.0
11
164.001815
21
500.194545
31
0.0
0
LINE
8
0
6
CONTINUOUS
10
167.549755
20
493.526005
30
0.0
11
171.240495
21
487.570035
31
0.0
0
LINE
8
0
6
CONTINUOUS
10
171.240495
20
487.570035
30
0.0
11
174.214315
21
480.725095
31
0.0
0
LINE
8
0
6
CONTINUOUS
10
175.889495
20
474.108355
30
0.0
11
176.416975
21
467.417145
31
0.0
0
LINE
8
0
6
CONTINUOUS
10
168.676825
20
494.487615
30
0.0
11
172.483055
21
488.155515
31
0.0
0
LINE
8
0
6
CONTINUOUS
10
172.483055
20
488.155515
30
0.0
11
175.279205
21
481.301265
31
0.0
0
LINE
8
0
6
CONTINUOUS
10
175.279205
20
481.301265
30
0.0
11
176.973145
21
474.522705
31
0.0
0
LINE
8
0
6
CONTINUOUS
10
176.973145
20
474.522705
30
0.0
11
177.672965
21
467.630615
31
0.0
0
LINE
8
0
6
CONTINUOUS
10
177.986555
20
468.153995
30
0.0
11
177.369015
21
475.084225
31
0.0
0
LINE
8
0
6
CONTINUOUS
10
162.555145
20
435.571515
30
0.0
11
157.268985
21
430.349425
31
0.0
0
LINE
8
0
6
CONTINUOUS
10
167.070565
20
441.092985
30
0.0
11
162.555145
21
435.571515
31
0.0
0
LINE
8
0
6
CONTINUOUS
10
170.661995
20
447.309265
30
0.0
11
167.070565
21
441.092985
31
0.0
0
LINE
8
0
6
CONTINUOUS
10
173.248505
20
454.192275
30
0.0
11
170.661995
21
447.309265
31
0.0
0
LINE
8
0
6
CONTINUOUS
10
174.683925
20
460.442505
30
0.0
11
173.248505
21
454.192275
31
0.0
0
LINE
8
0
6
CONTINUOUS
10
175.166065
20
467.180485
30
0.0
11
174.683925
21
460.442505
31
0.0
0
LINE
8
0
6
CONTINUOUS
10
172.959045
20
447.120665
30
0.0
11
173.147035
21
447.550655
31
0.0
0
LINE
8
0
6
CONTINUOUS
10
175.856255
20
454.280245
30
0.0
11
177.445285
21
461.050115
31
0.0
0
LINE
8
0
6
CONTINUOUS
10
175.633205
20
453.708035
30
0.0
11
175.856255
21
454.280245
31
0.0
0
LINE
8
0
6
CONTINUOUS
10
177.445285
20
461.050115
30
0.0
11
177.986555
21
468.153995
31
0.0
0
LINE
8
0
6
CONTINUOUS
10
158.060615
20
429.861295
30
0.0
11
152.119605
21
425.355535
31
0.0
0
LINE
8
0
6
CONTINUOUS
10
152.784855
20
424.970855
30
0.0
11
158.917515
21
429.517515
31
0.0
0
LINE
8
0
6
CONTINUOUS
10
152.119605
20
425.355535
30
0.0
11
145.146205
21
421.619115
31
0.0
0
LINE
8
0
6
CONTINUOUS
10
145.985385
20
421.140445
30
0.0
11
152.784855
21
424.970855
31
0.0
0
LINE
8
0
6
CONTINUOUS
10
145.146205
20
421.619115
30
0.0
11
141.610215
21
420.035855
31
0.0
0
LINE
8
0
6
CONTINUOUS
10
142.340975
20
419.462895
30
0.0
11
145.985385
21
421.140445
31
0.0
0
LINE
8
0
6
CONTINUOUS
10
175.889495
20
474.108355
30
0.0
11
174.214315
21
480.725095
31
0.0
0
LINE
8
0
6
CONTINUOUS
10
158.443855
20
505.338445
30
0.0
11
152.266285
21
509.513095
31
0.0
0
LINE
8
0
6
CONTINUOUS
10
151.456575
20
508.431245
30
0.0
11
157.448985
21
504.231265
31
0.0
0
LINE
8
0
6
CONTINUOUS
10
152.266285
20
509.513095
30
0.0
11
145.418255
21
513.412475
31
0.0
0
LINE
8
0
6
CONTINUOUS
10
144.461125
20
512.370605
30
0.0
11
151.456575
21
508.431245
31
0.0
0
LINE
8
0
6
CONTINUOUS
10
145.418255
20
513.412475
30
0.0
11
138.088215
21
516.351165
31
0.0
0
LINE
8
0
6
CONTINUOUS
10
137.286585
20
515.084075
30
0.0
11
144.461125
21
512.370605
31
0.0
0
LINE
8
0
6
CONTINUOUS
10
138.088215
20
516.351165
30
0.0
11
129.555005
21
518.657225
31
0.0
0
LINE
8
0
6
CONTINUOUS
10
129.036835
20
517.197115
30
0.0
11
137.286585
21
515.084075
31
0.0
0
LINE
8
0
6
CONTINUOUS
10
129.555005
20
518.657225
30
0.0
11
122.134145
21
519.826505
31
0.0
0
LINE
8
0
6
CONTINUOUS
10
121.956725
20
518.459625
30
0.0
11
129.036835
21
517.197115
31
0.0
0
LINE
8
0
6
CONTINUOUS
10
122.134145
20
519.826505
30
0.0
11
113.931975
21
520.370025
31
0.0
0
LINE
8
0
6
CONTINUOUS
10
113.931975
20
518.941955
30
0.0
11
121.956725
21
518.459625
31
0.0
0
LINE
8
0
6
CONTINUOUS
10
162.973065
20
499.213105
30
0.0
11
157.448985
21
504.231265
31
0.0
0
LINE
8
0
6
CONTINUOUS
10
167.549755
20
493.526005
30
0.0
11
162.973065
21
499.213105
31
0.0
0
LINE
8
0
6
CONTINUOUS
10
171.240495
20
487.570035
30
0.0
11
167.549755
21
493.526005
31
0.0
0
LINE
8
0
6
CONTINUOUS
10
174.214315
20
480.725095
30
0.0
11
171.240495
21
487.570035
31
0.0
0
LINE
8
0
6
CONTINUOUS
10
176.416975
20
467.417145
30
0.0
11
175.889495
21
474.108355
31
0.0
0
LINE
8
0
6
CONTINUOUS
10
158.917515
20
429.517515
30
0.0
11
164.535265
21
434.827115
31
0.0
0
LINE
8
0
6
CONTINUOUS
10
163.604805
20
435.122225
30
0.0
11
158.060615
21
429.861295
31
0.0
0
LINE
8
0
6
CONTINUOUS
10
164.535265
20
434.827115
30
0.0
11
169.194975
21
440.539245
31
0.0
0
LINE
8
0
6
CONTINUOUS
10
168.026035
20
440.644535
30
0.0
11
163.604805
21
435.122225
31
0.0
0
LINE
8
0
6
CONTINUOUS
10
169.194975
20
440.539245
30
0.0
11
172.959045
21
447.120665
31
0.0
0
LINE
8
0
6
CONTINUOUS
10
171.926315
20
447.362065
30
0.0
11
168.026035
21
440.644535
31
0.0
0
LINE
8
0
6
CONTINUOUS
10
172.959045
20
447.120665
30
0.0
11
175.633205
21
453.708035
31
0.0
0
LINE
8
0
6
CONTINUOUS
10
174.403885
20
453.850705
30
0.0
11
171.926315
21
447.362065
31
0.0
0
LINE
8
0
6
CONTINUOUS
10
175.633205
20
453.708035
30
0.0
11
177.157065
21
460.510715
31
0.0
0
LINE
8
0
6
CONTINUOUS
10
175.823815
20
460.400085
30
0.0
11
174.403885
21
453.850705
31
0.0
0
LINE
8
0
6
CONTINUOUS
10
177.157065
20
460.510715
30
0.0
11
177.672965
21
467.630615
31
0.0
0
LINE
8
0
6
CONTINUOUS
10
176.416975
20
467.417145
30
0.0
11
175.823815
21
460.400085
31
0.0
0
LINE
8
0
6
CONTINUOUS
10
152.119605
20
425.355535
30
0.0
11
158.060615
21
429.861295
31
0.0
0
LINE
8
0
6
CONTINUOUS
10
145.146205
20
421.619115
30
0.0
11
152.119605
21
425.355535
31
0.0
0
LINE
8
0
6
CONTINUOUS
10
141.610215
20
420.035855
30
0.0
11
145.146205
21
421.619115
31
0.0
0
LINE
8
0
6
CONTINUOUS
10
138.167765
20
524.634935
30
0.0
11
130.105135
21
526.864625
31
0.0
0
LINE
8
0
6
CONTINUOUS
10
152.429835
20
517.749485
30
0.0
11
145.485905
21
521.661835
31
0.0
0
LINE
8
0
6
CONTINUOUS
10
158.721855
20
513.172455
30
0.0
11
152.429835
21
517.749485
31
0.0
0
LINE
8
0
6
CONTINUOUS
10
122.064535
20
528.251035
30
0.0
11
113.931975
21
528.797305
31
0.0
0
LINE
8
0
6
CONTINUOUS
10
113.931975
20
528.781125
30
0.0
11
122.087835
21
528.234105
31
0.0
0
LINE
8
0
6
CONTINUOUS
10
129.942005
20
526.902615
30
0.0
11
122.064535
21
528.251035
31
0.0
0
LINE
8
0
6
CONTINUOUS
10
130.105135
20
526.864625
30
0.0
11
129.942005
21
526.902615
31
0.0
0
LINE
8
0
6
CONTINUOUS
10
122.087835
20
528.234105
30
0.0
11
130.105135
21
526.864625
31
0.0
0
LINE
8
0
6
CONTINUOUS
10
145.369365
20
521.725765
30
0.0
11
138.167765
21
524.634935
31
0.0
0
LINE
8
0
6
CONTINUOUS
10
145.485905
20
521.661835
30
0.0
11
145.369365
21
521.725765
31
0.0
0
LINE
8
0
6
CONTINUOUS
10
127.243495
20
324.584775
30
0.0
11
128.720665
21
396.540525
31
0.0
0
LINE
8
0
6
CONTINUOUS
10
116.506835
20
320.689205
30
0.0
11
119.000925
21
320.868375
31
0.0
0
LINE
8
0
6
CONTINUOUS
10
113.932155
20
320.625765
30
0.0
11
116.506835
21
320.689205
31
0.0
0
LINE
8
0
6
CONTINUOUS
10
126.986645
20
323.377915
30
0.0
11
127.241545
21
324.051365
31
0.0
0
LINE
8
0
6
CONTINUOUS
10
127.241545
20
324.051365
30
0.0
11
127.243495
21
324.584775
31
0.0
0
LINE
8
0
6
CONTINUOUS
10
119.000925
20
320.868375
30
0.0
11
121.292125
21
321.187785
31
0.0
0
LINE
8
0
6
CONTINUOUS
10
123.331975
20
321.615415
30
0.0
11
124.996505
21
322.135235
31
0.0
0
LINE
8
0
6
CONTINUOUS
10
126.227795
20
322.730485
30
0.0
11
126.607215
21
323.054195
31
0.0
0
LINE
8
0
6
CONTINUOUS
10
124.996505
20
322.135235
30
0.0
11
126.227795
21
322.730485
31
0.0
0
LINE
8
0
6
CONTINUOUS
10
121.292125
20
321.187785
30
0.0
11
123.331975
21
321.615415
31
0.0
0
LINE
8
0
6
CONTINUOUS
10
141.194025
20
420.769955
30
0.0
11
138.473745
21
419.665065
31
0.0
0
LINE
8
0
6
CONTINUOUS
10
124.711775
20
401.280675
30
0.0
11
122.299495
21
398.524625
31
0.0
0
LINE
8
0
6
CONTINUOUS
10
119.767465
20
396.622315
30
0.0
11
117.009725
21
395.676805
31
0.0
0
LINE
8
0
6
CONTINUOUS
10
117.009725
20
395.676805
30
0.0
11
113.932085
21
395.421525
31
0.0
0
LINE
8
0
6
CONTINUOUS
10
122.299495
20
398.524625
30
0.0
11
119.767465
21
396.622315
31
0.0
0
LINE
8
0
6
CONTINUOUS
10
133.478875
20
416.521915
30
0.0
11
131.808365
21
414.966735
31
0.0
0
LINE
8
0
6
CONTINUOUS
10
133.553975
20
415.259855
30
0.0
11
135.378095
21
416.726685
31
0.0
0
LINE
8
0
6
CONTINUOUS
10
138.910945
20
419.013365
30
0.0
11
136.071605
21
417.967075
31
0.0
0
LINE
8
0
6
CONTINUOUS
10
137.667115
20
417.640075
30
0.0
11
140.370315
21
418.693235
31
0.0
0
LINE
8
0
6
CONTINUOUS
10
136.071605
20
417.967075
30
0.0
11
133.478875
21
416.521915
31
0.0
0
LINE
8
0
6
CONTINUOUS
10
135.378095
20
416.726685
30
0.0
11
137.667115
21
417.640075
31
0.0
0
LINE
8
0
6
CONTINUOUS
10
138.473745
20
419.665065
30
0.0
11
135.528055
21
418.465885
31
0.0
0
LINE
8
0
6
CONTINUOUS
10
141.610215
20
420.035855
30
0.0
11
138.910945
21
419.013365
31
0.0
0
LINE
8
0
6
CONTINUOUS
10
140.370315
20
418.693235
30
0.0
11
142.340975
21
419.462895
31
0.0
0
LINE
8
0
6
CONTINUOUS
10
177.166035
20
481.451875
30
0.0
11
177.131775
21
481.781315
31
0.0
0
LINE
8
0
6
CONTINUOUS
10
177.131775
20
481.781315
30
0.0
11
175.453725
21
488.719025
31
0.0
0
LINE
8
0
6
CONTINUOUS
10
175.453725
20
488.719025
30
0.0
11
172.843425
21
495.344695
31
0.0
0
LINE
8
0
6
CONTINUOUS
10
172.843425
20
495.344695
30
0.0
11
169.208955
21
501.502995
31
0.0
0
LINE
8
0
6
CONTINUOUS
10
177.784335
20
474.921265
30
0.0
11
177.166035
21
481.451875
31
0.0
0
LINE
8
0
6
CONTINUOUS
10
177.784335
20
474.595415
30
0.0
11
177.784335
21
474.921265
31
0.0
0
LINE
8
0
6
CONTINUOUS
10
177.960785
20
468.429565
30
0.0
11
177.784335
21
474.595415
31
0.0
0
LINE
8
0
6
CONTINUOUS
10
131.808365
20
414.966735
30
0.0
11
130.711815
21
413.516845
31
0.0
0
LINE
8
0
6
CONTINUOUS
10
131.729855
20
413.792875
30
0.0
11
133.553975
21
415.259855
31
0.0
0
LINE
8
0
6
CONTINUOUS
10
127.350395
20
404.840545
30
0.0
11
126.536215
21
403.095625
31
0.0
0
LINE
8
0
6
CONTINUOUS
10
124.588455
20
399.520955
30
0.0
11
122.191605
21
396.950835
31
0.0
0
LINE
8
0
6
CONTINUOUS
10
119.576285
20
395.321735
30
0.0
11
116.851455
21
394.371335
31
0.0
0
LINE
8
0
6
CONTINUOUS
10
128.720665
20
396.540525
30
0.0
11
130.054805
21
410.618745
31
0.0
0
LINE
8
0
6
CONTINUOUS
10
116.851455
20
394.371335
30
0.0
11
113.932085
21
393.927765
31
0.0
0
LINE
8
0
6
CONTINUOUS
10
122.191605
20
396.950835
30
0.0
11
119.576285
21
395.321735
31
0.0
0
LINE
8
0
6
CONTINUOUS
10
126.536215
20
403.095625
30
0.0
11
124.588455
21
399.520955
31
0.0
0
LINE
8
0
6
CONTINUOUS
10
128.291145
20
407.636875
30
0.0
11
127.350395
21
404.840545
31
0.0
0
LINE
8
0
6
CONTINUOUS
10
129.159575
20
410.226745
30
0.0
11
128.291145
21
407.636875
31
0.0
0
LINE
8
0
6
CONTINUOUS
10
130.711815
20
413.516845
30
0.0
11
129.977745
21
412.178195
31
0.0
0
LINE
8
0
6
CONTINUOUS
10
130.892325
20
412.205815
30
0.0
11
131.729855
21
413.792875
31
0.0
0
LINE
8
0
6
CONTINUOUS
10
129.977745
20
412.178195
30
0.0
11
129.159575
21
410.226745
31
0.0
0
LINE
8
0
6
CONTINUOUS
10
130.054805
20
410.618745
30
0.0
11
130.892325
21
412.205815
31
0.0
0
LINE
8
0
6
CONTINUOUS
10
126.607215
20
323.054195
30
0.0
11
126.986645
21
323.377915
31
0.0
0
LINE
8
0
6
CONTINUOUS
10
157.448985
20
504.231265
30
0.0
11
151.456575
21
508.431245
31
0.0
0
LINE
8
0
6
CONTINUOUS
10
151.045235
20
508.172605
30
0.0
11
157.031485
21
503.925625
31
0.0
0
LINE
8
0
6
CONTINUOUS
10
151.456575
20
508.431245
30
0.0
11
144.461125
21
512.370605
31
0.0
0
LINE
8
0
6
CONTINUOUS
10
144.168745
20
511.957855
30
0.0
11
151.045235
21
508.172605
31
0.0
0
LINE
8
0
6
CONTINUOUS
10
144.461125
20
512.370605
30
0.0
11
137.286585
21
515.084075
31
0.0
0
LINE
8
0
6
CONTINUOUS
10
137.083015
20
514.717565
30
0.0
11
144.168745
21
511.957855
31
0.0
0
LINE
8
0
6
CONTINUOUS
10
137.286585
20
515.084075
30
0.0
11
129.036835
21
517.197115
31
0.0
0
LINE
8
0
6
CONTINUOUS
10
128.918915
20
516.906125
30
0.0
11
137.083015
21
514.717565
31
0.0
0
LINE
8
0
6
CONTINUOUS
10
129.036835
20
517.197115
30
0.0
11
121.956725
21
518.459625
31
0.0
0
LINE
8
0
6
CONTINUOUS
10
121.905705
20
518.148495
30
0.0
11
128.918915
21
516.906125
31
0.0
0
LINE
8
0
6
CONTINUOUS
10
121.956725
20
518.459625
30
0.0
11
113.931975
21
518.941955
31
0.0
0
LINE
8
0
6
CONTINUOUS
10
113.931975
20
518.623355
30
0.0
11
121.905705
21
518.148495
31
0.0
0
LINE
8
0
6
CONTINUOUS
10
158.060615
20
429.861295
30
0.0
11
163.604805
21
435.122225
31
0.0
0
LINE
8
0
6
CONTINUOUS
10
163.079935
20
435.654835
30
0.0
11
157.664765
21
430.413285
31
0.0
0
LINE
8
0
6
CONTINUOUS
10
163.604805
20
435.122225
30
0.0
11
168.026035
21
440.644535
31
0.0
0
LINE
8
0
6
CONTINUOUS
10
167.548265
20
441.176755
30
0.0
11
163.079935
21
435.654835
31
0.0
0
LINE
8
0
6
CONTINUOUS
10
168.026035
20
440.644535
30
0.0
11
171.926315
21
447.362065
31
0.0
0
LINE
8
0
6
CONTINUOUS
10
171.294125
20
447.643585
30
0.0
11
167.548265
21
441.176755
31
0.0
0
LINE
8
0
6
CONTINUOUS
10
171.926315
20
447.362065
30
0.0
11
174.403885
21
453.850705
31
0.0
0
LINE
8
0
6
CONTINUOUS
10
173.826145
20
454.329525
30
0.0
11
171.294125
21
447.643585
31
0.0
0
LINE
8
0
6
CONTINUOUS
10
174.403885
20
453.850705
30
0.0
11
175.823815
21
460.400085
31
0.0
0
LINE
8
0
6
CONTINUOUS
10
175.253835
20
460.729295
30
0.0
11
173.826145
21
454.329525
31
0.0
0
LINE
8
0
6
CONTINUOUS
10
175.823815
20
460.400085
30
0.0
11
176.416975
21
467.417145
31
0.0
0
LINE
8
0
6
CONTINUOUS
10
175.791485
20
467.606735
30
0.0
11
175.253835
21
460.729295
31
0.0
0
LINE
8
0
6
CONTINUOUS
10
172.917275
20
479.799495
30
0.0
11
174.476975
21
473.808895
31
0.0
0
LINE
8
0
6
CONTINUOUS
10
175.183205
20
474.266585
30
0.0
11
173.565755
21
480.570225
31
0.0
0
LINE
8
0
6
CONTINUOUS
10
156.614045
20
503.004155
30
0.0
11
161.722195
21
498.306575
31
0.0
0
LINE
8
0
6
CONTINUOUS
10
162.347595
20
499.067845
30
0.0
11
157.031485
21
503.925625
31
0.0
0
LINE
8
0
6
CONTINUOUS
10
161.722195
20
498.306575
30
0.0
11
166.462865
21
492.608185
31
0.0
0
LINE
8
0
6
CONTINUOUS
10
167.006275
20
493.375095
30
0.0
11
162.347595
21
499.067845
31
0.0
0
LINE
8
0
6
CONTINUOUS
10
166.462865
20
492.608185
30
0.0
11
170.121395
21
486.781925
31
0.0
0
LINE
8
0
6
CONTINUOUS
10
170.680915
20
487.483975
30
0.0
11
167.006275
21
493.375095
31
0.0
0
LINE
8
0
6
CONTINUOUS
10
170.121395
20
486.781925
30
0.0
11
172.917275
21
479.799495
31
0.0
0
LINE
8
0
6
CONTINUOUS
10
173.565755
20
480.570225
30
0.0
11
170.680915
21
487.483975
31
0.0
0
LINE
8
0
6
CONTINUOUS
10
174.476975
20
473.808895
30
0.0
11
175.166065
21
467.180485
31
0.0
0
LINE
8
0
6
CONTINUOUS
10
175.791485
20
467.606735
30
0.0
11
175.183205
21
474.266585
31
0.0
0
LINE
8
0
6
CONTINUOUS
10
157.268985
20
430.349425
30
0.0
11
151.380895
21
426.170805
31
0.0
0
LINE
8
0
6
CONTINUOUS
10
151.750225
20
426.071095
30
0.0
11
157.664765
21
430.413285
31
0.0
0
LINE
8
0
6
CONTINUOUS
10
151.380895
20
426.170805
30
0.0
11
144.545315
21
422.314455
31
0.0
0
LINE
8
0
6
CONTINUOUS
10
144.845725
20
422.274705
30
0.0
11
151.750225
21
426.071095
31
0.0
0
LINE
8
0
6
CONTINUOUS
10
144.545315
20
422.314455
30
0.0
11
141.194025
21
420.769955
31
0.0
0
LINE
8
0
6
CONTINUOUS
10
141.402085
20
420.710835
30
0.0
11
144.845725
21
422.274705
31
0.0
0
LINE
8
0
6
CONTINUOUS
10
141.402085
20
420.710835
30
0.0
11
138.692305
21
419.647215
31
0.0
0
LINE
8
0
6
CONTINUOUS
10
138.910945
20
419.013365
30
0.0
11
141.610215
21
420.035855
31
0.0
0
LINE
8
0
6
CONTINUOUS
10
126.536215
20
403.095625
30
0.0
11
127.350395
21
404.840545
31
0.0
0
LINE
8
0
6
CONTINUOUS
10
122.191605
20
396.950835
30
0.0
11
124.588455
21
399.520955
31
0.0
0
LINE
8
0
6
CONTINUOUS
10
124.507335
20
400.778355
30
0.0
11
122.245515
21
398.045655
31
0.0
0
LINE
8
0
6
CONTINUOUS
10
129.159575
20
410.226745
30
0.0
11
129.977745
21
412.178195
31
0.0
0
LINE
8
0
6
CONTINUOUS
10
128.291145
20
407.636875
30
0.0
11
129.159575
21
410.226745
31
0.0
0
LINE
8
0
6
CONTINUOUS
10
116.851455
20
394.371335
30
0.0
11
119.576285
21
395.321735
31
0.0
0
LINE
8
0
6
CONTINUOUS
10
119.671835
20
396.279905
30
0.0
11
116.930555
21
395.332035
31
0.0
0
LINE
8
0
6
CONTINUOUS
10
113.932085
20
393.927765
30
0.0
11
116.851455
21
394.371335
31
0.0
0
LINE
8
0
6
CONTINUOUS
10
116.930555
20
395.332035
30
0.0
11
113.932085
21
394.982605
31
0.0
0
LINE
8
0
6
CONTINUOUS
10
119.576285
20
395.321735
30
0.0
11
122.191605
21
396.950835
31
0.0
0
LINE
8
0
6
CONTINUOUS
10
122.245515
20
398.045655
30
0.0
11
119.671835
21
396.279905
31
0.0
0
LINE
8
0
6
CONTINUOUS
10
124.588455
20
399.520955
30
0.0
11
126.536215
21
403.095625
31
0.0
0
LINE
8
0
6
CONTINUOUS
10
127.350395
20
404.840545
30
0.0
11
128.291145
21
407.636875
31
0.0
0
LINE
8
0
6
CONTINUOUS
10
131.808365
20
414.966735
30
0.0
11
133.478875
21
416.521915
31
0.0
0
LINE
8
0
6
CONTINUOUS
10
138.692305
20
419.647215
30
0.0
11
135.799795
21
418.524475
31
0.0
0
LINE
8
0
6
CONTINUOUS
10
136.071605
20
417.967075
30
0.0
11
138.910945
21
419.013365
31
0.0
0
LINE
8
0
6
CONTINUOUS
10
133.478875
20
416.521915
30
0.0
11
136.071605
21
417.967075
31
0.0
0
LINE
8
0
6
CONTINUOUS
10
130.711815
20
413.516845
30
0.0
11
131.808365
21
414.966735
31
0.0
0
LINE
8
0
6
CONTINUOUS
10
129.977745
20
412.178195
30
0.0
11
130.711815
21
413.516845
31
0.0
0
LINE
8
0
6
CONTINUOUS
10
124.781875
20
478.413545
30
0.0
11
119.359365
21
480.226895
31
0.0
0
LINE
8
0
6
CONTINUOUS
10
90.981185
20
462.015995
30
0.0
11
91.794565
21
457.177125
31
0.0
0
LINE
8
0
6
CONTINUOUS
10
91.794565
20
457.177125
30
0.0
11
93.963415
21
452.644275
31
0.0
0
LINE
8
0
6
CONTINUOUS
10
93.963415
20
452.644275
30
0.0
11
94.220255
21
452.334135
31
0.0
0
LINE
8
0
6
CONTINUOUS
10
132.929265
20
452.332385
30
0.0
11
133.186195
21
452.642445
31
0.0
0
LINE
8
0
6
CONTINUOUS
10
135.355365
20
457.175065
30
0.0
11
136.168775
21
462.013855
31
0.0
0
LINE
8
0
6
CONTINUOUS
10
119.359365
20
480.226895
30
0.0
11
113.575405
21
480.906295
31
0.0
0
LINE
8
0
6
CONTINUOUS
10
129.571745
20
475.390325
30
0.0
11
124.781875
21
478.413545
31
0.0
0
LINE
8
0
6
CONTINUOUS
10
133.186555
20
471.382755
30
0.0
11
129.571745
21
475.390325
31
0.0
0
LINE
8
0
6
CONTINUOUS
10
136.168775
20
462.013855
30
0.0
11
135.355545
21
466.849745
31
0.0
0
LINE
8
0
6
CONTINUOUS
10
113.575405
20
480.906295
30
0.0
11
107.791285
21
480.227435
31
0.0
0
LINE
8
0
6
CONTINUOUS
10
107.791285
20
480.227435
30
0.0
11
102.368855
21
478.414615
31
0.0
0
LINE
8
0
6
CONTINUOUS
10
102.368855
20
478.414615
30
0.0
11
97.578875
21
475.391765
31
0.0
0
LINE
8
0
6
CONTINUOUS
10
97.578875
20
475.391765
30
0.0
11
93.963765
21
471.384585
31
0.0
0
LINE
8
0
6
CONTINUOUS
10
91.794755
20
466.851805
30
0.0
11
90.981185
21
462.015995
31
0.0
0
LINE
8
0
6
CONTINUOUS
10
93.963765
20
471.384585
30
0.0
11
91.794755
21
466.851805
31
0.0
0
LINE
8
0
6
CONTINUOUS
10
135.355545
20
466.849745
30
0.0
11
133.186555
21
471.382755
31
0.0
0
LINE
8
0
6
CONTINUOUS
10
144.247865
20
469.604035
30
0.0
11
141.193355
21
475.987705
31
0.0
0
LINE
8
0
6
CONTINUOUS
10
140.726515
20
475.392155
30
0.0
11
143.730115
21
469.115145
31
0.0
0
LINE
8
0
6
CONTINUOUS
10
129.357335
20
485.888905
30
0.0
11
121.720995
21
488.442685
31
0.0
0
LINE
8
0
6
CONTINUOUS
10
121.583325
20
487.635655
30
0.0
11
129.092395
21
485.124815
31
0.0
0
LINE
8
0
6
CONTINUOUS
10
113.575645
20
489.399415
30
0.0
11
105.430075
21
488.443375
31
0.0
0
LINE
8
0
6
CONTINUOUS
10
105.567645
20
487.636415
30
0.0
11
113.575605
21
488.576275
31
0.0
0
LINE
8
0
6
CONTINUOUS
10
129.356455
20
439.700165
30
0.0
11
136.102015
21
443.953015
31
0.0
0
LINE
8
0
6
CONTINUOUS
10
135.722025
20
443.896785
30
0.0
11
129.091535
21
439.716795
31
0.0
0
LINE
8
0
6
CONTINUOUS
10
97.792965
20
439.701615
30
0.0
11
100.885064
21
438.666120
31
0.0
0
LINE
8
0
6
CONTINUOUS
10
105.566715
20
437.203295
30
0.0
11
98.057825
21
439.718245
31
0.0
0
LINE
8
0
6
CONTINUOUS
10
144.247615
20
455.979615
30
0.0
11
145.393135
21
462.793885
31
0.0
0
LINE
8
0
6
CONTINUOUS
10
144.856025
20
462.420195
30
0.0
11
143.729865
21
455.720675
31
0.0
0
LINE
8
0
6
CONTINUOUS
10
136.102015
20
443.953015
30
0.0
11
141.192845
21
449.596325
31
0.0
0
LINE
8
0
6
CONTINUOUS
10
140.726025
20
449.444125
30
0.0
11
135.722025
21
443.896785
31
0.0
0
LINE
8
0
6
CONTINUOUS
10
85.956745
20
449.598925
30
0.0
11
91.047555
21
443.955155
31
0.0
0
LINE
8
0
6
CONTINUOUS
10
91.427485
20
443.898845
30
0.0
11
86.423505
21
449.446715
31
0.0
0
LINE
8
0
6
CONTINUOUS
10
91.047555
20
443.955155
30
0.0
11
97.792965
21
439.701615
31
0.0
0
LINE
8
0
6
CONTINUOUS
10
98.057825
20
439.718245
30
0.0
11
91.427485
21
443.898845
31
0.0
0
LINE
8
0
6
CONTINUOUS
10
105.430075
20
488.443375
30
0.0
11
97.793835
21
485.890425
31
0.0
0
LINE
8
0
6
CONTINUOUS
10
98.058685
20
485.126345
30
0.0
11
105.567645
21
487.636415
31
0.0
0
LINE
8
0
6
CONTINUOUS
10
121.582335
20
437.202535
30
0.0
11
113.574605
21
436.262515
31
0.0
0
LINE
8
0
6
CONTINUOUS
10
121.720995
20
488.442685
30
0.0
11
113.575645
21
489.399415
31
0.0
0
LINE
8
0
6
CONTINUOUS
10
113.575605
20
488.576275
30
0.0
11
121.583325
21
487.635655
31
0.0
0
LINE
8
0
6
CONTINUOUS
10
82.902685
20
469.606935
30
0.0
11
81.756975
21
462.796935
31
0.0
0
LINE
8
0
6
CONTINUOUS
10
82.293995
20
462.423095
30
0.0
11
83.420335
21
469.118045
31
0.0
0
LINE
8
0
6
CONTINUOUS
10
82.902425
20
455.982435
30
0.0
11
85.956745
21
449.598925
31
0.0
0
LINE
8
0
6
CONTINUOUS
10
86.423505
20
449.446715
30
0.0
11
83.420085
21
455.723495
31
0.0
0
LINE
8
0
6
CONTINUOUS
10
136.102725
20
481.631395
30
0.0
11
129.357335
21
485.888905
31
0.0
0
LINE
8
0
6
CONTINUOUS
10
129.092395
20
485.124815
30
0.0
11
135.722705
21
480.939945
31
0.0
0
LINE
8
0
6
CONTINUOUS
10
141.193355
20
475.987705
30
0.0
11
136.102725
21
481.631395
31
0.0
0
LINE
8
0
6
CONTINUOUS
10
135.722705
20
480.939945
30
0.0
11
140.726515
21
475.392155
31
0.0
0
LINE
8
0
6
CONTINUOUS
10
113.574605
20
436.262515
30
0.0
11
105.566715
21
437.203295
31
0.0
0
LINE
8
0
6
CONTINUOUS
10
126.939598
20
438.891049
30
0.0
11
129.356455
21
439.700165
31
0.0
0
LINE
8
0
6
CONTINUOUS
10
129.091535
20
439.716795
30
0.0
11
121.582335
21
437.202535
31
0.0
0
LINE
8
0
6
CONTINUOUS
10
145.393135
20
462.793885
30
0.0
11
144.247865
21
469.604035
31
0.0
0
LINE
8
0
6
CONTINUOUS
10
143.730115
20
469.115145
30
0.0
11
144.856025
21
462.420195
31
0.0
0
LINE
8
0
6
CONTINUOUS
10
97.793835
20
485.890425
30
0.0
11
91.048275
21
481.633455
31
0.0
0
LINE
8
0
6
CONTINUOUS
10
91.428195
20
480.942005
30
0.0
11
98.058685
21
485.126345
31
0.0
0
LINE
8
0
6
CONTINUOUS
10
83.420335
20
469.118045
30
0.0
11
86.424005
21
475.394745
31
0.0
0
LINE
8
0
6
CONTINUOUS
10
85.957245
20
475.990295
30
0.0
11
82.902685
21
469.606935
31
0.0
0
LINE
8
0
6
CONTINUOUS
10
141.192845
20
449.596325
30
0.0
11
144.247615
21
455.979615
31
0.0
0
LINE
8
0
6
CONTINUOUS
10
143.729865
20
455.720675
30
0.0
11
140.726025
21
449.444125
31
0.0
0
LINE
8
0
6
CONTINUOUS
10
91.048275
20
481.633455
30
0.0
11
85.957245
21
475.990295
31
0.0
0
LINE
8
0
6
CONTINUOUS
10
86.424005
20
475.394745
30
0.0
11
91.428195
21
480.942005
31
0.0
0
LINE
8
0
6
CONTINUOUS
10
81.756975
20
462.796935
30
0.0
11
82.902425
21
455.982435
31
0.0
0
LINE
8
0
6
CONTINUOUS
10
83.420085
20
455.723495
30
0.0
11
82.293995
21
462.423095
31
0.0
0
LINE
8
0
6
CONTINUOUS
10
148.323085
20
480.141145
30
0.0
11
152.167065
21
472.108005
31
0.0
0
LINE
8
0
6
CONTINUOUS
10
123.823995
20
495.810165
30
0.0
11
133.433965
21
492.596815
31
0.0
0
LINE
8
0
6
CONTINUOUS
10
103.327435
20
495.811155
30
0.0
11
113.575865
21
497.013855
31
0.0
0
LINE
8
0
6
CONTINUOUS
10
141.918435
20
439.833905
30
0.0
11
133.432865
21
434.484405
31
0.0
0
LINE
8
0
6
CONTINUOUS
10
153.607965
20
463.539885
30
0.0
11
152.166735
21
454.965975
31
0.0
0
LINE
8
0
6
CONTINUOUS
10
148.322475
20
446.933365
30
0.0
11
141.918435
21
439.833905
31
0.0
0
LINE
8
0
6
CONTINUOUS
10
85.231115
20
439.836575
30
0.0
11
78.827125
21
446.936565
31
0.0
0
LINE
8
0
6
CONTINUOUS
10
93.716505
20
434.486315
30
0.0
11
85.231115
21
439.836575
31
0.0
0
LINE
8
0
6
CONTINUOUS
10
93.717605
20
492.598725
30
0.0
11
103.327435
21
495.811155
31
0.0
0
LINE
8
0
6
CONTINUOUS
10
113.575865
20
497.013855
30
0.0
11
123.823995
21
495.810165
31
0.0
0
LINE
8
0
6
CONTINUOUS
10
73.542245
20
463.543625
30
0.0
11
74.983725
21
472.111585
31
0.0
0
LINE
8
0
6
CONTINUOUS
10
78.827125
20
446.936565
30
0.0
11
74.983405
21
454.969555
31
0.0
0
LINE
8
0
6
CONTINUOUS
10
133.433965
20
492.596815
30
0.0
11
141.919315
21
487.241055
31
0.0
0
LINE
8
0
6
CONTINUOUS
10
141.919315
20
487.241055
30
0.0
11
148.323085
21
480.141145
31
0.0
0
LINE
8
0
6
CONTINUOUS
10
152.167065
20
472.108005
30
0.0
11
153.607965
21
463.539885
31
0.0
0
LINE
8
0
6
CONTINUOUS
10
85.232035
20
487.243725
30
0.0
11
93.717605
21
492.598725
31
0.0
0
LINE
8
0
6
CONTINUOUS
10
74.983725
20
472.111585
30
0.0
11
78.827755
21
480.144345
31
0.0
0
LINE
8
0
6
CONTINUOUS
10
152.166735
20
454.965975
30
0.0
11
148.322475
21
446.933365
31
0.0
0
LINE
8
0
6
CONTINUOUS
10
78.827755
20
480.144345
30
0.0
11
85.232035
21
487.243725
31
0.0
0
LINE
8
0
6
CONTINUOUS
10
74.983405
20
454.969555
30
0.0
11
73.542245
21
463.543625
31
0.0
0
LINE
8
0
6
CONTINUOUS
10
156.520355
20
485.172885
30
0.0
11
161.271145
21
475.244755
31
0.0
0
LINE
8
0
6
CONTINUOUS
10
126.241845
20
504.538345
30
0.0
11
138.118835
21
500.566945
31
0.0
0
LINE
8
0
6
CONTINUOUS
10
100.910085
20
504.539485
30
0.0
11
113.576145
21
506.026075
31
0.0
0
LINE
8
0
6
CONTINUOUS
10
148.604835
20
435.357135
30
0.0
11
138.117465
21
428.745655
31
0.0
0
LINE
8
0
6
CONTINUOUS
10
163.051955
20
464.655385
30
0.0
11
161.270725
21
454.058835
31
0.0
0
LINE
8
0
6
CONTINUOUS
10
156.519575
20
444.131315
30
0.0
11
148.604835
21
435.357135
31
0.0
0
LINE
8
0
6
CONTINUOUS
10
78.544775
20
435.360415
30
0.0
11
70.630055
21
444.135365
31
0.0
0
LINE
8
0
6
CONTINUOUS
10
89.031895
20
428.747945
30
0.0
11
78.544775
21
435.360415
31
0.0
0
LINE
8
0
6
CONTINUOUS
10
89.033255
20
500.569305
30
0.0
11
100.910085
21
504.539485
31
0.0
0
LINE
8
0
6
CONTINUOUS
10
113.576145
20
506.026075
30
0.0
11
126.241845
21
504.538345
31
0.0
0
LINE
8
0
6
CONTINUOUS
10
64.098465
20
464.659955
30
0.0
11
65.879995
21
475.249175
31
0.0
0
LINE
8
0
6
CONTINUOUS
10
70.630055
20
444.135365
30
0.0
11
65.879595
21
454.063335
31
0.0
0
LINE
8
0
6
CONTINUOUS
10
138.118835
20
500.566945
30
0.0
11
148.605905
21
493.947835
31
0.0
0
LINE
8
0
6
CONTINUOUS
10
148.605905
20
493.947835
30
0.0
11
156.520355
21
485.172885
31
0.0
0
LINE
8
0
6
CONTINUOUS
10
161.271145
20
475.244755
30
0.0
11
163.051955
21
464.655385
31
0.0
0
LINE
8
0
6
CONTINUOUS
10
78.545915
20
493.951035
30
0.0
11
89.033255
21
500.569305
31
0.0
0
LINE
8
0
6
CONTINUOUS
10
65.879995
20
475.249175
30
0.0
11
70.630835
21
485.176925
31
0.0
0
LINE
8
0
6
CONTINUOUS
10
161.270725
20
454.058835
30
0.0
11
156.519575
21
444.131315
31
0.0
0
LINE
8
0
6
CONTINUOUS
10
70.630835
20
485.176925
30
0.0
11
78.545915
21
493.951035
31
0.0
0
LINE
8
0
6
CONTINUOUS
10
65.879595
20
454.063335
30
0.0
11
64.098465
21
464.659955
31
0.0
0
LINE
8
0
6
CONTINUOUS
10
91.277085
20
461.583255
30
0.0
11
92.079815
21
456.807325
31
0.0
0
LINE
8
0
6
CONTINUOUS
10
113.575355
20
480.225675
30
0.0
11
107.867005
21
479.555665
31
0.0
0
LINE
8
0
6
CONTINUOUS
10
107.866315
20
443.605805
30
0.0
11
113.574655
21
442.935255
31
0.0
0
LINE
8
0
6
CONTINUOUS
10
124.634415
20
445.397185
30
0.0
11
129.361655
21
448.377225
31
0.0
0
LINE
8
0
6
CONTINUOUS
10
124.635035
20
477.765885
30
0.0
11
119.283545
21
479.555135
31
0.0
0
LINE
8
0
6
CONTINUOUS
10
135.070205
20
466.353535
30
0.0
11
132.929615
21
470.826795
31
0.0
0
LINE
8
0
6
CONTINUOUS
10
132.929265
20
452.332385
30
0.0
11
135.070025
21
456.805345
31
0.0
0
LINE
8
0
6
CONTINUOUS
10
113.574655
20
442.935255
30
0.0
11
119.282865
21
443.605275
31
0.0
0
LINE
8
0
6
CONTINUOUS
10
94.220255
20
452.334135
30
0.0
11
97.787855
21
448.378675
31
0.0
0
LINE
8
0
6
CONTINUOUS
10
135.070025
20
456.805345
30
0.0
11
135.872785
21
461.581115
31
0.0
0
LINE
8
0
6
CONTINUOUS
10
119.283545
20
479.555135
30
0.0
11
113.575355
21
480.225675
31
0.0
0
LINE
8
0
6
CONTINUOUS
10
92.079995
20
466.355595
30
0.0
11
91.277085
21
461.583255
31
0.0
0
LINE
8
0
6
CONTINUOUS
10
94.220605
20
470.828625
30
0.0
11
92.079995
21
466.355595
31
0.0
0
LINE
8
0
6
CONTINUOUS
10
97.788355
20
474.783705
30
0.0
11
94.220605
21
470.828625
31
0.0
0
LINE
8
0
6
CONTINUOUS
10
102.515595
20
477.766875
30
0.0
11
97.788355
21
474.783705
31
0.0
0
LINE
8
0
6
CONTINUOUS
10
135.872785
20
461.581115
30
0.0
11
135.070205
21
466.353535
31
0.0
0
LINE
8
0
6
CONTINUOUS
10
132.929615
20
470.826795
30
0.0
11
129.362155
21
474.782255
31
0.0
0
LINE
8
0
6
CONTINUOUS
10
129.362155
20
474.782255
30
0.0
11
124.635035
21
477.765885
31
0.0
0
LINE
8
0
6
CONTINUOUS
10
92.079815
20
456.807325
30
0.0
11
94.220255
21
452.334135
31
0.0
0
LINE
8
0
6
CONTINUOUS
10
129.361655
20
448.377225
30
0.0
11
132.929265
21
452.332385
31
0.0
0
LINE
8
0
6
CONTINUOUS
10
107.867005
20
479.555665
30
0.0
11
102.515595
21
477.766875
31
0.0
0
LINE
8
0
6
CONTINUOUS
10
119.282865
20
443.605275
30
0.0
11
124.634415
21
445.397185
31
0.0
0
LINE
8
0
6
CONTINUOUS
10
97.787855
20
448.378675
30
0.0
11
102.514975
21
445.398255
31
0.0
0
LINE
8
0
6
CONTINUOUS
10
102.514975
20
445.398255
30
0.0
11
107.866315
21
443.605805
31
0.0
0
LINE
8
0
6
CONTINUOUS
10
119.897715
20
458.304595
30
0.0
11
120.602735
21
459.074555
31
0.0
0
LINE
8
0
6
CONTINUOUS
10
120.602735
20
459.074555
30
0.0
11
121.483465
21
459.628755
31
0.0
0
LINE
8
0
6
CONTINUOUS
10
121.483465
20
459.628755
30
0.0
11
122.538395
21
459.955825
31
0.0
0
LINE
8
0
6
CONTINUOUS
10
122.538395
20
459.955825
30
0.0
11
123.645675
21
460.111235
31
0.0
0
LINE
8
0
6
CONTINUOUS
10
123.645675
20
460.111235
30
0.0
11
124.739475
21
460.001375
31
0.0
0
LINE
8
0
6
CONTINUOUS
10
124.739475
20
460.001375
30
0.0
11
125.809605
21
459.628525
31
0.0
0
LINE
8
0
6
CONTINUOUS
10
127.839845
20
455.579075
30
0.0
11
127.395235
21
454.685055
31
0.0
0
LINE
8
0
6
CONTINUOUS
10
127.973425
20
456.495135
30
0.0
11
127.839845
21
455.579075
31
0.0
0
LINE
8
0
6
CONTINUOUS
10
127.784095
20
457.422635
30
0.0
11
127.973425
21
456.495135
31
0.0
0
LINE
8
0
6
CONTINUOUS
10
127.393635
20
458.301845
30
0.0
11
127.784095
21
457.422635
31
0.0
0
LINE
8
0
6
CONTINUOUS
10
126.730955
20
459.040375
30
0.0
11
127.393635
21
458.301845
31
0.0
0
LINE
8
0
6
CONTINUOUS
10
125.809605
20
459.628525
30
0.0
11
126.730955
21
459.040375
31
0.0
0
LINE
8
0
6
CONTINUOUS
10
127.395235
20
454.685055
30
0.0
11
126.690295
21
453.913655
31
0.0
0
LINE
8
0
6
CONTINUOUS
10
119.453105
20
457.409285
30
0.0
11
119.897715
21
458.304595
31
0.0
0
LINE
8
0
6
CONTINUOUS
10
119.319535
20
456.494675
30
0.0
11
119.453105
21
457.409285
31
0.0
0
LINE
8
0
6
CONTINUOUS
10
119.508855
20
455.567705
30
0.0
11
119.319535
21
456.494675
31
0.0
0
LINE
8
0
6
CONTINUOUS
10
119.899315
20
454.685445
30
0.0
11
119.508855
21
455.567705
31
0.0
0
LINE
8
0
6
CONTINUOUS
10
120.560325
20
453.950885
30
0.0
11
119.899315
21
454.685445
31
0.0
0
LINE
8
0
6
CONTINUOUS
10
110.539925
20
468.541795
30
0.0
11
109.823125
21
469.264675
31
0.0
0
LINE
8
0
6
CONTINUOUS
10
109.823125
20
469.264675
30
0.0
11
109.390355
21
470.113985
31
0.0
0
LINE
8
0
6
CONTINUOUS
10
109.390355
20
470.113985
30
0.0
11
109.241605
21
471.073915
31
0.0
0
LINE
8
0
6
CONTINUOUS
10
112.419895
20
474.568935
30
0.0
11
113.569485
21
474.693755
31
0.0
0
LINE
8
0
6
CONTINUOUS
10
111.405535
20
474.206545
30
0.0
11
112.419895
21
474.568935
31
0.0
0
LINE
8
0
6
CONTINUOUS
10
110.540015
20
473.606795
30
0.0
11
111.405535
21
474.206545
31
0.0
0
LINE
8
0
6
CONTINUOUS
10
109.823205
20
472.883915
30
0.0
11
110.540015
21
473.606795
31
0.0
0
LINE
8
0
6
CONTINUOUS
10
109.390405
20
472.034755
30
0.0
11
109.823205
21
472.883915
31
0.0
0
LINE
8
0
6
CONTINUOUS
10
109.241605
20
471.073915
30
0.0
11
109.390405
21
472.034755
31
0.0
0
LINE
8
0
6
CONTINUOUS
10
113.569485
20
474.693755
30
0.0
11
114.719065
21
474.568865
31
0.0
0
LINE
8
0
6
CONTINUOUS
10
114.719065
20
474.568865
30
0.0
11
115.733345
21
474.206395
31
0.0
0
LINE
8
0
6
CONTINUOUS
10
115.733345
20
474.206395
30
0.0
11
116.598915
21
473.606565
31
0.0
0
LINE
8
0
6
CONTINUOUS
10
116.598915
20
473.606565
30
0.0
11
117.315705
21
472.883525
31
0.0
0
LINE
8
0
6
CONTINUOUS
10
117.315705
20
472.883525
30
0.0
11
117.748465
21
472.034375
31
0.0
0
LINE
8
0
6
CONTINUOUS
10
117.748465
20
472.034375
30
0.0
11
117.897225
21
471.073535
31
0.0
0
LINE
8
0
6
CONTINUOUS
10
117.315625
20
469.264375
30
0.0
11
116.598815
21
468.541565
31
0.0
0
LINE
8
0
6
CONTINUOUS
10
116.598815
20
468.541565
30
0.0
11
116.738746
21
468.652782
31
0.0
0
LINE
8
0
6
CONTINUOUS
10
117.748435
20
470.113525
30
0.0
11
117.315625
21
469.264375
31
0.0
0
LINE
8
0
6
CONTINUOUS
10
117.897225
20
471.073535
30
0.0
11
117.748435
21
470.113525
31
0.0
0
LINE
8
0
6
CONTINUOUS
10
107.257665
20
458.297505
30
0.0
11
107.702235
21
457.402115
31
0.0
0
LINE
8
0
6
CONTINUOUS
10
107.702235
20
457.402115
30
0.0
11
107.835775
21
456.485975
31
0.0
0
LINE
8
0
6
CONTINUOUS
10
107.835775
20
456.485975
30
0.0
11
107.648095
21
455.559925
31
0.0
0
LINE
8
0
6
CONTINUOUS
10
107.648095
20
455.559925
30
0.0
11
107.255855
21
454.679265
31
0.0
0
LINE
8
0
6
CONTINUOUS
10
106.594885
20
453.940885
30
0.0
11
106.733032
21
454.052708
31
0.0
0
LINE
8
0
6
CONTINUOUS
10
107.255855
20
454.679265
30
0.0
11
106.594885
21
453.940885
31
0.0
0
LINE
8
0
6
CONTINUOUS
10
100.464925
20
453.908085
30
0.0
11
99.761675
21
454.677205
31
0.0
0
LINE
8
0
6
CONTINUOUS
10
100.325475
20
454.020777
30
0.0
11
100.464925
21
453.908085
31
0.0
0
LINE
8
0
6
CONTINUOUS
10
99.761675
20
454.677205
30
0.0
11
99.315365
21
455.572665
31
0.0
0
LINE
8
0
6
CONTINUOUS
10
99.315365
20
455.572665
30
0.0
11
99.181825
21
456.488805
31
0.0
0
LINE
8
0
6
CONTINUOUS
10
99.181825
20
456.488805
30
0.0
11
99.371185
21
457.415775
31
0.0
0
LINE
8
0
6
CONTINUOUS
10
99.371185
20
457.415775
30
0.0
11
99.761745
21
458.296355
31
0.0
0
LINE
8
0
6
CONTINUOUS
10
99.761745
20
458.296355
30
0.0
11
100.424455
21
459.033965
31
0.0
0
LINE
8
0
6
CONTINUOUS
10
100.424455
20
459.033965
30
0.0
11
101.345825
21
459.621425
31
0.0
0
LINE
8
0
6
CONTINUOUS
10
106.552685
20
459.067535
30
0.0
11
107.257665
21
458.297505
31
0.0
0
LINE
8
0
6
CONTINUOUS
10
105.671895
20
459.620365
30
0.0
11
106.552685
21
459.067535
31
0.0
0
LINE
8
0
6
CONTINUOUS
10
104.617055
20
459.946895
30
0.0
11
105.671895
21
459.620365
31
0.0
0
LINE
8
0
6
CONTINUOUS
10
103.509705
20
460.105365
30
0.0
11
104.617055
21
459.946895
31
0.0
0
LINE
8
0
6
CONTINUOUS
10
102.415965
20
459.994655
30
0.0
11
103.509705
21
460.105365
31
0.0
0
LINE
8
0
6
CONTINUOUS
10
101.345825
20
459.621425
30
0.0
11
102.415965
21
459.994655
31
0.0
0
LINE
8
0
6
CONTINUOUS
10
135.189345
20
507.448425
30
0.0
11
136.500515
21
506.054155
31
0.0
0
LINE
8
0
6
CONTINUOUS
10
135.712215
20
504.407505
30
0.0
11
136.500515
21
506.054155
31
0.0
0
LINE
8
0
6
CONTINUOUS
10
133.612745
20
504.154965
30
0.0
11
135.712215
21
504.407505
31
0.0
0
LINE
8
0
6
CONTINUOUS
10
132.301575
20
505.549315
30
0.0
11
133.612745
21
504.154965
31
0.0
0
LINE
8
0
6
CONTINUOUS
10
133.089865
20
507.195895
30
0.0
11
132.301575
21
505.549315
31
0.0
0
LINE
8
0
6
CONTINUOUS
10
135.189345
20
507.448425
30
0.0
11
133.089865
21
507.195895
31
0.0
0
LINE
8
0
6
CONTINUOUS
10
136.500515
20
506.054155
30
0.0
11
135.189345
21
507.448425
31
0.0
0
LINE
8
0
6
CONTINUOUS
10
133.089865
20
507.195895
30
0.0
11
135.189345
21
507.448425
31
0.0
0
LINE
8
0
6
CONTINUOUS
10
132.301575
20
505.549315
30
0.0
11
133.089865
21
507.195895
31
0.0
0
LINE
8
0
6
CONTINUOUS
10
132.301576
20
506.144351
30
0.0
11
132.301575
21
505.549315
31
0.0
0
LINE
8
0
6
CONTINUOUS
10
144.675895
20
503.184505
30
0.0
11
145.646585
21
501.607515
31
0.0
0
LINE
8
0
6
CONTINUOUS
10
144.498685
20
500.115965
30
0.0
11
145.646585
21
501.607515
31
0.0
0
LINE
8
0
6
CONTINUOUS
10
142.380095
20
500.201495
30
0.0
11
144.498685
21
500.115965
31
0.0
0
LINE
8
0
6
CONTINUOUS
10
141.409385
20
501.778565
30
0.0
11
142.380095
21
500.201495
31
0.0
0
LINE
8
0
6
CONTINUOUS
10
142.557285
20
503.270115
30
0.0
11
141.409385
21
501.778565
31
0.0
0
LINE
8
0
6
CONTINUOUS
10
144.675895
20
503.184505
30
0.0
11
142.557285
21
503.270115
31
0.0
0
LINE
8
0
6
CONTINUOUS
10
145.646585
20
501.607515
30
0.0
11
144.675895
21
503.184505
31
0.0
0
LINE
8
0
6
CONTINUOUS
10
142.557285
20
503.270115
30
0.0
11
144.675895
21
503.184505
31
0.0
0
LINE
8
0
6
CONTINUOUS
10
141.409385
20
501.778565
30
0.0
11
142.557285
21
503.270115
31
0.0
0
LINE
8
0
6
CONTINUOUS
10
141.409385
20
502.355094
30
0.0
11
141.409385
21
501.778565
31
0.0
0
LINE
8
0
6
CONTINUOUS
10
152.877925
20
497.261815
30
0.0
11
153.475295
21
495.559845
31
0.0
0
LINE
8
0
6
CONTINUOUS
10
152.011425
20
494.276275
30
0.0
11
153.475295
21
495.559845
31
0.0
0
LINE
8
0
6
CONTINUOUS
10
149.950205
20
494.694675
30
0.0
11
152.011425
21
494.276275
31
0.0
0
LINE
8
0
6
CONTINUOUS
10
149.352845
20
496.396635
30
0.0
11
149.950205
21
494.694675
31
0.0
0
LINE
8
0
6
CONTINUOUS
10
150.816735
20
497.680205
30
0.0
11
149.352845
21
496.396635
31
0.0
0
LINE
8
0
6
CONTINUOUS
10
152.877925
20
497.261815
30
0.0
11
150.816735
21
497.680205
31
0.0
0
LINE
8
0
6
CONTINUOUS
10
153.475295
20
495.559845
30
0.0
11
152.877925
21
497.261815
31
0.0
0
LINE
8
0
6
CONTINUOUS
10
150.816735
20
497.680205
30
0.0
11
152.877925
21
497.261815
31
0.0
0
LINE
8
0
6
CONTINUOUS
10
149.352845
20
496.396635
30
0.0
11
150.816735
21
497.680205
31
0.0
0
LINE
8
0
6
CONTINUOUS
10
149.352845
20
496.959253
30
0.0
11
149.352845
21
496.396635
31
0.0
0
LINE
8
0
6
CONTINUOUS
10
159.835515
20
490.450665
30
0.0
11
160.038465
21
488.684995
31
0.0
0
LINE
8
0
6
CONTINUOUS
10
158.311455
20
487.655335
30
0.0
11
160.038465
21
488.684995
31
0.0
0
LINE
8
0
6
CONTINUOUS
10
156.381535
20
488.391115
30
0.0
11
158.311455
21
487.655335
31
0.0
0
LINE
8
0
6
CONTINUOUS
10
156.178595
20
490.156705
30
0.0
11
156.381535
21
488.391115
31
0.0
0
LINE
8
0
6
CONTINUOUS
10
157.905605
20
491.186525
30
0.0
11
156.178595
21
490.156705
31
0.0
0
LINE
8
0
6
CONTINUOUS
10
159.835515
20
490.450665
30
0.0
11
157.905605
21
491.186525
31
0.0
0
LINE
8
0
6
CONTINUOUS
10
160.038465
20
488.684995
30
0.0
11
159.835515
21
490.450665
31
0.0
0
LINE
8
0
6
CONTINUOUS
10
157.905605
20
491.186525
30
0.0
11
159.835515
21
490.450665
31
0.0
0
LINE
8
0
6
CONTINUOUS
10
156.178595
20
490.156705
30
0.0
11
157.905605
21
491.186525
31
0.0
0
LINE
8
0
6
CONTINUOUS
10
156.178595
20
490.689991
30
0.0
11
156.178595
21
490.156705
31
0.0
0
LINE
8
0
6
CONTINUOUS
10
161.018585
20
480.982365
30
0.0
11
161.219685
21
482.748185
31
0.0
0
LINE
8
0
6
CONTINUOUS
10
161.018585
20
481.361420
30
0.0
11
161.018585
21
480.982365
31
0.0
0
LINE
8
0
6
CONTINUOUS
10
162.746665
20
479.953915
30
0.0
11
164.675835
21
480.691145
31
0.0
0
LINE
8
0
6
CONTINUOUS
10
161.018585
20
480.982365
30
0.0
11
162.746665
21
479.953915
31
0.0
0
LINE
8
0
6
CONTINUOUS
10
161.219685
20
482.748185
30
0.0
11
161.018585
21
480.982365
31
0.0
0
LINE
8
0
6
CONTINUOUS
10
163.148835
20
483.485415
30
0.0
11
161.219685
21
482.748185
31
0.0
0
LINE
8
0
6
CONTINUOUS
10
164.876905
20
482.456975
30
0.0
11
163.148835
21
483.485415
31
0.0
0
LINE
8
0
6
CONTINUOUS
10
164.675835
20
480.691145
30
0.0
11
164.876905
21
482.456975
31
0.0
0
LINE
8
0
6
CONTINUOUS
10
163.148835
20
483.485415
30
0.0
11
164.876905
21
482.456975
31
0.0
0
LINE
8
0
6
CONTINUOUS
10
161.219685
20
482.748185
30
0.0
11
163.148835
21
483.485415
31
0.0
0
LINE
8
0
6
CONTINUOUS
10
161.219683
20
483.288972
30
0.0
11
161.219685
21
482.748185
31
0.0
0
LINE
8
0
6
CONTINUOUS
10
163.902555
20
472.986605
30
0.0
11
164.502305
21
474.687955
31
0.0
0
LINE
8
0
6
CONTINUOUS
10
163.902552
20
473.281637
30
0.0
11
163.902555
21
472.986605
31
0.0
0
LINE
8
0
6
CONTINUOUS
10
165.364575
20
471.701585
30
0.0
11
167.426425
21
472.117925
31
0.0
0
LINE
8
0
6
CONTINUOUS
10
163.902555
20
472.986605
30
0.0
11
165.364575
21
471.701585
31
0.0
0
LINE
8
0
6
CONTINUOUS
10
164.502305
20
474.687955
30
0.0
11
163.902555
21
472.986605
31
0.0
0
LINE
8
0
6
CONTINUOUS
10
166.564075
20
475.104375
30
0.0
11
164.502305
21
474.687955
31
0.0
0
LINE
8
0
6
CONTINUOUS
10
168.026135
20
473.819275
30
0.0
11
166.564075
21
475.104375
31
0.0
0
LINE
8
0
6
CONTINUOUS
10
167.426425
20
472.117925
30
0.0
11
168.026135
21
473.819275
31
0.0
0
LINE
8
0
6
CONTINUOUS
10
166.564075
20
475.104375
30
0.0
11
168.026135
21
473.819275
31
0.0
0
LINE
8
0
6
CONTINUOUS
10
164.502305
20
474.687955
30
0.0
11
166.564075
21
475.104375
31
0.0
0
LINE
8
0
6
CONTINUOUS
10
164.502299
20
475.137308
30
0.0
11
164.502305
21
474.687955
31
0.0
0
LINE
8
0
6
CONTINUOUS
10
164.848335
20
464.506375
30
0.0
11
165.821335
21
466.082455
31
0.0
0
LINE
8
0
6
CONTINUOUS
10
164.848331
20
464.807625
30
0.0
11
164.848335
21
464.506375
31
0.0
0
LINE
8
0
6
CONTINUOUS
10
165.994065
20
463.013615
30
0.0
11
168.112765
21
463.097075
31
0.0
0
LINE
8
0
6
CONTINUOUS
10
164.848335
20
464.506375
30
0.0
11
165.994065
21
463.013615
31
0.0
0
LINE
8
0
6
CONTINUOUS
10
165.821335
20
466.082455
30
0.0
11
164.848335
21
464.506375
31
0.0
0
LINE
8
0
6
CONTINUOUS
10
167.940055
20
466.165925
30
0.0
11
165.821335
21
466.082455
31
0.0
0
LINE
8
0
6
CONTINUOUS
10
169.085755
20
464.673155
30
0.0
11
167.940055
21
466.165925
31
0.0
0
LINE
8
0
6
CONTINUOUS
10
168.112765
20
463.097075
30
0.0
11
169.085755
21
464.673155
31
0.0
0
LINE
8
0
6
CONTINUOUS
10
167.940055
20
466.165925
30
0.0
11
169.085755
21
464.673155
31
0.0
0
LINE
8
0
6
CONTINUOUS
10
165.821335
20
466.082455
30
0.0
11
167.940055
21
466.165925
31
0.0
0
LINE
8
0
6
CONTINUOUS
10
165.821333
20
466.541007
30
0.0
11
165.821335
21
466.082455
31
0.0
0
LINE
8
0
6
CONTINUOUS
10
164.059515
20
456.889345
30
0.0
11
165.368145
21
458.285215
31
0.0
0
LINE
8
0
6
CONTINUOUS
10
164.059515
20
457.159143
30
0.0
11
164.059515
21
456.889345
31
0.0
0
LINE
8
0
6
CONTINUOUS
10
164.850795
20
455.243685
30
0.0
11
166.950715
21
454.993895
31
0.0
0
LINE
8
0
6
CONTINUOUS
10
164.059515
20
456.889345
30
0.0
11
164.850795
21
455.243685
31
0.0
0
LINE
8
0
6
CONTINUOUS
10
165.368145
20
458.285215
30
0.0
11
164.059515
21
456.889345
31
0.0
0
LINE
8
0
6
CONTINUOUS
10
167.468075
20
458.035435
30
0.0
11
165.368145
21
458.285215
31
0.0
0
LINE
8
0
6
CONTINUOUS
10
168.259385
20
456.389775
30
0.0
11
167.468075
21
458.035435
31
0.0
0
LINE
8
0
6
CONTINUOUS
10
166.950715
20
454.993895
30
0.0
11
168.259385
21
456.389775
31
0.0
0
LINE
8
0
6
CONTINUOUS
10
167.468075
20
458.035435
30
0.0
11
168.259385
21
456.389775
31
0.0
0
LINE
8
0
6
CONTINUOUS
10
165.368145
20
458.285215
30
0.0
11
167.468075
21
458.035435
31
0.0
0
LINE
8
0
6
CONTINUOUS
10
165.368147
20
458.703932
30
0.0
11
165.368145
21
458.285215
31
0.0
0
LINE
8
0
6
CONTINUOUS
10
161.293515
20
449.346615
30
0.0
11
162.895975
21
450.508725
31
0.0
0
LINE
8
0
6
CONTINUOUS
10
161.293513
20
449.615388
30
0.0
11
161.293515
21
449.346615
31
0.0
0
LINE
8
0
6
CONTINUOUS
10
161.695735
20
447.605055
30
0.0
11
163.700415
21
447.025605
31
0.0
0
LINE
8
0
6
CONTINUOUS
10
161.293515
20
449.346615
30
0.0
11
161.695735
21
447.605055
31
0.0
0
LINE
8
0
6
CONTINUOUS
10
162.895975
20
450.508725
30
0.0
11
161.293515
21
449.346615
31
0.0
0
LINE
8
0
6
CONTINUOUS
10
164.900675
20
449.929195
30
0.0
11
162.895975
21
450.508725
31
0.0
0
LINE
8
0
6
CONTINUOUS
10
165.302895
20
448.187565
30
0.0
11
164.900675
21
449.929195
31
0.0
0
LINE
8
0
6
CONTINUOUS
10
163.700415
20
447.025605
30
0.0
11
165.302895
21
448.187565
31
0.0
0
LINE
8
0
6
CONTINUOUS
10
164.900675
20
449.929195
30
0.0
11
165.302895
21
448.187565
31
0.0
0
LINE
8
0
6
CONTINUOUS
10
162.895975
20
450.508725
30
0.0
11
164.900675
21
449.929195
31
0.0
0
LINE
8
0
6
CONTINUOUS
10
162.895971
20
450.944638
30
0.0
11
162.895975
21
450.508725
31
0.0
0
LINE
8
0
6
CONTINUOUS
10
157.572635
20
440.653835
30
0.0
11
157.574085
21
442.427525
31
0.0
0
LINE
8
0
6
CONTINUOUS
10
157.574085
20
442.427525
30
0.0
11
159.411725
21
443.313375
31
0.0
0
LINE
8
0
6
CONTINUOUS
10
157.574084
20
442.703949
30
0.0
11
157.574085
21
442.427525
31
0.0
0
LINE
8
0
6
CONTINUOUS
10
157.572635
20
440.653835
30
0.0
11
159.408805
21
439.765935
31
0.0
0
LINE
8
0
6
CONTINUOUS
10
157.574085
20
442.427525
30
0.0
11
157.572635
21
440.653835
31
0.0
0
LINE
8
0
6
CONTINUOUS
10
159.411725
20
443.313375
30
0.0
11
157.574085
21
442.427525
31
0.0
0
LINE
8
0
6
CONTINUOUS
10
161.247875
20
442.425385
30
0.0
11
159.411725
21
443.313375
31
0.0
0
LINE
8
0
6
CONTINUOUS
10
161.246425
20
440.651705
30
0.0
11
161.247875
21
442.425385
31
0.0
0
LINE
8
0
6
CONTINUOUS
10
159.408805
20
439.765935
30
0.0
11
161.246425
21
440.651705
31
0.0
0
LINE
8
0
6
CONTINUOUS
10
159.411725
20
443.313375
30
0.0
11
161.247875
21
442.425385
31
0.0
0
LINE
8
0
6
CONTINUOUS
10
159.411722
20
443.736707
30
0.0
11
159.411725
21
443.313375
31
0.0
0
LINE
8
0
6
CONTINUOUS
10
151.328975
20
434.336095
30
0.0
11
151.731065
21
436.077725
31
0.0
0
LINE
8
0
6
CONTINUOUS
10
151.328970
20
434.758165
30
0.0
11
151.328975
21
434.336095
31
0.0
0
LINE
8
0
6
CONTINUOUS
10
151.731065
20
436.077725
30
0.0
11
153.735665
21
436.657255
31
0.0
0
LINE
8
0
6
CONTINUOUS
10
151.731063
20
436.338673
30
0.0
11
151.731065
21
436.077725
31
0.0
0
LINE
8
0
6
CONTINUOUS
10
151.328975
20
434.336095
30
0.0
11
152.931505
21
433.174135
31
0.0
0
LINE
8
0
6
CONTINUOUS
10
151.731065
20
436.077725
30
0.0
11
151.328975
21
434.336095
31
0.0
0
LINE
8
0
6
CONTINUOUS
10
153.735665
20
436.657255
30
0.0
11
151.731065
21
436.077725
31
0.0
0
LINE
8
0
6
CONTINUOUS
10
155.338215
20
435.495305
30
0.0
11
153.735665
21
436.657255
31
0.0
0
LINE
8
0
6
CONTINUOUS
10
154.936145
20
433.753735
30
0.0
11
155.338215
21
435.495305
31
0.0
0
LINE
8
0
6
CONTINUOUS
10
152.931505
20
433.174135
30
0.0
11
154.936145
21
433.753735
31
0.0
0
LINE
8
0
6
CONTINUOUS
10
153.735665
20
436.657255
30
0.0
11
155.338215
21
435.495305
31
0.0
0
LINE
8
0
6
CONTINUOUS
10
153.735663
20
437.077395
30
0.0
11
153.735665
21
436.657255
31
0.0
0
LINE
8
0
6
CONTINUOUS
10
143.878925
20
429.095915
30
0.0
11
144.666185
21
430.742955
31
0.0
0
LINE
8
0
6
CONTINUOUS
10
143.878923
20
429.534977
30
0.0
11
143.878925
21
429.095915
31
0.0
0
LINE
8
0
6
CONTINUOUS
10
144.666185
20
430.742955
30
0.0
11
146.765505
21
430.996395
31
0.0
0
LINE
8
0
6
CONTINUOUS
10
144.666184
20
431.007090
30
0.0
11
144.666185
21
430.742955
31
0.0
0
LINE
8
0
6
CONTINUOUS
10
143.878925
20
429.095915
30
0.0
11
145.190995
21
427.702255
31
0.0
0
LINE
8
0
6
CONTINUOUS
10
144.666185
20
430.742955
30
0.0
11
143.878925
21
429.095915
31
0.0
0
LINE
8
0
6
CONTINUOUS
10
146.765505
20
430.996395
30
0.0
11
144.666185
21
430.742955
31
0.0
0
LINE
8
0
6
CONTINUOUS
10
148.077555
20
429.602665
30
0.0
11
146.765505
21
430.996395
31
0.0
0
LINE
8
0
6
CONTINUOUS
10
147.290295
20
427.955625
30
0.0
11
148.077555
21
429.602665
31
0.0
0
LINE
8
0
6
CONTINUOUS
10
145.190995
20
427.702255
30
0.0
11
147.290295
21
427.955625
31
0.0
0
LINE
8
0
6
CONTINUOUS
10
146.765505
20
430.996395
30
0.0
11
148.077555
21
429.602665
31
0.0
0
LINE
8
0
6
CONTINUOUS
10
146.765501
20
431.426502
30
0.0
11
146.765505
21
430.996395
31
0.0
0
LINE
8
0
6
CONTINUOUS
10
112.095085
20
510.043645
30
0.0
11
113.931975
21
510.930485
31
0.0
0
LINE
8
0
6
CONTINUOUS
10
112.095085
20
510.043645
30
0.0
11
112.095079
21
510.972855
31
0.0
0
LINE
8
0
6
CONTINUOUS
10
112.095085
20
508.269885
30
0.0
11
112.095085
21
510.043645
31
0.0
0
LINE
8
0
6
CONTINUOUS
10
113.931975
20
510.930485
30
0.0
11
112.095085
21
510.043645
31
0.0
0
LINE
8
0
6
CONTINUOUS
10
115.768875
20
510.043645
30
0.0
11
113.931975
21
510.930485
31
0.0
0
LINE
8
0
6
CONTINUOUS
10
115.768875
20
508.269805
30
0.0
11
115.768875
21
510.043645
31
0.0
0
LINE
8
0
6
CONTINUOUS
10
113.931975
20
507.382965
30
0.0
11
115.768875
21
508.269805
31
0.0
0
LINE
8
0
6
CONTINUOUS
10
112.095085
20
508.269885
30
0.0
11
113.931975
21
507.382965
31
0.0
0
LINE
8
0
6
CONTINUOUS
10
112.095085
20
510.043645
30
0.0
11
112.095085
21
508.269885
31
0.0
0
LINE
8
0
6
CONTINUOUS
10
115.768875
20
510.043645
30
0.0
11
115.768869
21
510.972872
31
0.0
0
LINE
8
0
6
CONTINUOUS
10
113.931975
20
510.930485
30
0.0
11
115.768875
21
510.043645
31
0.0
0
LINE
8
0
6
CONTINUOUS
10
113.931968
20
511.995320
30
0.0
11
113.931975
21
510.930485
31
0.0
0
LINE
8
0
6
CONTINUOUS
10
101.449345
20
508.923495
30
0.0
11
103.054125
21
510.083385
31
0.0
0
LINE
8
0
6
CONTINUOUS
10
101.449343
20
509.809509
30
0.0
11
101.449345
21
508.923495
31
0.0
0
LINE
8
0
6
CONTINUOUS
10
103.054125
20
510.083385
30
0.0
11
101.449345
21
508.923495
31
0.0
0
LINE
8
0
6
CONTINUOUS
10
105.057635
20
509.501035
30
0.0
11
103.054125
21
510.083385
31
0.0
0
LINE
8
0
6
CONTINUOUS
10
105.456365
20
507.758945
30
0.0
11
105.057635
21
509.501035
31
0.0
0
LINE
8
0
6
CONTINUOUS
10
103.851595
20
506.599125
30
0.0
11
105.456365
21
507.758945
31
0.0
0
LINE
8
0
6
CONTINUOUS
10
101.848085
20
507.181395
30
0.0
11
103.851595
21
506.599125
31
0.0
0
LINE
8
0
6
CONTINUOUS
10
101.449345
20
508.923495
30
0.0
11
101.848085
21
507.181395
31
0.0
0
LINE
8
0
6
CONTINUOUS
10
103.054125
20
510.083385
30
0.0
11
105.057635
21
509.501035
31
0.0
0
LINE
8
0
6
CONTINUOUS
10
103.054119
20
511.124663
30
0.0
11
103.054125
21
510.083385
31
0.0
0
LINE
8
0
6
CONTINUOUS
10
105.456365
20
507.758945
30
0.0
11
105.456364
21
508.345373
31
0.0
0
LINE
8
0
6
CONTINUOUS
10
105.057635
20
509.501035
30
0.0
11
105.456365
21
507.758945
31
0.0
0
LINE
8
0
6
CONTINUOUS
10
105.057631
20
510.392540
30
0.0
11
105.057635
21
509.501035
31
0.0
0
LINE
8
0
6
CONTINUOUS
10
91.363435
20
506.054225
30
0.0
11
92.674605
21
507.448575
31
0.0
0
LINE
8
0
6
CONTINUOUS
10
91.363433
20
506.957684
30
0.0
11
91.363435
21
506.054225
31
0.0
0
LINE
8
0
6
CONTINUOUS
10
92.674605
20
507.448575
30
0.0
11
91.363435
21
506.054225
31
0.0
0
LINE
8
0
6
CONTINUOUS
10
94.774075
20
507.196045
30
0.0
11
92.674605
21
507.448575
31
0.0
0
LINE
8
0
6
CONTINUOUS
10
95.562375
20
505.549465
30
0.0
11
94.774075
21
507.196045
31
0.0
0
LINE
8
0
6
CONTINUOUS
10
94.251215
20
504.155125
30
0.0
11
95.562375
21
505.549465
31
0.0
0
LINE
8
0
6
CONTINUOUS
10
92.151745
20
504.407655
30
0.0
11
94.251215
21
504.155125
31
0.0
0
LINE
8
0
6
CONTINUOUS
10
91.363435
20
506.054225
30
0.0
11
92.151745
21
504.407655
31
0.0
0
LINE
8
0
6
CONTINUOUS
10
92.674605
20
507.448575
30
0.0
11
94.774075
21
507.196045
31
0.0
0
LINE
8
0
6
CONTINUOUS
10
92.674603
20
508.485293
30
0.0
11
92.674605
21
507.448575
31
0.0
0
LINE
8
0
6
CONTINUOUS
10
95.562375
20
505.549465
30
0.0
11
95.562374
21
506.144296
31
0.0
0
LINE
8
0
6
CONTINUOUS
10
94.774075
20
507.196045
30
0.0
11
95.562375
21
505.549465
31
0.0
0
LINE
8
0
6
CONTINUOUS
10
94.774073
20
508.093224
30
0.0
11
94.774075
21
507.196045
31
0.0
0
LINE
8
0
6
CONTINUOUS
10
82.217385
20
501.608275
30
0.0
11
83.188075
21
503.185275
31
0.0
0
LINE
8
0
6
CONTINUOUS
10
82.217383
20
502.487926
30
0.0
11
82.217385
21
501.608275
31
0.0
0
LINE
8
0
6
CONTINUOUS
10
83.188075
20
503.185275
30
0.0
11
82.217385
21
501.608275
31
0.0
0
LINE
8
0
6
CONTINUOUS
10
85.306675
20
503.270875
30
0.0
11
83.188075
21
503.185275
31
0.0
0
LINE
8
0
6
CONTINUOUS
10
86.454575
20
501.779325
30
0.0
11
85.306675
21
503.270875
31
0.0
0
LINE
8
0
6
CONTINUOUS
10
85.483875
20
500.202255
30
0.0
11
86.454575
21
501.779325
31
0.0
0
LINE
8
0
6
CONTINUOUS
10
83.365275
20
500.116725
30
0.0
11
85.483875
21
500.202255
31
0.0
0
LINE
8
0
6
CONTINUOUS
10
82.217385
20
501.608275
30
0.0
11
83.365275
21
500.116725
31
0.0
0
LINE
8
0
6
CONTINUOUS
10
83.188075
20
503.185275
30
0.0
11
85.306675
21
503.270875
31
0.0
0
LINE
8
0
6
CONTINUOUS
10
83.188073
20
504.216167
30
0.0
11
83.188075
21
503.185275
31
0.0
0
LINE
8
0
6
CONTINUOUS
10
86.454575
20
501.779325
30
0.0
11
86.454574
21
502.355066
31
0.0
0
LINE
8
0
6
CONTINUOUS
10
85.306675
20
503.270875
30
0.0
11
86.454575
21
501.779325
31
0.0
0
LINE
8
0
6
CONTINUOUS
10
85.306673
20
504.149778
30
0.0
11
85.306675
21
503.270875
31
0.0
0
LINE
8
0
6
CONTINUOUS
10
74.388675
20
495.559845
30
0.0
11
74.986035
21
497.261815
31
0.0
0
LINE
8
0
6
CONTINUOUS
10
74.388679
20
496.425350
30
0.0
11
74.388675
21
495.559845
31
0.0
0
LINE
8
0
6
CONTINUOUS
10
74.986035
20
497.261815
30
0.0
11
74.388675
21
495.559845
31
0.0
0
LINE
8
0
6
CONTINUOUS
10
77.047245
20
497.680205
30
0.0
11
74.986035
21
497.261815
31
0.0
0
LINE
8
0
6
CONTINUOUS
10
78.511125
20
496.396635
30
0.0
11
77.047245
21
497.680205
31
0.0
0
LINE
8
0
6
CONTINUOUS
10
77.913755
20
494.694595
30
0.0
11
78.511125
21
496.396635
31
0.0
0
LINE
8
0
6
CONTINUOUS
10
75.852555
20
494.276275
30
0.0
11
77.913755
21
494.694595
31
0.0
0
LINE
8
0
6
CONTINUOUS
10
74.388675
20
495.559845
30
0.0
11
75.852555
21
494.276275
31
0.0
0
LINE
8
0
6
CONTINUOUS
10
74.986035
20
497.261815
30
0.0
11
77.047245
21
497.680205
31
0.0
0
LINE
8
0
6
CONTINUOUS
10
74.986035
20
498.268333
30
0.0
11
74.986035
21
497.261815
31
0.0
0
LINE
8
0
6
CONTINUOUS
10
78.511125
20
496.396635
30
0.0
11
78.511125
21
496.959242
31
0.0
0
LINE
8
0
6
CONTINUOUS
10
77.047245
20
497.680205
30
0.0
11
78.511125
21
496.396635
31
0.0
0
LINE
8
0
6
CONTINUOUS
10
77.047249
20
498.545150
30
0.0
11
77.047245
21
497.680205
31
0.0
0
LINE
8
0
6
CONTINUOUS
10
67.825515
20
488.684085
30
0.0
11
68.028435
21
490.449675
31
0.0
0
LINE
8
0
6
CONTINUOUS
10
67.825519
20
489.538389
30
0.0
11
67.825515
21
488.684085
31
0.0
0
LINE
8
0
6
CONTINUOUS
10
68.028435
20
490.449675
30
0.0
11
67.825515
21
488.684085
31
0.0
0
LINE
8
0
6
CONTINUOUS
10
69.958365
20
491.185455
30
0.0
11
68.028435
21
490.449675
31
0.0
0
LINE
8
0
6
CONTINUOUS
10
71.685365
20
490.155795
30
0.0
11
69.958365
21
491.185455
31
0.0
0
LINE
8
0
6
CONTINUOUS
10
71.482445
20
488.390195
30
0.0
11
71.685365
21
490.155795
31
0.0
0
LINE
8
0
6
CONTINUOUS
10
69.552525
20
487.654265
30
0.0
11
71.482445
21
488.390195
31
0.0
0
LINE
8
0
6
CONTINUOUS
10
67.825515
20
488.684085
30
0.0
11
69.552525
21
487.654265
31
0.0
0
LINE
8
0
6
CONTINUOUS
10
68.028435
20
490.449675
30
0.0
11
69.958365
21
491.185455
31
0.0
0
LINE
8
0
6
CONTINUOUS
10
68.028437
20
491.452042
30
0.0
11
68.028435
21
490.449675
31
0.0
0
LINE
8
0
6
CONTINUOUS
10
71.685365
20
490.155795
30
0.0
11
71.685365
21
490.689962
31
0.0
0
LINE
8
0
6
CONTINUOUS
10
69.958365
20
491.185455
30
0.0
11
71.685365
21
490.155795
31
0.0
0
LINE
8
0
6
CONTINUOUS
10
69.958368
20
492.031444
30
0.0
11
69.958365
21
491.185455
31
0.0
0
LINE
8
0
6
CONTINUOUS
10
66.845395
20
480.982205
30
0.0
11
66.845396
21
481.361354
31
0.0
0
LINE
8
0
6
CONTINUOUS
10
66.644305
20
482.747955
30
0.0
11
66.845395
21
480.982205
31
0.0
0
LINE
8
0
6
CONTINUOUS
10
62.987085
20
482.456815
30
0.0
11
63.188145
21
480.690995
31
0.0
0
LINE
8
0
6
CONTINUOUS
10
64.715155
20
483.485265
30
0.0
11
62.987085
21
482.456815
31
0.0
0
LINE
8
0
6
CONTINUOUS
10
66.644305
20
482.747955
30
0.0
11
64.715155
21
483.485265
31
0.0
0
LINE
8
0
6
CONTINUOUS
10
66.845395
20
480.982205
30
0.0
11
66.644305
21
482.747955
31
0.0
0
LINE
8
0
6
CONTINUOUS
10
65.117315
20
479.953765
30
0.0
11
66.845395
21
480.982205
31
0.0
0
LINE
8
0
6
CONTINUOUS
10
63.188145
20
480.690995
30
0.0
11
65.117315
21
479.953765
31
0.0
0
LINE
8
0
6
CONTINUOUS
10
62.987085
20
482.456815
30
0.0
11
64.715155
21
483.485265
31
0.0
0
LINE
8
0
6
CONTINUOUS
10
62.987081
20
483.435919
30
0.0
11
62.987085
21
482.456815
31
0.0
0
LINE
8
0
6
CONTINUOUS
10
66.644305
20
482.747955
30
0.0
11
66.644307
21
483.288841
31
0.0
0
LINE
8
0
6
CONTINUOUS
10
64.715155
20
483.485265
30
0.0
11
66.644305
21
482.747955
31
0.0
0
LINE
8
0
6
CONTINUOUS
10
64.715158
20
484.326051
30
0.0
11
64.715155
21
483.485265
31
0.0
0
LINE
8
0
6
CONTINUOUS
10
63.961435
20
473.001025
30
0.0
11
63.961438
21
473.281567
31
0.0
0
LINE
8
0
6
CONTINUOUS
10
63.361705
20
474.702305
30
0.0
11
63.961435
21
473.001025
31
0.0
0
LINE
8
0
6
CONTINUOUS
10
59.837855
20
473.833695
30
0.0
11
60.437575
21
472.132265
31
0.0
0
LINE
8
0
6
CONTINUOUS
10
61.299925
20
475.118715
30
0.0
11
59.837855
21
473.833695
31
0.0
0
LINE
8
0
6
CONTINUOUS
10
63.361705
20
474.702305
30
0.0
11
61.299925
21
475.118715
31
0.0
0
LINE
8
0
6
CONTINUOUS
10
63.961435
20
473.001025
30
0.0
11
63.361705
21
474.702305
31
0.0
0
LINE
8
0
6
CONTINUOUS
10
62.499405
20
471.716005
30
0.0
11
63.961435
21
473.001025
31
0.0
0
LINE
8
0
6
CONTINUOUS
10
60.437575
20
472.132265
30
0.0
11
62.499405
21
471.716005
31
0.0
0
LINE
8
0
6
CONTINUOUS
10
59.837855
20
473.833695
30
0.0
11
61.299925
21
475.118715
31
0.0
0
LINE
8
0
6
CONTINUOUS
10
59.837853
20
474.759870
30
0.0
11
59.837855
21
473.833695
31
0.0
0
LINE
8
0
6
CONTINUOUS
10
63.361705
20
474.702305
30
0.0
11
63.361709
21
475.137185
31
0.0
0
LINE
8
0
6
CONTINUOUS
10
61.299925
20
475.118715
30
0.0
11
63.361705
21
474.702305
31
0.0
0
LINE
8
0
6
CONTINUOUS
10
61.299922
20
475.876385
30
0.0
11
61.299925
21
475.118715
31
0.0
0
LINE
8
0
6
CONTINUOUS
10
63.015675
20
464.506535
30
0.0
11
63.015679
21
464.807561
31
0.0
0
LINE
8
0
6
CONTINUOUS
10
62.042675
20
466.082615
30
0.0
11
63.015675
21
464.506535
31
0.0
0
LINE
8
0
6
CONTINUOUS
10
58.778255
20
464.673305
30
0.0
11
59.751245
21
463.097225
31
0.0
0
LINE
8
0
6
CONTINUOUS
10
59.923965
20
466.166075
30
0.0
11
58.778255
21
464.673305
31
0.0
0
LINE
8
0
6
CONTINUOUS
10
62.042675
20
466.082615
30
0.0
11
59.923965
21
466.166075
31
0.0
0
LINE
8
0
6
CONTINUOUS
10
63.015675
20
464.506535
30
0.0
11
62.042675
21
466.082615
31
0.0
0
LINE
8
0
6
CONTINUOUS
10
61.869965
20
463.013835
30
0.0
11
63.015675
21
464.506535
31
0.0
0
LINE
8
0
6
CONTINUOUS
10
59.751245
20
463.097225
30
0.0
11
61.869965
21
463.013835
31
0.0
0
LINE
8
0
6
CONTINUOUS
10
58.778255
20
464.673305
30
0.0
11
59.923965
21
466.166075
31
0.0
0
LINE
8
0
6
CONTINUOUS
10
58.778259
20
465.616900
30
0.0
11
58.778255
21
464.673305
31
0.0
0
LINE
8
0
6
CONTINUOUS
10
62.042675
20
466.082615
30
0.0
11
62.042678
21
466.540932
31
0.0
0
LINE
8
0
6
CONTINUOUS
10
59.923965
20
466.166075
30
0.0
11
62.042675
21
466.082615
31
0.0
0
LINE
8
0
6
CONTINUOUS
10
59.923968
20
466.946931
30
0.0
11
59.923965
21
466.166075
31
0.0
0
LINE
8
0
6
CONTINUOUS
10
63.804525
20
456.875155
30
0.0
11
63.804524
21
457.159072
31
0.0
0
LINE
8
0
6
CONTINUOUS
10
62.495875
20
458.271025
30
0.0
11
63.804525
21
456.875155
31
0.0
0
LINE
8
0
6
CONTINUOUS
10
59.604655
20
456.375585
30
0.0
11
60.913315
21
454.979705
31
0.0
0
LINE
8
0
6
CONTINUOUS
10
60.395955
20
458.021245
30
0.0
11
59.604655
21
456.375585
31
0.0
0
LINE
8
0
6
CONTINUOUS
10
62.495875
20
458.271025
30
0.0
11
60.395955
21
458.021245
31
0.0
0
LINE
8
0
6
CONTINUOUS
10
63.804525
20
456.875155
30
0.0
11
62.495875
21
458.271025
31
0.0
0
LINE
8
0
6
CONTINUOUS
10
63.013235
20
455.229495
30
0.0
11
63.804525
21
456.875155
31
0.0
0
LINE
8
0
6
CONTINUOUS
10
60.913315
20
454.979705
30
0.0
11
63.013235
21
455.229495
31
0.0
0
LINE
8
0
6
CONTINUOUS
10
59.604655
20
456.375585
30
0.0
11
60.395955
21
458.021245
31
0.0
0
LINE
8
0
6
CONTINUOUS
10
59.604657
20
457.301658
30
0.0
11
59.604655
21
456.375585
31
0.0
0
LINE
8
0
6
CONTINUOUS
10
62.495875
20
458.271025
30
0.0
11
62.495874
21
458.703865
31
0.0
0
LINE
8
0
6
CONTINUOUS
10
60.395955
20
458.021245
30
0.0
11
62.495875
21
458.271025
31
0.0
0
LINE
8
0
6
CONTINUOUS
10
60.395953
20
458.777254
30
0.0
11
60.395955
21
458.021245
31
0.0
0
LINE
8
0
6
CONTINUOUS
10
66.570545
20
449.351885
30
0.0
11
66.570547
21
449.615329
31
0.0
0
LINE
8
0
6
CONTINUOUS
10
64.968055
20
450.513915
30
0.0
11
66.570545
21
449.351885
31
0.0
0
LINE
8
0
6
CONTINUOUS
10
62.561165
20
448.192905
30
0.0
11
64.163635
21
447.030795
31
0.0
0
LINE
8
0
6
CONTINUOUS
10
62.963385
20
449.934465
30
0.0
11
62.561165
21
448.192905
31
0.0
0
LINE
8
0
6
CONTINUOUS
10
64.968055
20
450.513915
30
0.0
11
62.963385
21
449.934465
31
0.0
0
LINE
8
0
6
CONTINUOUS
10
66.570545
20
449.351885
30
0.0
11
64.968055
21
450.513915
31
0.0
0
LINE
8
0
6
CONTINUOUS
10
66.168315
20
447.610325
30
0.0
11
66.570545
21
449.351885
31
0.0
0
LINE
8
0
6
CONTINUOUS
10
64.163635
20
447.030795
30
0.0
11
66.168315
21
447.610325
31
0.0
0
LINE
8
0
6
CONTINUOUS
10
62.561165
20
448.192905
30
0.0
11
62.963385
21
449.934465
31
0.0
0
LINE
8
0
6
CONTINUOUS
10
62.561171
20
449.098372
30
0.0
11
62.561165
21
448.192905
31
0.0
0
LINE
8
0
6
CONTINUOUS
10
64.968055
20
450.513915
30
0.0
11
64.968059
21
450.944528
31
0.0
0
LINE
8
0
6
CONTINUOUS
10
62.963385
20
449.934465
30
0.0
11
64.968055
21
450.513915
31
0.0
0
LINE
8
0
6
CONTINUOUS
10
62.963393
20
450.686069
30
0.0
11
62.963385
21
449.934465
31
0.0
0
LINE
8
0
6
CONTINUOUS
10
70.289955
20
442.428135
30
0.0
11
70.291435
21
440.654375
31
0.0
0
LINE
8
0
6
CONTINUOUS
10
70.289955
20
442.428135
30
0.0
11
70.289957
21
442.703919
31
0.0
0
LINE
8
0
6
CONTINUOUS
10
68.452335
20
443.313905
30
0.0
11
70.289955
21
442.428135
31
0.0
0
LINE
8
0
6
CONTINUOUS
10
66.617635
20
440.652235
30
0.0
11
68.455275
21
439.766385
31
0.0
0
LINE
8
0
6
CONTINUOUS
10
66.616175
20
442.425995
30
0.0
11
66.617635
21
440.652235
31
0.0
0
LINE
8
0
6
CONTINUOUS
10
68.452335
20
443.313905
30
0.0
11
66.616175
21
442.425995
31
0.0
0
LINE
8
0
6
CONTINUOUS
10
70.289955
20
442.428135
30
0.0
11
68.452335
21
443.313905
31
0.0
0
LINE
8
0
6
CONTINUOUS
10
70.291435
20
440.654375
30
0.0
11
70.289955
21
442.428135
31
0.0
0
LINE
8
0
6
CONTINUOUS
10
68.455275
20
439.766385
30
0.0
11
70.291435
21
440.654375
31
0.0
0
LINE
8
0
6
CONTINUOUS
10
68.452335
20
443.313905
30
0.0
11
68.452338
21
443.736631
31
0.0
0
LINE
8
0
6
CONTINUOUS
10
66.616175
20
442.425995
30
0.0
11
68.452335
21
443.313905
31
0.0
0
LINE
8
0
6
CONTINUOUS
10
66.616181
20
443.168311
30
0.0
11
66.616175
21
442.425995
31
0.0
0
LINE
8
0
6
CONTINUOUS
10
76.535115
20
434.335325
30
0.0
11
76.535120
21
434.758109
31
0.0
0
LINE
8
0
6
CONTINUOUS
10
76.133025
20
436.076965
30
0.0
11
76.535115
21
434.335325
31
0.0
0
LINE
8
0
6
CONTINUOUS
10
76.133025
20
436.076965
30
0.0
11
76.133027
21
436.338615
31
0.0
0
LINE
8
0
6
CONTINUOUS
10
74.128425
20
436.656495
30
0.0
11
76.133025
21
436.076965
31
0.0
0
LINE
8
0
6
CONTINUOUS
10
72.927945
20
433.752975
30
0.0
11
74.932575
21
433.173375
31
0.0
0
LINE
8
0
6
CONTINUOUS
10
72.525885
20
435.494535
30
0.0
11
72.927945
21
433.752975
31
0.0
0
LINE
8
0
6
CONTINUOUS
10
74.128425
20
436.656495
30
0.0
11
72.525885
21
435.494535
31
0.0
0
LINE
8
0
6
CONTINUOUS
10
76.133025
20
436.076965
30
0.0
11
74.128425
21
436.656495
31
0.0
0
LINE
8
0
6
CONTINUOUS
10
76.535115
20
434.335325
30
0.0
11
76.133025
21
436.076965
31
0.0
0
LINE
8
0
6
CONTINUOUS
10
74.932575
20
433.173375
30
0.0
11
76.535115
21
434.335325
31
0.0
0
LINE
8
0
6
CONTINUOUS
10
74.128425
20
436.656495
30
0.0
11
74.128426
21
437.077347
31
0.0
0
LINE
8
0
6
CONTINUOUS
10
72.525885
20
435.494535
30
0.0
11
74.128425
21
436.656495
31
0.0
0
LINE
8
0
6
CONTINUOUS
10
72.525887
20
436.235650
30
0.0
11
72.525885
21
435.494535
31
0.0
0
LINE
8
0
6
CONTINUOUS
10
83.985185
20
429.095765
30
0.0
11
83.985188
21
429.534951
31
0.0
0
LINE
8
0
6
CONTINUOUS
10
83.197915
20
430.742795
30
0.0
11
83.985185
21
429.095765
31
0.0
0
LINE
8
0
6
CONTINUOUS
10
83.197915
20
430.742795
30
0.0
11
83.197916
21
431.007057
31
0.0
0
LINE
8
0
6
CONTINUOUS
10
81.098595
20
430.996175
30
0.0
11
83.197915
21
430.742795
31
0.0
0
LINE
8
0
6
CONTINUOUS
10
80.573805
20
427.955475
30
0.0
11
82.673115
21
427.702025
31
0.0
0
LINE
8
0
6
CONTINUOUS
10
79.786565
20
429.602505
30
0.0
11
80.573805
21
427.955475
31
0.0
0
LINE
8
0
6
CONTINUOUS
10
81.098595
20
430.996175
30
0.0
11
79.786565
21
429.602505
31
0.0
0
LINE
8
0
6
CONTINUOUS
10
83.197915
20
430.742795
30
0.0
11
81.098595
21
430.996175
31
0.0
0
LINE
8
0
6
CONTINUOUS
10
83.985185
20
429.095765
30
0.0
11
83.197915
21
430.742795
31
0.0
0
LINE
8
0
6
CONTINUOUS
10
82.673115
20
427.702025
30
0.0
11
83.985185
21
429.095765
31
0.0
0
LINE
8
0
6
CONTINUOUS
10
81.098595
20
430.996175
30
0.0
11
81.098598
21
431.426437
31
0.0
0
LINE
8
0
6
CONTINUOUS
10
79.786565
20
429.602505
30
0.0
11
81.098595
21
430.996175
31
0.0
0
LINE
8
0
6
CONTINUOUS
10
79.786568
20
430.349963
30
0.0
11
79.786565
21
429.602505
31
0.0
0
LINE
8
0
6
CONTINUOUS
10
112.095085
20
501.606295
30
0.0
11
113.931975
21
502.493135
31
0.0
0
LINE
8
0
6
CONTINUOUS
10
112.095083
20
502.589594
30
0.0
11
112.095085
21
501.606295
31
0.0
0
LINE
8
0
6
CONTINUOUS
10
113.931975
20
502.493135
30
0.0
11
112.095085
21
501.606295
31
0.0
0
LINE
8
0
6
CONTINUOUS
10
115.768875
20
501.606295
30
0.0
11
113.931975
21
502.493135
31
0.0
0
LINE
8
0
6
CONTINUOUS
10
115.768865
20
499.832455
30
0.0
11
115.768875
21
501.606295
31
0.0
0
LINE
8
0
6
CONTINUOUS
10
113.931985
20
498.945615
30
0.0
11
115.768865
21
499.832455
31
0.0
0
LINE
8
0
6
CONTINUOUS
10
112.095085
20
499.832535
30
0.0
11
113.931985
21
498.945615
31
0.0
0
LINE
8
0
6
CONTINUOUS
10
112.095085
20
501.606295
30
0.0
11
112.095085
21
499.832535
31
0.0
0
LINE
8
0
6
CONTINUOUS
10
115.768875
20
501.606295
30
0.0
11
115.768871
21
502.589600
31
0.0
0
LINE
8
0
6
CONTINUOUS
10
113.931975
20
502.493135
30
0.0
11
115.768875
21
501.606295
31
0.0
0
LINE
8
0
6
CONTINUOUS
10
113.931970
20
503.596263
30
0.0
11
113.931975
21
502.493135
31
0.0
0
LINE
8
0
6
CONTINUOUS
10
101.263295
20
500.117185
30
0.0
11
102.794555
21
501.344605
31
0.0
0
LINE
8
0
6
CONTINUOUS
10
101.263293
20
501.073644
30
0.0
11
101.263295
21
500.117185
31
0.0
0
LINE
8
0
6
CONTINUOUS
10
102.794555
20
501.344605
30
0.0
11
101.263295
21
500.117185
31
0.0
0
LINE
8
0
6
CONTINUOUS
10
104.831245
20
500.849305
30
0.0
11
102.794555
21
501.344605
31
0.0
0
LINE
8
0
6
CONTINUOUS
10
105.336695
20
499.126585
30
0.0
11
104.831245
21
500.849305
31
0.0
0
LINE
8
0
6
CONTINUOUS
10
103.805445
20
497.899175
30
0.0
11
105.336695
21
499.126585
31
0.0
0
LINE
8
0
6
CONTINUOUS
10
101.768745
20
498.394475
30
0.0
11
103.805445
21
497.899175
31
0.0
0
LINE
8
0
6
CONTINUOUS
10
101.263295
20
500.117185
30
0.0
11
101.768745
21
498.394475
31
0.0
0
LINE
8
0
6
CONTINUOUS
10
102.794555
20
501.344605
30
0.0
11
104.831245
21
500.849305
31
0.0
0
LINE
8
0
6
CONTINUOUS
10
102.794553
20
502.428019
30
0.0
11
102.794555
21
501.344605
31
0.0
0
LINE
8
0
6
CONTINUOUS
10
105.336695
20
499.126585
30
0.0
11
105.336694
21
499.817363
31
0.0
0
LINE
8
0
6
CONTINUOUS
10
104.831245
20
500.849305
30
0.0
11
105.336695
21
499.126585
31
0.0
0
LINE
8
0
6
CONTINUOUS
10
104.831245
20
501.811235
30
0.0
11
104.831245
21
500.849305
31
0.0
0
LINE
8
0
6
CONTINUOUS
10
91.134215
20
496.489415
30
0.0
11
92.266955
21
497.989045
31
0.0
0
LINE
8
0
6
CONTINUOUS
10
91.134217
20
497.420231
30
0.0
11
91.134215
21
496.489415
31
0.0
0
LINE
8
0
6
CONTINUOUS
10
92.266955
20
497.989045
30
0.0
11
91.134215
21
496.489415
31
0.0
0
LINE
8
0
6
CONTINUOUS
10
94.386335
20
497.918545
30
0.0
11
92.266955
21
497.989045
31
0.0
0
LINE
8
0
6
CONTINUOUS
10
95.372985
20
496.348415
30
0.0
11
94.386335
21
497.918545
31
0.0
0
LINE
8
0
6
CONTINUOUS
10
94.240255
20
494.848705
30
0.0
11
95.372985
21
496.348415
31
0.0
0
LINE
8
0
6
CONTINUOUS
10
92.120875
20
494.919285
30
0.0
11
94.240255
21
494.848705
31
0.0
0
LINE
8
0
6
CONTINUOUS
10
91.134215
20
496.489415
30
0.0
11
92.120875
21
494.919285
31
0.0
0
LINE
8
0
6
CONTINUOUS
10
92.266955
20
497.989045
30
0.0
11
94.386335
21
497.918545
31
0.0
0
LINE
8
0
6
CONTINUOUS
10
92.266955
20
499.059857
30
0.0
11
92.266955
21
497.989045
31
0.0
0
LINE
8
0
6
CONTINUOUS
10
95.372985
20
496.348415
30
0.0
11
95.372986
21
497.022642
31
0.0
0
LINE
8
0
6
CONTINUOUS
10
94.386335
20
497.918545
30
0.0
11
95.372985
21
496.348415
31
0.0
0
LINE
8
0
6
CONTINUOUS
10
94.386335
20
498.862520
30
0.0
11
94.386335
21
497.918545
31
0.0
0
LINE
8
0
6
CONTINUOUS
10
82.359935
20
490.975345
30
0.0
11
83.031055
21
492.657925
31
0.0
0
LINE
8
0
6
CONTINUOUS
10
82.359935
20
491.890139
30
0.0
11
82.359935
21
490.975345
31
0.0
0
LINE
8
0
6
CONTINUOUS
10
83.031055
20
492.657925
30
0.0
11
82.359935
21
490.975345
31
0.0
0
LINE
8
0
6
CONTINUOUS
10
85.109135
20
493.013225
30
0.0
11
83.031055
21
492.657925
31
0.0
0
LINE
8
0
6
CONTINUOUS
10
86.516095
20
491.685945
30
0.0
11
85.109135
21
493.013225
31
0.0
0
LINE
8
0
6
CONTINUOUS
10
85.844975
20
490.003205
30
0.0
11
86.516095
21
491.685945
31
0.0
0
LINE
8
0
6
CONTINUOUS
10
83.766895
20
489.647975
30
0.0
11
85.844975
21
490.003205
31
0.0
0
LINE
8
0
6
CONTINUOUS
10
82.359935
20
490.975345
30
0.0
11
83.766895
21
489.647975
31
0.0
0
LINE
8
0
6
CONTINUOUS
10
83.031055
20
492.657925
30
0.0
11
85.109135
21
493.013225
31
0.0
0
LINE
8
0
6
CONTINUOUS
10
83.031057
20
493.711235
30
0.0
11
83.031055
21
492.657925
31
0.0
0
LINE
8
0
6
CONTINUOUS
10
86.516095
20
491.685945
30
0.0
11
86.516096
21
492.338207
31
0.0
0
LINE
8
0
6
CONTINUOUS
10
85.109135
20
493.013225
30
0.0
11
86.516095
21
491.685945
31
0.0
0
LINE
8
0
6
CONTINUOUS
10
85.109137
20
493.935262
30
0.0
11
85.109135
21
493.013225
31
0.0
0
LINE
8
0
6
CONTINUOUS
10
75.421685
20
483.867345
30
0.0
11
75.593685
21
485.635225
31
0.0
0
LINE
8
0
6
CONTINUOUS
10
75.421687
20
484.770650
30
0.0
11
75.421685
21
483.867345
31
0.0
0
LINE
8
0
6
CONTINUOUS
10
75.593685
20
485.635225
30
0.0
11
75.421685
21
483.867345
31
0.0
0
LINE
8
0
6
CONTINUOUS
10
77.510525
20
486.394655
30
0.0
11
75.593685
21
485.635225
31
0.0
0
LINE
8
0
6
CONTINUOUS
10
79.255365
20
485.386045
30
0.0
11
77.510525
21
486.394655
31
0.0
0
LINE
8
0
6
CONTINUOUS
10
79.083375
20
483.618165
30
0.0
11
79.255365
21
485.386045
31
0.0
0
LINE
8
0
6
CONTINUOUS
10
77.166525
20
482.858735
30
0.0
11
79.083375
21
483.618165
31
0.0
0
LINE
8
0
6
CONTINUOUS
10
75.421685
20
483.867345
30
0.0
11
77.166525
21
482.858735
31
0.0
0
LINE
8
0
6
CONTINUOUS
10
75.593685
20
485.635225
30
0.0
11
77.510525
21
486.394655
31
0.0
0
LINE
8
0
6
CONTINUOUS
10
75.593687
20
486.661391
30
0.0
11
75.593685
21
485.635225
31
0.0
0
LINE
8
0
6
CONTINUOUS
10
79.255365
20
485.386045
30
0.0
11
79.255368
21
486.007449
31
0.0
0
LINE
8
0
6
CONTINUOUS
10
77.510525
20
486.394655
30
0.0
11
79.255365
21
485.386045
31
0.0
0
LINE
8
0
6
CONTINUOUS
10
77.510527
20
487.279855
30
0.0
11
77.510525
21
486.394655
31
0.0
0
LINE
8
0
6
CONTINUOUS
10
74.319845
20
476.051715
30
0.0
11
74.319846
21
476.522323
31
0.0
0
LINE
8
0
6
CONTINUOUS
10
73.979265
20
477.802425
30
0.0
11
74.319845
21
476.051715
31
0.0
0
LINE
8
0
6
CONTINUOUS
10
70.353145
20
477.309185
30
0.0
11
70.693725
21
475.558475
31
0.0
0
LINE
8
0
6
CONTINUOUS
10
71.995915
20
478.431165
30
0.0
11
70.353145
21
477.309185
31
0.0
0
LINE
8
0
6
CONTINUOUS
10
73.979265
20
477.802425
30
0.0
11
72.024855
21
478.421991
31
0.0
0
LINE
8
0
6
CONTINUOUS
10
74.319845
20
476.051715
30
0.0
11
73.979265
21
477.802425
31
0.0
0
LINE
8
0
6
CONTINUOUS
10
72.677055
20
474.929655
30
0.0
11
74.319845
21
476.051715
31
0.0
0
LINE
8
0
6
CONTINUOUS
10
70.693725
20
475.558475
30
0.0
11
72.677055
21
474.929655
31
0.0
0
LINE
8
0
6
CONTINUOUS
10
70.353145
20
477.309185
30
0.0
11
71.995915
21
478.431165
31
0.0
0
LINE
8
0
6
CONTINUOUS
10
70.353151
20
478.313507
30
0.0
11
70.353145
21
477.309185
31
0.0
0
LINE
8
0
6
CONTINUOUS
10
73.979265
20
477.802425
30
0.0
11
73.979269
21
478.429655
31
0.0
0
LINE
8
0
6
CONTINUOUS
10
71.995915
20
478.431165
30
0.0
11
73.979265
21
477.802425
31
0.0
0
LINE
8
0
6
CONTINUOUS
10
71.995921
20
479.325330
30
0.0
11
71.995915
21
478.431165
31
0.0
0
LINE
8
0
6
CONTINUOUS
10
71.538975
20
468.143005
30
0.0
11
71.538977
21
468.568151
31
0.0
0
LINE
8
0
6
CONTINUOUS
10
70.704775
20
469.773715
30
0.0
11
71.538975
21
468.143005
31
0.0
0
LINE
8
0
6
CONTINUOUS
10
67.327045
20
468.565525
30
0.0
11
68.161245
21
466.934665
31
0.0
0
LINE
8
0
6
CONTINUOUS
10
68.598805
20
469.985045
30
0.0
11
67.327045
21
468.565525
31
0.0
0
LINE
8
0
6
CONTINUOUS
10
70.704775
20
469.773715
30
0.0
11
68.598805
21
469.985045
31
0.0
0
LINE
8
0
6
CONTINUOUS
10
71.538975
20
468.143005
30
0.0
11
70.704775
21
469.773715
31
0.0
0
LINE
8
0
6
CONTINUOUS
10
70.267215
20
466.723405
30
0.0
11
71.538975
21
468.143005
31
0.0
0
LINE
8
0
6
CONTINUOUS
10
68.161245
20
466.934665
30
0.0
11
70.267215
21
466.723405
31
0.0
0
LINE
8
0
6
CONTINUOUS
10
67.327045
20
468.565525
30
0.0
11
68.598805
21
469.985045
31
0.0
0
LINE
8
0
6
CONTINUOUS
10
67.327053
20
469.481009
30
0.0
11
67.327045
21
468.565525
31
0.0
0
LINE
8
0
6
CONTINUOUS
10
70.704775
20
469.773715
30
0.0
11
70.704778
21
470.333467
31
0.0
0
LINE
8
0
6
CONTINUOUS
10
68.598805
20
469.985045
30
0.0
11
70.704775
21
469.773715
31
0.0
0
LINE
8
0
6
CONTINUOUS
10
68.598812
20
470.789548
30
0.0
11
68.598805
21
469.985045
31
0.0
0
LINE
8
0
6
CONTINUOUS
10
71.849265
20
459.238435
30
0.0
11
71.849268
21
459.659019
31
0.0
0
LINE
8
0
6
CONTINUOUS
10
70.577495
20
460.657955
30
0.0
11
71.849265
21
459.238435
31
0.0
0
LINE
8
0
6
CONTINUOUS
10
67.637335
20
458.815915
30
0.0
11
68.909105
21
457.396395
31
0.0
0
LINE
8
0
6
CONTINUOUS
10
68.471535
20
460.446775
30
0.0
11
67.637335
21
458.815915
31
0.0
0
LINE
8
0
6
CONTINUOUS
10
70.577495
20
460.657955
30
0.0
11
68.471535
21
460.446775
31
0.0
0
LINE
8
0
6
CONTINUOUS
10
71.849265
20
459.238435
30
0.0
11
70.577495
21
460.657955
31
0.0
0
LINE
8
0
6
CONTINUOUS
10
71.015065
20
457.607725
30
0.0
11
71.849265
21
459.238435
31
0.0
0
LINE
8
0
6
CONTINUOUS
10
68.909105
20
457.396395
30
0.0
11
71.015065
21
457.607725
31
0.0
0
LINE
8
0
6
CONTINUOUS
10
67.637335
20
458.815915
30
0.0
11
68.471535
21
460.446775
31
0.0
0
LINE
8
0
6
CONTINUOUS
10
67.637341
20
459.724134
30
0.0
11
67.637335
21
458.815915
31
0.0
0
LINE
8
0
6
CONTINUOUS
10
70.577495
20
460.657955
30
0.0
11
70.577498
21
461.215325
31
0.0
0
LINE
8
0
6
CONTINUOUS
10
68.471535
20
460.446775
30
0.0
11
70.577495
21
460.657955
31
0.0
0
LINE
8
0
6
CONTINUOUS
10
68.471538
20
461.247919
30
0.0
11
68.471535
21
460.446775
31
0.0
0
LINE
8
0
6
CONTINUOUS
10
74.319865
20
450.932695
30
0.0
11
74.319868
21
451.341871
31
0.0
0
LINE
8
0
6
CONTINUOUS
10
72.677095
20
452.054745
30
0.0
11
74.319865
21
450.932695
31
0.0
0
LINE
8
0
6
CONTINUOUS
10
70.353175
20
449.675295
30
0.0
11
71.995955
21
448.553315
31
0.0
0
LINE
8
0
6
CONTINUOUS
10
70.693745
20
451.425935
30
0.0
11
70.353175
21
449.675295
31
0.0
0
LINE
8
0
6
CONTINUOUS
10
72.677095
20
452.054745
30
0.0
11
70.693745
21
451.425935
31
0.0
0
LINE
8
0
6
CONTINUOUS
10
74.319865
20
450.932695
30
0.0
11
72.677095
21
452.054745
31
0.0
0
LINE
8
0
6
CONTINUOUS
10
73.979295
20
449.181975
30
0.0
11
74.319865
21
450.932695
31
0.0
0
LINE
8
0
6
CONTINUOUS
10
71.995955
20
448.553315
30
0.0
11
73.979295
21
449.181975
31
0.0
0
LINE
8
0
6
CONTINUOUS
10
70.353175
20
449.675295
30
0.0
11
70.693745
21
451.425935
31
0.0
0
LINE
8
0
6
CONTINUOUS
10
70.353182
20
450.575043
30
0.0
11
70.353175
21
449.675295
31
0.0
0
LINE
8
0
6
CONTINUOUS
10
72.677095
20
452.054745
30
0.0
11
72.677097
21
452.596071
31
0.0
0
LINE
8
0
6
CONTINUOUS
10
70.693745
20
451.425935
30
0.0
11
72.677095
21
452.054745
31
0.0
0
LINE
8
0
6
CONTINUOUS
10
70.693751
20
452.212599
30
0.0
11
70.693745
21
451.425935
31
0.0
0
LINE
8
0
6
CONTINUOUS
10
79.255415
20
441.598815
30
0.0
11
79.255418
21
442.123902
31
0.0
0
LINE
8
0
6
CONTINUOUS
10
79.083415
20
443.366695
30
0.0
11
79.255415
21
441.598815
31
0.0
0
LINE
8
0
6
CONTINUOUS
10
79.083415
20
443.366695
30
0.0
11
79.083418
21
443.774745
31
0.0
0
LINE
8
0
6
CONTINUOUS
10
77.166565
20
444.126055
30
0.0
11
79.083415
21
443.366695
31
0.0
0
LINE
8
0
6
CONTINUOUS
10
75.593725
20
441.349645
30
0.0
11
77.510575
21
440.590215
31
0.0
0
LINE
8
0
6
CONTINUOUS
10
75.421725
20
443.117525
30
0.0
11
75.593725
21
441.349645
31
0.0
0
LINE
8
0
6
CONTINUOUS
10
77.166565
20
444.126055
30
0.0
11
75.421725
21
443.117525
31
0.0
0
LINE
8
0
6
CONTINUOUS
10
79.083415
20
443.366695
30
0.0
11
77.166565
21
444.126055
31
0.0
0
LINE
8
0
6
CONTINUOUS
10
79.255415
20
441.598815
30
0.0
11
79.083415
21
443.366695
31
0.0
0
LINE
8
0
6
CONTINUOUS
10
77.510575
20
440.590215
30
0.0
11
79.255415
21
441.598815
31
0.0
0
LINE
8
0
6
CONTINUOUS
10
77.166565
20
444.126055
30
0.0
11
77.166568
21
444.661855
31
0.0
0
LINE
8
0
6
CONTINUOUS
10
75.421725
20
443.117525
30
0.0
11
77.166565
21
444.126055
31
0.0
0
LINE
8
0
6
CONTINUOUS
10
75.421730
20
443.898119
30
0.0
11
75.421725
21
443.117525
31
0.0
0
LINE
8
0
6
CONTINUOUS
10
85.175765
20
436.607365
30
0.0
11
85.175767
21
437.141195
31
0.0
0
LINE
8
0
6
CONTINUOUS
10
84.504635
20
438.289945
30
0.0
11
85.175765
21
436.607365
31
0.0
0
LINE
8
0
6
CONTINUOUS
10
84.504635
20
438.289945
30
0.0
11
84.504637
21
438.701753
31
0.0
0
LINE
8
0
6
CONTINUOUS
10
82.426555
20
438.645245
30
0.0
11
84.504635
21
438.289945
31
0.0
0
LINE
8
0
6
CONTINUOUS
10
81.690725
20
435.635225
30
0.0
11
83.768805
21
435.279995
31
0.0
0
LINE
8
0
6
CONTINUOUS
10
81.019605
20
437.317885
30
0.0
11
81.690725
21
435.635225
31
0.0
0
LINE
8
0
6
CONTINUOUS
10
82.426555
20
438.645245
30
0.0
11
81.019605
21
437.317885
31
0.0
0
LINE
8
0
6
CONTINUOUS
10
84.504635
20
438.289945
30
0.0
11
82.426555
21
438.645245
31
0.0
0
LINE
8
0
6
CONTINUOUS
10
85.175765
20
436.607365
30
0.0
11
84.504635
21
438.289945
31
0.0
0
LINE
8
0
6
CONTINUOUS
10
83.768805
20
435.279995
30
0.0
11
85.175765
21
436.607365
31
0.0
0
LINE
8
0
6
CONTINUOUS
10
82.426555
20
438.645245
30
0.0
11
82.426557
21
439.198255
31
0.0
0
LINE
8
0
6
CONTINUOUS
10
81.019605
20
437.317885
30
0.0
11
82.426555
21
438.645245
31
0.0
0
LINE
8
0
6
CONTINUOUS
10
81.019608
20
438.113518
30
0.0
11
81.019605
21
437.317885
31
0.0
0
LINE
8
0
6
CONTINUOUS
10
92.799455
20
432.030795
30
0.0
11
92.799457
21
432.522203
31
0.0
0
LINE
8
0
6
CONTINUOUS
10
91.666715
20
433.530425
30
0.0
11
92.799455
21
432.030795
31
0.0
0
LINE
8
0
6
CONTINUOUS
10
91.666715
20
433.530425
30
0.0
11
91.666717
21
433.930685
31
0.0
0
LINE
8
0
6
CONTINUOUS
10
89.547325
20
433.459935
30
0.0
11
91.666715
21
433.530425
31
0.0
0
LINE
8
0
6
CONTINUOUS
10
89.693415
20
430.390095
30
0.0
11
91.812795
21
430.460665
31
0.0
0
LINE
8
0
6
CONTINUOUS
10
88.560675
20
431.889725
30
0.0
11
89.693415
21
430.390095
31
0.0
0
LINE
8
0
6
CONTINUOUS
10
89.547325
20
433.459935
30
0.0
11
88.560675
21
431.889725
31
0.0
0
LINE
8
0
6
CONTINUOUS
10
91.666715
20
433.530425
30
0.0
11
89.547325
21
433.459935
31
0.0
0
LINE
8
0
6
CONTINUOUS
10
92.799455
20
432.030795
30
0.0
11
91.666715
21
433.530425
31
0.0
0
LINE
8
0
6
CONTINUOUS
10
91.812795
20
430.460665
30
0.0
11
92.799455
21
432.030795
31
0.0
0
LINE
8
0
6
CONTINUOUS
10
89.547325
20
433.459935
30
0.0
11
89.547328
21
434.013489
31
0.0
0
LINE
8
0
6
CONTINUOUS
10
88.560675
20
431.889725
30
0.0
11
89.547325
21
433.459935
31
0.0
0
LINE
8
0
6
CONTINUOUS
10
88.560680
20
432.686367
30
0.0
11
88.560675
21
431.889725
31
0.0
0
LINE
8
0
6
CONTINUOUS
10
139.303455
20
431.890105
30
0.0
11
139.303455
21
432.686418
31
0.0
0
LINE
8
0
6
CONTINUOUS
10
138.316805
20
433.460235
30
0.0
11
139.303455
21
431.890105
31
0.0
0
LINE
8
0
6
CONTINUOUS
10
138.316805
20
433.460235
30
0.0
11
138.316805
21
434.013484
31
0.0
0
LINE
8
0
6
CONTINUOUS
10
136.197425
20
433.530735
30
0.0
11
138.316805
21
433.460235
31
0.0
0
LINE
8
0
6
CONTINUOUS
10
136.197425
20
433.530735
30
0.0
11
136.197425
21
433.930685
31
0.0
0
LINE
8
0
6
CONTINUOUS
10
135.064695
20
432.031095
30
0.0
11
136.197425
21
433.530735
31
0.0
0
LINE
8
0
6
CONTINUOUS
10
135.064695
20
432.522194
30
0.0
11
135.064695
21
432.031095
31
0.0
0
LINE
8
0
6
CONTINUOUS
10
138.170735
20
430.390475
30
0.0
11
139.303455
21
431.890105
31
0.0
0
LINE
8
0
6
CONTINUOUS
10
136.051345
20
430.460965
30
0.0
11
138.170735
21
430.390475
31
0.0
0
LINE
8
0
6
CONTINUOUS
10
135.064695
20
432.031095
30
0.0
11
136.051345
21
430.460965
31
0.0
0
LINE
8
0
6
CONTINUOUS
10
136.197425
20
433.530735
30
0.0
11
135.064695
21
432.031095
31
0.0
0
LINE
8
0
6
CONTINUOUS
10
138.316805
20
433.460235
30
0.0
11
136.197425
21
433.530735
31
0.0
0
LINE
8
0
6
CONTINUOUS
10
139.303455
20
431.890105
30
0.0
11
138.316805
21
433.460235
31
0.0
0
LINE
8
0
6
CONTINUOUS
10
145.504105
20
436.017915
30
0.0
11
145.504105
21
436.787825
31
0.0
0
LINE
8
0
6
CONTINUOUS
10
144.097145
20
437.345275
30
0.0
11
145.504105
21
436.017915
31
0.0
0
LINE
8
0
6
CONTINUOUS
10
144.097145
20
437.345275
30
0.0
11
144.097145
21
437.870579
31
0.0
0
LINE
8
0
6
CONTINUOUS
10
142.019065
20
436.989975
30
0.0
11
144.097145
21
437.345275
31
0.0
0
LINE
8
0
6
CONTINUOUS
10
142.019065
20
436.989975
30
0.0
11
142.019065
21
437.392717
31
0.0
0
LINE
8
0
6
CONTINUOUS
10
141.347955
20
435.307315
30
0.0
11
142.019065
21
436.989975
31
0.0
0
LINE
8
0
6
CONTINUOUS
10
141.347955
20
435.832112
30
0.0
11
141.347955
21
435.307315
31
0.0
0
LINE
8
0
6
CONTINUOUS
10
144.832985
20
434.335325
30
0.0
11
145.504105
21
436.017915
31
0.0
0
LINE
8
0
6
CONTINUOUS
10
142.754905
20
433.979955
30
0.0
11
144.832985
21
434.335325
31
0.0
0
LINE
8
0
6
CONTINUOUS
10
141.347955
20
435.307315
30
0.0
11
142.754905
21
433.979955
31
0.0
0
LINE
8
0
6
CONTINUOUS
10
142.019065
20
436.989975
30
0.0
11
141.347955
21
435.307315
31
0.0
0
LINE
8
0
6
CONTINUOUS
10
144.097145
20
437.345275
30
0.0
11
142.019065
21
436.989975
31
0.0
0
LINE
8
0
6
CONTINUOUS
10
145.504105
20
436.017915
30
0.0
11
144.097145
21
437.345275
31
0.0
0
LINE
8
0
6
CONTINUOUS
10
152.442365
20
443.117215
30
0.0
11
152.442362
21
443.898242
31
0.0
0
LINE
8
0
6
CONTINUOUS
10
150.697525
20
444.125675
30
0.0
11
152.442365
21
443.117215
31
0.0
0
LINE
8
0
6
CONTINUOUS
10
150.697525
20
444.125675
30
0.0
11
150.697523
21
444.661933
31
0.0
0
LINE
8
0
6
CONTINUOUS
10
148.780675
20
443.366315
30
0.0
11
150.697525
21
444.125675
31
0.0
0
LINE
8
0
6
CONTINUOUS
10
148.780675
20
443.366315
30
0.0
11
148.780673
21
443.774821
31
0.0
0
LINE
8
0
6
CONTINUOUS
10
148.608675
20
441.598355
30
0.0
11
148.780675
21
443.366315
31
0.0
0
LINE
8
0
6
CONTINUOUS
10
148.608673
20
442.123947
30
0.0
11
148.608675
21
441.598355
31
0.0
0
LINE
8
0
6
CONTINUOUS
10
152.270365
20
441.349255
30
0.0
11
152.442365
21
443.117215
31
0.0
0
LINE
8
0
6
CONTINUOUS
10
150.353515
20
440.589905
30
0.0
11
152.270365
21
441.349255
31
0.0
0
LINE
8
0
6
CONTINUOUS
10
148.608675
20
441.598355
30
0.0
11
150.353515
21
440.589905
31
0.0
0
LINE
8
0
6
CONTINUOUS
10
148.780675
20
443.366315
30
0.0
11
148.608675
21
441.598355
31
0.0
0
LINE
8
0
6
CONTINUOUS
10
150.697525
20
444.125675
30
0.0
11
148.780675
21
443.366315
31
0.0
0
LINE
8
0
6
CONTINUOUS
10
152.442365
20
443.117215
30
0.0
11
150.697525
21
444.125675
31
0.0
0
LINE
8
0
6
CONTINUOUS
10
157.510865
20
449.670715
30
0.0
11
157.510861
21
450.575106
31
0.0
0
LINE
8
0
6
CONTINUOUS
10
157.170285
20
451.421505
30
0.0
11
157.510865
21
449.670715
31
0.0
0
LINE
8
0
6
CONTINUOUS
10
157.170285
20
451.421505
30
0.0
11
157.170282
21
452.212730
31
0.0
0
LINE
8
0
6
CONTINUOUS
10
155.186945
20
452.050175
30
0.0
11
157.170285
21
451.421505
31
0.0
0
LINE
8
0
6
CONTINUOUS
10
155.186945
20
452.050175
30
0.0
11
155.186943
21
452.596128
31
0.0
0
LINE
8
0
6
CONTINUOUS
10
153.544185
20
450.928195
30
0.0
11
155.186945
21
452.050175
31
0.0
0
LINE
8
0
6
CONTINUOUS
10
153.544183
20
451.341977
30
0.0
11
153.544185
21
450.928195
31
0.0
0
LINE
8
0
6
CONTINUOUS
10
157.510865
20
449.670715
30
0.0
11
157.170285
21
451.421505
31
0.0
0
LINE
8
0
6
CONTINUOUS
10
155.868095
20
448.548735
30
0.0
11
157.510865
21
449.670715
31
0.0
0
LINE
8
0
6
CONTINUOUS
10
153.884765
20
449.177395
30
0.0
11
155.868095
21
448.548735
31
0.0
0
LINE
8
0
6
CONTINUOUS
10
153.544185
20
450.928195
30
0.0
11
153.884765
21
449.177395
31
0.0
0
LINE
8
0
6
CONTINUOUS
10
155.186945
20
452.050175
30
0.0
11
153.544185
21
450.928195
31
0.0
0
LINE
8
0
6
CONTINUOUS
10
157.170285
20
451.421505
30
0.0
11
155.186945
21
452.050175
31
0.0
0
LINE
8
0
6
CONTINUOUS
10
160.226695
20
458.815155
30
0.0
11
160.226687
21
459.724253
31
0.0
0
LINE
8
0
6
CONTINUOUS
10
159.392495
20
460.445935
30
0.0
11
160.226695
21
458.815155
31
0.0
0
LINE
8
0
6
CONTINUOUS
10
159.392495
20
460.445935
30
0.0
11
159.392492
21
461.247999
31
0.0
0
LINE
8
0
6
CONTINUOUS
10
157.286535
20
460.657195
30
0.0
11
159.392495
21
460.445935
31
0.0
0
LINE
8
0
6
CONTINUOUS
10
157.286535
20
460.657195
30
0.0
11
157.286530
21
461.215453
31
0.0
0
LINE
8
0
6
CONTINUOUS
10
156.014775
20
459.237675
30
0.0
11
157.286535
21
460.657195
31
0.0
0
LINE
8
0
6
CONTINUOUS
10
156.014773
20
459.659163
30
0.0
11
156.014775
21
459.237675
31
0.0
0
LINE
8
0
6
CONTINUOUS
10
160.226695
20
458.815155
30
0.0
11
159.392495
21
460.445935
31
0.0
0
LINE
8
0
6
CONTINUOUS
10
158.954935
20
457.395635
30
0.0
11
160.226695
21
458.815155
31
0.0
0
LINE
8
0
6
CONTINUOUS
10
156.848975
20
457.606815
30
0.0
11
158.954935
21
457.395635
31
0.0
0
LINE
8
0
6
CONTINUOUS
10
156.014775
20
459.237675
30
0.0
11
156.848975
21
457.606815
31
0.0
0
LINE
8
0
6
CONTINUOUS
10
157.286535
20
460.657195
30
0.0
11
156.014775
21
459.237675
31
0.0
0
LINE
8
0
6
CONTINUOUS
10
159.392495
20
460.445935
30
0.0
11
157.286535
21
460.657195
31
0.0
0
LINE
8
0
6
CONTINUOUS
10
160.226695
20
468.171535
30
0.0
11
160.226687
21
469.095441
31
0.0
0
LINE
8
0
6
CONTINUOUS
10
158.954915
20
469.591065
30
0.0
11
160.226695
21
468.171535
31
0.0
0
LINE
8
0
6
CONTINUOUS
10
158.954915
20
469.591065
30
0.0
11
158.954908
21
470.398829
31
0.0
0
LINE
8
0
6
CONTINUOUS
10
156.848955
20
469.379735
30
0.0
11
158.954915
21
469.591065
31
0.0
0
LINE
8
0
6
CONTINUOUS
10
156.848955
20
469.379735
30
0.0
11
156.848950
21
469.942741
31
0.0
0
LINE
8
0
6
CONTINUOUS
10
156.014775
20
467.749025
30
0.0
11
156.848955
21
469.379735
31
0.0
0
LINE
8
0
6
CONTINUOUS
10
156.014771
20
468.182593
30
0.0
11
156.014775
21
467.749025
31
0.0
0
LINE
8
0
6
CONTINUOUS
10
160.226695
20
468.171535
30
0.0
11
158.954915
21
469.591065
31
0.0
0
LINE
8
0
6
CONTINUOUS
10
159.392495
20
466.540685
30
0.0
11
160.226695
21
468.171535
31
0.0
0
LINE
8
0
6
CONTINUOUS
10
157.286535
20
466.329495
30
0.0
11
159.392495
21
466.540685
31
0.0
0
LINE
8
0
6
CONTINUOUS
10
156.014775
20
467.749025
30
0.0
11
157.286535
21
466.329495
31
0.0
0
LINE
8
0
6
CONTINUOUS
10
156.848955
20
469.379735
30
0.0
11
156.014775
21
467.749025
31
0.0
0
LINE
8
0
6
CONTINUOUS
10
158.954915
20
469.591065
30
0.0
11
156.848955
21
469.379735
31
0.0
0
LINE
8
0
6
CONTINUOUS
10
157.510825
20
477.313995
30
0.0
11
157.510817
21
478.313552
31
0.0
0
LINE
8
0
6
CONTINUOUS
10
155.868045
20
478.436055
30
0.0
11
157.510825
21
477.313995
31
0.0
0
LINE
8
0
6
CONTINUOUS
10
155.868045
20
478.436055
30
0.0
11
155.868041
21
479.325436
31
0.0
0
LINE
8
0
6
CONTINUOUS
10
153.884705
20
477.807315
30
0.0
11
155.868045
21
478.436055
31
0.0
0
LINE
8
0
6
CONTINUOUS
10
153.884705
20
477.807315
30
0.0
11
153.884700
21
478.429760
31
0.0
0
LINE
8
0
6
CONTINUOUS
10
153.544145
20
476.056595
30
0.0
11
153.884705
21
477.807315
31
0.0
0
LINE
8
0
6
CONTINUOUS
10
153.544141
20
476.522427
30
0.0
11
153.544145
21
476.056595
31
0.0
0
LINE
8
0
6
CONTINUOUS
10
157.510825
20
477.313995
30
0.0
11
155.868045
21
478.436055
31
0.0
0
LINE
8
0
6
CONTINUOUS
10
157.170265
20
475.563355
30
0.0
11
157.510825
21
477.313995
31
0.0
0
LINE
8
0
6
CONTINUOUS
10
155.186905
20
474.934545
30
0.0
11
157.170265
21
475.563355
31
0.0
0
LINE
8
0
6
CONTINUOUS
10
153.544145
20
476.056595
30
0.0
11
155.186905
21
474.934545
31
0.0
0
LINE
8
0
6
CONTINUOUS
10
153.884705
20
477.807315
30
0.0
11
153.544145
21
476.056595
31
0.0
0
LINE
8
0
6
CONTINUOUS
10
155.868045
20
478.436055
30
0.0
11
153.884705
21
477.807315
31
0.0
0
LINE
8
0
6
CONTINUOUS
10
150.353435
20
486.395115
30
0.0
11
152.270285
21
485.635685
31
0.0
0
LINE
8
0
6
CONTINUOUS
10
150.353435
20
486.395115
30
0.0
11
150.353433
21
487.279897
31
0.0
0
LINE
8
0
6
CONTINUOUS
10
148.608595
20
485.386585
30
0.0
11
150.353435
21
486.395115
31
0.0
0
LINE
8
0
6
CONTINUOUS
10
148.608592
20
486.007554
30
0.0
11
148.608595
21
485.386585
31
0.0
0
LINE
8
0
6
CONTINUOUS
10
152.270285
20
485.635685
30
0.0
11
150.353435
21
486.395115
31
0.0
0
LINE
8
0
6
CONTINUOUS
10
152.442295
20
483.867795
30
0.0
11
152.270285
21
485.635685
31
0.0
0
LINE
8
0
6
CONTINUOUS
10
150.697445
20
482.859265
30
0.0
11
152.442295
21
483.867795
31
0.0
0
LINE
8
0
6
CONTINUOUS
10
148.780605
20
483.618625
30
0.0
11
150.697445
21
482.859265
31
0.0
0
LINE
8
0
6
CONTINUOUS
10
148.608595
20
485.386585
30
0.0
11
148.780605
21
483.618625
31
0.0
0
LINE
8
0
6
CONTINUOUS
10
150.353435
20
486.395115
30
0.0
11
148.608595
21
485.386585
31
0.0
0
LINE
8
0
6
CONTINUOUS
10
152.442295
20
483.867795
30
0.0
11
152.442291
21
484.770722
31
0.0
0
LINE
8
0
6
CONTINUOUS
10
152.270285
20
485.635685
30
0.0
11
152.442295
21
483.867795
31
0.0
0
LINE
8
0
6
CONTINUOUS
10
152.270281
20
486.661479
30
0.0
11
152.270285
21
485.635685
31
0.0
0
LINE
8
0
6
CONTINUOUS
10
142.754795
20
493.013455
30
0.0
11
144.832865
21
492.658235
31
0.0
0
LINE
8
0
6
CONTINUOUS
10
142.754795
20
493.013455
30
0.0
11
142.754791
21
493.935318
31
0.0
0
LINE
8
0
6
CONTINUOUS
10
141.347835
20
491.686095
30
0.0
11
142.754795
21
493.013455
31
0.0
0
LINE
8
0
6
CONTINUOUS
10
141.347832
20
492.338196
30
0.0
11
141.347835
21
491.686095
31
0.0
0
LINE
8
0
6
CONTINUOUS
10
144.832865
20
492.658235
30
0.0
11
142.754795
21
493.013455
31
0.0
0
LINE
8
0
6
CONTINUOUS
10
145.504005
20
490.975645
30
0.0
11
144.832865
21
492.658235
31
0.0
0
LINE
8
0
6
CONTINUOUS
10
144.097055
20
489.648285
30
0.0
11
145.504005
21
490.975645
31
0.0
0
LINE
8
0
6
CONTINUOUS
10
142.018955
20
490.003505
30
0.0
11
144.097055
21
489.648285
31
0.0
0
LINE
8
0
6
CONTINUOUS
10
141.347835
20
491.686095
30
0.0
11
142.018955
21
490.003505
31
0.0
0
LINE
8
0
6
CONTINUOUS
10
142.754795
20
493.013455
30
0.0
11
141.347835
21
491.686095
31
0.0
0
LINE
8
0
6
CONTINUOUS
10
145.504005
20
490.975645
30
0.0
11
145.503997
21
491.890240
31
0.0
0
LINE
8
0
6
CONTINUOUS
10
144.832865
20
492.658235
30
0.0
11
145.504005
21
490.975645
31
0.0
0
LINE
8
0
6
CONTINUOUS
10
144.832861
20
493.711323
30
0.0
11
144.832865
21
492.658235
31
0.0
0
LINE
8
0
6
CONTINUOUS
10
133.477555
20
497.917325
30
0.0
11
135.596945
21
497.987825
31
0.0
0
LINE
8
0
6
CONTINUOUS
10
133.477555
20
497.917325
30
0.0
11
133.477551
21
498.862552
31
0.0
0
LINE
8
0
6
CONTINUOUS
10
132.490925
20
496.347195
30
0.0
11
133.477555
21
497.917325
31
0.0
0
LINE
8
0
6
CONTINUOUS
10
132.490921
20
497.022676
30
0.0
11
132.490925
21
496.347195
31
0.0
0
LINE
8
0
6
CONTINUOUS
10
135.596945
20
497.987825
30
0.0
11
133.477555
21
497.917325
31
0.0
0
LINE
8
0
6
CONTINUOUS
10
136.729695
20
496.488185
30
0.0
11
135.596945
21
497.987825
31
0.0
0
LINE
8
0
6
CONTINUOUS
10
135.743035
20
494.918065
30
0.0
11
136.729695
21
496.488185
31
0.0
0
LINE
8
0
6
CONTINUOUS
10
133.623665
20
494.847565
30
0.0
11
135.743035
21
494.918065
31
0.0
0
LINE
8
0
6
CONTINUOUS
10
132.490925
20
496.347195
30
0.0
11
133.623665
21
494.847565
31
0.0
0
LINE
8
0
6
CONTINUOUS
10
133.477555
20
497.917325
30
0.0
11
132.490925
21
496.347195
31
0.0
0
LINE
8
0
6
CONTINUOUS
10
136.729695
20
496.488185
30
0.0
11
136.729687
21
497.420285
31
0.0
0
LINE
8
0
6
CONTINUOUS
10
135.596945
20
497.987825
30
0.0
11
136.729695
21
496.488185
31
0.0
0
LINE
8
0
6
CONTINUOUS
10
135.596941
20
499.059924
30
0.0
11
135.596945
21
497.987825
31
0.0
0
LINE
8
0
6
CONTINUOUS
10
123.032665
20
500.854495
30
0.0
11
125.069365
21
501.349715
31
0.0
0
LINE
8
0
6
CONTINUOUS
10
123.032665
20
500.854495
30
0.0
11
123.032661
21
501.811240
31
0.0
0
LINE
8
0
6
CONTINUOUS
10
122.527235
20
499.131775
30
0.0
11
123.032665
21
500.854495
31
0.0
0
LINE
8
0
6
CONTINUOUS
10
122.527231
20
499.817373
30
0.0
11
122.527235
21
499.131775
31
0.0
0
LINE
8
0
6
CONTINUOUS
10
125.069365
20
501.349715
30
0.0
11
123.032665
21
500.854495
31
0.0
0
LINE
8
0
6
CONTINUOUS
10
126.600625
20
500.122375
30
0.0
11
125.069365
21
501.349715
31
0.0
0
LINE
8
0
6
CONTINUOUS
10
126.095185
20
498.399655
30
0.0
11
126.600625
21
500.122375
31
0.0
0
LINE
8
0
6
CONTINUOUS
10
124.058495
20
497.904435
30
0.0
11
126.095185
21
498.399655
31
0.0
0
LINE
8
0
6
CONTINUOUS
10
122.527235
20
499.131775
30
0.0
11
124.058495
21
497.904435
31
0.0
0
LINE
8
0
6
CONTINUOUS
10
123.032665
20
500.854495
30
0.0
11
122.527235
21
499.131775
31
0.0
0
LINE
8
0
6
CONTINUOUS
10
126.600625
20
500.122375
30
0.0
11
126.600621
21
501.073637
31
0.0
0
LINE
8
0
6
CONTINUOUS
10
125.069365
20
501.349715
30
0.0
11
126.600625
21
500.122375
31
0.0
0
LINE
8
0
6
CONTINUOUS
10
125.069361
20
502.427947
30
0.0
11
125.069365
21
501.349715
31
0.0
0
LINE
8
0
6
CONTINUOUS
10
112.095105
20
493.202825
30
0.0
11
113.931985
21
494.089735
31
0.0
0
LINE
8
0
6
CONTINUOUS
10
112.095105
20
493.202825
30
0.0
11
112.095102
21
493.995469
31
0.0
0
LINE
8
0
6
CONTINUOUS
10
112.095095
20
491.429135
30
0.0
11
112.095105
21
493.202825
31
0.0
0
LINE
8
0
6
CONTINUOUS
10
113.931985
20
494.089735
30
0.0
11
112.095105
21
493.202825
31
0.0
0
LINE
8
0
6
CONTINUOUS
10
115.768885
20
493.202895
30
0.0
11
113.931985
21
494.089735
31
0.0
0
LINE
8
0
6
CONTINUOUS
10
115.768885
20
491.429135
30
0.0
11
115.768885
21
493.202895
31
0.0
0
LINE
8
0
6
CONTINUOUS
10
113.931985
20
490.542295
30
0.0
11
115.768885
21
491.429135
31
0.0
0
LINE
8
0
6
CONTINUOUS
10
112.095095
20
491.429135
30
0.0
11
113.931985
21
490.542295
31
0.0
0
LINE
8
0
6
CONTINUOUS
10
112.095105
20
493.202825
30
0.0
11
112.095095
21
491.429135
31
0.0
0
LINE
8
0
6
CONTINUOUS
10
115.768885
20
493.202895
30
0.0
11
115.768882
21
493.995542
31
0.0
0
LINE
8
0
6
CONTINUOUS
10
113.931985
20
494.089735
30
0.0
11
115.768885
21
493.202895
31
0.0
0
LINE
8
0
6
CONTINUOUS
10
113.931981
20
494.974532
30
0.0
11
113.931985
21
494.089735
31
0.0
0
LINE
8
0
6
CONTINUOUS
10
100.287575
20
481.963655
30
0.0
11
101.481805
21
483.429415
31
0.0
0
LINE
8
0
6
CONTINUOUS
10
100.287575
20
482.618003
30
0.0
11
100.287575
21
481.963655
31
0.0
0
LINE
8
0
6
CONTINUOUS
10
101.481805
20
483.429415
30
0.0
11
100.287575
21
481.963655
31
0.0
0
LINE
8
0
6
CONTINUOUS
10
103.596995
20
483.297575
30
0.0
11
101.481805
21
483.429415
31
0.0
0
LINE
8
0
6
CONTINUOUS
10
104.517945
20
481.699675
30
0.0
11
103.596995
21
483.297575
31
0.0
0
LINE
8
0
6
CONTINUOUS
10
103.323715
20
480.233845
30
0.0
11
104.517945
21
481.699675
31
0.0
0
LINE
8
0
6
CONTINUOUS
10
101.208525
20
480.365755
30
0.0
11
103.323715
21
480.233845
31
0.0
0
LINE
8
0
6
CONTINUOUS
10
100.287575
20
481.963655
30
0.0
11
101.208525
21
480.365755
31
0.0
0
LINE
8
0
6
CONTINUOUS
10
101.481805
20
483.429415
30
0.0
11
103.596995
21
483.297575
31
0.0
0
LINE
8
0
6
CONTINUOUS
10
101.481805
20
484.179115
30
0.0
11
101.481805
21
483.429415
31
0.0
0
LINE
8
0
6
CONTINUOUS
10
104.517945
20
481.699675
30
0.0
11
104.517944
21
482.173802
31
0.0
0
LINE
8
0
6
CONTINUOUS
10
103.596995
20
483.297575
30
0.0
11
104.517945
21
481.699675
31
0.0
0
LINE
8
0
6
CONTINUOUS
10
103.596994
20
483.959151
30
0.0
11
103.596995
21
483.297575
31
0.0
0
LINE
8
0
6
CONTINUOUS
10
91.158525
20
475.034105
30
0.0
11
91.475705
21
476.787875
31
0.0
0
LINE
8
0
6
CONTINUOUS
10
91.158526
20
475.679317
30
0.0
11
91.158525
21
475.034105
31
0.0
0
LINE
8
0
6
CONTINUOUS
10
91.475705
20
476.787875
30
0.0
11
91.158525
21
475.034105
31
0.0
0
LINE
8
0
6
CONTINUOUS
10
93.450535
20
477.435155
30
0.0
11
91.475705
21
476.787875
31
0.0
0
LINE
8
0
6
CONTINUOUS
10
95.108175
20
476.328435
30
0.0
11
93.450535
21
477.435155
31
0.0
0
LINE
8
0
6
CONTINUOUS
10
94.790995
20
474.574735
30
0.0
11
95.108175
21
476.328435
31
0.0
0
LINE
8
0
6
CONTINUOUS
10
92.816165
20
473.927455
30
0.0
11
94.790995
21
474.574735
31
0.0
0
LINE
8
0
6
CONTINUOUS
10
91.158525
20
475.034105
30
0.0
11
92.816165
21
473.927455
31
0.0
0
LINE
8
0
6
CONTINUOUS
10
91.475705
20
476.787875
30
0.0
11
93.450535
21
477.435155
31
0.0
0
LINE
8
0
6
CONTINUOUS
10
91.475708
20
477.522889
30
0.0
11
91.475705
21
476.787875
31
0.0
0
LINE
8
0
6
CONTINUOUS
10
95.108175
20
476.328435
30
0.0
11
95.108177
21
476.794483
31
0.0
0
LINE
8
0
6
CONTINUOUS
10
93.450535
20
477.435155
30
0.0
11
95.108175
21
476.328435
31
0.0
0
LINE
8
0
6
CONTINUOUS
10
93.450536
20
478.087114
30
0.0
11
93.450535
21
477.435155
31
0.0
0
LINE
8
0
6
CONTINUOUS
10
90.085195
20
466.367345
30
0.0
11
90.085196
21
466.716023
31
0.0
0
LINE
8
0
6
CONTINUOUS
10
89.457705
20
468.061675
30
0.0
11
90.085195
21
466.367345
31
0.0
0
LINE
8
0
6
CONTINUOUS
10
85.948365
20
467.152785
30
0.0
11
86.575845
21
465.458375
31
0.0
0
LINE
8
0
6
CONTINUOUS
10
87.389295
20
468.454435
30
0.0
11
85.948365
21
467.152785
31
0.0
0
LINE
8
0
6
CONTINUOUS
10
89.457705
20
468.061675
30
0.0
11
87.389295
21
468.454435
31
0.0
0
LINE
8
0
6
CONTINUOUS
10
90.085195
20
466.367345
30
0.0
11
89.457705
21
468.061675
31
0.0
0
LINE
8
0
6
CONTINUOUS
10
88.644255
20
465.065765
30
0.0
11
90.085195
21
466.367345
31
0.0
0
LINE
8
0
6
CONTINUOUS
10
86.575845
20
465.458375
30
0.0
11
88.644255
21
465.065765
31
0.0
0
LINE
8
0
6
CONTINUOUS
10
85.948365
20
467.152785
30
0.0
11
87.389295
21
468.454435
31
0.0
0
LINE
8
0
6
CONTINUOUS
10
85.948368
20
467.870442
30
0.0
11
85.948365
21
467.152785
31
0.0
0
LINE
8
0
6
CONTINUOUS
10
89.457705
20
468.061675
30
0.0
11
89.457707
21
468.511055
31
0.0
0
LINE
8
0
6
CONTINUOUS
10
87.389295
20
468.454435
30
0.0
11
89.457705
21
468.061675
31
0.0
0
LINE
8
0
6
CONTINUOUS
10
87.389298
20
469.087220
30
0.0
11
87.389295
21
468.454435
31
0.0
0
LINE
8
0
6
CONTINUOUS
10
90.085195
20
457.257085
30
0.0
11
90.085197
21
457.591339
31
0.0
0
LINE
8
0
6
CONTINUOUS
10
88.644265
20
458.558655
30
0.0
11
90.085195
21
457.257085
31
0.0
0
LINE
8
0
6
CONTINUOUS
10
85.948375
20
456.471555
30
0.0
11
87.389295
21
455.169985
31
0.0
0
LINE
8
0
6
CONTINUOUS
10
86.575845
20
458.165895
30
0.0
11
85.948375
21
456.471555
31
0.0
0
LINE
8
0
6
CONTINUOUS
10
88.644265
20
458.558655
30
0.0
11
86.575845
21
458.165895
31
0.0
0
LINE
8
0
6
CONTINUOUS
10
90.085195
20
457.257085
30
0.0
11
88.644265
21
458.558655
31
0.0
0
LINE
8
0
6
CONTINUOUS
10
89.457715
20
455.562745
30
0.0
11
90.085195
21
457.257085
31
0.0
0
LINE
8
0
6
CONTINUOUS
10
87.389295
20
455.169985
30
0.0
11
89.457715
21
455.562745
31
0.0
0
LINE
8
0
6
CONTINUOUS
10
85.948375
20
456.471555
30
0.0
11
86.575845
21
458.165895
31
0.0
0
LINE
8
0
6
CONTINUOUS
10
85.948378
20
457.175130
30
0.0
11
85.948375
21
456.471555
31
0.0
0
LINE
8
0
6
CONTINUOUS
10
88.644265
20
458.558655
30
0.0
11
88.644267
21
458.993653
31
0.0
0
LINE
8
0
6
CONTINUOUS
10
86.575845
20
458.165895
30
0.0
11
88.644265
21
458.558655
31
0.0
0
LINE
8
0
6
CONTINUOUS
10
86.575849
20
458.785551
30
0.0
11
86.575845
21
458.165895
31
0.0
0
LINE
8
0
6
CONTINUOUS
10
95.108195
20
447.294695
30
0.0
11
95.108199
21
447.719644
31
0.0
0
LINE
8
0
6
CONTINUOUS
10
94.791005
20
449.048465
30
0.0
11
95.108195
21
447.294695
31
0.0
0
LINE
8
0
6
CONTINUOUS
10
94.791005
20
449.048465
30
0.0
11
94.791007
21
449.373716
31
0.0
0
LINE
8
0
6
CONTINUOUS
10
92.816175
20
449.695665
30
0.0
11
94.791005
21
449.048465
31
0.0
0
LINE
8
0
6
CONTINUOUS
10
91.475735
20
446.835325
30
0.0
11
93.450555
21
446.188045
31
0.0
0
LINE
8
0
6
CONTINUOUS
10
91.158545
20
448.589025
30
0.0
11
91.475735
21
446.835325
31
0.0
0
LINE
8
0
6
CONTINUOUS
10
92.816175
20
449.695665
30
0.0
11
91.158545
21
448.589025
31
0.0
0
LINE
8
0
6
CONTINUOUS
10
94.791005
20
449.048465
30
0.0
11
92.816175
21
449.695665
31
0.0
0
LINE
8
0
6
CONTINUOUS
10
95.108195
20
447.294695
30
0.0
11
94.791005
21
449.048465
31
0.0
0
LINE
8
0
6
CONTINUOUS
10
93.450555
20
446.188045
30
0.0
11
95.108195
21
447.294695
31
0.0
0
LINE
8
0
6
CONTINUOUS
10
92.816175
20
449.695665
30
0.0
11
92.816179
21
450.123874
31
0.0
0
LINE
8
0
6
CONTINUOUS
10
91.158545
20
448.589025
30
0.0
11
92.816175
21
449.695665
31
0.0
0
LINE
8
0
6
CONTINUOUS
10
91.158548
20
449.201341
30
0.0
11
91.158545
21
448.589025
31
0.0
0
LINE
8
0
6
CONTINUOUS
10
104.517975
20
441.922145
30
0.0
11
104.517977
21
442.312057
31
0.0
0
LINE
8
0
6
CONTINUOUS
10
103.323735
20
443.388065
30
0.0
11
104.517975
21
441.922145
31
0.0
0
LINE
8
0
6
CONTINUOUS
10
103.323735
20
443.388065
30
0.0
11
103.323737
21
443.703427
31
0.0
0
LINE
8
0
6
CONTINUOUS
10
101.208565
20
443.256075
30
0.0
11
103.323735
21
443.388065
31
0.0
0
LINE
8
0
6
CONTINUOUS
10
101.481845
20
440.192415
30
0.0
11
103.597025
21
440.324245
31
0.0
0
LINE
8
0
6
CONTINUOUS
10
100.287605
20
441.658245
30
0.0
11
101.481845
21
440.192415
31
0.0
0
LINE
8
0
6
CONTINUOUS
10
101.208565
20
443.256075
30
0.0
11
100.287605
21
441.658245
31
0.0
0
LINE
8
0
6
CONTINUOUS
10
103.323735
20
443.388065
30
0.0
11
101.208565
21
443.256075
31
0.0
0
LINE
8
0
6
CONTINUOUS
10
104.517975
20
441.922145
30
0.0
11
103.323735
21
443.388065
31
0.0
0
LINE
8
0
6
CONTINUOUS
10
103.597025
20
440.324245
30
0.0
11
104.517975
21
441.922145
31
0.0
0
LINE
8
0
6
CONTINUOUS
10
101.208565
20
443.256075
30
0.0
11
101.208567
21
443.671736
31
0.0
0
LINE
8
0
6
CONTINUOUS
10
100.287605
20
441.658245
30
0.0
11
101.208565
21
443.256075
31
0.0
0
LINE
8
0
6
CONTINUOUS
10
100.287609
20
442.255517
30
0.0
11
100.287605
21
441.658245
31
0.0
0
LINE
8
0
6
CONTINUOUS
10
115.768935
20
440.337525
30
0.0
11
115.768935
21
438.563765
31
0.0
0
LINE
8
0
6
CONTINUOUS
10
115.768935
20
440.337525
30
0.0
11
115.768936
21
440.695270
31
0.0
0
LINE
8
0
6
CONTINUOUS
10
113.932045
20
441.224365
30
0.0
11
115.768935
21
440.337525
31
0.0
0
LINE
8
0
6
CONTINUOUS
10
113.932045
20
441.224365
30
0.0
11
113.932046
21
441.505990
31
0.0
0
LINE
8
0
6
CONTINUOUS
10
112.095145
20
440.337525
30
0.0
11
113.921710
21
441.219375
31
0.0
0
LINE
8
0
6
CONTINUOUS
10
112.095146
20
440.695278
30
0.0
11
112.095145
21
440.337525
31
0.0
0
LINE
8
0
6
CONTINUOUS
10
113.932045
20
437.676845
30
0.0
11
115.768935
21
438.563765
31
0.0
0
LINE
8
0
6
CONTINUOUS
10
112.095145
20
438.563765
30
0.0
11
113.909230
21
437.687861
31
0.0
0
LINE
8
0
6
CONTINUOUS
10
112.095145
20
440.337525
30
0.0
11
112.095145
21
438.563765
31
0.0
0
LINE
8
0
6
CONTINUOUS
10
113.932045
20
441.224365
30
0.0
11
112.095145
21
440.337525
31
0.0
0
LINE
8
0
6
CONTINUOUS
10
115.768935
20
440.337525
30
0.0
11
113.942360
21
441.219385
31
0.0
0
LINE
8
0
6
CONTINUOUS
10
115.768935
20
438.563765
30
0.0
11
115.768935
21
440.337525
31
0.0
0
LINE
8
0
6
CONTINUOUS
10
127.576465
20
441.657485
30
0.0
11
127.576466
21
442.255523
31
0.0
0
LINE
8
0
6
CONTINUOUS
10
126.655515
20
443.255315
30
0.0
11
127.576465
21
441.657485
31
0.0
0
LINE
8
0
6
CONTINUOUS
10
126.655515
20
443.255315
30
0.0
11
126.655515
21
443.671747
31
0.0
0
LINE
8
0
6
CONTINUOUS
10
124.540325
20
443.387295
30
0.0
11
126.655515
21
443.255315
31
0.0
0
LINE
8
0
6
CONTINUOUS
10
124.540325
20
443.387295
30
0.0
11
124.540326
21
443.703436
31
0.0
0
LINE
8
0
6
CONTINUOUS
10
123.346095
20
441.921385
30
0.0
11
124.540325
21
443.387295
31
0.0
0
LINE
8
0
6
CONTINUOUS
10
123.346095
20
442.312079
30
0.0
11
123.346095
21
441.921385
31
0.0
0
LINE
8
0
6
CONTINUOUS
10
126.382235
20
440.191655
30
0.0
11
127.576465
21
441.657485
31
0.0
0
LINE
8
0
6
CONTINUOUS
10
124.267055
20
440.323485
30
0.0
11
126.382235
21
440.191655
31
0.0
0
LINE
8
0
6
CONTINUOUS
10
123.346095
20
441.921385
30
0.0
11
124.267055
21
440.323485
31
0.0
0
LINE
8
0
6
CONTINUOUS
10
124.540325
20
443.387295
30
0.0
11
123.346095
21
441.921385
31
0.0
0
LINE
8
0
6
CONTINUOUS
10
126.655515
20
443.255315
30
0.0
11
124.540325
21
443.387295
31
0.0
0
LINE
8
0
6
CONTINUOUS
10
127.576465
20
441.657485
30
0.0
11
126.655515
21
443.255315
31
0.0
0
LINE
8
0
6
CONTINUOUS
10
136.705515
20
448.589785
30
0.0
11
136.705514
21
449.201441
31
0.0
0
LINE
8
0
6
CONTINUOUS
10
135.047875
20
449.696355
30
0.0
11
136.705515
21
448.589785
31
0.0
0
LINE
8
0
6
CONTINUOUS
10
135.047875
20
449.696355
30
0.0
11
135.047874
21
450.123936
31
0.0
0
LINE
8
0
6
CONTINUOUS
10
133.073035
20
449.049145
30
0.0
11
135.047875
21
449.696355
31
0.0
0
LINE
8
0
6
CONTINUOUS
10
133.073035
20
449.049145
30
0.0
11
133.073035
21
449.373773
31
0.0
0
LINE
8
0
6
CONTINUOUS
10
132.755875
20
447.295375
30
0.0
11
133.073035
21
449.049145
31
0.0
0
LINE
8
0
6
CONTINUOUS
10
132.755873
20
447.719719
30
0.0
11
132.755875
21
447.295375
31
0.0
0
LINE
8
0
6
CONTINUOUS
10
136.388345
20
446.835935
30
0.0
11
136.705515
21
448.589785
31
0.0
0
LINE
8
0
6
CONTINUOUS
10
134.413515
20
446.188815
30
0.0
11
136.388345
21
446.835935
31
0.0
0
LINE
8
0
6
CONTINUOUS
10
132.755875
20
447.295375
30
0.0
11
134.413515
21
446.188815
31
0.0
0
LINE
8
0
6
CONTINUOUS
10
133.073035
20
449.049145
30
0.0
11
132.755875
21
447.295375
31
0.0
0
LINE
8
0
6
CONTINUOUS
10
135.047875
20
449.696355
30
0.0
11
133.073035
21
449.049145
31
0.0
0
LINE
8
0
6
CONTINUOUS
10
136.705515
20
448.589785
30
0.0
11
135.047875
21
449.696355
31
0.0
0
LINE
8
0
6
CONTINUOUS
10
141.915675
20
456.471865
30
0.0
11
141.915672
21
457.175200
31
0.0
0
LINE
8
0
6
CONTINUOUS
10
141.288175
20
458.166195
30
0.0
11
141.915675
21
456.471865
31
0.0
0
LINE
8
0
6
CONTINUOUS
10
141.288175
20
458.166195
30
0.0
11
141.288172
21
458.785623
31
0.0
0
LINE
8
0
6
CONTINUOUS
10
139.219765
20
458.558965
30
0.0
11
141.288175
21
458.166195
31
0.0
0
LINE
8
0
6
CONTINUOUS
10
139.219765
20
458.558965
30
0.0
11
139.219763
21
458.993728
31
0.0
0
LINE
8
0
6
CONTINUOUS
10
137.778835
20
457.257385
30
0.0
11
139.219765
21
458.558965
31
0.0
0
LINE
8
0
6
CONTINUOUS
10
137.778833
20
457.591407
30
0.0
11
137.778835
21
457.257385
31
0.0
0
LINE
8
0
6
CONTINUOUS
10
141.915675
20
456.471865
30
0.0
11
141.288175
21
458.166195
31
0.0
0
LINE
8
0
6
CONTINUOUS
10
140.474725
20
455.170285
30
0.0
11
141.915675
21
456.471865
31
0.0
0
LINE
8
0
6
CONTINUOUS
10
138.406315
20
455.563045
30
0.0
11
140.474725
21
455.170285
31
0.0
0
LINE
8
0
6
CONTINUOUS
10
137.778835
20
457.257385
30
0.0
11
138.406315
21
455.563045
31
0.0
0
LINE
8
0
6
CONTINUOUS
10
139.219765
20
458.558965
30
0.0
11
137.778835
21
457.257385
31
0.0
0
LINE
8
0
6
CONTINUOUS
10
141.288175
20
458.166195
30
0.0
11
139.219765
21
458.558965
31
0.0
0
LINE
8
0
6
CONTINUOUS
10
141.915655
20
467.152715
30
0.0
11
141.915649
21
467.870524
31
0.0
0
LINE
8
0
6
CONTINUOUS
10
140.474705
20
468.454285
30
0.0
11
141.915655
21
467.152715
31
0.0
0
LINE
8
0
6
CONTINUOUS
10
140.474705
20
468.454285
30
0.0
11
140.474702
21
469.087247
31
0.0
0
LINE
8
0
6
CONTINUOUS
10
138.406305
20
468.061525
30
0.0
11
140.474705
21
468.454285
31
0.0
0
LINE
8
0
6
CONTINUOUS
10
138.406305
20
468.061525
30
0.0
11
138.406302
21
468.511074
31
0.0
0
LINE
8
0
6
CONTINUOUS
10
137.778835
20
466.367185
30
0.0
11
138.406305
21
468.061525
31
0.0
0
LINE
8
0
6
CONTINUOUS
10
137.778832
20
466.716028
30
0.0
11
137.778835
21
466.367185
31
0.0
0
LINE
8
0
6
CONTINUOUS
10
141.915655
20
467.152715
30
0.0
11
140.474705
21
468.454285
31
0.0
0
LINE
8
0
6
CONTINUOUS
10
141.288175
20
465.458375
30
0.0
11
141.915655
21
467.152715
31
0.0
0
LINE
8
0
6
CONTINUOUS
10
139.219775
20
465.065615
30
0.0
11
141.288175
21
465.458375
31
0.0
0
LINE
8
0
6
CONTINUOUS
10
137.778835
20
466.367185
30
0.0
11
139.219775
21
465.065615
31
0.0
0
LINE
8
0
6
CONTINUOUS
10
138.406305
20
468.061525
30
0.0
11
137.778835
21
466.367185
31
0.0
0
LINE
8
0
6
CONTINUOUS
10
140.474705
20
468.454285
30
0.0
11
138.406305
21
468.061525
31
0.0
0
LINE
8
0
6
CONTINUOUS
10
134.413465
20
477.434385
30
0.0
11
136.388285
21
476.787265
31
0.0
0
LINE
8
0
6
CONTINUOUS
10
134.413465
20
477.434385
30
0.0
11
134.413461
21
478.087076
31
0.0
0
LINE
8
0
6
CONTINUOUS
10
132.755825
20
476.327825
30
0.0
11
134.413465
21
477.434385
31
0.0
0
LINE
8
0
6
CONTINUOUS
10
132.755821
20
476.794541
30
0.0
11
132.755825
21
476.327825
31
0.0
0
LINE
8
0
6
CONTINUOUS
10
136.388285
20
476.787265
30
0.0
11
134.413465
21
477.434385
31
0.0
0
LINE
8
0
6
CONTINUOUS
10
136.705485
20
475.033415
30
0.0
11
136.388285
21
476.787265
31
0.0
0
LINE
8
0
6
CONTINUOUS
10
135.047845
20
473.926845
30
0.0
11
136.705485
21
475.033415
31
0.0
0
LINE
8
0
6
CONTINUOUS
10
133.073015
20
474.573975
30
0.0
11
135.047845
21
473.926845
31
0.0
0
LINE
8
0
6
CONTINUOUS
10
132.755825
20
476.327825
30
0.0
11
133.073015
21
474.573975
31
0.0
0
LINE
8
0
6
CONTINUOUS
10
134.413465
20
477.434385
30
0.0
11
132.755825
21
476.327825
31
0.0
0
LINE
8
0
6
CONTINUOUS
10
136.705485
20
475.033415
30
0.0
11
136.705481
21
475.679339
31
0.0
0
LINE
8
0
6
CONTINUOUS
10
136.388285
20
476.787265
30
0.0
11
136.705485
21
475.033415
31
0.0
0
LINE
8
0
6
CONTINUOUS
10
136.388282
20
477.522948
30
0.0
11
136.388285
21
476.787265
31
0.0
0
LINE
8
0
6
CONTINUOUS
10
124.266995
20
483.298185
30
0.0
11
126.382185
21
483.430175
31
0.0
0
LINE
8
0
6
CONTINUOUS
10
124.266995
20
483.298185
30
0.0
11
124.266991
21
483.959122
31
0.0
0
LINE
8
0
6
CONTINUOUS
10
123.346045
20
481.700435
30
0.0
11
124.266995
21
483.298185
31
0.0
0
LINE
8
0
6
CONTINUOUS
10
123.346042
20
482.173871
30
0.0
11
123.346045
21
481.700435
31
0.0
0
LINE
8
0
6
CONTINUOUS
10
126.382185
20
483.430175
30
0.0
11
124.266995
21
483.298185
31
0.0
0
LINE
8
0
6
CONTINUOUS
10
127.576415
20
481.964265
30
0.0
11
126.382185
21
483.430175
31
0.0
0
LINE
8
0
6
CONTINUOUS
10
126.655465
20
480.366515
30
0.0
11
127.576415
21
481.964265
31
0.0
0
LINE
8
0
6
CONTINUOUS
10
124.540275
20
480.234525
30
0.0
11
126.655465
21
480.366515
31
0.0
0
LINE
8
0
6
CONTINUOUS
10
123.346045
20
481.700435
30
0.0
11
124.540275
21
480.234525
31
0.0
0
LINE
8
0
6
CONTINUOUS
10
124.266995
20
483.298185
30
0.0
11
123.346045
21
481.700435
31
0.0
0
LINE
8
0
6
CONTINUOUS
10
127.576415
20
481.964265
30
0.0
11
127.576411
21
482.617993
31
0.0
0
LINE
8
0
6
CONTINUOUS
10
126.382185
20
483.430175
30
0.0
11
127.576415
21
481.964265
31
0.0
0
LINE
8
0
6
CONTINUOUS
10
126.382180
20
484.179181
30
0.0
11
126.382185
21
483.430175
31
0.0
0
LINE
8
0
6
CONTINUOUS
10
100.884975
20
491.188355
30
0.0
11
102.305095
21
492.505875
31
0.0
0
LINE
8
0
6
CONTINUOUS
10
100.884975
20
491.959305
30
0.0
11
100.884975
21
491.188355
31
0.0
0
LINE
8
0
6
CONTINUOUS
10
102.305095
20
492.505875
30
0.0
11
100.884975
21
491.188355
31
0.0
0
LINE
8
0
6
CONTINUOUS
10
104.379565
20
492.136235
30
0.0
11
102.305095
21
492.505875
31
0.0
0
LINE
8
0
6
CONTINUOUS
10
105.033915
20
490.448915
30
0.0
11
104.379565
21
492.136235
31
0.0
0
LINE
8
0
6
CONTINUOUS
10
103.613805
20
489.131465
30
0.0
11
105.033915
21
490.448915
31
0.0
0
LINE
8
0
6
CONTINUOUS
10
101.539325
20
489.501195
30
0.0
11
103.613805
21
489.131465
31
0.0
0
LINE
8
0
6
CONTINUOUS
10
100.884975
20
491.188355
30
0.0
11
101.539325
21
489.501195
31
0.0
0
LINE
8
0
6
CONTINUOUS
10
102.305095
20
492.505875
30
0.0
11
104.379565
21
492.136235
31
0.0
0
LINE
8
0
6
CONTINUOUS
10
102.305093
20
493.381170
30
0.0
11
102.305095
21
492.505875
31
0.0
0
LINE
8
0
6
CONTINUOUS
10
105.033915
20
490.448915
30
0.0
11
105.033915
21
491.008840
31
0.0
0
LINE
8
0
6
CONTINUOUS
10
104.379565
20
492.136235
30
0.0
11
105.033915
21
490.448915
31
0.0
0
LINE
8
0
6
CONTINUOUS
10
104.379563
20
492.905839
30
0.0
11
104.379565
21
492.136235
31
0.0
0
LINE
8
0
6
CONTINUOUS
10
90.927035
20
486.420595
30
0.0
11
91.788565
21
488.041535
31
0.0
0
LINE
8
0
6
CONTINUOUS
10
90.927037
20
487.180427
30
0.0
11
90.927035
21
486.420595
31
0.0
0
LINE
8
0
6
CONTINUOUS
10
91.788565
20
488.041535
30
0.0
11
90.927035
21
486.420595
31
0.0
0
LINE
8
0
6
CONTINUOUS
10
93.897875
20
488.227995
30
0.0
11
91.788565
21
488.041535
31
0.0
0
LINE
8
0
6
CONTINUOUS
10
95.145645
20
486.793675
30
0.0
11
93.897875
21
488.227995
31
0.0
0
LINE
8
0
6
CONTINUOUS
10
94.284115
20
485.172725
30
0.0
11
95.145645
21
486.793675
31
0.0
0
LINE
8
0
6
CONTINUOUS
10
92.174805
20
484.986265
30
0.0
11
94.284115
21
485.172725
31
0.0
0
LINE
8
0
6
CONTINUOUS
10
90.927035
20
486.420595
30
0.0
11
92.174805
21
484.986265
31
0.0
0
LINE
8
0
6
CONTINUOUS
10
91.788565
20
488.041535
30
0.0
11
93.897875
21
488.227995
31
0.0
0
LINE
8
0
6
CONTINUOUS
10
91.788567
20
488.901508
30
0.0
11
91.788565
21
488.041535
31
0.0
0
LINE
8
0
6
CONTINUOUS
10
95.145645
20
486.793675
30
0.0
11
95.145645
21
487.348869
31
0.0
0
LINE
8
0
6
CONTINUOUS
10
93.897875
20
488.227995
30
0.0
11
95.145645
21
486.793675
31
0.0
0
LINE
8
0
6
CONTINUOUS
10
93.897875
20
488.992650
30
0.0
11
93.897875
21
488.227995
31
0.0
0
LINE
8
0
6
CONTINUOUS
10
83.243955
20
479.318545
30
0.0
11
83.466955
21
481.082455
31
0.0
0
LINE
8
0
6
CONTINUOUS
10
83.243957
20
480.067290
30
0.0
11
83.243955
21
479.318545
31
0.0
0
LINE
8
0
6
CONTINUOUS
10
83.466955
20
481.082455
30
0.0
11
83.243955
21
479.318545
31
0.0
0
LINE
8
0
6
CONTINUOUS
10
85.405165
20
481.802975
30
0.0
11
83.466955
21
481.082455
31
0.0
0
LINE
8
0
6
CONTINUOUS
10
87.120385
20
480.759435
30
0.0
11
85.405165
21
481.802975
31
0.0
0
LINE
8
0
6
CONTINUOUS
10
86.897375
20
478.995515
30
0.0
11
87.120385
21
480.759435
31
0.0
0
LINE
8
0
6
CONTINUOUS
10
84.959175
20
478.275145
30
0.0
11
86.897375
21
478.995515
31
0.0
0
LINE
8
0
6
CONTINUOUS
10
83.243955
20
479.318545
30
0.0
11
84.959175
21
478.275145
31
0.0
0
LINE
8
0
6
CONTINUOUS
10
83.466955
20
481.082455
30
0.0
11
85.405165
21
481.802975
31
0.0
0
LINE
8
0
6
CONTINUOUS
10
83.466957
20
481.929659
30
0.0
11
83.466955
21
481.082455
31
0.0
0
LINE
8
0
6
CONTINUOUS
10
87.120385
20
480.759435
30
0.0
11
87.120385
21
481.301329
31
0.0
0
LINE
8
0
6
CONTINUOUS
10
85.405165
20
481.802975
30
0.0
11
87.120385
21
480.759435
31
0.0
0
LINE
8
0
6
CONTINUOUS
10
85.405167
20
482.552717
30
0.0
11
85.405165
21
481.802975
31
0.0
0
LINE
8
0
6
CONTINUOUS
10
82.164005
20
471.193235
30
0.0
11
82.164007
21
471.611606
31
0.0
0
LINE
8
0
6
CONTINUOUS
10
81.721895
20
472.928005
30
0.0
11
82.164005
21
471.193235
31
0.0
0
LINE
8
0
6
CONTINUOUS
10
78.128795
20
472.287595
30
0.0
11
78.570915
21
470.552825
31
0.0
0
LINE
8
0
6
CONTINUOUS
10
79.704295
20
473.475185
30
0.0
11
78.128795
21
472.287595
31
0.0
0
LINE
8
0
6
CONTINUOUS
10
81.721895
20
472.928005
30
0.0
11
79.704295
21
473.475185
31
0.0
0
LINE
8
0
6
CONTINUOUS
10
82.164005
20
471.193235
30
0.0
11
81.721895
21
472.928005
31
0.0
0
LINE
8
0
6
CONTINUOUS
10
80.588515
20
470.005565
30
0.0
11
82.164005
21
471.193235
31
0.0
0
LINE
8
0
6
CONTINUOUS
10
78.570915
20
470.552825
30
0.0
11
80.588515
21
470.005565
31
0.0
0
LINE
8
0
6
CONTINUOUS
10
78.128795
20
472.287595
30
0.0
11
79.704295
21
473.475185
31
0.0
0
LINE
8
0
6
CONTINUOUS
10
78.128800
20
473.121643
30
0.0
11
78.128795
21
472.287595
31
0.0
0
LINE
8
0
6
CONTINUOUS
10
81.721895
20
472.928005
30
0.0
11
81.721896
21
473.455929
31
0.0
0
LINE
8
0
6
CONTINUOUS
10
79.704295
20
473.475185
30
0.0
11
81.721895
21
472.928005
31
0.0
0
LINE
8
0
6
CONTINUOUS
10
79.704297
20
474.210947
30
0.0
11
79.704295
21
473.475185
31
0.0
0
LINE
8
0
6
CONTINUOUS
10
80.469675
20
462.559815
30
0.0
11
80.469677
21
462.995608
31
0.0
0
LINE
8
0
6
CONTINUOUS
10
79.409145
20
464.095915
30
0.0
11
80.469675
21
462.559815
31
0.0
0
LINE
8
0
6
CONTINUOUS
10
76.227555
20
462.559815
30
0.0
11
77.288085
21
461.023715
31
0.0
0
LINE
8
0
6
CONTINUOUS
10
77.288075
20
464.095915
30
0.0
11
76.227555
21
462.559815
31
0.0
0
LINE
8
0
6
CONTINUOUS
10
79.409145
20
464.095915
30
0.0
11
77.288075
21
464.095915
31
0.0
0
LINE
8
0
6
CONTINUOUS
10
80.469675
20
462.559815
30
0.0
11
79.409145
21
464.095915
31
0.0
0
LINE
8
0
6
CONTINUOUS
10
79.409145
20
461.023715
30
0.0
11
80.469675
21
462.559815
31
0.0
0
LINE
8
0
6
CONTINUOUS
10
77.288085
20
461.023715
30
0.0
11
79.409145
21
461.023715
31
0.0
0
LINE
8
0
6
CONTINUOUS
10
76.227555
20
462.559815
30
0.0
11
77.288075
21
464.095915
31
0.0
0
LINE
8
0
6
CONTINUOUS
10
76.227559
20
463.432830
30
0.0
11
76.227555
21
462.559815
31
0.0
0
LINE
8
0
6
CONTINUOUS
10
79.409145
20
464.095915
30
0.0
11
79.409147
21
464.652294
31
0.0
0
LINE
8
0
6
CONTINUOUS
10
77.288075
20
464.095915
30
0.0
11
79.409145
21
464.095915
31
0.0
0
LINE
8
0
6
CONTINUOUS
10
77.288080
20
464.862011
30
0.0
11
77.288075
21
464.095915
31
0.0
0
LINE
8
0
6
CONTINUOUS
10
82.164015
20
453.937305
30
0.0
11
82.164017
21
454.332490
31
0.0
0
LINE
8
0
6
CONTINUOUS
10
80.588525
20
455.124815
30
0.0
11
82.164015
21
453.937305
31
0.0
0
LINE
8
0
6
CONTINUOUS
10
78.128825
20
452.842865
30
0.0
11
79.704305
21
451.655275
31
0.0
0
LINE
8
0
6
CONTINUOUS
10
78.570925
20
454.577635
30
0.0
11
78.128825
21
452.842865
31
0.0
0
LINE
8
0
6
CONTINUOUS
10
80.588525
20
455.124815
30
0.0
11
78.570925
21
454.577635
31
0.0
0
LINE
8
0
6
CONTINUOUS
10
82.164015
20
453.937305
30
0.0
11
80.588525
21
455.124815
31
0.0
0
LINE
8
0
6
CONTINUOUS
10
81.721905
20
452.202455
30
0.0
11
82.164015
21
453.937305
31
0.0
0
LINE
8
0
6
CONTINUOUS
10
79.704305
20
451.655275
30
0.0
11
81.721905
21
452.202455
31
0.0
0
LINE
8
0
6
CONTINUOUS
10
78.128825
20
452.842865
30
0.0
11
78.570925
21
454.577635
31
0.0
0
LINE
8
0
6
CONTINUOUS
10
78.128830
20
453.651274
30
0.0
11
78.128825
21
452.842865
31
0.0
0
LINE
8
0
6
CONTINUOUS
10
80.588525
20
455.124815
30
0.0
11
80.588528
21
455.622050
31
0.0
0
LINE
8
0
6
CONTINUOUS
10
78.570925
20
454.577635
30
0.0
11
80.588525
21
455.124815
31
0.0
0
LINE
8
0
6
CONTINUOUS
10
78.570929
20
455.280924
30
0.0
11
78.570925
21
454.577635
31
0.0
0
LINE
8
0
6
CONTINUOUS
10
87.120405
20
444.370345
30
0.0
11
87.120408
21
444.865003
31
0.0
0
LINE
8
0
6
CONTINUOUS
10
86.897405
20
446.134265
30
0.0
11
87.120405
21
444.370345
31
0.0
0
LINE
8
0
6
CONTINUOUS
10
86.897405
20
446.134265
30
0.0
11
86.897408
21
446.521485
31
0.0
0
LINE
8
0
6
CONTINUOUS
10
84.959195
20
446.854705
30
0.0
11
86.897405
21
446.134265
31
0.0
0
LINE
8
0
6
CONTINUOUS
10
83.466985
20
444.047395
30
0.0
11
85.405205
21
443.326875
31
0.0
0
LINE
8
0
6
CONTINUOUS
10
83.243985
20
445.811315
30
0.0
11
83.466985
21
444.047395
31
0.0
0
LINE
8
0
6
CONTINUOUS
10
84.959195
20
446.854705
30
0.0
11
83.243985
21
445.811315
31
0.0
0
LINE
8
0
6
CONTINUOUS
10
86.897405
20
446.134265
30
0.0
11
84.959195
21
446.854705
31
0.0
0
LINE
8
0
6
CONTINUOUS
10
87.120405
20
444.370345
30
0.0
11
86.897405
21
446.134265
31
0.0
0
LINE
8
0
6
CONTINUOUS
10
85.405205
20
443.326875
30
0.0
11
87.120405
21
444.370345
31
0.0
0
LINE
8
0
6
CONTINUOUS
10
84.959195
20
446.854705
30
0.0
11
84.959198
21
447.354200
31
0.0
0
LINE
8
0
6
CONTINUOUS
10
83.243985
20
445.811315
30
0.0
11
84.959195
21
446.854705
31
0.0
0
LINE
8
0
6
CONTINUOUS
10
83.243989
20
446.517016
30
0.0
11
83.243985
21
445.811315
31
0.0
0
LINE
8
0
6
CONTINUOUS
10
95.145705
20
438.336025
30
0.0
11
95.145707
21
438.818538
31
0.0
0
LINE
8
0
6
CONTINUOUS
10
94.284175
20
439.956815
30
0.0
11
95.145705
21
438.336025
31
0.0
0
LINE
8
0
6
CONTINUOUS
10
94.284175
20
439.956815
30
0.0
11
94.284177
21
440.338701
31
0.0
0
LINE
8
0
6
CONTINUOUS
10
92.174875
20
440.143355
30
0.0
11
94.284175
21
439.956815
31
0.0
0
LINE
8
0
6
CONTINUOUS
10
91.788625
20
437.088165
30
0.0
11
93.897925
21
436.901705
31
0.0
0
LINE
8
0
6
CONTINUOUS
10
90.927095
20
438.708955
30
0.0
11
91.788625
21
437.088165
31
0.0
0
LINE
8
0
6
CONTINUOUS
10
92.174875
20
440.143355
30
0.0
11
90.927095
21
438.708955
31
0.0
0
LINE
8
0
6
CONTINUOUS
10
94.284175
20
439.956815
30
0.0
11
92.174875
21
440.143355
31
0.0
0
LINE
8
0
6
CONTINUOUS
10
95.145705
20
438.336025
30
0.0
11
94.284175
21
439.956815
31
0.0
0
LINE
8
0
6
CONTINUOUS
10
93.897925
20
436.901705
30
0.0
11
95.145705
21
438.336025
31
0.0
0
LINE
8
0
6
CONTINUOUS
10
92.174875
20
440.143355
30
0.0
11
92.174877
21
440.636966
31
0.0
0
LINE
8
0
6
CONTINUOUS
10
90.927095
20
438.708955
30
0.0
11
92.174875
21
440.143355
31
0.0
0
LINE
8
0
6
CONTINUOUS
10
90.927099
20
439.407142
30
0.0
11
90.927095
21
438.708955
31
0.0
0
LINE
8
0
6
CONTINUOUS
10
105.033975
20
434.517825
30
0.0
11
105.033976
21
434.727129
31
0.0
0
LINE
8
0
6
CONTINUOUS
10
103.613865
20
435.835345
30
0.0
11
105.033975
21
434.517825
31
0.0
0
LINE
8
0
6
CONTINUOUS
10
103.613865
20
435.835345
30
0.0
11
103.613866
21
436.083813
31
0.0
0
LINE
8
0
6
CONTINUOUS
10
101.539395
20
435.465545
30
0.0
11
103.613865
21
435.835345
31
0.0
0
LINE
8
0
6
CONTINUOUS
10
102.305155
20
432.460935
30
0.0
11
104.379625
21
432.830655
31
0.0
0
LINE
8
0
6
CONTINUOUS
10
100.885035
20
433.778385
30
0.0
11
102.305155
21
432.460935
31
0.0
0
LINE
8
0
6
CONTINUOUS
10
101.539395
20
435.465545
30
0.0
11
100.885035
21
433.778385
31
0.0
0
LINE
8
0
6
CONTINUOUS
10
103.613865
20
435.835345
30
0.0
11
101.539395
21
435.465545
31
0.0
0
LINE
8
0
6
CONTINUOUS
10
105.033975
20
434.517825
30
0.0
11
103.613865
21
435.835345
31
0.0
0
LINE
8
0
6
CONTINUOUS
10
104.379625
20
432.830655
30
0.0
11
105.033975
21
434.517825
31
0.0
0
LINE
8
0
6
CONTINUOUS
10
101.539395
20
435.465545
30
0.0
11
101.539396
21
435.879500
31
0.0
0
LINE
8
0
6
CONTINUOUS
10
100.885035
20
433.778385
30
0.0
11
101.539395
21
435.465545
31
0.0
0
LINE
8
0
6
CONTINUOUS
10
100.885038
20
434.339678
30
0.0
11
100.885035
21
433.778385
31
0.0
0
LINE
8
0
6
CONTINUOUS
10
115.768945
20
433.100435
30
0.0
11
115.768945
21
431.326675
31
0.0
0
LINE
8
0
6
CONTINUOUS
10
115.768945
20
433.100435
30
0.0
11
115.768946
21
433.478156
31
0.0
0
LINE
8
0
6
CONTINUOUS
10
113.932055
20
433.987275
30
0.0
11
115.768945
21
433.100435
31
0.0
0
LINE
8
0
6
CONTINUOUS
10
113.932055
20
433.987275
30
0.0
11
113.932056
21
434.386683
31
0.0
0
LINE
8
0
6
CONTINUOUS
10
112.095155
20
433.100435
30
0.0
11
113.932055
21
433.987275
31
0.0
0
LINE
8
0
6
CONTINUOUS
10
112.095156
20
433.478156
30
0.0
11
112.095155
21
433.100435
31
0.0
0
LINE
8
0
6
CONTINUOUS
10
113.932055
20
430.439835
30
0.0
11
115.768945
21
431.326675
31
0.0
0
LINE
8
0
6
CONTINUOUS
10
112.095155
20
431.326755
30
0.0
11
113.932055
21
430.439835
31
0.0
0
LINE
8
0
6
CONTINUOUS
10
112.095155
20
433.100435
30
0.0
11
112.095155
21
431.326755
31
0.0
0
LINE
8
0
6
CONTINUOUS
10
113.932055
20
433.987275
30
0.0
11
112.095155
21
433.100435
31
0.0
0
LINE
8
0
6
CONTINUOUS
10
115.768945
20
433.100435
30
0.0
11
113.932055
21
433.987275
31
0.0
0
LINE
8
0
6
CONTINUOUS
10
115.768945
20
431.326675
30
0.0
11
115.768945
21
433.100435
31
0.0
0
LINE
8
0
6
CONTINUOUS
10
126.979085
20
433.779835
30
0.0
11
126.979086
21
434.339728
31
0.0
0
LINE
8
0
6
CONTINUOUS
10
126.324725
20
435.467075
30
0.0
11
126.979085
21
433.779835
31
0.0
0
LINE
8
0
6
CONTINUOUS
10
126.324725
20
435.467075
30
0.0
11
126.324725
21
435.879585
31
0.0
0
LINE
8
0
6
CONTINUOUS
10
124.250245
20
435.836795
30
0.0
11
126.324725
21
435.467075
31
0.0
0
LINE
8
0
6
CONTINUOUS
10
124.250245
20
435.836795
30
0.0
11
124.250245
21
436.083852
31
0.0
0
LINE
8
0
6
CONTINUOUS
10
122.830135
20
434.519275
30
0.0
11
124.250245
21
435.836795
31
0.0
0
LINE
8
0
6
CONTINUOUS
10
122.830135
20
434.727181
30
0.0
11
122.830135
21
434.519275
31
0.0
0
LINE
8
0
6
CONTINUOUS
10
125.558965
20
432.462315
30
0.0
11
126.979085
21
433.779835
31
0.0
0
LINE
8
0
6
CONTINUOUS
10
123.484495
20
432.832035
30
0.0
11
125.558965
21
432.462315
31
0.0
0
LINE
8
0
6
CONTINUOUS
10
122.830135
20
434.519275
30
0.0
11
123.484495
21
432.832035
31
0.0
0
LINE
8
0
6
CONTINUOUS
10
124.250245
20
435.836795
30
0.0
11
122.830135
21
434.519275
31
0.0
0
LINE
8
0
6
CONTINUOUS
10
126.324725
20
435.467075
30
0.0
11
124.250245
21
435.836795
31
0.0
0
LINE
8
0
6
CONTINUOUS
10
126.979085
20
433.779835
30
0.0
11
126.324725
21
435.467075
31
0.0
0
LINE
8
0
6
CONTINUOUS
10
136.937025
20
438.709255
30
0.0
11
136.937024
21
439.407241
31
0.0
0
LINE
8
0
6
CONTINUOUS
10
135.689235
20
440.143585
30
0.0
11
136.937025
21
438.709255
31
0.0
0
LINE
8
0
6
CONTINUOUS
10
135.689235
20
440.143585
30
0.0
11
135.689235
21
440.637028
31
0.0
0
LINE
8
0
6
CONTINUOUS
10
133.579925
20
439.957125
30
0.0
11
135.689235
21
440.143585
31
0.0
0
LINE
8
0
6
CONTINUOUS
10
133.579925
20
439.957125
30
0.0
11
133.579926
21
440.338795
31
0.0
0
LINE
8
0
6
CONTINUOUS
10
132.718415
20
438.336185
30
0.0
11
133.579925
21
439.957125
31
0.0
0
LINE
8
0
6
CONTINUOUS
10
132.718414
20
438.818537
30
0.0
11
132.718415
21
438.336185
31
0.0
0
LINE
8
0
6
CONTINUOUS
10
136.075495
20
437.088315
30
0.0
11
136.937025
21
438.709255
31
0.0
0
LINE
8
0
6
CONTINUOUS
10
133.966195
20
436.901855
30
0.0
11
136.075495
21
437.088315
31
0.0
0
LINE
8
0
6
CONTINUOUS
10
132.718415
20
438.336185
30
0.0
11
133.966195
21
436.901855
31
0.0
0
LINE
8
0
6
CONTINUOUS
10
133.579925
20
439.957125
30
0.0
11
132.718415
21
438.336185
31
0.0
0
LINE
8
0
6
CONTINUOUS
10
135.689235
20
440.143585
30
0.0
11
133.579925
21
439.957125
31
0.0
0
LINE
8
0
6
CONTINUOUS
10
136.937025
20
438.709255
30
0.0
11
135.689235
21
440.143585
31
0.0
0
LINE
8
0
6
CONTINUOUS
10
144.620085
20
445.811315
30
0.0
11
144.620085
21
446.517075
31
0.0
0
LINE
8
0
6
CONTINUOUS
10
142.904885
20
446.854705
30
0.0
11
144.620085
21
445.811315
31
0.0
0
LINE
8
0
6
CONTINUOUS
10
142.904885
20
446.854705
30
0.0
11
142.904883
21
447.354243
31
0.0
0
LINE
8
0
6
CONTINUOUS
10
140.966675
20
446.134335
30
0.0
11
142.904885
21
446.854705
31
0.0
0
LINE
8
0
6
CONTINUOUS
10
140.966675
20
446.134335
30
0.0
11
140.966673
21
446.521569
31
0.0
0
LINE
8
0
6
CONTINUOUS
10
140.743665
20
444.370425
30
0.0
11
140.966675
21
446.134335
31
0.0
0
LINE
8
0
6
CONTINUOUS
10
140.743665
20
444.865101
30
0.0
11
140.743665
21
444.370425
31
0.0
0
LINE
8
0
6
CONTINUOUS
10
144.397095
20
444.047395
30
0.0
11
144.620085
21
445.811315
31
0.0
0
LINE
8
0
6
CONTINUOUS
10
142.458885
20
443.326875
30
0.0
11
144.397095
21
444.047395
31
0.0
0
LINE
8
0
6
CONTINUOUS
10
140.743665
20
444.370425
30
0.0
11
142.458885
21
443.326875
31
0.0
0
LINE
8
0
6
CONTINUOUS
10
140.966675
20
446.134335
30
0.0
11
140.743665
21
444.370425
31
0.0
0
LINE
8
0
6
CONTINUOUS
10
142.904885
20
446.854705
30
0.0
11
140.966675
21
446.134335
31
0.0
0
LINE
8
0
6
CONTINUOUS
10
144.620085
20
445.811315
30
0.0
11
142.904885
21
446.854705
31
0.0
0
LINE
8
0
6
CONTINUOUS
10
149.735225
20
452.841645
30
0.0
11
149.735223
21
453.651316
31
0.0
0
LINE
8
0
6
CONTINUOUS
10
149.293105
20
454.576495
30
0.0
11
149.735225
21
452.841645
31
0.0
0
LINE
8
0
6
CONTINUOUS
10
149.293105
20
454.576495
30
0.0
11
149.293105
21
455.281002
31
0.0
0
LINE
8
0
6
CONTINUOUS
10
147.275515
20
455.123675
30
0.0
11
149.293105
21
454.576495
31
0.0
0
LINE
8
0
6
CONTINUOUS
10
147.275515
20
455.123675
30
0.0
11
147.275513
21
455.622134
31
0.0
0
LINE
8
0
6
CONTINUOUS
10
145.700025
20
453.936155
30
0.0
11
147.275515
21
455.123675
31
0.0
0
LINE
8
0
6
CONTINUOUS
10
145.700023
20
454.332573
30
0.0
11
145.700025
21
453.936155
31
0.0
0
LINE
8
0
6
CONTINUOUS
10
149.735225
20
452.841645
30
0.0
11
149.293105
21
454.576495
31
0.0
0
LINE
8
0
6
CONTINUOUS
10
148.159745
20
451.654055
30
0.0
11
149.735225
21
452.841645
31
0.0
0
LINE
8
0
6
CONTINUOUS
10
146.142145
20
452.201385
30
0.0
11
148.159745
21
451.654055
31
0.0
0
LINE
8
0
6
CONTINUOUS
10
145.700025
20
453.936155
30
0.0
11
146.142145
21
452.201385
31
0.0
0
LINE
8
0
6
CONTINUOUS
10
147.275515
20
455.123675
30
0.0
11
145.700025
21
453.936155
31
0.0
0
LINE
8
0
6
CONTINUOUS
10
149.293105
20
454.576495
30
0.0
11
147.275515
21
455.123675
31
0.0
0
LINE
8
0
6
CONTINUOUS
10
151.636475
20
462.559965
30
0.0
11
151.636471
21
463.432947
31
0.0
0
LINE
8
0
6
CONTINUOUS
10
150.575955
20
464.096065
30
0.0
11
151.636475
21
462.559965
31
0.0
0
LINE
8
0
6
CONTINUOUS
10
150.575955
20
464.096065
30
0.0
11
150.575949
21
464.862122
31
0.0
0
LINE
8
0
6
CONTINUOUS
10
148.454885
20
464.096065
30
0.0
11
150.575955
21
464.096065
31
0.0
0
LINE
8
0
6
CONTINUOUS
10
148.454885
20
464.096065
30
0.0
11
148.454883
21
464.652403
31
0.0
0
LINE
8
0
6
CONTINUOUS
10
147.394355
20
462.559965
30
0.0
11
148.454885
21
464.096065
31
0.0
0
LINE
8
0
6
CONTINUOUS
10
147.394352
20
462.995741
30
0.0
11
147.394355
21
462.559965
31
0.0
0
LINE
8
0
6
CONTINUOUS
10
151.636475
20
462.559965
30
0.0
11
150.575955
21
464.096065
31
0.0
0
LINE
8
0
6
CONTINUOUS
10
150.575955
20
461.023865
30
0.0
11
151.636475
21
462.559965
31
0.0
0
LINE
8
0
6
CONTINUOUS
10
148.454885
20
461.023865
30
0.0
11
150.575955
21
461.023865
31
0.0
0
LINE
8
0
6
CONTINUOUS
10
147.394355
20
462.559965
30
0.0
11
148.454885
21
461.023865
31
0.0
0
LINE
8
0
6
CONTINUOUS
10
148.454885
20
464.096065
30
0.0
11
147.394355
21
462.559965
31
0.0
0
LINE
8
0
6
CONTINUOUS
10
150.575955
20
464.096065
30
0.0
11
148.454885
21
464.096065
31
0.0
0
LINE
8
0
6
CONTINUOUS
10
149.735215
20
472.288975
30
0.0
11
149.735208
21
473.121740
31
0.0
0
LINE
8
0
6
CONTINUOUS
10
148.159725
20
473.476565
30
0.0
11
149.735215
21
472.288975
31
0.0
0
LINE
8
0
6
CONTINUOUS
10
148.159725
20
473.476565
30
0.0
11
148.159719
21
474.211052
31
0.0
0
LINE
8
0
6
CONTINUOUS
10
146.142105
20
472.929305
30
0.0
11
148.159725
21
473.476565
31
0.0
0
LINE
8
0
6
CONTINUOUS
10
146.142105
20
472.929305
30
0.0
11
146.142104
21
473.455981
31
0.0
0
LINE
8
0
6
CONTINUOUS
10
145.700005
20
471.194455
30
0.0
11
146.142105
21
472.929305
31
0.0
0
LINE
8
0
6
CONTINUOUS
10
145.700002
20
471.611592
30
0.0
11
145.700005
21
471.194455
31
0.0
0
LINE
8
0
6
CONTINUOUS
10
149.735215
20
472.288975
30
0.0
11
148.159725
21
473.476565
31
0.0
0
LINE
8
0
6
CONTINUOUS
10
149.293085
20
470.554195
30
0.0
11
149.735215
21
472.288975
31
0.0
0
LINE
8
0
6
CONTINUOUS
10
147.275495
20
470.006945
30
0.0
11
149.293085
21
470.554195
31
0.0
0
LINE
8
0
6
CONTINUOUS
10
145.700005
20
471.194455
30
0.0
11
147.275495
21
470.006945
31
0.0
0
LINE
8
0
6
CONTINUOUS
10
146.142105
20
472.929305
30
0.0
11
145.700005
21
471.194455
31
0.0
0
LINE
8
0
6
CONTINUOUS
10
148.159725
20
473.476565
30
0.0
11
146.142105
21
472.929305
31
0.0
0
LINE
8
0
6
CONTINUOUS
10
142.458805
20
481.802975
30
0.0
11
144.397035
21
481.082615
31
0.0
0
LINE
8
0
6
CONTINUOUS
10
142.458805
20
481.802975
30
0.0
11
142.458803
21
482.552715
31
0.0
0
LINE
8
0
6
CONTINUOUS
10
140.743605
20
480.759585
30
0.0
11
142.458805
21
481.802975
31
0.0
0
LINE
8
0
6
CONTINUOUS
10
140.743601
20
481.301401
30
0.0
11
140.743605
21
480.759585
31
0.0
0
LINE
8
0
6
CONTINUOUS
10
144.397035
20
481.082615
30
0.0
11
142.458805
21
481.802975
31
0.0
0
LINE
8
0
6
CONTINUOUS
10
144.620025
20
479.318695
30
0.0
11
144.397035
21
481.082615
31
0.0
0
LINE
8
0
6
CONTINUOUS
10
142.904825
20
478.275225
30
0.0
11
144.620025
21
479.318695
31
0.0
0
LINE
8
0
6
CONTINUOUS
10
140.966615
20
478.995665
30
0.0
11
142.904825
21
478.275225
31
0.0
0
LINE
8
0
6
CONTINUOUS
10
140.743605
20
480.759585
30
0.0
11
140.966615
21
478.995665
31
0.0
0
LINE
8
0
6
CONTINUOUS
10
142.458805
20
481.802975
30
0.0
11
140.743605
21
480.759585
31
0.0
0
LINE
8
0
6
CONTINUOUS
10
144.620025
20
479.318695
30
0.0
11
144.620022
21
480.067363
31
0.0
0
LINE
8
0
6
CONTINUOUS
10
144.397035
20
481.082615
30
0.0
11
144.620025
21
479.318695
31
0.0
0
LINE
8
0
6
CONTINUOUS
10
144.397028
20
481.929738
30
0.0
11
144.397035
21
481.082615
31
0.0
0
LINE
8
0
6
CONTINUOUS
10
133.966085
20
488.227845
30
0.0
11
136.075395
21
488.041385
31
0.0
0
LINE
8
0
6
CONTINUOUS
10
133.966085
20
488.227845
30
0.0
11
133.966080
21
488.992668
31
0.0
0
LINE
8
0
6
CONTINUOUS
10
132.718315
20
486.793515
30
0.0
11
133.966085
21
488.227845
31
0.0
0
LINE
8
0
6
CONTINUOUS
10
132.718312
20
487.348891
30
0.0
11
132.718315
21
486.793515
31
0.0
0
LINE
8
0
6
CONTINUOUS
10
136.075395
20
488.041385
30
0.0
11
133.966085
21
488.227845
31
0.0
0
LINE
8
0
6
CONTINUOUS
10
136.936925
20
486.420515
30
0.0
11
136.075395
21
488.041385
31
0.0
0
LINE
8
0
6
CONTINUOUS
10
135.689155
20
484.986115
30
0.0
11
136.936925
21
486.420515
31
0.0
0
LINE
8
0
6
CONTINUOUS
10
133.579845
20
485.172575
30
0.0
11
135.689155
21
484.986115
31
0.0
0
LINE
8
0
6
CONTINUOUS
10
132.718315
20
486.793515
30
0.0
11
133.579845
21
485.172575
31
0.0
0
LINE
8
0
6
CONTINUOUS
10
133.966085
20
488.227845
30
0.0
11
132.718315
21
486.793515
31
0.0
0
LINE
8
0
6
CONTINUOUS
10
136.936925
20
486.420515
30
0.0
11
136.936919
21
487.180498
31
0.0
0
LINE
8
0
6
CONTINUOUS
10
136.075395
20
488.041385
30
0.0
11
136.936925
21
486.420515
31
0.0
0
LINE
8
0
6
CONTINUOUS
10
136.075390
20
488.901529
30
0.0
11
136.075395
21
488.041385
31
0.0
0
LINE
8
0
6
CONTINUOUS
10
123.484405
20
492.135015
30
0.0
11
125.558875
21
492.504735
31
0.0
0
LINE
8
0
6
CONTINUOUS
10
123.484405
20
492.135015
30
0.0
11
123.484400
21
492.905806
31
0.0
0
LINE
8
0
6
CONTINUOUS
10
122.830045
20
490.447845
30
0.0
11
123.484405
21
492.135015
31
0.0
0
LINE
8
0
6
CONTINUOUS
10
122.830042
20
491.008883
30
0.0
11
122.830045
21
490.447845
31
0.0
0
LINE
8
0
6
CONTINUOUS
10
125.558875
20
492.504735
30
0.0
11
123.484405
21
492.135015
31
0.0
0
LINE
8
0
6
CONTINUOUS
10
126.978985
20
491.187285
30
0.0
11
125.558875
21
492.504735
31
0.0
0
LINE
8
0
6
CONTINUOUS
10
126.324635
20
489.499965
30
0.0
11
126.978985
21
491.187285
31
0.0
0
LINE
8
0
6
CONTINUOUS
10
124.250165
20
489.130245
30
0.0
11
126.324635
21
489.499965
31
0.0
0
LINE
8
0
6
CONTINUOUS
10
122.830045
20
490.447845
30
0.0
11
124.250165
21
489.130245
31
0.0
0
LINE
8
0
6
CONTINUOUS
10
123.484405
20
492.135015
30
0.0
11
122.830045
21
490.447845
31
0.0
0
LINE
8
0
6
CONTINUOUS
10
126.978985
20
491.187285
30
0.0
11
126.978982
21
491.959347
31
0.0
0
LINE
8
0
6
CONTINUOUS
10
125.558875
20
492.504735
30
0.0
11
126.978985
21
491.187285
31
0.0
0
LINE
8
0
6
CONTINUOUS
10
125.558871
20
493.381192
30
0.0
11
125.558875
21
492.504735
31
0.0
0
LINE
8
0
6
CONTINUOUS
10
112.095105
20
484.969485
30
0.0
11
113.931995
21
485.856325
31
0.0
0
LINE
8
0
6
CONTINUOUS
10
112.095104
20
485.644794
30
0.0
11
112.095105
21
484.969485
31
0.0
0
LINE
8
0
6
CONTINUOUS
10
113.931995
20
485.856325
30
0.0
11
112.095105
21
484.969485
31
0.0
0
LINE
8
0
6
CONTINUOUS
10
115.768885
20
484.969485
30
0.0
11
113.931995
21
485.856325
31
0.0
0
LINE
8
0
6
CONTINUOUS
10
115.768885
20
483.195645
30
0.0
11
115.768885
21
484.969485
31
0.0
0
LINE
8
0
6
CONTINUOUS
10
113.931995
20
482.308805
30
0.0
11
115.768885
21
483.195645
31
0.0
0
LINE
8
0
6
CONTINUOUS
10
112.095105
20
483.195645
30
0.0
11
113.931995
21
482.308805
31
0.0
0
LINE
8
0
6
CONTINUOUS
10
112.095105
20
484.969485
30
0.0
11
112.095105
21
483.195645
31
0.0
0
LINE
8
0
6
CONTINUOUS
10
115.768885
20
484.969485
30
0.0
11
115.768884
21
485.644794
31
0.0
0
LINE
8
0
6
CONTINUOUS
10
113.931995
20
485.856325
30
0.0
11
115.768885
21
484.969485
31
0.0
0
LINE
8
0
6
CONTINUOUS
10
113.931993
20
486.614505
30
0.0
11
113.931995
21
485.856325
31
0.0
0
LINE
8
0
6
CONTINUOUS
10
124.809825
20
510.097805
30
0.0
11
126.414605
21
508.937985
31
0.0
0
LINE
8
0
6
CONTINUOUS
10
126.015865
20
507.195745
30
0.0
11
126.414605
21
508.937985
31
0.0
0
LINE
8
0
6
CONTINUOUS
10
124.012355
20
506.613465
30
0.0
11
126.015865
21
507.195745
31
0.0
0
LINE
8
0
6
CONTINUOUS
10
122.407575
20
507.773285
30
0.0
11
124.012355
21
506.613465
31
0.0
0
LINE
8
0
6
CONTINUOUS
10
122.806315
20
509.515535
30
0.0
11
122.407575
21
507.773285
31
0.0
0
LINE
8
0
6
CONTINUOUS
10
124.809825
20
510.097805
30
0.0
11
122.806315
21
509.515535
31
0.0
0
LINE
8
0
6
CONTINUOUS
10
126.414605
20
508.937985
30
0.0
11
124.809825
21
510.097805
31
0.0
0
LINE
8
0
6
CONTINUOUS
10
122.806315
20
509.515535
30
0.0
11
124.809825
21
510.097805
31
0.0
0
LINE
8
0
6
CONTINUOUS
10
122.407575
20
507.773285
30
0.0
11
122.806315
21
509.515535
31
0.0
0
LINE
8
0
6
CONTINUOUS
10
122.407577
20
508.345348
30
0.0
11
122.407575
21
507.773285
31
0.0
0
LINE
8
0
6
CONTINUOUS
10
-158.207025
20
-399.122005
30
0.0
11
-158.207025
21
-386.608275
31
0.0
0
LINE
8
0
6
CONTINUOUS
10
-162.225615
20
-399.122005
30
0.0
11
-162.225615
21
-386.608275
31
0.0
0
LINE
8
0
6
CONTINUOUS
10
-170.262805
20
-399.122005
30
0.0
11
-170.262805
21
-386.608275
31
0.0
0
LINE
8
0
6
CONTINUOUS
10
-174.281395
20
-386.608275
30
0.0
11
-174.281395
21
-399.122005
31
0.0
0
LINE
8
0
6
CONTINUOUS
10
-158.207025
20
-415.838545
30
0.0
11
-158.207025
21
-399.122005
31
0.0
0
LINE
8
0
6
CONTINUOUS
10
-162.225615
20
-415.838545
30
0.0
11
-162.225615
21
-399.122005
31
0.0
0
LINE
8
0
6
CONTINUOUS
10
-170.262805
20
-415.838545
30
0.0
11
-170.262805
21
-399.122005
31
0.0
0
LINE
8
0
6
CONTINUOUS
10
-174.281395
20
-399.122005
30
0.0
11
-174.281395
21
-415.838545
31
0.0
0
LINE
8
0
6
CONTINUOUS
10
-158.207025
20
-432.324215
30
0.0
11
-158.207025
21
-415.838545
31
0.0
0
LINE
8
0
6
CONTINUOUS
10
-162.225615
20
-432.324215
30
0.0
11
-162.225615
21
-415.838545
31
0.0
0
LINE
8
0
6
CONTINUOUS
10
-170.262805
20
-432.324215
30
0.0
11
-170.262805
21
-415.838545
31
0.0
0
LINE
8
0
6
CONTINUOUS
10
-174.281395
20
-415.838545
30
0.0
11
-174.281395
21
-432.324215
31
0.0
0
LINE
8
0
6
CONTINUOUS
10
-158.207025
20
-448.551105
30
0.0
11
-158.207025
21
-432.324215
31
0.0
0
LINE
8
0
6
CONTINUOUS
10
-162.225615
20
-448.551105
30
0.0
11
-162.225615
21
-432.324215
31
0.0
0
LINE
8
0
6
CONTINUOUS
10
-170.262805
20
-448.551105
30
0.0
11
-170.262805
21
-432.324215
31
0.0
0
LINE
8
0
6
CONTINUOUS
10
-174.281395
20
-432.324215
30
0.0
11
-174.281395
21
-448.551105
31
0.0
0
LINE
8
0
6
CONTINUOUS
10
-158.207025
20
-464.491195
30
0.0
11
-158.207025
21
-448.551105
31
0.0
0
LINE
8
0
6
CONTINUOUS
10
-162.225615
20
-464.491195
30
0.0
11
-162.225615
21
-448.551105
31
0.0
0
LINE
8
0
6
CONTINUOUS
10
-170.262805
20
-464.491195
30
0.0
11
-170.262805
21
-448.551105
31
0.0
0
LINE
8
0
6
CONTINUOUS
10
-174.281395
20
-448.551105
30
0.0
11
-174.281395
21
-464.491195
31
0.0
0
LINE
8
0
6
CONTINUOUS
10
-158.207025
20
-480.116575
30
0.0
11
-158.207025
21
-464.491195
31
0.0
0
LINE
8
0
6
CONTINUOUS
10
-162.225615
20
-480.116575
30
0.0
11
-162.225615
21
-464.491195
31
0.0
0
LINE
8
0
6
CONTINUOUS
10
-170.262805
20
-480.116575
30
0.0
11
-170.262805
21
-464.491195
31
0.0
0
LINE
8
0
6
CONTINUOUS
10
-174.281395
20
-464.491195
30
0.0
11
-174.281395
21
-480.116575
31
0.0
0
LINE
8
0
6
CONTINUOUS
10
-158.207025
20
-495.399325
30
0.0
11
-158.207025
21
-480.116575
31
0.0
0
LINE
8
0
6
CONTINUOUS
10
-162.225615
20
-495.399325
30
0.0
11
-162.225615
21
-480.116575
31
0.0
0
LINE
8
0
6
CONTINUOUS
10
-170.262805
20
-495.399325
30
0.0
11
-170.262805
21
-480.116575
31
0.0
0
LINE
8
0
6
CONTINUOUS
10
-174.281395
20
-480.116575
30
0.0
11
-174.281395
21
-495.399325
31
0.0
0
LINE
8
0
6
CONTINUOUS
10
-158.207025
20
-510.311435
30
0.0
11
-158.207025
21
-495.399325
31
0.0
0
LINE
8
0
6
CONTINUOUS
10
-162.225615
20
-510.311435
30
0.0
11
-162.225615
21
-495.399325
31
0.0
0
LINE
8
0
6
CONTINUOUS
10
-170.262805
20
-510.311435
30
0.0
11
-170.262805
21
-495.399325
31
0.0
0
LINE
8
0
6
CONTINUOUS
10
-174.281395
20
-495.399325
30
0.0
11
-174.281395
21
-510.311435
31
0.0
0
LINE
8
0
6
CONTINUOUS
10
-158.207295
20
-524.760135
30
0.0
11
-158.207025
21
-510.311435
31
0.0
0
LINE
8
0
6
CONTINUOUS
10
-162.225735
20
-524.794615
30
0.0
11
-162.225615
21
-510.311435
31
0.0
0
LINE
8
0
6
CONTINUOUS
10
-170.262675
20
-524.859465
30
0.0
11
-170.262805
21
-510.311435
31
0.0
0
LINE
8
0
6
CONTINUOUS
10
-174.281395
20
-510.311435
30
0.0
11
-174.281135
21
-524.889835
31
0.0
0
LINE
8
0
6
CONTINUOUS
10
-157.946105
20
-541.025925
30
0.0
11
-158.207295
21
-524.760135
31
0.0
0
LINE
8
0
6
CONTINUOUS
10
-161.961795
20
-541.183475
30
0.0
11
-162.225735
21
-524.794615
31
0.0
0
LINE
8
0
6
CONTINUOUS
10
-169.993525
20
-541.479565
30
0.0
11
-170.262675
21
-524.859465
31
0.0
0
LINE
8
0
6
CONTINUOUS
10
-174.281135
20
-524.889835
30
0.0
11
-174.009565
21
-541.618115
31
0.0
0
LINE
8
0
6
CONTINUOUS
10
-157.092735
20
-555.861055
30
0.0
11
-157.946105
21
-541.025925
31
0.0
0
LINE
8
0
6
CONTINUOUS
10
-161.095685
20
-556.226505
30
0.0
11
-161.961795
21
-541.183475
31
0.0
0
LINE
8
0
6
CONTINUOUS
10
-169.103485
20
-556.913375
30
0.0
11
-169.993525
21
-541.479565
31
0.0
0
LINE
8
0
6
CONTINUOUS
10
-174.009565
20
-541.618115
30
0.0
11
-173.108325
21
-557.234805
31
0.0
0
LINE
8
0
6
CONTINUOUS
10
-155.547725
20
-569.424285
30
0.0
11
-157.092735
21
-555.861055
31
0.0
0
LINE
8
0
6
CONTINUOUS
10
-159.518525
20
-570.061875
30
0.0
11
-161.095685
21
-556.226505
31
0.0
0
LINE
8
0
6
CONTINUOUS
10
-167.465865
20
-571.260145
30
0.0
11
-169.103485
21
-556.913375
31
0.0
0
LINE
8
0
6
CONTINUOUS
10
-173.108325
20
-557.234805
30
0.0
11
-171.442425
21
-571.820835
31
0.0
0
LINE
8
0
6
CONTINUOUS
10
-153.218685
20
-581.833575
30
0.0
11
-155.547725
21
-569.424285
31
0.0
0
LINE
8
0
6
CONTINUOUS
10
-157.124665
20
-582.808455
30
0.0
11
-159.518525
21
-570.061875
31
0.0
0
LINE
8
0
6
CONTINUOUS
10
-164.950215
20
-584.640735
30
0.0
11
-167.465865
21
-571.260145
31
0.0
0
LINE
8
0
6
CONTINUOUS
10
-171.442425
20
-571.820835
30
0.0
11
-168.869775
21
-585.498125
31
0.0
0
LINE
8
0
6
CONTINUOUS
10
-150.016225
20
-593.225705
30
0.0
11
-153.218685
21
-581.833575
31
0.0
0
LINE
8
0
6
CONTINUOUS
10
-153.809945
20
-594.594195
30
0.0
11
-157.124665
21
-582.808455
31
0.0
0
LINE
8
0
6
CONTINUOUS
10
-161.424475
20
-597.166135
30
0.0
11
-164.950215
21
-584.640735
31
0.0
0
LINE
8
0
6
CONTINUOUS
10
-168.869775
20
-585.498125
30
0.0
11
-165.245295
21
-598.369595
31
0.0
0
LINE
8
0
6
CONTINUOUS
10
-145.843955
20
-603.761295
30
0.0
11
-150.016225
21
-593.225705
31
0.0
0
LINE
8
0
6
CONTINUOUS
10
-149.466835
20
-605.557865
30
0.0
11
-153.809945
21
-594.594195
31
0.0
0
LINE
8
0
6
CONTINUOUS
10
-156.760305
20
-608.934405
30
0.0
11
-161.424475
21
-597.166135
31
0.0
0
LINE
8
0
6
CONTINUOUS
10
-165.245295
20
-598.369595
30
0.0
11
-160.430905
21
-610.514375
31
0.0
0
LINE
8
0
6
CONTINUOUS
10
-140.585525
20
-613.621215
30
0.0
11
-145.843955
21
-603.761295
31
0.0
0
LINE
8
0
6
CONTINUOUS
10
-143.978545
20
-615.848005
30
0.0
11
-149.466835
21
-605.557865
31
0.0
0
LINE
8
0
6
CONTINUOUS
10
-150.840005
20
-620.033115
30
0.0
11
-156.760305
21
-608.934405
31
0.0
0
LINE
8
0
6
CONTINUOUS
10
-160.430905
20
-610.514375
30
0.0
11
-154.308445
21
-621.991425
31
0.0
0
LINE
8
0
6
CONTINUOUS
10
-134.097685
20
-622.989425
30
0.0
11
-140.585525
21
-613.621215
31
0.0
0
LINE
8
0
6
CONTINUOUS
10
-137.215665
20
-625.614475
30
0.0
11
-143.978545
21
-615.848005
31
0.0
0
LINE
8
0
6
CONTINUOUS
10
-143.560175
20
-630.547945
30
0.0
11
-150.840005
21
-620.033115
31
0.0
0
LINE
8
0
6
CONTINUOUS
10
-154.308445
20
-621.991425
30
0.0
11
-146.786735
21
-632.856525
31
0.0
0
LINE
8
0
6
CONTINUOUS
10
-126.216975
20
-632.032855
30
0.0
11
-134.097685
21
-622.989425
31
0.0
0
LINE
8
0
6
CONTINUOUS
10
-129.039295
20
-634.999085
30
0.0
11
-137.215665
21
-625.614475
31
0.0
0
LINE
8
0
6
CONTINUOUS
10
-134.828175
20
-640.573885
30
0.0
11
-143.560175
21
-630.547945
31
0.0
0
LINE
8
0
6
CONTINUOUS
10
-146.786735
20
-632.856525
30
0.0
11
-137.794735
21
-643.182445
31
0.0
0
LINE
8
0
6
CONTINUOUS
10
-116.940525
20
-640.753025
30
0.0
11
-126.216975
21
-632.032855
31
0.0
0
LINE
8
0
6
CONTINUOUS
10
-119.385745
20
-644.066315
30
0.0
11
-129.039295
21
-634.999085
31
0.0
0
LINE
8
0
6
CONTINUOUS
10
-124.465875
20
-650.293425
30
0.0
11
-134.828175
21
-640.573885
31
0.0
0
LINE
8
0
6
CONTINUOUS
10
-137.794735
20
-643.182445
30
0.0
11
-127.100785
21
-653.207245
31
0.0
0
LINE
8
0
6
CONTINUOUS
10
-103.918015
20
-649.945445
30
0.0
11
-116.940525
21
-640.753025
31
0.0
0
LINE
8
0
6
CONTINUOUS
10
-105.820305
20
-653.635325
30
0.0
11
-119.385745
21
-644.066315
31
0.0
0
LINE
8
0
6
CONTINUOUS
10
-109.880035
20
-660.570225
30
0.0
11
-124.465875
21
-650.293425
31
0.0
0
LINE
8
0
6
CONTINUOUS
10
-127.100785
20
-653.207245
30
0.0
11
-112.037475
21
-663.815235
31
0.0
0
LINE
8
0
6
CONTINUOUS
10
-88.884355
20
-657.088245
30
0.0
11
-103.918015
21
-649.945445
31
0.0
0
LINE
8
0
6
CONTINUOUS
10
-90.177035
20
-661.072385
30
0.0
11
-105.820305
21
-653.635325
31
0.0
0
LINE
8
0
6
CONTINUOUS
10
-93.091035
20
-668.560335
30
0.0
11
-109.880035
21
-660.570225
31
0.0
0
LINE
8
0
6
CONTINUOUS
10
-112.037475
20
-663.815235
30
0.0
11
-94.712355
21
-672.064135
31
0.0
0
LINE
8
0
6
CONTINUOUS
10
-72.090325
20
-662.216565
30
0.0
11
-88.884355
21
-657.088245
31
0.0
0
LINE
8
0
6
CONTINUOUS
10
-72.815945
20
-666.376575
30
0.0
11
-90.177035
21
-661.072385
31
0.0
0
LINE
8
0
6
CONTINUOUS
10
-74.664215
20
-674.195025
30
0.0
11
-93.091035
21
-668.560335
31
0.0
0
LINE
8
0
6
CONTINUOUS
10
-94.712355
20
-672.064135
30
0.0
11
-75.786845
21
-677.853465
31
0.0
0
LINE
8
0
6
CONTINUOUS
10
-54.002025
20
-665.236735
30
0.0
11
-72.090325
21
-662.216565
31
0.0
0
LINE
8
0
6
CONTINUOUS
10
-54.197845
20
-669.486695
30
0.0
11
-72.815945
21
-666.376575
31
0.0
0
LINE
8
0
6
CONTINUOUS
10
-55.050365
20
-677.474055
30
0.0
11
-74.664215
21
-674.195025
31
0.0
0
LINE
8
0
6
CONTINUOUS
10
-75.786845
20
-677.853465
30
0.0
11
-55.707065
21
-681.211625
31
0.0
0
LINE
8
0
6
CONTINUOUS
10
-35.099885
20
-666.080015
30
0.0
11
-54.002025
21
-665.236735
31
0.0
0
LINE
8
0
6
CONTINUOUS
10
-34.790215
20
-670.353085
30
0.0
11
-54.197845
21
-669.486695
31
0.0
0
LINE
8
0
6
CONTINUOUS
10
-34.692685
20
-678.384015
30
0.0
11
-55.050365
21
-677.474055
31
0.0
0
LINE
8
0
6
CONTINUOUS
10
-55.707065
20
-681.211625
30
0.0
11
-34.904845
21
-682.141875
31
0.0
0
LINE
8
0
6
CONTINUOUS
10
-15.867135
20
-664.698715
30
0.0
11
-35.099885
21
-666.080015
31
0.0
0
LINE
8
0
6
CONTINUOUS
10
-15.061855
20
-668.936085
30
0.0
11
-34.790215
21
-670.353085
31
0.0
0
LINE
8
0
6
CONTINUOUS
10
-14.032885
20
-676.900105
30
0.0
11
-34.692685
21
-678.384015
31
0.0
0
LINE
8
0
6
CONTINUOUS
10
-34.904845
20
-682.141875
30
0.0
11
-13.809185
21
-680.626605
31
0.0
0
LINE
8
0
6
CONTINUOUS
10
3.215705
20
-661.062465
30
0.0
11
-15.867135
21
-664.698715
31
0.0
0
LINE
8
0
6
CONTINUOUS
10
4.519685
20
-665.204165
30
0.0
11
-15.061855
21
-668.936085
31
0.0
0
LINE
8
0
6
CONTINUOUS
10
6.485955
20
-672.988355
30
0.0
11
-14.032885
21
-676.900105
31
0.0
0
LINE
8
0
6
CONTINUOUS
10
-13.809185
20
-680.626605
30
0.0
11
7.148235
21
-676.630705
31
0.0
0
LINE
8
0
6
CONTINUOUS
10
21.674865
20
-655.155865
30
0.0
11
3.215705
21
-661.062465
31
0.0
0
LINE
8
0
6
CONTINUOUS
10
23.490055
20
-659.132695
30
0.0
11
4.519685
21
-665.204165
31
0.0
0
LINE
8
0
6
CONTINUOUS
10
26.417085
20
-666.606905
30
0.0
11
6.485955
21
-672.988355
31
0.0
0
LINE
8
0
6
CONTINUOUS
10
7.148235
20
-676.630705
30
0.0
11
27.528935
21
-670.104295
31
0.0
0
LINE
8
0
6
CONTINUOUS
10
39.048775
20
-646.976165
30
0.0
11
21.674865
21
-655.155865
31
0.0
0
LINE
8
0
6
CONTINUOUS
10
41.390555
20
-650.702975
30
0.0
11
23.490055
21
-659.132695
31
0.0
0
LINE
8
0
6
CONTINUOUS
10
45.307305
20
-657.707215
30
0.0
11
26.417085
21
-666.606905
31
0.0
0
LINE
8
0
6
CONTINUOUS
10
27.528935
20
-670.104295
30
0.0
11
46.882265
21
-660.984645
31
0.0
0
LINE
8
0
6
CONTINUOUS
10
55.045425
20
-636.414715
30
0.0
11
39.048775
21
-646.976165
31
0.0
0
LINE
8
0
6
CONTINUOUS
10
57.841885
20
-639.846725
30
0.0
11
41.390555
21
-650.702975
31
0.0
0
LINE
8
0
6
CONTINUOUS
10
62.613145
20
-646.296995
30
0.0
11
45.307305
21
-657.707215
31
0.0
0
LINE
8
0
6
CONTINUOUS
10
46.882265
20
-660.984645
30
0.0
11
64.587955
21
-649.315265
31
0.0
0
LINE
8
0
6
CONTINUOUS
10
64.679615
20
-628.387755
30
0.0
11
55.045425
21
-636.414715
31
0.0
0
LINE
8
0
6
CONTINUOUS
10
67.789175
20
-631.563495
30
0.0
11
57.841885
21
-639.846725
31
0.0
0
LINE
8
0
6
CONTINUOUS
10
73.148895
20
-637.532045
30
0.0
11
62.613145
21
-646.296995
31
0.0
0
LINE
8
0
6
CONTINUOUS
10
64.587955
20
-649.315265
30
0.0
11
75.399055
21
-640.324855
31
0.0
0
LINE
8
0
6
CONTINUOUS
10
73.363335
20
-619.925305
30
0.0
11
64.679615
21
-628.387755
31
0.0
0
LINE
8
0
6
CONTINUOUS
10
76.730645
20
-622.848285
30
0.0
11
67.789175
21
-631.563495
31
0.0
0
LINE
8
0
6
CONTINUOUS
10
82.574785
20
-628.341675
30
0.0
11
73.148895
21
-637.532045
31
0.0
0
LINE
8
0
6
CONTINUOUS
10
75.399055
20
-640.324855
30
0.0
11
85.051625
21
-630.912245
31
0.0
0
LINE
8
0
6
CONTINUOUS
10
80.975455
20
-611.028445
30
0.0
11
73.363335
21
-619.925305
31
0.0
0
LINE
8
0
6
CONTINUOUS
10
84.606905
20
-613.641055
30
0.0
11
76.730645
21
-622.848285
31
0.0
0
LINE
8
0
6
CONTINUOUS
10
90.947505
20
-618.551255
30
0.0
11
82.574785
21
-628.341675
31
0.0
0
LINE
8
0
6
CONTINUOUS
10
85.051625
20
-630.912245
30
0.0
11
93.656645
21
-620.848845
31
0.0
0
LINE
8
0
6
CONTINUOUS
10
87.547435
20
-601.573185
30
0.0
11
80.975455
21
-611.028445
31
0.0
0
LINE
8
0
6
CONTINUOUS
10
91.429985
20
-603.823245
30
0.0
11
84.606905
21
-613.641055
31
0.0
0
LINE
8
0
6
CONTINUOUS
10
98.242505
20
-608.052135
30
0.0
11
90.947505
21
-618.551255
31
0.0
0
LINE
8
0
6
CONTINUOUS
10
93.656645
20
-620.848845
30
0.0
11
101.172475
21
-610.030975
31
0.0
0
LINE
8
0
6
CONTINUOUS
10
93.110075
20
-591.418225
30
0.0
11
87.547435
21
-601.573185
31
0.0
0
LINE
8
0
6
CONTINUOUS
10
97.211595
20
-593.268275
30
0.0
11
91.429985
21
-603.823245
31
0.0
0
LINE
8
0
6
CONTINUOUS
10
104.435635
20
-596.745375
30
0.0
11
98.242505
21
-608.052135
31
0.0
0
LINE
8
0
6
CONTINUOUS
10
101.172475
20
-610.030975
30
0.0
11
107.558165
21
-598.372425
31
0.0
0
LINE
8
0
6
CONTINUOUS
10
97.683765
20
-580.409165
30
0.0
11
93.110075
21
-591.418225
31
0.0
0
LINE
8
0
6
CONTINUOUS
10
101.958555
20
-581.843335
30
0.0
11
97.211595
21
-593.268275
31
0.0
0
LINE
8
0
6
CONTINUOUS
10
109.508265
20
-584.538725
30
0.0
11
104.435635
21
-596.745375
31
0.0
0
LINE
8
0
6
CONTINUOUS
10
107.558165
20
-598.372425
30
0.0
11
112.783175
21
-585.799945
31
0.0
0
LINE
8
0
6
CONTINUOUS
10
101.272385
20
-568.388135
30
0.0
11
97.683765
21
-580.409165
31
0.0
0
LINE
8
0
6
CONTINUOUS
10
105.669985
20
-569.413835
30
0.0
11
101.958555
21
-581.843335
31
0.0
0
LINE
8
0
6
CONTINUOUS
10
113.450535
20
-571.341705
30
0.0
11
109.508265
21
-584.538725
31
0.0
0
LINE
8
0
6
CONTINUOUS
10
112.783175
20
-585.799945
30
0.0
11
116.833455
21
-572.243725
31
0.0
0
LINE
8
0
6
CONTINUOUS
10
103.863985
20
-555.204545
30
0.0
11
101.272385
21
-568.388135
31
0.0
0
LINE
8
0
6
CONTINUOUS
10
108.337605
20
-555.848925
30
0.0
11
105.669985
21
-569.413835
31
0.0
0
LINE
8
0
6
CONTINUOUS
10
116.261005
20
-557.060015
30
0.0
11
113.450535
21
-571.341705
31
0.0
0
LINE
8
0
6
CONTINUOUS
10
116.833455
20
-572.243725
30
0.0
11
119.710785
21
-557.626725
31
0.0
0
LINE
8
0
6
CONTINUOUS
10
105.436765
20
-540.721205
30
0.0
11
103.863985
21
-555.204545
31
0.0
0
LINE
8
0
6
CONTINUOUS
10
109.948495
20
-541.023785
30
0.0
11
108.337605
21
-555.848925
31
0.0
0
LINE
8
0
6
CONTINUOUS
10
117.943525
20
-541.592485
30
0.0
11
116.261005
21
-557.060015
31
0.0
0
LINE
8
0
6
CONTINUOUS
10
119.710785
20
-557.626725
30
0.0
11
121.426815
21
-541.858595
31
0.0
0
LINE
8
0
6
CONTINUOUS
10
105.967005
20
-524.691005
30
0.0
11
105.436765
21
-540.721205
31
0.0
0
LINE
8
0
6
CONTINUOUS
10
110.488865
20
-524.762265
30
0.0
11
109.948495
21
-541.023785
31
0.0
0
LINE
8
0
6
CONTINUOUS
10
118.502925
20
-524.896315
30
0.0
11
117.943525
21
-541.592485
31
0.0
0
LINE
8
0
6
CONTINUOUS
10
121.426815
20
-541.858595
30
0.0
11
121.995115
21
-524.958955
31
0.0
0
LINE
8
0
6
CONTINUOUS
10
105.965895
20
-495.005795
30
0.0
11
105.967005
21
-524.691005
31
0.0
0
LINE
8
0
6
CONTINUOUS
10
110.488345
20
-495.005795
30
0.0
11
110.488865
21
-524.762265
31
0.0
0
LINE
8
0
6
CONTINUOUS
10
118.503515
20
-495.005795
30
0.0
11
118.502925
21
-524.896315
31
0.0
0
LINE
8
0
6
CONTINUOUS
10
121.995115
20
-524.958955
30
0.0
11
121.996235
21
-495.005795
31
0.0
0
LINE
8
0
6
CONTINUOUS
10
105.965895
20
-438.552325
30
0.0
11
105.965895
21
-495.005795
31
0.0
0
LINE
8
0
6
CONTINUOUS
10
110.488345
20
-438.552325
30
0.0
11
110.488345
21
-495.005795
31
0.0
0
LINE
8
0
6
CONTINUOUS
10
118.503515
20
-438.552325
30
0.0
11
118.503515
21
-495.005795
31
0.0
0
LINE
8
0
6
CONTINUOUS
10
121.996235
20
-495.005795
30
0.0
11
121.996235
21
-438.552325
31
0.0
0
LINE
8
0
6
CONTINUOUS
10
105.965895
20
-362.051395
30
0.0
11
105.965895
21
-438.552325
31
0.0
0
LINE
8
0
6
CONTINUOUS
10
110.488345
20
-362.051395
30
0.0
11
110.488345
21
-438.552325
31
0.0
0
LINE
8
0
6
CONTINUOUS
10
118.503515
20
-362.051395
30
0.0
11
118.503515
21
-438.552325
31
0.0
0
LINE
8
0
6
CONTINUOUS
10
121.996235
20
-438.552325
30
0.0
11
121.996235
21
-362.051395
31
0.0
0
LINE
8
0
6
CONTINUOUS
10
105.965895
20
-272.090035
30
0.0
11
105.965895
21
-362.051395
31
0.0
0
LINE
8
0
6
CONTINUOUS
10
110.488345
20
-272.090035
30
0.0
11
110.488345
21
-362.051395
31
0.0
0
LINE
8
0
6
CONTINUOUS
10
118.503515
20
-272.090035
30
0.0
11
118.503515
21
-362.051395
31
0.0
0
LINE
8
0
6
CONTINUOUS
10
121.996235
20
-362.051395
30
0.0
11
121.996235
21
-272.090035
31
0.0
0
LINE
8
0
6
CONTINUOUS
10
105.965895
20
-175.255125
30
0.0
11
105.965895
21
-272.090035
31
0.0
0
LINE
8
0
6
CONTINUOUS
10
110.488345
20
-175.255125
30
0.0
11
110.488345
21
-272.090035
31
0.0
0
LINE
8
0
6
CONTINUOUS
10
118.503515
20
-175.255125
30
0.0
11
118.503515
21
-272.090035
31
0.0
0
LINE
8
0
6
CONTINUOUS
10
121.996235
20
-272.090035
30
0.0
11
121.996235
21
-175.255125
31
0.0
0
LINE
8
0
6
CONTINUOUS
10
105.965895
20
-78.133625
30
0.0
11
105.965895
21
-175.255125
31
0.0
0
LINE
8
0
6
CONTINUOUS
10
110.488345
20
-78.133625
30
0.0
11
110.488345
21
-175.255125
31
0.0
0
LINE
8
0
6
CONTINUOUS
10
118.503515
20
-78.133625
30
0.0
11
118.503515
21
-175.255125
31
0.0
0
LINE
8
0
6
CONTINUOUS
10
121.996235
20
-175.255125
30
0.0
11
121.996235
21
-78.133625
31
0.0
0
LINE
8
0
6
CONTINUOUS
10
105.965895
20
12.687585
30
0.0
11
105.965895
21
-78.133625
31
0.0
0
LINE
8
0
6
CONTINUOUS
10
110.488345
20
12.687585
30
0.0
11
110.488345
21
-78.133625
31
0.0
0
LINE
8
0
6
CONTINUOUS
10
118.503515
20
12.687585
30
0.0
11
118.503515
21
-78.133625
31
0.0
0
LINE
8
0
6
CONTINUOUS
10
121.996235
20
-78.133625
30
0.0
11
121.996235
21
12.687585
31
0.0
0
LINE
8
0
6
CONTINUOUS
10
105.965895
20
90.621565
30
0.0
11
105.965895
21
12.687585
31
0.0
0
LINE
8
0
6
CONTINUOUS
10
110.488345
20
90.621565
30
0.0
11
110.488345
21
12.687585
31
0.0
0
LINE
8
0
6
CONTINUOUS
10
118.503515
20
90.621565
30
0.0
11
118.503515
21
12.687585
31
0.0
0
LINE
8
0
6
CONTINUOUS
10
121.996235
20
12.687585
30
0.0
11
121.996235
21
90.621565
31
0.0
0
LINE
8
0
6
CONTINUOUS
10
105.965895
20
149.081385
30
0.0
11
105.965895
21
90.621565
31
0.0
0
LINE
8
0
6
CONTINUOUS
10
110.488345
20
149.081385
30
0.0
11
110.488345
21
90.621565
31
0.0
0
LINE
8
0
6
CONTINUOUS
10
118.503515
20
149.081385
30
0.0
11
118.503515
21
90.621565
31
0.0
0
LINE
8
0
6
CONTINUOUS
10
121.996235
20
90.621565
30
0.0
11
121.996235
21
149.081385
31
0.0
0
LINE
8
0
6
CONTINUOUS
10
105.965895
20
181.475795
30
0.0
11
105.965895
21
149.081385
31
0.0
0
LINE
8
0
6
CONTINUOUS
10
110.488345
20
181.426235
30
0.0
11
110.488345
21
149.081385
31
0.0
0
LINE
8
0
6
CONTINUOUS
10
118.503515
20
181.430665
30
0.0
11
118.503515
21
149.081385
31
0.0
0
LINE
8
0
6
CONTINUOUS
10
121.996235
20
149.081385
30
0.0
11
121.996235
21
181.484645
31
0.0
0
LINE
8
0
6
CONTINUOUS
10
105.965895
20
199.258275
30
0.0
11
105.965895
21
181.475795
31
0.0
0
LINE
8
0
6
CONTINUOUS
10
110.488345
20
199.057615
30
0.0
11
110.488345
21
181.426235
31
0.0
0
LINE
8
0
6
CONTINUOUS
10
118.503515
20
199.075545
30
0.0
11
118.503515
21
181.430665
31
0.0
0
LINE
8
0
6
CONTINUOUS
10
121.996235
20
181.484645
30
0.0
11
121.996235
21
199.294165
31
0.0
0
LINE
8
0
6
CONTINUOUS
10
105.965895
20
215.541725
30
0.0
11
105.965895
21
199.258275
31
0.0
0
LINE
8
0
6
CONTINUOUS
10
110.488345
20
215.137065
30
0.0
11
110.488345
21
199.057615
31
0.0
0
LINE
8
0
6
CONTINUOUS
10
118.503515
20
215.173265
30
0.0
11
118.503515
21
199.075545
31
0.0
0
LINE
8
0
6
CONTINUOUS
10
121.996235
20
199.294165
30
0.0
11
121.996235
21
215.614125
31
0.0
0
LINE
8
0
6
CONTINUOUS
10
105.965895
20
230.376735
30
0.0
11
105.965895
21
215.541725
31
0.0
0
LINE
8
0
6
CONTINUOUS
10
110.488345
20
229.767035
30
0.0
11
110.488345
21
215.137065
31
0.0
0
LINE
8
0
6
CONTINUOUS
10
118.503515
20
229.821625
30
0.0
11
118.503515
21
215.173265
31
0.0
0
LINE
8
0
6
CONTINUOUS
10
121.996235
20
215.614125
30
0.0
11
121.996235
21
230.485845
31
0.0
0
LINE
8
0
6
CONTINUOUS
10
105.965895
20
243.809435
30
0.0
11
105.965895
21
230.376735
31
0.0
0
LINE
8
0
6
CONTINUOUS
10
110.488355
20
242.995755
30
0.0
11
110.488345
21
229.767035
31
0.0
0
LINE
8
0
6
CONTINUOUS
10
118.503525
20
243.068545
30
0.0
11
118.503515
21
229.821625
31
0.0
0
LINE
8
0
6
CONTINUOUS
10
121.996235
20
230.485845
30
0.0
11
121.996235
21
243.955045
31
0.0
0
LINE
8
0
6
CONTINUOUS
10
105.965905
20
255.885925
30
0.0
11
105.965895
21
243.809435
31
0.0
0
LINE
8
0
6
CONTINUOUS
10
110.488355
20
254.872135
30
0.0
11
110.488355
21
242.995755
31
0.0
0
LINE
8
0
6
CONTINUOUS
10
118.503525
20
254.962845
30
0.0
11
118.503525
21
243.068545
31
0.0
0
LINE
8
0
6
CONTINUOUS
10
121.996235
20
243.955045
30
0.0
11
121.996245
21
256.067355
31
0.0
0
LINE
8
0
6
CONTINUOUS
10
105.965905
20
265.652506
30
0.0
11
105.965905
21
255.885925
31
0.0
0
LINE
8
0
6
CONTINUOUS
10
110.488365
20
265.222277
30
0.0
11
110.488355
21
254.872135
31
0.0
0
LINE
8
0
6
CONTINUOUS
10
118.503535
20
265.309721
30
0.0
11
118.503525
21
254.962845
31
0.0
0
LINE
8
0
6
CONTINUOUS
10
121.996245
20
256.067355
30
0.0
11
121.996245
21
265.684207
31
0.0
0
LINE
8
0
6
CONTINUOUS
10
-174.430155
20
-384.261775
30
0.0
11
-176.491095
21
-384.261935
31
0.0
0
LINE
8
0
6
CONTINUOUS
10
-158.796555
20
-365.108185
30
0.0
11
-162.724145
21
-365.108185
31
0.0
0
LINE
8
0
6
CONTINUOUS
10
-163.033095
20
-384.261775
30
0.0
11
-159.434235
21
-384.261935
31
0.0
0
LINE
8
0
6
CONTINUOUS
10
-177.411475
20
-365.108185
30
0.0
11
-177.986555
21
-365.108185
31
0.0
0
LINE
8
0
6
CONTINUOUS
10
-177.018065
20
-384.261775
30
0.0
11
-176.491095
21
-384.261935
31
0.0
0
LINE
8
0
6
CONTINUOUS
10
-177.986555
20
-365.108185
30
0.0
11
-177.018065
21
-384.261775
31
0.0
0
LINE
8
0
6
CONTINUOUS
10
-154.841775
20
-365.108185
30
0.0
11
-156.028625
21
-365.108185
31
0.0
0
LINE
8
0
6
CONTINUOUS
10
-155.810505
20
-384.261775
30
0.0
11
-154.841775
21
-365.108185
31
0.0
0
LINE
8
0
6
CONTINUOUS
10
-156.898015
20
-384.261935
30
0.0
11
-155.810505
21
-384.261775
31
0.0
0
LINE
8
0
6
CONTINUOUS
10
-156.028625
20
-365.108185
30
0.0
11
-158.796555
21
-365.108185
31
0.0
0
LINE
8
0
6
CONTINUOUS
10
-159.434235
20
-384.261935
30
0.0
11
-156.898015
21
-384.261935
31
0.0
0
LINE
8
0
6
CONTINUOUS
10
-167.213565
20
-365.108185
30
0.0
11
-171.581295
21
-365.108185
31
0.0
0
LINE
8
0
6
CONTINUOUS
10
-171.148905
20
-384.261935
30
0.0
11
-167.146775
21
-384.261935
31
0.0
0
LINE
8
0
6
CONTINUOUS
10
-175.162265
20
-365.108185
30
0.0
11
-177.411475
21
-365.108185
31
0.0
0
LINE
8
0
6
CONTINUOUS
10
-176.491095
20
-384.261935
30
0.0
11
-174.430155
21
-384.261775
31
0.0
0
LINE
8
0
6
CONTINUOUS
10
-171.581295
20
-365.108185
30
0.0
11
-175.162265
21
-365.108185
31
0.0
0
LINE
8
0
6
CONTINUOUS
10
-174.430155
20
-384.261775
30
0.0
11
-171.148905
21
-384.261935
31
0.0
0
LINE
8
0
6
CONTINUOUS
10
-162.724145
20
-365.108185
30
0.0
11
-167.213565
21
-365.108185
31
0.0
0
LINE
8
0
6
CONTINUOUS
10
-167.146775
20
-384.261935
30
0.0
11
-163.033095
21
-384.261775
31
0.0
0
LINE
8
0
6
CONTINUOUS
10
-156.468785
20
-363.608855
30
0.0
11
-159.119425
21
-363.608855
31
0.0
0
LINE
8
0
6
CONTINUOUS
10
-158.796555
20
-365.108185
30
0.0
11
-156.028625
21
-365.108185
31
0.0
0
LINE
8
0
6
CONTINUOUS
10
-167.146775
20
-384.261935
30
0.0
11
-171.148905
21
-384.261935
31
0.0
0
LINE
8
0
6
CONTINUOUS
10
-159.434235
20
-384.261935
30
0.0
11
-163.033095
21
-384.261775
31
0.0
0
LINE
8
0
6
CONTINUOUS
10
-177.018065
20
-384.261775
30
0.0
11
-176.847715
21
-384.592595
31
0.0
0
LINE
8
0
6
CONTINUOUS
10
-176.491095
20
-384.261935
30
0.0
11
-177.018065
21
-384.261775
31
0.0
0
LINE
8
0
6
CONTINUOUS
10
-163.033095
20
-384.261775
30
0.0
11
-167.146775
21
-384.261935
31
0.0
0
LINE
8
0
6
CONTINUOUS
10
-156.898015
20
-384.261935
30
0.0
11
-159.434235
21
-384.261935
31
0.0
0
LINE
8
0
6
CONTINUOUS
10
-155.980825
20
-384.592595
30
0.0
11
-155.810505
21
-384.261775
31
0.0
0
LINE
8
0
6
CONTINUOUS
10
-155.810505
20
-384.261775
30
0.0
11
-156.898015
21
-384.261935
31
0.0
0
LINE
8
0
6
CONTINUOUS
10
-171.148905
20
-384.261935
30
0.0
11
-174.430155
21
-384.261775
31
0.0
0
LINE
8
0
6
CONTINUOUS
10
-177.018065
20
-384.934085
30
0.0
11
-177.018045
21
-385.850065
31
0.0
0
LINE
8
0
6
CONTINUOUS
10
-176.491095
20
-384.934085
30
0.0
11
-177.018065
21
-384.934085
31
0.0
0
LINE
8
0
6
CONTINUOUS
10
-174.430175
20
-384.934085
30
0.0
11
-176.491095
21
-384.934085
31
0.0
0
LINE
8
0
6
CONTINUOUS
10
-155.810485
20
-385.850065
30
0.0
11
-155.810505
21
-384.934085
31
0.0
0
LINE
8
0
6
CONTINUOUS
10
-155.810505
20
-384.934085
30
0.0
11
-156.898015
21
-384.934085
31
0.0
0
LINE
8
0
6
CONTINUOUS
10
-167.146775
20
-384.934085
30
0.0
11
-171.148925
21
-384.934085
31
0.0
0
LINE
8
0
6
CONTINUOUS
10
-159.434235
20
-384.934085
30
0.0
11
-163.033095
21
-384.934085
31
0.0
0
LINE
8
0
6
CONTINUOUS
10
-156.898015
20
-384.934085
30
0.0
11
-159.434235
21
-384.934085
31
0.0
0
LINE
8
0
6
CONTINUOUS
10
-171.148905
20
-385.850065
30
0.0
11
-171.148925
21
-384.934085
31
0.0
0
LINE
8
0
6
CONTINUOUS
10
-171.148925
20
-384.934085
30
0.0
11
-174.430175
21
-384.934085
31
0.0
0
LINE
8
0
6
CONTINUOUS
10
-163.033095
20
-385.850065
30
0.0
11
-163.033095
21
-384.934085
31
0.0
0
LINE
8
0
6
CONTINUOUS
10
-163.033095
20
-384.934085
30
0.0
11
-167.146775
21
-384.934085
31
0.0
0
LINE
8
0
6
CONTINUOUS
10
-171.148925
20
-384.934085
30
0.0
11
-167.146775
21
-384.934085
31
0.0
0
LINE
8
0
6
CONTINUOUS
10
-167.135005
20
-384.592595
30
0.0
11
-171.072855
21
-384.592595
31
0.0
0
LINE
8
0
6
CONTINUOUS
10
-163.033095
20
-384.934085
30
0.0
11
-159.434235
21
-384.934085
31
0.0
0
LINE
8
0
6
CONTINUOUS
10
-159.546365
20
-384.592595
30
0.0
11
-163.087415
21
-384.592595
31
0.0
0
LINE
8
0
6
CONTINUOUS
10
-155.810505
20
-384.934085
30
0.0
11
-155.980825
21
-384.592595
31
0.0
0
LINE
8
0
6
CONTINUOUS
10
-156.898015
20
-384.934085
30
0.0
11
-155.810505
21
-384.934085
31
0.0
0
LINE
8
0
6
CONTINUOUS
10
-155.980825
20
-384.592595
30
0.0
11
-157.050885
21
-384.592595
31
0.0
0
LINE
8
0
6
CONTINUOUS
10
-176.491095
20
-384.934085
30
0.0
11
-174.430175
21
-384.934085
31
0.0
0
LINE
8
0
6
CONTINUOUS
10
-174.301385
20
-384.592595
30
0.0
11
-176.329225
21
-384.592595
31
0.0
0
LINE
8
0
6
CONTINUOUS
10
-159.434235
20
-384.934085
30
0.0
11
-156.898015
21
-384.934085
31
0.0
0
LINE
8
0
6
CONTINUOUS
10
-157.050885
20
-384.592595
30
0.0
11
-159.546365
21
-384.592595
31
0.0
0
LINE
8
0
6
CONTINUOUS
10
-167.146775
20
-384.934085
30
0.0
11
-163.033095
21
-384.934085
31
0.0
0
LINE
8
0
6
CONTINUOUS
10
-163.087415
20
-384.592595
30
0.0
11
-167.135005
21
-384.592595
31
0.0
0
LINE
8
0
6
CONTINUOUS
10
-174.430175
20
-384.934085
30
0.0
11
-171.148925
21
-384.934085
31
0.0
0
LINE
8
0
6
CONTINUOUS
10
-171.072855
20
-384.592595
30
0.0
11
-174.281395
21
-384.592595
31
0.0
0
LINE
8
0
6
CONTINUOUS
10
-177.018065
20
-384.934085
30
0.0
11
-176.491095
21
-384.934085
31
0.0
0
LINE
8
0
6
CONTINUOUS
10
-176.847715
20
-384.592595
30
0.0
11
-177.018065
21
-384.934085
31
0.0
0
LINE
8
0
6
CONTINUOUS
10
-176.329225
20
-384.592595
30
0.0
11
-176.847715
21
-384.592595
31
0.0
0
LINE
8
0
6
CONTINUOUS
10
-155.810445
20
-386.608275
30
0.0
11
-155.810485
21
-385.850065
31
0.0
0
LINE
8
0
6
CONTINUOUS
10
-156.897975
20
-386.608275
30
0.0
11
-155.810445
21
-386.608275
31
0.0
0
LINE
8
0
6
CONTINUOUS
10
-159.434255
20
-386.608275
30
0.0
11
-156.897975
21
-386.608275
31
0.0
0
LINE
8
0
6
CONTINUOUS
10
-167.146755
20
-386.608275
30
0.0
11
-163.033095
21
-386.608275
31
0.0
0
LINE
8
0
6
CONTINUOUS
10
-163.033095
20
-386.608275
30
0.0
11
-159.434255
21
-386.608275
31
0.0
0
LINE
8
0
6
CONTINUOUS
10
-163.033095
20
-385.850065
30
0.0
11
-163.033095
21
-386.608275
31
0.0
0
LINE
8
0
6
CONTINUOUS
10
-174.430155
20
-386.608275
30
0.0
11
-171.148905
21
-386.608275
31
0.0
0
LINE
8
0
6
CONTINUOUS
10
-177.018025
20
-386.608275
30
0.0
11
-176.491095
21
-386.608275
31
0.0
0
LINE
8
0
6
CONTINUOUS
10
-177.018045
20
-385.850065
30
0.0
11
-177.018025
21
-386.608275
31
0.0
0
LINE
8
0
6
CONTINUOUS
10
-171.148905
20
-386.608275
30
0.0
11
-167.146755
21
-386.608275
31
0.0
0
LINE
8
0
6
CONTINUOUS
10
-171.148905
20
-385.850065
30
0.0
11
-171.148905
21
-386.608275
31
0.0
0
LINE
8
0
6
CONTINUOUS
10
-176.491095
20
-386.608275
30
0.0
11
-174.430155
21
-386.608275
31
0.0
0
LINE
8
0
6
CONTINUOUS
10
-174.791675
20
-363.608855
30
0.0
11
-176.945565
21
-363.608855
31
0.0
0
LINE
8
0
6
CONTINUOUS
10
-177.411475
20
-365.108185
30
0.0
11
-175.162265
21
-365.108185
31
0.0
0
LINE
8
0
6
CONTINUOUS
10
-162.880605
20
-363.608855
30
0.0
11
-167.179785
21
-363.608855
31
0.0
0
LINE
8
0
6
CONTINUOUS
10
-167.213565
20
-365.108185
30
0.0
11
-162.724145
21
-365.108185
31
0.0
0
LINE
8
0
6
CONTINUOUS
10
-171.362445
20
-363.608855
30
0.0
11
-174.791675
21
-363.608855
31
0.0
0
LINE
8
0
6
CONTINUOUS
10
-175.162265
20
-365.108185
30
0.0
11
-171.581295
21
-365.108185
31
0.0
0
LINE
8
0
6
CONTINUOUS
10
-159.119425
20
-363.608855
30
0.0
11
-162.880605
21
-363.608855
31
0.0
0
LINE
8
0
6
CONTINUOUS
10
-162.724145
20
-365.108185
30
0.0
11
-158.796555
21
-365.108185
31
0.0
0
LINE
8
0
6
CONTINUOUS
10
-177.496295
20
-363.608855
30
0.0
11
-177.986555
21
-365.108185
31
0.0
0
LINE
8
0
6
CONTINUOUS
10
-176.945565
20
-363.608855
30
0.0
11
-177.496295
21
-363.608855
31
0.0
0
LINE
8
0
6
CONTINUOUS
10
-177.986555
20
-365.108185
30
0.0
11
-177.411475
21
-365.108185
31
0.0
0
LINE
8
0
6
CONTINUOUS
10
-155.332235
20
-363.608855
30
0.0
11
-156.468785
21
-363.608855
31
0.0
0
LINE
8
0
6
CONTINUOUS
10
-154.841775
20
-365.108185
30
0.0
11
-155.332235
21
-363.608855
31
0.0
0
LINE
8
0
6
CONTINUOUS
10
-156.028625
20
-365.108185
30
0.0
11
-154.841775
21
-365.108185
31
0.0
0
LINE
8
0
6
CONTINUOUS
10
-167.179785
20
-363.608855
30
0.0
11
-171.362445
21
-363.608855
31
0.0
0
LINE
8
0
6
CONTINUOUS
10
-171.581295
20
-365.108185
30
0.0
11
-167.213565
21
-365.108185
31
0.0
0
LINE
8
0
6
CONTINUOUS
10
-155.882985
20
-363.608855
30
0.0
11
-158.039565
21
-363.608855
31
0.0
0
LINE
8
0
6
CONTINUOUS
10
-158.039565
20
-363.608855
30
0.0
11
-161.494265
21
-363.608855
31
0.0
0
LINE
8
0
6
CONTINUOUS
10
-161.494265
20
-363.608855
30
0.0
11
-165.649925
21
-363.608855
31
0.0
0
LINE
8
0
6
CONTINUOUS
10
-165.649925
20
-363.608855
30
0.0
11
-169.948285
21
-363.608855
31
0.0
0
LINE
8
0
6
CONTINUOUS
10
-169.948285
20
-363.608855
30
0.0
11
-173.709285
21
-363.608855
31
0.0
0
LINE
8
0
6
CONTINUOUS
10
-173.709285
20
-363.608855
30
0.0
11
-176.359915
21
-363.608855
31
0.0
0
LINE
8
0
6
CONTINUOUS
10
-176.359915
20
-363.608855
30
0.0
11
-177.496295
21
-363.608855
31
0.0
0
LINE
8
0
6
CONTINUOUS
10
102.041865
20
323.340115
30
0.0
11
102.337767
21
319.058775
31
0.0
0
LINE
8
0
6
CONTINUOUS
10
125.569312
20
316.697965
30
0.0
11
125.976477
21
322.608989
31
0.0
0
LINE
8
0
6
CONTINUOUS
10
124.793376
20
443.698019
30
0.0
11
125.803818
21
443.688333
31
0.0
0
LINE
8
0
6
CONTINUOUS
10
125.803818
20
443.688333
30
0.0
11
126.655515
21
443.671747
31
0.0
0
LINE
8
0
6
CONTINUOUS
10
127.576466
20
442.255523
30
0.0
11
126.655515
21
443.671747
31
0.0
0
LINE
8
0
6
CONTINUOUS
10
123.346095
20
442.312079
30
0.0
11
123.638136
21
442.646454
31
0.0
0
LINE
8
0
6
CONTINUOUS
10
140.856650
20
445.698006
30
0.0
11
140.966673
21
446.521569
31
0.0
0
LINE
8
0
6
CONTINUOUS
10
140.966673
20
446.521569
30
0.0
11
142.904883
21
447.354243
31
0.0
0
LINE
8
0
6
CONTINUOUS
10
138.316805
20
434.013484
30
0.0
11
139.303455
21
432.686418
31
0.0
0
LINE
8
0
6
CONTINUOUS
10
153.806847
20
477.993897
30
0.0
11
153.884700
21
478.429760
31
0.0
0
LINE
8
0
6
CONTINUOUS
10
155.868041
20
479.325436
30
0.0
11
156.110090
21
479.176426
31
0.0
0
LINE
8
0
6
CONTINUOUS
10
136.729687
20
497.420285
30
0.0
11
136.634516
21
497.555436
31
0.0
0
LINE
8
0
6
CONTINUOUS
10
125.570155
20
501.978472
30
0.0
11
126.600621
21
501.073637
31
0.0
0
LINE
8
0
6
CONTINUOUS
10
142.019065
20
437.392717
30
0.0
11
144.097145
21
437.870579
31
0.0
0
LINE
8
0
6
CONTINUOUS
10
141.347955
20
435.832112
30
0.0
11
142.019065
21
437.392717
31
0.0
0
LINE
8
0
6
CONTINUOUS
10
124.605756
20
483.990244
30
0.0
11
126.382180
21
484.179181
31
0.0
0
LINE
8
0
6
CONTINUOUS
10
123.346042
20
482.173871
30
0.0
11
124.266991
21
483.959122
31
0.0
0
LINE
8
0
6
CONTINUOUS
10
124.266991
20
483.959122
30
0.0
11
124.605756
21
483.990244
31
0.0
0
LINE
8
0
6
CONTINUOUS
10
136.634516
20
497.555436
30
0.0
11
135.596941
21
499.059924
31
0.0
0
LINE
8
0
6
CONTINUOUS
10
133.477551
20
498.862552
30
0.0
11
135.596941
21
499.059924
31
0.0
0
LINE
8
0
6
CONTINUOUS
10
160.226687
20
459.724253
30
0.0
11
159.392492
21
461.247999
31
0.0
0
LINE
8
0
6
CONTINUOUS
10
156.014773
20
459.659163
30
0.0
11
157.286530
21
461.215453
31
0.0
0
LINE
8
0
6
CONTINUOUS
10
153.544141
20
476.522427
30
0.0
11
153.806847
21
477.993897
31
0.0
0
LINE
8
0
6
CONTINUOUS
10
156.110090
20
479.176426
30
0.0
11
157.510817
21
478.313552
31
0.0
0
LINE
8
0
6
CONTINUOUS
10
148.608592
20
486.007554
30
0.0
11
150.353433
21
487.279897
31
0.0
0
LINE
8
0
6
CONTINUOUS
10
150.697523
20
444.661933
30
0.0
11
152.442362
21
443.898242
31
0.0
0
LINE
8
0
6
CONTINUOUS
10
133.585255
20
449.564881
30
0.0
11
135.047874
21
450.123936
31
0.0
0
LINE
8
0
6
CONTINUOUS
10
135.047874
20
450.123936
30
0.0
11
136.705514
21
449.201441
31
0.0
0
LINE
8
0
6
CONTINUOUS
10
139.219763
20
458.993728
30
0.0
11
141.288172
21
458.785623
31
0.0
0
LINE
8
0
6
CONTINUOUS
10
125.069361
20
502.427947
30
0.0
11
125.570155
21
501.978472
31
0.0
0
LINE
8
0
6
CONTINUOUS
10
123.032661
20
501.811240
30
0.0
11
125.069361
21
502.427947
31
0.0
0
LINE
8
0
6
CONTINUOUS
10
145.503997
20
491.890240
30
0.0
11
144.832861
21
493.711323
31
0.0
0
LINE
8
0
6
CONTINUOUS
10
141.347832
20
492.338196
30
0.0
11
142.754791
21
493.935318
31
0.0
0
LINE
8
0
6
CONTINUOUS
10
156.014771
20
468.182593
30
0.0
11
156.279887
21
468.737331
31
0.0
0
LINE
8
0
6
CONTINUOUS
10
160.226687
20
469.095441
30
0.0
11
159.712028
21
469.617089
31
0.0
0
LINE
8
0
6
CONTINUOUS
10
157.510861
20
450.575106
30
0.0
11
157.170282
21
452.212730
31
0.0
0
LINE
8
0
6
CONTINUOUS
10
153.544183
20
451.341977
30
0.0
11
155.186943
21
452.596128
31
0.0
0
LINE
8
0
6
CONTINUOUS
10
68.598812
20
470.789548
30
0.0
11
70.704778
21
470.333467
31
0.0
0
LINE
8
0
6
CONTINUOUS
10
92.174877
20
440.636966
30
0.0
11
90.927099
21
439.407142
31
0.0
0
LINE
8
0
6
CONTINUOUS
10
78.570929
20
455.280924
30
0.0
11
80.035932
21
455.527890
31
0.0
0
LINE
8
0
6
CONTINUOUS
10
78.128830
20
453.651274
30
0.0
11
78.570929
21
455.280924
31
0.0
0
LINE
8
0
6
CONTINUOUS
10
104.593750
20
435.156404
30
0.0
11
105.033976
21
434.727129
31
0.0
0
LINE
8
0
6
CONTINUOUS
10
101.539396
20
435.879500
30
0.0
11
101.605245
21
435.883816
31
0.0
0
LINE
8
0
6
CONTINUOUS
10
101.605245
20
435.883816
30
0.0
11
102.716938
21
436.018811
31
0.0
0
LINE
8
0
6
CONTINUOUS
10
78.128800
20
473.121643
30
0.0
11
79.704297
21
474.210947
31
0.0
0
LINE
8
0
6
CONTINUOUS
10
82.164007
20
471.611606
30
0.0
11
81.721896
21
473.455929
31
0.0
0
LINE
8
0
6
CONTINUOUS
10
83.466957
20
481.929659
30
0.0
11
84.451050
21
482.239351
31
0.0
0
LINE
8
0
6
CONTINUOUS
10
85.405167
20
482.552717
30
0.0
11
87.120385
21
481.301329
31
0.0
0
LINE
8
0
6
CONTINUOUS
10
84.451050
20
482.239351
30
0.0
11
85.405167
21
482.552717
31
0.0
0
LINE
8
0
6
CONTINUOUS
10
76.343613
20
463.590429
30
0.0
11
77.288080
21
464.862011
31
0.0
0
LINE
8
0
6
CONTINUOUS
10
79.515228
20
464.488498
30
0.0
11
79.409147
21
464.652294
31
0.0
0
LINE
8
0
6
CONTINUOUS
10
76.227559
20
463.432830
30
0.0
11
76.343613
21
463.590429
31
0.0
0
LINE
8
0
6
CONTINUOUS
10
80.469677
20
462.995608
30
0.0
11
79.515228
21
464.488498
31
0.0
0
LINE
8
0
6
CONTINUOUS
10
95.145645
20
487.348869
30
0.0
11
93.897875
21
488.992650
31
0.0
0
LINE
8
0
6
CONTINUOUS
10
91.788567
20
488.901508
30
0.0
11
93.897875
21
488.992650
31
0.0
0
LINE
8
0
6
CONTINUOUS
10
91.319106
20
487.956625
30
0.0
11
91.788567
21
488.901508
31
0.0
0
LINE
8
0
6
CONTINUOUS
10
58.778259
20
465.616900
30
0.0
11
59.148965
21
466.038197
31
0.0
0
LINE
8
0
6
CONTINUOUS
10
60.395953
20
458.777254
30
0.0
11
62.495874
21
458.703865
31
0.0
0
LINE
8
0
6
CONTINUOUS
10
68.620236
20
443.638335
30
0.0
11
70.289957
21
442.703919
31
0.0
0
LINE
8
0
6
CONTINUOUS
10
74.128426
20
437.077347
30
0.0
11
76.133027
21
436.338615
31
0.0
0
LINE
8
0
6
CONTINUOUS
10
76.535120
20
434.758109
30
0.0
11
76.133027
21
436.338615
31
0.0
0
LINE
8
0
6
CONTINUOUS
10
59.148965
20
466.038197
30
0.0
11
59.923968
21
466.946931
31
0.0
0
LINE
8
0
6
CONTINUOUS
10
62.682524
20
465.391280
30
0.0
11
62.042678
21
466.540932
31
0.0
0
LINE
8
0
6
CONTINUOUS
10
59.837853
20
474.759870
30
0.0
11
61.299922
21
475.876385
31
0.0
0
LINE
8
0
6
CONTINUOUS
10
63.961438
20
473.281567
30
0.0
11
63.361709
21
475.137185
31
0.0
0
LINE
8
0
6
CONTINUOUS
10
64.715158
20
484.326051
30
0.0
11
66.644307
21
483.288841
31
0.0
0
LINE
8
0
6
CONTINUOUS
10
69.958368
20
492.031444
30
0.0
11
71.685365
21
490.689962
31
0.0
0
LINE
8
0
6
CONTINUOUS
10
103.054119
20
511.124663
30
0.0
11
105.057631
21
510.392540
31
0.0
0
LINE
8
0
6
CONTINUOUS
10
101.449343
20
509.809509
30
0.0
11
103.054119
21
511.124663
31
0.0
0
LINE
8
0
6
CONTINUOUS
10
92.674603
20
508.485293
30
0.0
11
93.076180
21
508.404555
31
0.0
0
LINE
8
0
6
CONTINUOUS
10
91.363433
20
506.957684
30
0.0
11
92.674603
21
508.485293
31
0.0
0
LINE
8
0
6
CONTINUOUS
10
83.188073
20
504.216167
30
0.0
11
85.306673
21
504.149778
31
0.0
0
LINE
8
0
6
CONTINUOUS
10
82.217383
20
502.487926
30
0.0
11
83.188073
21
504.216167
31
0.0
0
LINE
8
0
6
CONTINUOUS
10
95.562374
20
506.144296
30
0.0
11
94.774073
21
508.093224
31
0.0
0
LINE
8
0
6
CONTINUOUS
10
93.076180
20
508.404555
30
0.0
11
94.774073
21
508.093224
31
0.0
0
LINE
8
0
6
CONTINUOUS
10
68.452338
20
443.736631
30
0.0
11
68.620236
21
443.638335
31
0.0
0
LINE
8
0
6
CONTINUOUS
10
62.561171
20
449.098372
30
0.0
11
62.963393
21
450.686069
31
0.0
0
LINE
8
0
6
CONTINUOUS
10
64.968059
20
450.944528
30
0.0
11
66.570547
21
449.615329
31
0.0
0
LINE
8
0
6
CONTINUOUS
10
81.098598
20
431.426437
30
0.0
11
79.786568
21
430.349963
31
0.0
0
LINE
8
0
6
CONTINUOUS
10
100.884975
20
491.959305
30
0.0
11
102.305093
21
493.381170
31
0.0
0
LINE
8
0
6
CONTINUOUS
10
91.475708
20
477.522889
30
0.0
11
93.450536
21
478.087114
31
0.0
0
LINE
8
0
6
CONTINUOUS
10
91.158526
20
475.679317
30
0.0
11
91.382721
21
476.976269
31
0.0
0
LINE
8
0
6
CONTINUOUS
10
86.742164
20
468.534751
30
0.0
11
87.389298
21
469.087220
31
0.0
0
LINE
8
0
6
CONTINUOUS
10
89.779338
20
467.585369
30
0.0
11
89.457707
21
468.511055
31
0.0
0
LINE
8
0
6
CONTINUOUS
10
90.085196
20
466.716023
30
0.0
11
89.779338
21
467.585369
31
0.0
0
LINE
8
0
6
CONTINUOUS
10
102.716938
20
436.018811
30
0.0
11
103.613866
21
436.083813
31
0.0
0
LINE
8
0
6
CONTINUOUS
10
103.613866
20
436.083813
30
0.0
11
103.765512
21
435.932404
31
0.0
0
LINE
8
0
6
CONTINUOUS
10
103.765512
20
435.932404
30
0.0
11
104.593750
21
435.156404
31
0.0
0
LINE
8
0
6
CONTINUOUS
10
80.035932
20
455.527890
30
0.0
11
80.588528
21
455.622050
31
0.0
0
LINE
8
0
6
CONTINUOUS
10
83.243989
20
446.517016
30
0.0
11
84.959198
21
447.354200
31
0.0
0
LINE
8
0
6
CONTINUOUS
10
87.007418
20
445.697938
30
0.0
11
86.897408
21
446.521485
31
0.0
0
LINE
8
0
6
CONTINUOUS
10
89.547328
20
434.013489
30
0.0
11
90.185487
21
433.989992
31
0.0
0
LINE
8
0
6
CONTINUOUS
10
92.473446
20
432.927034
30
0.0
11
91.666717
21
433.930685
31
0.0
0
LINE
8
0
6
CONTINUOUS
10
90.185487
20
433.989992
30
0.0
11
91.666717
21
433.930685
31
0.0
0
LINE
8
0
6
CONTINUOUS
10
71.995921
20
479.325330
30
0.0
11
73.979269
21
478.429655
31
0.0
0
LINE
8
0
6
CONTINUOUS
10
101.481805
20
484.179115
30
0.0
11
103.258234
21
483.990232
31
0.0
0
LINE
8
0
6
CONTINUOUS
10
100.287575
20
482.618003
30
0.0
11
101.481805
21
484.179115
31
0.0
0
LINE
8
0
6
CONTINUOUS
10
103.258234
20
483.990232
30
0.0
11
103.596994
21
483.959151
31
0.0
0
LINE
8
0
6
CONTINUOUS
10
112.095104
20
485.644794
30
0.0
11
113.931986
21
486.614568
31
0.0
0
LINE
8
0
6
CONTINUOUS
10
95.372986
20
497.022642
30
0.0
11
94.386335
21
498.862520
31
0.0
0
LINE
8
0
6
CONTINUOUS
10
68.471538
20
461.247919
30
0.0
11
70.577498
21
461.215325
31
0.0
0
LINE
8
0
6
CONTINUOUS
10
75.421687
20
484.770650
30
0.0
11
75.593687
21
486.661391
31
0.0
0
LINE
8
0
6
CONTINUOUS
10
77.166568
20
444.661855
30
0.0
11
79.083418
21
443.774745
31
0.0
0
LINE
8
0
6
CONTINUOUS
10
79.255418
20
442.123902
30
0.0
11
79.083418
21
443.774745
31
0.0
0
LINE
8
0
6
CONTINUOUS
10
108.680683
20
497.079278
30
0.0
11
113.575909
21
497.777834
31
0.0
0
LINE
8
0
6
CONTINUOUS
10
94.278826
20
449.564818
30
0.0
11
94.791007
21
449.373716
31
0.0
0
LINE
8
0
6
CONTINUOUS
10
95.108199
20
447.719644
30
0.0
11
94.791007
21
449.373716
31
0.0
0
LINE
8
0
6
CONTINUOUS
10
92.816179
20
450.123874
30
0.0
11
94.278826
21
449.564818
31
0.0
0
LINE
8
0
6
CONTINUOUS
10
85.948378
20
457.175130
30
0.0
11
86.575849
21
458.785551
31
0.0
0
LINE
8
0
6
CONTINUOUS
10
88.644267
20
458.993653
30
0.0
11
90.085197
21
457.591339
31
0.0
0
LINE
8
0
6
CONTINUOUS
10
105.336694
20
499.817363
30
0.0
11
104.831245
21
501.811235
31
0.0
0
LINE
8
0
6
CONTINUOUS
10
83.031057
20
493.711235
30
0.0
11
85.109137
21
493.935262
31
0.0
0
LINE
8
0
6
CONTINUOUS
10
70.693751
20
452.212599
30
0.0
11
72.677097
21
452.596071
31
0.0
0
LINE
8
0
6
CONTINUOUS
10
82.426557
20
439.198255
30
0.0
11
83.844932
21
438.852747
31
0.0
0
LINE
8
0
6
CONTINUOUS
10
92.799457
20
432.522203
30
0.0
11
92.473446
21
432.927034
31
0.0
0
LINE
8
0
6
CONTINUOUS
10
126.978982
20
491.959347
30
0.0
11
125.558871
21
493.381192
31
0.0
0
LINE
8
0
6
CONTINUOUS
10
123.081058
20
491.736292
30
0.0
11
123.484400
21
492.905806
31
0.0
0
LINE
8
0
6
CONTINUOUS
10
122.830042
20
491.008883
30
0.0
11
123.081058
21
491.736292
31
0.0
0
LINE
8
0
6
CONTINUOUS
10
123.484400
20
492.905806
30
0.0
11
125.558871
21
493.381192
31
0.0
0
LINE
8
0
6
CONTINUOUS
10
136.936919
20
487.180498
30
0.0
11
136.544861
21
487.956681
31
0.0
0
LINE
8
0
6
CONTINUOUS
10
144.620022
20
480.067363
30
0.0
11
144.397028
21
481.929738
31
0.0
0
LINE
8
0
6
CONTINUOUS
10
142.458803
20
482.552715
30
0.0
11
143.412947
21
482.239368
31
0.0
0
LINE
8
0
6
CONTINUOUS
10
146.142104
20
473.455981
30
0.0
11
148.159719
21
474.211052
31
0.0
0
LINE
8
0
6
CONTINUOUS
10
148.159719
20
474.211052
30
0.0
11
149.735208
21
473.121740
31
0.0
0
LINE
8
0
6
CONTINUOUS
10
148.454883
20
464.652403
30
0.0
11
150.575949
21
464.862122
31
0.0
0
LINE
8
0
6
CONTINUOUS
10
145.700023
20
454.332573
30
0.0
11
147.251323
21
455.601511
31
0.0
0
LINE
8
0
6
CONTINUOUS
10
147.275513
20
455.622134
30
0.0
11
147.830041
21
455.527643
31
0.0
0
LINE
8
0
6
CONTINUOUS
10
140.743665
20
444.865101
30
0.0
11
140.856650
21
445.698006
31
0.0
0
LINE
8
0
6
CONTINUOUS
10
132.718414
20
438.818537
30
0.0
11
133.579926
21
440.338795
31
0.0
0
LINE
8
0
6
CONTINUOUS
10
134.618249
20
440.483291
30
0.0
11
135.689235
21
440.637028
31
0.0
0
LINE
8
0
6
CONTINUOUS
10
133.579926
20
440.338795
30
0.0
11
134.618249
21
440.483291
31
0.0
0
LINE
8
0
6
CONTINUOUS
10
126.979086
20
434.339728
30
0.0
11
126.324725
21
435.879585
31
0.0
0
LINE
8
0
6
CONTINUOUS
10
136.481274
20
476.976343
30
0.0
11
136.388282
21
477.522948
31
0.0
0
LINE
8
0
6
CONTINUOUS
10
136.705481
20
475.679339
30
0.0
11
136.481274
21
476.976343
31
0.0
0
LINE
8
0
6
CONTINUOUS
10
132.755821
20
476.794541
30
0.0
11
134.413461
21
478.087076
31
0.0
0
LINE
8
0
6
CONTINUOUS
10
137.778832
20
466.716028
30
0.0
11
138.084695
21
467.585413
31
0.0
0
LINE
8
0
6
CONTINUOUS
10
138.406302
20
468.511074
30
0.0
11
140.474702
21
469.087247
31
0.0
0
LINE
8
0
6
CONTINUOUS
10
141.121841
20
468.534817
30
0.0
11
141.915649
21
467.870524
31
0.0
0
LINE
8
0
6
CONTINUOUS
10
123.638136
20
442.646454
30
0.0
11
124.177609
21
443.285183
31
0.0
0
LINE
8
0
6
CONTINUOUS
10
124.177609
20
443.285183
30
0.0
11
124.540326
21
443.703436
31
0.0
0
LINE
8
0
6
CONTINUOUS
10
124.540326
20
443.703436
30
0.0
11
124.793376
21
443.698019
31
0.0
0
LINE
8
0
6
CONTINUOUS
10
113.932046
20
441.505991
30
0.0
11
115.768936
21
440.695270
31
0.0
0
LINE
8
0
6
CONTINUOUS
10
156.279887
20
468.737331
30
0.0
11
156.848950
21
469.942741
31
0.0
0
LINE
8
0
6
CONTINUOUS
10
113.931981
20
494.974532
30
0.0
11
115.768882
21
493.995542
31
0.0
0
LINE
8
0
6
CONTINUOUS
10
159.712028
20
469.617089
30
0.0
11
158.954908
21
470.398829
31
0.0
0
LINE
8
0
6
CONTINUOUS
10
145.364489
20
431.138767
30
0.0
11
146.765501
21
431.426502
31
0.0
0
LINE
8
0
6
CONTINUOUS
10
143.878923
20
429.534977
30
0.0
11
144.666184
21
431.007090
31
0.0
0
LINE
8
0
6
CONTINUOUS
10
164.059515
20
457.159143
30
0.0
11
165.368147
21
458.703932
31
0.0
0
LINE
8
0
6
CONTINUOUS
10
161.063400
20
481.789091
30
0.0
11
161.219683
21
483.288972
31
0.0
0
LINE
8
0
6
CONTINUOUS
10
102.228652
20
460.336268
30
0.0
11
102.364344
21
460.380398
31
0.0
0
LINE
8
0
6
CONTINUOUS
10
101.245955
20
459.994364
30
0.0
11
102.228652
21
460.336268
31
0.0
0
LINE
8
0
6
CONTINUOUS
10
102.364344
20
460.380398
30
0.0
11
103.511397
21
460.497778
31
0.0
0
LINE
8
0
6
CONTINUOUS
10
103.511397
20
460.497778
30
0.0
11
104.668396
21
460.335889
31
0.0
0
LINE
8
0
6
CONTINUOUS
10
105.636596
20
460.034702
30
0.0
11
105.768927
21
459.991480
31
0.0
0
LINE
8
0
6
CONTINUOUS
10
104.668396
20
460.335889
30
0.0
11
105.636596
21
460.034702
31
0.0
0
LINE
8
0
6
CONTINUOUS
10
105.768927
20
459.991480
30
0.0
11
106.691764
21
459.410316
31
0.0
0
LINE
8
0
6
CONTINUOUS
10
107.407103
20
458.632752
30
0.0
11
107.338952
21
458.702832
31
0.0
0
LINE
8
0
6
CONTINUOUS
10
107.338952
20
458.702832
30
0.0
11
106.691764
21
459.410316
31
0.0
0
LINE
8
0
6
CONTINUOUS
10
99.232439
20
457.796099
30
0.0
11
99.590733
21
458.605284
31
0.0
0
LINE
8
0
6
CONTINUOUS
10
99.536360
20
454.935067
30
0.0
11
99.126843
21
455.756988
31
0.0
0
LINE
8
0
6
CONTINUOUS
10
100.325475
20
454.020777
30
0.0
11
99.680020
21
454.726719
31
0.0
0
LINE
8
0
6
CONTINUOUS
10
107.427239
20
454.826181
30
0.0
11
107.839181
21
455.745480
31
0.0
0
LINE
8
0
6
CONTINUOUS
10
107.839181
20
455.745480
30
0.0
11
108.032796
21
456.712845
31
0.0
0
LINE
8
0
6
CONTINUOUS
10
108.032796
20
456.712845
30
0.0
11
107.891469
21
457.673306
31
0.0
0
LINE
8
0
6
CONTINUOUS
10
107.891469
20
457.673306
30
0.0
11
107.482874
21
458.494864
31
0.0
0
LINE
8
0
6
CONTINUOUS
10
107.482874
20
458.494864
30
0.0
11
107.430137
21
458.608282
31
0.0
0
LINE
8
0
6
CONTINUOUS
10
117.485657
20
469.409313
30
0.0
11
117.938387
21
470.300017
31
0.0
0
LINE
8
0
6
CONTINUOUS
10
119.369172
20
455.642490
30
0.0
11
119.317433
21
455.753461
31
0.0
0
LINE
8
0
6
CONTINUOUS
10
119.727264
20
454.833000
30
0.0
11
119.369172
21
455.642490
31
0.0
0
LINE
8
0
6
CONTINUOUS
10
119.143597
20
456.604249
30
0.0
11
119.122098
21
456.722095
31
0.0
0
LINE
8
0
6
CONTINUOUS
10
119.317433
20
455.753461
30
0.0
11
119.143597
21
456.604249
31
0.0
0
LINE
8
0
6
CONTINUOUS
10
119.122098
20
456.722095
30
0.0
11
119.262902
21
457.682001
31
0.0
0
LINE
8
0
6
CONTINUOUS
10
119.671325
20
458.503099
30
0.0
11
119.724282
21
458.617211
31
0.0
0
LINE
8
0
6
CONTINUOUS
10
119.262902
20
457.682001
30
0.0
11
119.671325
21
458.503099
31
0.0
0
LINE
8
0
6
CONTINUOUS
10
127.975179
20
457.693624
30
0.0
11
127.923399
21
457.804317
31
0.0
0
LINE
8
0
6
CONTINUOUS
10
127.923399
20
457.804317
30
0.0
11
127.565884
21
458.613022
31
0.0
0
LINE
8
0
6
CONTINUOUS
10
128.171112
20
456.725647
30
0.0
11
128.149669
21
456.843628
31
0.0
0
LINE
8
0
6
CONTINUOUS
10
128.149669
20
456.843628
30
0.0
11
127.975179
21
457.693624
31
0.0
0
LINE
8
0
6
CONTINUOUS
10
128.030089
20
455.765009
30
0.0
11
128.171112
21
456.725647
31
0.0
0
LINE
8
0
6
CONTINUOUS
10
127.591435
20
454.879536
30
0.0
11
127.621748
21
454.944249
31
0.0
0
LINE
8
0
6
CONTINUOUS
10
127.621748
20
454.944249
30
0.0
11
128.030089
21
455.765009
31
0.0
0
LINE
8
0
6
CONTINUOUS
10
124.928411
20
460.345890
30
0.0
11
125.909879
21
460.002790
31
0.0
0
LINE
8
0
6
CONTINUOUS
10
122.627902
20
460.362805
30
0.0
11
123.644032
21
460.506453
31
0.0
0
LINE
8
0
6
CONTINUOUS
10
119.815801
20
458.713384
30
0.0
11
120.462530
21
459.420299
31
0.0
0
ENDSEC
0
EOF
