999
Erzeugt mit innoplus bad 
0
SECTION
2
HEADER
9
$ACADVER
1
AC1009
9
$DWGCODEPAGE
3
ISO8859-1
0
ENDSEC
0
SECTION
2
TABLES
0
TABLE
2
LAYER
70
1
0
LAYER
2
0
70
0
62
7
6
CONTINUOUS
0
ENDTAB
0
ENDSEC
0
SECTION
2
ENTITIES
0
LINE
8
0
6
CONTINUOUS
10
83.048060
20
613.768235
30
0.0
11
83.690000
21
613.768235
31
0.0
0
LINE
8
0
6
CONTINUOUS
10
83.689980
20
675.168765
30
0.0
11
83.048050
21
675.168765
31
0.0
0
LINE
8
0
6
CONTINUOUS
10
83.048010
20
638.490825
30
0.0
11
83.048010
21
644.493485
31
0.0
0
LINE
8
0
6
CONTINUOUS
10
82.089230
20
644.508975
30
0.0
11
82.089230
21
638.593295
31
0.0
0
LINE
8
0
6
CONTINUOUS
10
83.048010
20
632.704015
30
0.0
11
83.048010
21
638.490825
31
0.0
0
LINE
8
0
6
CONTINUOUS
10
82.089230
20
638.593295
30
0.0
11
82.089230
21
632.903595
31
0.0
0
LINE
8
0
6
CONTINUOUS
10
83.048020
20
627.336195
30
0.0
11
83.048010
21
632.704015
31
0.0
0
LINE
8
0
6
CONTINUOUS
10
82.089230
20
632.903595
30
0.0
11
82.089230
21
627.669445
31
0.0
0
LINE
8
0
6
CONTINUOUS
10
83.048060
20
622.698285
30
0.0
11
83.048020
21
627.336195
31
0.0
0
LINE
8
0
6
CONTINUOUS
10
82.089230
20
627.669445
30
0.0
11
82.089230
21
623.077245
31
0.0
0
LINE
8
0
6
CONTINUOUS
10
83.048060
20
618.874355
30
0.0
11
83.048060
21
622.698285
31
0.0
0
LINE
8
0
6
CONTINUOUS
10
82.089230
20
623.077245
30
0.0
11
82.089230
21
619.307325
31
0.0
0
LINE
8
0
6
CONTINUOUS
10
83.048060
20
616.020205
30
0.0
11
83.048060
21
618.874355
31
0.0
0
LINE
8
0
6
CONTINUOUS
10
82.089230
20
619.307325
30
0.0
11
82.089230
21
616.511455
31
0.0
0
LINE
8
0
6
CONTINUOUS
10
83.048060
20
614.335635
30
0.0
11
83.048060
21
616.020205
31
0.0
0
LINE
8
0
6
CONTINUOUS
10
82.089230
20
616.511455
30
0.0
11
82.089230
21
614.793395
31
0.0
0
LINE
8
0
6
CONTINUOUS
10
83.048060
20
613.768235
30
0.0
11
83.048060
21
614.335635
31
0.0
0
LINE
8
0
6
CONTINUOUS
10
82.089230
20
614.214325
30
0.0
11
83.048060
21
613.768235
31
0.0
0
LINE
8
0
6
CONTINUOUS
10
82.089230
20
614.793395
30
0.0
11
82.089230
21
614.214325
31
0.0
0
LINE
8
0
6
CONTINUOUS
10
83.048050
20
675.168765
30
0.0
11
82.089230
21
674.818875
31
0.0
0
LINE
8
0
6
CONTINUOUS
10
82.089230
20
674.818875
30
0.0
11
82.089230
21
674.256825
31
0.0
0
LINE
8
0
6
CONTINUOUS
10
82.089230
20
674.256825
30
0.0
11
82.089230
21
672.538685
31
0.0
0
LINE
8
0
6
CONTINUOUS
10
82.089230
20
672.538685
30
0.0
11
82.089230
21
669.696965
31
0.0
0
LINE
8
0
6
CONTINUOUS
10
83.048050
20
666.274715
30
0.0
11
83.048050
21
670.097965
31
0.0
0
LINE
8
0
6
CONTINUOUS
10
82.089230
20
669.696965
30
0.0
11
82.089230
21
665.936665
31
0.0
0
LINE
8
0
6
CONTINUOUS
10
83.048010
20
661.617965
30
0.0
11
83.048050
21
666.274715
31
0.0
0
LINE
8
0
6
CONTINUOUS
10
82.089230
20
665.936665
30
0.0
11
82.089230
21
661.343305
31
0.0
0
LINE
8
0
6
CONTINUOUS
10
83.048010
20
656.323085
30
0.0
11
83.048010
21
661.617965
31
0.0
0
LINE
8
0
6
CONTINUOUS
10
82.089230
20
661.343305
30
0.0
11
82.089230
21
656.103975
31
0.0
0
LINE
8
0
6
CONTINUOUS
10
83.048010
20
650.511015
30
0.0
11
83.048010
21
656.323085
31
0.0
0
LINE
8
0
6
CONTINUOUS
10
82.089230
20
656.103975
30
0.0
11
82.089230
21
650.425335
31
0.0
0
LINE
8
0
6
CONTINUOUS
10
83.048010
20
644.493485
30
0.0
11
83.048010
21
650.511015
31
0.0
0
LINE
8
0
6
CONTINUOUS
10
82.089230
20
650.425335
30
0.0
11
82.089230
21
644.508975
31
0.0
0
LINE
8
0
6
CONTINUOUS
10
83.690000
20
613.768235
30
0.0
11
97.093820
21
613.768235
31
0.0
0
LINE
8
0
6
CONTINUOUS
10
97.093800
20
675.168765
30
0.0
11
83.689980
21
675.168765
31
0.0
0
LINE
8
0
6
CONTINUOUS
10
98.160730
20
638.490825
30
0.0
11
98.160690
21
644.493485
31
0.0
0
LINE
8
0
6
CONTINUOUS
10
98.160690
20
632.704085
30
0.0
11
98.160730
21
638.490825
31
0.0
0
LINE
8
0
6
CONTINUOUS
10
98.160690
20
627.336195
30
0.0
11
98.160690
21
632.704085
31
0.0
0
LINE
8
0
6
CONTINUOUS
10
98.160740
20
616.020205
30
0.0
11
98.160740
21
618.874355
31
0.0
0
LINE
8
0
6
CONTINUOUS
10
98.160740
20
614.335635
30
0.0
11
98.160740
21
616.020205
31
0.0
0
LINE
8
0
6
CONTINUOUS
10
98.160740
20
613.768235
30
0.0
11
98.160740
21
614.335635
31
0.0
0
LINE
8
0
6
CONTINUOUS
10
97.093820
20
613.768235
30
0.0
11
98.160740
21
613.768235
31
0.0
0
LINE
8
0
6
CONTINUOUS
10
98.160720
20
674.608305
30
0.0
11
98.160720
21
675.168765
31
0.0
0
LINE
8
0
6
CONTINUOUS
10
98.160720
20
675.168765
30
0.0
11
97.093800
21
675.168765
31
0.0
0
LINE
8
0
6
CONTINUOUS
10
98.160720
20
672.877655
30
0.0
11
98.160720
21
674.608305
31
0.0
0
LINE
8
0
6
CONTINUOUS
10
98.160720
20
670.097965
30
0.0
11
98.160720
21
672.877655
31
0.0
0
LINE
8
0
6
CONTINUOUS
10
98.160720
20
666.274715
30
0.0
11
98.160720
21
670.097965
31
0.0
0
LINE
8
0
6
CONTINUOUS
10
98.160720
20
656.323015
30
0.0
11
98.160690
21
661.617885
31
0.0
0
LINE
8
0
6
CONTINUOUS
10
98.160690
20
644.493485
30
0.0
11
98.160690
21
650.511015
31
0.0
0
LINE
8
0
6
CONTINUOUS
10
98.160690
20
627.336195
30
0.0
11
98.160730
21
622.698285
31
0.0
0
LINE
8
0
6
CONTINUOUS
10
98.160730
20
622.698285
30
0.0
11
98.160740
21
618.874355
31
0.0
0
LINE
8
0
6
CONTINUOUS
10
98.160720
20
666.274715
30
0.0
11
98.160690
21
661.617885
31
0.0
0
LINE
8
0
6
CONTINUOUS
10
98.160720
20
656.323015
30
0.0
11
98.160690
21
650.511015
31
0.0
0
LINE
8
0
6
CONTINUOUS
10
82.089230
20
654.099655
30
0.0
11
15.814380
21
654.099655
31
0.0
0
LINE
8
0
6
CONTINUOUS
10
15.814380
20
634.929805
30
0.0
11
82.089230
21
634.929805
31
0.0
0
LINE
8
0
6
CONTINUOUS
10
15.814380
20
635.657575
30
0.0
11
82.089230
21
635.657575
31
0.0
0
LINE
8
0
6
CONTINUOUS
10
82.089230
20
653.409345
30
0.0
11
15.269265
21
653.409345
31
0.0
0
LINE
8
0
6
CONTINUOUS
10
82.089230
20
640.833895
30
0.0
11
12.094090
21
640.833895
31
0.0
0
LINE
8
0
6
CONTINUOUS
10
7.177020
20
680.209885
30
0.0
11
10.661660
21
680.209885
31
0.0
0
LINE
8
0
6
CONTINUOUS
10
13.427080
20
680.209885
30
0.0
11
15.202580
21
680.209885
31
0.0
0
LINE
8
0
6
CONTINUOUS
10
15.814380
20
680.209885
30
0.0
11
15.814390
21
680.961455
31
0.0
0
LINE
8
0
6
CONTINUOUS
10
15.202580
20
680.209885
30
0.0
11
15.814380
21
680.209885
31
0.0
0
LINE
8
0
6
CONTINUOUS
10
3.314280
20
680.209965
30
0.0
11
7.177020
21
680.209885
31
0.0
0
LINE
8
0
6
CONTINUOUS
10
-6.798520
20
680.209885
30
0.0
11
-4.033110
21
680.209885
31
0.0
0
LINE
8
0
6
CONTINUOUS
10
10.661660
20
680.209885
30
0.0
11
13.427080
21
680.209885
31
0.0
0
LINE
8
0
6
CONTINUOUS
10
-9.185830
20
680.209885
30
0.0
11
-8.574040
21
680.209885
31
0.0
0
LINE
8
0
6
CONTINUOUS
10
-9.185840
20
680.961455
30
0.0
11
-9.185830
21
680.209885
31
0.0
0
LINE
8
0
6
CONTINUOUS
10
-0.548480
20
680.209885
30
0.0
11
3.314280
21
680.209965
31
0.0
0
LINE
8
0
6
CONTINUOUS
10
-4.033110
20
680.209885
30
0.0
11
-0.548480
21
680.209885
31
0.0
0
LINE
8
0
6
CONTINUOUS
10
-8.574040
20
680.209885
30
0.0
11
-6.798520
21
680.209885
31
0.0
0
LINE
8
0
6
CONTINUOUS
10
-9.185830
20
679.713055
30
0.0
11
-9.185830
21
394.248137
31
0.0
0
LINE
8
0
6
CONTINUOUS
10
-9.185830
20
267.908555
30
0.0
11
-9.185830
21
-290.790405
31
0.0
0
LINE
8
0
6
CONTINUOUS
10
-8.574040
20
679.713055
30
0.0
11
-9.185830
21
679.713055
31
0.0
0
LINE
8
0
6
CONTINUOUS
10
-9.185830
20
-290.790405
30
0.0
11
-8.574040
21
-290.790405
31
0.0
0
LINE
8
0
6
CONTINUOUS
10
-0.548480
20
679.713055
30
0.0
11
-4.033110
21
679.713055
31
0.0
0
LINE
8
0
6
CONTINUOUS
10
-4.033110
20
-290.790405
30
0.0
11
-0.548480
21
-290.790405
31
0.0
0
LINE
8
0
6
CONTINUOUS
10
10.661660
20
679.713055
30
0.0
11
7.177020
21
679.713055
31
0.0
0
LINE
8
0
6
CONTINUOUS
10
7.177020
20
-290.790405
30
0.0
11
9.637070
21
-290.790405
31
0.0
0
LINE
8
0
6
CONTINUOUS
10
15.814380
20
679.713055
30
0.0
11
15.202580
21
679.713055
31
0.0
0
LINE
8
0
6
CONTINUOUS
10
15.814380
20
319.908485
30
0.0
11
15.814380
21
634.929805
31
0.0
0
LINE
8
0
6
CONTINUOUS
10
15.814380
20
654.080077
30
0.0
11
15.814380
21
679.713055
31
0.0
0
LINE
8
0
6
CONTINUOUS
10
7.177020
20
679.713055
30
0.0
11
3.314280
21
679.713135
31
0.0
0
LINE
8
0
6
CONTINUOUS
10
3.314280
20
-290.790405
30
0.0
11
7.177020
21
-290.790405
31
0.0
0
LINE
8
0
6
CONTINUOUS
10
-4.033110
20
679.713055
30
0.0
11
-6.798520
21
679.713055
31
0.0
0
LINE
8
0
6
CONTINUOUS
10
-6.798520
20
-290.790405
30
0.0
11
-4.033110
21
-290.790405
31
0.0
0
LINE
8
0
6
CONTINUOUS
10
15.202580
20
679.713055
30
0.0
11
13.427080
21
679.713055
31
0.0
0
LINE
8
0
6
CONTINUOUS
10
-6.798520
20
679.713055
30
0.0
11
-8.574040
21
679.713055
31
0.0
0
LINE
8
0
6
CONTINUOUS
10
-8.574040
20
-290.790405
30
0.0
11
-6.798520
21
-290.790405
31
0.0
0
LINE
8
0
6
CONTINUOUS
10
3.314280
20
679.713135
30
0.0
11
-0.548480
21
679.713055
31
0.0
0
LINE
8
0
6
CONTINUOUS
10
-0.548480
20
-290.790405
30
0.0
11
3.314280
21
-290.790405
31
0.0
0
LINE
8
0
6
CONTINUOUS
10
13.427080
20
679.713055
30
0.0
11
10.661660
21
679.713055
31
0.0
0
LINE
8
0
6
CONTINUOUS
10
13.427080
20
682.141805
30
0.0
11
10.661660
21
682.141805
31
0.0
0
LINE
8
0
6
CONTINUOUS
10
3.314280
20
682.141875
30
0.0
11
-0.548480
21
682.141875
31
0.0
0
LINE
8
0
6
CONTINUOUS
10
-6.798500
20
682.141805
30
0.0
11
-8.574040
21
682.141805
31
0.0
0
LINE
8
0
6
CONTINUOUS
10
15.202580
20
682.141805
30
0.0
11
13.427080
21
682.141805
31
0.0
0
LINE
8
0
6
CONTINUOUS
10
-4.033110
20
682.141805
30
0.0
11
-6.798500
21
682.141805
31
0.0
0
LINE
8
0
6
CONTINUOUS
10
7.177020
20
682.141875
30
0.0
11
3.314280
21
682.141875
31
0.0
0
LINE
8
0
6
CONTINUOUS
10
15.814390
20
680.961455
30
0.0
11
15.814390
21
682.141805
31
0.0
0
LINE
8
0
6
CONTINUOUS
10
15.814390
20
682.141805
30
0.0
11
15.202580
21
682.141805
31
0.0
0
LINE
8
0
6
CONTINUOUS
10
10.661660
20
682.141805
30
0.0
11
7.177020
21
682.141875
31
0.0
0
LINE
8
0
6
CONTINUOUS
10
-0.548480
20
682.141875
30
0.0
11
-4.033110
21
682.141805
31
0.0
0
LINE
8
0
6
CONTINUOUS
10
-9.185840
20
682.141805
30
0.0
11
-9.185840
21
680.961455
31
0.0
0
LINE
8
0
6
CONTINUOUS
10
-8.574040
20
682.141805
30
0.0
11
-9.185840
21
682.141805
31
0.0
0
LINE
8
0
6
CONTINUOUS
10
-5.229760
20
682.141805
30
0.0
11
-6.729870
21
682.141805
31
0.0
0
LINE
8
0
6
CONTINUOUS
10
-6.729870
20
682.141805
30
0.0
11
-7.246760
21
682.141805
31
0.0
0
LINE
8
0
6
CONTINUOUS
10
13.875310
20
682.141805
30
0.0
11
13.358430
21
682.141805
31
0.0
0
LINE
8
0
6
CONTINUOUS
10
13.358430
20
682.141805
30
0.0
11
11.858320
21
682.141805
31
0.0
0
LINE
8
0
6
CONTINUOUS
10
11.858320
20
682.141805
30
0.0
11
9.521920
21
682.141805
31
0.0
0
LINE
8
0
6
CONTINUOUS
10
-2.893310
20
682.141805
30
0.0
11
-5.229760
21
682.141805
31
0.0
0
LINE
8
0
6
CONTINUOUS
10
-8.946680
20
679.961475
30
0.0
11
-9.185830
21
679.713055
31
0.0
0
LINE
8
0
6
CONTINUOUS
10
-9.185830
20
679.713055
30
0.0
11
-8.574040
21
679.713055
31
0.0
0
LINE
8
0
6
CONTINUOUS
10
-9.185830
20
680.209885
30
0.0
11
-8.946680
21
679.961475
31
0.0
0
LINE
8
0
6
CONTINUOUS
10
-8.574040
20
680.209885
30
0.0
11
-9.185830
21
680.209885
31
0.0
0
LINE
8
0
6
CONTINUOUS
10
-8.946680
20
679.961475
30
0.0
11
-8.346590
21
679.961475
31
0.0
0
LINE
8
0
6
CONTINUOUS
10
-4.033110
20
679.713055
30
0.0
11
-0.548480
21
679.713055
31
0.0
0
LINE
8
0
6
CONTINUOUS
10
-0.548480
20
680.209885
30
0.0
11
-4.033110
21
680.209885
31
0.0
0
LINE
8
0
6
CONTINUOUS
10
-3.892530
20
679.961475
30
0.0
11
-0.474580
21
679.961475
31
0.0
0
LINE
8
0
6
CONTINUOUS
10
7.177020
20
679.713055
30
0.0
11
10.661660
21
679.713055
31
0.0
0
LINE
8
0
6
CONTINUOUS
10
10.661660
20
680.209885
30
0.0
11
7.177020
21
680.209885
31
0.0
0
LINE
8
0
6
CONTINUOUS
10
7.103120
20
679.961475
30
0.0
11
10.521090
21
679.961475
31
0.0
0
LINE
8
0
6
CONTINUOUS
10
15.814380
20
679.713055
30
0.0
11
15.575240
21
679.961475
31
0.0
0
LINE
8
0
6
CONTINUOUS
10
15.202580
20
679.713055
30
0.0
11
15.814380
21
679.713055
31
0.0
0
LINE
8
0
6
CONTINUOUS
10
15.814380
20
680.209885
30
0.0
11
15.202580
21
680.209885
31
0.0
0
LINE
8
0
6
CONTINUOUS
10
15.575240
20
679.961475
30
0.0
11
15.814380
21
680.209885
31
0.0
0
LINE
8
0
6
CONTINUOUS
10
14.975140
20
679.961475
30
0.0
11
15.575240
21
679.961475
31
0.0
0
LINE
8
0
6
CONTINUOUS
10
3.314280
20
679.713135
30
0.0
11
7.177020
21
679.713055
31
0.0
0
LINE
8
0
6
CONTINUOUS
10
7.177020
20
680.209885
30
0.0
11
3.314280
21
680.209965
31
0.0
0
LINE
8
0
6
CONTINUOUS
10
3.314280
20
679.961545
30
0.0
11
7.103120
21
679.961475
31
0.0
0
LINE
8
0
6
CONTINUOUS
10
-6.798520
20
679.713055
30
0.0
11
-4.033110
21
679.713055
31
0.0
0
LINE
8
0
6
CONTINUOUS
10
-4.033110
20
680.209885
30
0.0
11
-6.798520
21
680.209885
31
0.0
0
LINE
8
0
6
CONTINUOUS
10
-6.605050
20
679.961475
30
0.0
11
-3.892530
21
679.961475
31
0.0
0
LINE
8
0
6
CONTINUOUS
10
13.427080
20
679.713055
30
0.0
11
15.202580
21
679.713055
31
0.0
0
LINE
8
0
6
CONTINUOUS
10
15.202580
20
680.209885
30
0.0
11
13.427080
21
680.209885
31
0.0
0
LINE
8
0
6
CONTINUOUS
10
13.233610
20
679.961475
30
0.0
11
14.975140
21
679.961475
31
0.0
0
LINE
8
0
6
CONTINUOUS
10
-8.574040
20
679.713055
30
0.0
11
-6.798520
21
679.713055
31
0.0
0
LINE
8
0
6
CONTINUOUS
10
-6.798520
20
680.209885
30
0.0
11
-8.574040
21
680.209885
31
0.0
0
LINE
8
0
6
CONTINUOUS
10
-8.346590
20
679.961475
30
0.0
11
-6.605050
21
679.961475
31
0.0
0
LINE
8
0
6
CONTINUOUS
10
-0.548480
20
679.713055
30
0.0
11
3.314280
21
679.713135
31
0.0
0
LINE
8
0
6
CONTINUOUS
10
3.314280
20
680.209965
30
0.0
11
-0.548480
21
680.209885
31
0.0
0
LINE
8
0
6
CONTINUOUS
10
-0.474580
20
679.961475
30
0.0
11
3.314280
21
679.961545
31
0.0
0
LINE
8
0
6
CONTINUOUS
10
10.661660
20
679.713055
30
0.0
11
13.427080
21
679.713055
31
0.0
0
LINE
8
0
6
CONTINUOUS
10
13.427080
20
680.209885
30
0.0
11
10.661660
21
680.209885
31
0.0
0
LINE
8
0
6
CONTINUOUS
10
10.521090
20
679.961475
30
0.0
11
13.233610
21
679.961475
31
0.0
0
LINE
8
0
6
CONTINUOUS
10
-0.548480
20
-291.287235
30
0.0
11
-4.033110
21
-291.287235
31
0.0
0
LINE
8
0
6
CONTINUOUS
10
3.314280
20
-291.287305
30
0.0
11
-0.548480
21
-291.287235
31
0.0
0
LINE
8
0
6
CONTINUOUS
10
-9.185830
20
-291.287235
30
0.0
11
-9.185840
21
-292.038805
31
0.0
0
LINE
8
0
6
CONTINUOUS
10
-8.574040
20
-291.287235
30
0.0
11
-9.185830
21
-291.287235
31
0.0
0
LINE
8
0
6
CONTINUOUS
10
-4.033110
20
-291.287235
30
0.0
11
-6.798520
21
-291.287235
31
0.0
0
LINE
8
0
6
CONTINUOUS
10
7.177020
20
-291.287235
30
0.0
11
3.314280
21
-291.287305
31
0.0
0
LINE
8
0
6
CONTINUOUS
10
9.637070
20
-291.287235
30
0.0
11
7.177020
21
-291.287235
31
0.0
0
LINE
8
0
6
CONTINUOUS
10
-6.798520
20
-291.287235
30
0.0
11
-8.574040
21
-291.287235
31
0.0
0
LINE
8
0
6
CONTINUOUS
10
-6.798520
20
-291.287235
30
0.0
11
-4.033110
21
-291.287235
31
0.0
0
LINE
8
0
6
CONTINUOUS
10
7.177020
20
-290.790405
30
0.0
11
3.314280
21
-290.790485
31
0.0
0
LINE
8
0
6
CONTINUOUS
10
3.314280
20
-290.790485
30
0.0
11
-0.548480
21
-290.790405
31
0.0
0
LINE
8
0
6
CONTINUOUS
10
7.103120
20
-291.038815
30
0.0
11
3.314280
21
-291.038895
31
0.0
0
LINE
8
0
6
CONTINUOUS
10
3.314280
20
-291.287305
30
0.0
11
7.177020
21
-291.287235
31
0.0
0
LINE
8
0
6
CONTINUOUS
10
-6.798520
20
-290.790405
30
0.0
11
-8.574040
21
-290.790405
31
0.0
0
LINE
8
0
6
CONTINUOUS
10
-6.605050
20
-291.038815
30
0.0
11
-8.346590
21
-291.038815
31
0.0
0
LINE
8
0
6
CONTINUOUS
10
-8.574040
20
-291.287235
30
0.0
11
-6.798520
21
-291.287235
31
0.0
0
LINE
8
0
6
CONTINUOUS
10
-9.185830
20
-291.287235
30
0.0
11
-8.574040
21
-291.287235
31
0.0
0
LINE
8
0
6
CONTINUOUS
10
-8.946680
20
-291.038815
30
0.0
11
-9.185830
21
-291.287235
31
0.0
0
LINE
8
0
6
CONTINUOUS
10
-0.548480
20
-290.790405
30
0.0
11
-4.033110
21
-290.790405
31
0.0
0
LINE
8
0
6
CONTINUOUS
10
-0.474580
20
-291.038815
30
0.0
11
-3.892530
21
-291.038815
31
0.0
0
LINE
8
0
6
CONTINUOUS
10
-4.033110
20
-291.287235
30
0.0
11
-0.548480
21
-291.287235
31
0.0
0
LINE
8
0
6
CONTINUOUS
10
9.637070
20
-290.790405
30
0.0
11
7.177020
21
-290.790405
31
0.0
0
LINE
8
0
6
CONTINUOUS
10
3.314280
20
-291.038895
30
0.0
11
-0.474580
21
-291.038815
31
0.0
0
LINE
8
0
6
CONTINUOUS
10
-0.548480
20
-291.287235
30
0.0
11
3.314280
21
-291.287305
31
0.0
0
LINE
8
0
6
CONTINUOUS
10
9.637070
20
-291.038815
30
0.0
11
7.103120
21
-291.038815
31
0.0
0
LINE
8
0
6
CONTINUOUS
10
7.177020
20
-291.287235
30
0.0
11
9.637070
21
-291.287235
31
0.0
0
LINE
8
0
6
CONTINUOUS
10
-0.548480
20
-293.219225
30
0.0
11
3.314280
21
-293.219225
31
0.0
0
LINE
8
0
6
CONTINUOUS
10
-4.033110
20
-290.790405
30
0.0
11
-6.798520
21
-290.790405
31
0.0
0
LINE
8
0
6
CONTINUOUS
10
-6.605050
20
-291.038815
30
0.0
11
-3.892530
21
-291.038815
31
0.0
0
LINE
8
0
6
CONTINUOUS
10
7.177020
20
-293.219225
30
0.0
11
9.637070
21
-293.219169
31
0.0
0
LINE
8
0
6
CONTINUOUS
10
-8.574040
20
-293.219145
30
0.0
11
-6.798500
21
-293.219145
31
0.0
0
LINE
8
0
6
CONTINUOUS
10
-8.574040
20
-290.790405
30
0.0
11
-9.185830
21
-290.790405
31
0.0
0
LINE
8
0
6
CONTINUOUS
10
-8.946680
20
-291.038815
30
0.0
11
-8.346590
21
-291.038815
31
0.0
0
LINE
8
0
6
CONTINUOUS
10
-9.185830
20
-290.790405
30
0.0
11
-8.946680
21
-291.038815
31
0.0
0
LINE
8
0
6
CONTINUOUS
10
-4.033110
20
-293.219145
30
0.0
11
-0.548480
21
-293.219225
31
0.0
0
LINE
8
0
6
CONTINUOUS
10
-6.798500
20
-293.219145
30
0.0
11
-4.033110
21
-293.219145
31
0.0
0
LINE
8
0
6
CONTINUOUS
10
3.314280
20
-293.219225
30
0.0
11
7.177020
21
-293.219225
31
0.0
0
LINE
8
0
6
CONTINUOUS
10
-9.185840
20
-293.219145
30
0.0
11
-8.574040
21
-293.219145
31
0.0
0
LINE
8
0
6
CONTINUOUS
10
-9.185840
20
-292.038805
30
0.0
11
-9.185840
21
-293.219145
31
0.0
0
LINE
8
0
6
CONTINUOUS
10
83.048060
20
-286.260225
30
0.0
11
83.690000
21
-286.260225
31
0.0
0
LINE
8
0
6
CONTINUOUS
10
83.689980
20
-224.859695
30
0.0
11
83.048050
21
-224.859695
31
0.0
0
LINE
8
0
6
CONTINUOUS
10
83.048010
20
-261.537625
30
0.0
11
83.048010
21
-255.534975
31
0.0
0
LINE
8
0
6
CONTINUOUS
10
82.089230
20
-255.519485
30
0.0
11
82.089230
21
-261.435165
31
0.0
0
LINE
8
0
6
CONTINUOUS
10
83.048010
20
-267.324445
30
0.0
11
83.048010
21
-261.537625
31
0.0
0
LINE
8
0
6
CONTINUOUS
10
82.089230
20
-261.435165
30
0.0
11
82.089230
21
-267.124865
31
0.0
0
LINE
8
0
6
CONTINUOUS
10
83.048020
20
-272.692265
30
0.0
11
83.048010
21
-267.324445
31
0.0
0
LINE
8
0
6
CONTINUOUS
10
82.089230
20
-267.124865
30
0.0
11
82.089230
21
-272.359005
31
0.0
0
LINE
8
0
6
CONTINUOUS
10
83.048060
20
-277.330165
30
0.0
11
83.048020
21
-272.692265
31
0.0
0
LINE
8
0
6
CONTINUOUS
10
82.089230
20
-272.359005
30
0.0
11
82.089230
21
-276.951215
31
0.0
0
LINE
8
0
6
CONTINUOUS
10
83.048060
20
-281.154095
30
0.0
11
83.048060
21
-277.330165
31
0.0
0
LINE
8
0
6
CONTINUOUS
10
82.089230
20
-276.951215
30
0.0
11
82.089230
21
-280.721135
31
0.0
0
LINE
8
0
6
CONTINUOUS
10
83.048060
20
-284.008255
30
0.0
11
83.048060
21
-281.154095
31
0.0
0
LINE
8
0
6
CONTINUOUS
10
82.089230
20
-280.721135
30
0.0
11
82.089230
21
-283.516995
31
0.0
0
LINE
8
0
6
CONTINUOUS
10
83.048060
20
-285.692825
30
0.0
11
83.048060
21
-284.008255
31
0.0
0
LINE
8
0
6
CONTINUOUS
10
82.089230
20
-283.516995
30
0.0
11
82.089230
21
-285.235065
31
0.0
0
LINE
8
0
6
CONTINUOUS
10
83.048060
20
-286.260225
30
0.0
11
83.048060
21
-285.692825
31
0.0
0
LINE
8
0
6
CONTINUOUS
10
82.089230
20
-285.814135
30
0.0
11
83.048060
21
-286.260225
31
0.0
0
LINE
8
0
6
CONTINUOUS
10
82.089230
20
-285.235065
30
0.0
11
82.089230
21
-285.814135
31
0.0
0
LINE
8
0
6
CONTINUOUS
10
83.048050
20
-224.859695
30
0.0
11
82.089230
21
-225.209575
31
0.0
0
LINE
8
0
6
CONTINUOUS
10
82.089230
20
-225.209575
30
0.0
11
82.089230
21
-225.771635
31
0.0
0
LINE
8
0
6
CONTINUOUS
10
82.089230
20
-225.771635
30
0.0
11
82.089230
21
-227.489775
31
0.0
0
LINE
8
0
6
CONTINUOUS
10
82.089230
20
-227.489775
30
0.0
11
82.089230
21
-230.331495
31
0.0
0
LINE
8
0
6
CONTINUOUS
10
83.048050
20
-233.753735
30
0.0
11
83.048050
21
-229.930495
31
0.0
0
LINE
8
0
6
CONTINUOUS
10
82.089230
20
-230.331495
30
0.0
11
82.089230
21
-234.091795
31
0.0
0
LINE
8
0
6
CONTINUOUS
10
83.048010
20
-238.410495
30
0.0
11
83.048050
21
-233.753735
31
0.0
0
LINE
8
0
6
CONTINUOUS
10
82.089230
20
-234.091795
30
0.0
11
82.089230
21
-238.685145
31
0.0
0
LINE
8
0
6
CONTINUOUS
10
83.048010
20
-243.705365
30
0.0
11
83.048010
21
-238.410495
31
0.0
0
LINE
8
0
6
CONTINUOUS
10
82.089230
20
-238.685145
30
0.0
11
82.089230
21
-243.924485
31
0.0
0
LINE
8
0
6
CONTINUOUS
10
83.048010
20
-249.517445
30
0.0
11
83.048010
21
-243.705365
31
0.0
0
LINE
8
0
6
CONTINUOUS
10
82.089230
20
-243.924485
30
0.0
11
82.089230
21
-249.603115
31
0.0
0
LINE
8
0
6
CONTINUOUS
10
83.048010
20
-255.534975
30
0.0
11
83.048010
21
-249.517445
31
0.0
0
LINE
8
0
6
CONTINUOUS
10
82.089230
20
-249.603115
30
0.0
11
82.089230
21
-255.519485
31
0.0
0
LINE
8
0
6
CONTINUOUS
10
83.690000
20
-286.260225
30
0.0
11
97.093820
21
-286.260225
31
0.0
0
LINE
8
0
6
CONTINUOUS
10
97.093800
20
-224.859695
30
0.0
11
83.689980
21
-224.859695
31
0.0
0
LINE
8
0
6
CONTINUOUS
10
98.160730
20
-261.537625
30
0.0
11
98.160690
21
-255.534975
31
0.0
0
LINE
8
0
6
CONTINUOUS
10
98.160690
20
-267.324375
30
0.0
11
98.160730
21
-261.537625
31
0.0
0
LINE
8
0
6
CONTINUOUS
10
98.160690
20
-272.692265
30
0.0
11
98.160690
21
-267.324375
31
0.0
0
LINE
8
0
6
CONTINUOUS
10
98.160740
20
-284.008255
30
0.0
11
98.160740
21
-281.154095
31
0.0
0
LINE
8
0
6
CONTINUOUS
10
98.160740
20
-285.692825
30
0.0
11
98.160740
21
-284.008255
31
0.0
0
LINE
8
0
6
CONTINUOUS
10
98.160740
20
-286.260225
30
0.0
11
98.160740
21
-285.692825
31
0.0
0
LINE
8
0
6
CONTINUOUS
10
97.093820
20
-286.260225
30
0.0
11
98.160740
21
-286.260225
31
0.0
0
LINE
8
0
6
CONTINUOUS
10
98.160720
20
-225.420155
30
0.0
11
98.160720
21
-224.859695
31
0.0
0
LINE
8
0
6
CONTINUOUS
10
98.160720
20
-224.859695
30
0.0
11
97.093800
21
-224.859695
31
0.0
0
LINE
8
0
6
CONTINUOUS
10
98.160720
20
-227.150805
30
0.0
11
98.160720
21
-225.420155
31
0.0
0
LINE
8
0
6
CONTINUOUS
10
98.160720
20
-229.930495
30
0.0
11
98.160720
21
-227.150805
31
0.0
0
LINE
8
0
6
CONTINUOUS
10
98.160720
20
-233.753735
30
0.0
11
98.160720
21
-229.930495
31
0.0
0
LINE
8
0
6
CONTINUOUS
10
98.160720
20
-243.705445
30
0.0
11
98.160690
21
-238.410565
31
0.0
0
LINE
8
0
6
CONTINUOUS
10
98.160690
20
-255.534975
30
0.0
11
98.160690
21
-249.517445
31
0.0
0
LINE
8
0
6
CONTINUOUS
10
98.160690
20
-272.692265
30
0.0
11
98.160730
21
-277.330165
31
0.0
0
LINE
8
0
6
CONTINUOUS
10
98.160730
20
-277.330165
30
0.0
11
98.160740
21
-281.154095
31
0.0
0
LINE
8
0
6
CONTINUOUS
10
98.160720
20
-233.753735
30
0.0
11
98.160690
21
-238.410565
31
0.0
0
LINE
8
0
6
CONTINUOUS
10
98.160720
20
-243.705445
30
0.0
11
98.160690
21
-249.517445
31
0.0
0
LINE
8
0
6
CONTINUOUS
10
82.089230
20
-245.928805
30
0.0
11
24.114270
21
-245.928805
31
0.0
0
LINE
8
0
6
CONTINUOUS
10
24.114270
20
-265.098645
30
0.0
11
82.089230
21
-265.098645
31
0.0
0
LINE
8
0
6
CONTINUOUS
10
24.114270
20
-264.370875
30
0.0
11
82.089230
21
-264.370875
31
0.0
0
LINE
8
0
6
CONTINUOUS
10
82.089230
20
-246.619105
30
0.0
11
24.114270
21
-246.619105
31
0.0
0
LINE
8
0
6
CONTINUOUS
10
82.089230
20
-259.194565
30
0.0
11
24.114270
21
-259.194565
31
0.0
0
LINE
8
0
6
CONTINUOUS
10
19.146510
20
319.161415
30
0.0
11
19.146510
21
319.313735
31
0.0
0
LINE
8
0
6
CONTINUOUS
10
19.146510
20
268.503225
30
0.0
11
19.146510
21
268.698575
31
0.0
0
LINE
8
0
6
CONTINUOUS
10
-12.837050
20
296.259869
30
0.0
11
-12.837050
21
268.698575
31
0.0
0
LINE
8
0
6
CONTINUOUS
10
19.146510
20
268.698575
30
0.0
11
19.146510
21
271.436771
31
0.0
0
LINE
8
0
6
CONTINUOUS
10
19.146510
20
293.391893
30
0.0
11
19.146510
21
319.161415
31
0.0
0
LINE
8
0
6
CONTINUOUS
10
-12.837050
20
268.698575
30
0.0
11
-12.837050
21
268.503225
31
0.0
0
LINE
8
0
6
CONTINUOUS
10
19.146510
20
319.313735
30
0.0
11
18.762690
21
319.908485
31
0.0
0
LINE
8
0
6
CONTINUOUS
10
18.570800
20
319.313735
30
0.0
11
19.146510
21
319.313735
31
0.0
0
LINE
8
0
6
CONTINUOUS
10
18.762690
20
319.908485
30
0.0
11
18.187000
21
319.908485
31
0.0
0
LINE
8
0
6
CONTINUOUS
10
17.035600
20
319.313735
30
0.0
11
18.570800
21
319.313735
31
0.0
0
LINE
8
0
6
CONTINUOUS
10
18.187000
20
319.908485
30
0.0
11
16.651790
21
319.908485
31
0.0
0
LINE
8
0
6
CONTINUOUS
10
14.476920
20
319.313735
30
0.0
11
17.035600
21
319.313735
31
0.0
0
LINE
8
0
6
CONTINUOUS
10
16.651790
20
319.908485
30
0.0
11
14.157080
21
319.908485
31
0.0
0
LINE
8
0
6
CONTINUOUS
10
12.195776
20
319.313735
30
0.0
11
14.476920
21
319.313735
31
0.0
0
LINE
8
0
6
CONTINUOUS
10
14.157080
20
319.908485
30
0.0
11
12.036299
21
319.908485
31
0.0
0
LINE
8
0
6
CONTINUOUS
10
18.762690
20
267.908555
30
0.0
11
19.146510
21
268.503225
31
0.0
0
LINE
8
0
6
CONTINUOUS
10
18.187000
20
267.908555
30
0.0
11
18.762690
21
267.908555
31
0.0
0
LINE
8
0
6
CONTINUOUS
10
19.146510
20
268.503225
30
0.0
11
18.570800
21
268.503225
31
0.0
0
LINE
8
0
6
CONTINUOUS
10
16.914592
20
267.908555
30
0.0
11
18.187000
21
267.908555
31
0.0
0
LINE
8
0
6
CONTINUOUS
10
18.570800
20
268.503225
30
0.0
11
17.035600
21
268.503225
31
0.0
0
LINE
8
0
6
CONTINUOUS
10
17.035600
20
268.503225
30
0.0
11
16.800876
21
268.503225
31
0.0
0
LINE
8
0
6
CONTINUOUS
10
-12.837050
20
268.503225
30
0.0
11
-12.453240
21
267.908555
31
0.0
0
LINE
8
0
6
CONTINUOUS
10
-12.261340
20
268.503225
30
0.0
11
-12.837050
21
268.503225
31
0.0
0
LINE
8
0
6
CONTINUOUS
10
-12.453240
20
267.908555
30
0.0
11
-11.877540
21
267.908555
31
0.0
0
LINE
8
0
6
CONTINUOUS
10
-10.726130
20
268.503225
30
0.0
11
-12.261340
21
268.503225
31
0.0
0
LINE
8
0
6
CONTINUOUS
10
-11.877540
20
267.908555
30
0.0
11
-10.342320
21
267.908555
31
0.0
0
LINE
8
0
6
CONTINUOUS
10
-8.167440
20
268.503225
30
0.0
11
-10.726130
21
268.503225
31
0.0
0
LINE
8
0
6
CONTINUOUS
10
-10.342320
20
267.908555
30
0.0
11
-7.847600
21
267.908555
31
0.0
0
LINE
8
0
6
CONTINUOUS
10
-5.394318
20
268.503225
30
0.0
11
-8.167440
21
268.503225
31
0.0
0
LINE
8
0
6
CONTINUOUS
10
-7.847600
20
267.908555
30
0.0
11
-5.234862
21
267.908555
31
0.0
0
LINE
8
0
6
CONTINUOUS
10
1.810290
20
266.791535
30
0.0
11
1.895390
21
266.814385
31
0.0
0
LINE
8
0
6
CONTINUOUS
10
1.895390
20
266.814385
30
0.0
11
1.965350
21
266.833155
31
0.0
0
LINE
8
0
6
CONTINUOUS
10
1.965350
20
266.833155
30
0.0
11
2.352312
21
266.936834
31
0.0
0
LINE
8
0
6
CONTINUOUS
10
1.808770
20
267.417105
30
0.0
11
1.965350
21
266.833155
31
0.0
0
LINE
8
0
6
CONTINUOUS
10
-11.628500
20
316.697965
30
0.0
11
-11.969860
21
316.606525
31
0.0
0
LINE
8
0
6
CONTINUOUS
10
-11.384930
20
315.789645
30
0.0
11
-11.628500
21
316.697965
31
0.0
0
LINE
8
0
6
CONTINUOUS
10
-17.868980
20
315.025825
30
0.0
11
-17.625420
21
314.117435
31
0.0
0
LINE
8
0
6
CONTINUOUS
10
-17.348960
20
315.165215
30
0.0
11
-17.868980
21
315.025825
31
0.0
0
LINE
8
0
6
CONTINUOUS
10
5.012670
20
321.156995
30
0.0
11
5.256230
21
320.248605
31
0.0
0
LINE
8
0
6
CONTINUOUS
10
5.359300
20
321.249845
30
0.0
11
5.012670
21
321.156995
31
0.0
0
LINE
8
0
6
CONTINUOUS
10
20.374600
20
271.765895
30
0.0
11
22.662830
21
272.379035
31
0.0
0
LINE
8
0
6
CONTINUOUS
10
22.662830
20
272.379035
30
0.0
11
24.118940
21
272.769205
31
0.0
0
LINE
8
0
6
CONTINUOUS
10
24.638970
20
272.908475
30
0.0
11
24.482390
21
273.492435
31
0.0
0
LINE
8
0
6
CONTINUOUS
10
24.118940
20
272.769205
30
0.0
11
24.638970
21
272.908475
31
0.0
0
LINE
8
0
6
CONTINUOUS
10
-13.604630
20
316.168515
30
0.0
11
-15.892860
21
315.555345
31
0.0
0
LINE
8
0
6
CONTINUOUS
10
-15.892860
20
315.555345
30
0.0
11
-17.348960
21
315.165215
31
0.0
0
LINE
8
0
6
CONTINUOUS
10
-11.969860
20
316.606525
30
0.0
11
-13.604630
21
316.168515
31
0.0
0
LINE
8
0
6
CONTINUOUS
10
18.745110
20
271.329235
30
0.0
11
20.374600
21
271.765895
31
0.0
0
LINE
8
0
6
CONTINUOUS
10
-4.987321
20
292.762190
30
0.0
11
1.808770
21
267.417105
31
0.0
0
LINE
8
0
6
CONTINUOUS
10
1.415960
20
266.685945
30
0.0
11
1.757310
21
266.777385
31
0.0
0
LINE
8
0
6
CONTINUOUS
10
1.757310
20
266.777385
30
0.0
11
1.600720
21
267.361335
31
0.0
0
LINE
8
0
6
CONTINUOUS
10
-4.483170
20
265.105245
30
0.0
11
-3.963140
21
265.244565
31
0.0
0
LINE
8
0
6
CONTINUOUS
10
-4.639760
20
265.689205
30
0.0
11
-4.483170
21
265.105245
31
0.0
0
LINE
8
0
6
CONTINUOUS
10
18.261060
20
271.199535
30
0.0
11
18.346920
21
271.222535
31
0.0
0
LINE
8
0
6
CONTINUOUS
10
18.190460
20
271.180615
30
0.0
11
18.261060
21
271.199535
31
0.0
0
LINE
8
0
6
CONTINUOUS
10
16.364275
20
270.691290
30
0.0
11
18.190460
21
271.180615
31
0.0
0
LINE
8
0
6
CONTINUOUS
10
18.190460
20
271.180615
30
0.0
11
18.033880
21
271.764565
31
0.0
0
LINE
8
0
6
CONTINUOUS
10
18.398480
20
271.236345
30
0.0
11
18.745110
21
271.329235
31
0.0
0
LINE
8
0
6
CONTINUOUS
10
18.241890
20
271.820295
30
0.0
11
18.398480
21
271.236345
31
0.0
0
LINE
8
0
6
CONTINUOUS
10
24.482390
20
273.492435
30
0.0
11
11.496730
21
321.920735
31
0.0
0
LINE
8
0
6
CONTINUOUS
10
-2.507050
20
265.634725
30
0.0
11
-0.218820
21
266.247865
31
0.0
0
LINE
8
0
6
CONTINUOUS
10
-3.963140
20
265.244565
30
0.0
11
-2.507050
21
265.634725
31
0.0
0
LINE
8
0
6
CONTINUOUS
10
-0.218820
20
266.247865
30
0.0
11
1.415960
21
266.685945
31
0.0
0
LINE
8
0
6
CONTINUOUS
10
1.600720
20
267.361335
30
0.0
11
-11.384930
21
315.789645
31
0.0
0
LINE
8
0
6
CONTINUOUS
10
-17.625420
20
314.117435
30
0.0
11
-4.639760
21
265.689205
31
0.0
0
LINE
8
0
6
CONTINUOUS
10
18.033880
20
271.764565
30
0.0
11
11.237803
21
297.109660
31
0.0
0
LINE
8
0
6
CONTINUOUS
10
5.256230
20
320.248605
30
0.0
11
18.241890
21
271.820295
31
0.0
0
LINE
8
0
6
CONTINUOUS
10
9.277020
20
322.299615
30
0.0
11
6.988780
21
321.686475
31
0.0
0
LINE
8
0
6
CONTINUOUS
10
10.733120
20
322.689785
30
0.0
11
9.277020
21
322.299615
31
0.0
0
LINE
8
0
6
CONTINUOUS
10
11.496730
20
321.920735
30
0.0
11
11.253160
21
322.829095
31
0.0
0
LINE
8
0
6
CONTINUOUS
10
11.253160
20
322.829095
30
0.0
11
10.733120
21
322.689785
31
0.0
0
LINE
8
0
6
CONTINUOUS
10
6.988780
20
321.686475
30
0.0
11
5.359300
21
321.249845
31
0.0
0
LINE
8
0
6
CONTINUOUS
10
-35.482710
20
422.314375
30
0.0
11
-38.026830
21
426.170735
31
0.0
0
LINE
8
0
6
CONTINUOUS
10
-38.026830
20
426.170735
30
0.0
11
-40.703410
21
430.349355
31
0.0
0
LINE
8
0
6
CONTINUOUS
10
-97.636150
20
517.688825
30
0.0
11
-96.771540
21
514.665835
31
0.0
0
LINE
8
0
6
CONTINUOUS
10
-97.329670
20
517.221375
30
0.0
11
-97.636150
21
517.688825
31
0.0
0
LINE
8
0
6
CONTINUOUS
10
-85.149690
20
498.306505
30
0.0
11
-88.209760
21
503.003995
31
0.0
0
LINE
8
0
6
CONTINUOUS
10
-81.408800
20
492.608185
30
0.0
11
-85.149690
21
498.306505
31
0.0
0
LINE
8
0
6
CONTINUOUS
10
-77.591840
20
486.781925
30
0.0
11
-81.169438
21
492.242820
31
0.0
0
LINE
8
0
6
CONTINUOUS
10
-73.051740
20
479.799345
30
0.0
11
-77.591840
21
486.781925
31
0.0
0
LINE
8
0
6
CONTINUOUS
10
-69.124330
20
473.808825
30
0.0
11
-72.315432
21
478.676246
31
0.0
0
LINE
8
0
6
CONTINUOUS
10
-64.770930
20
467.180405
30
0.0
11
-69.124330
21
473.808825
31
0.0
0
LINE
8
0
6
CONTINUOUS
10
-54.538620
20
437.233585
30
0.0
11
-53.246429
21
435.866860
31
0.0
0
LINE
8
0
6
CONTINUOUS
10
-87.441584
20
489.421572
30
0.0
11
-87.012915
21
488.411232
31
0.0
0
LINE
8
0
6
CONTINUOUS
10
-33.947560
20
408.983765
30
0.0
11
-33.626170
21
410.386355
31
0.0
0
LINE
8
0
6
CONTINUOUS
10
-35.339790
20
404.444355
30
0.0
11
-34.630940
21
406.174775
31
0.0
0
LINE
8
0
6
CONTINUOUS
10
-34.630940
20
406.174775
30
0.0
11
-33.947560
21
408.983765
31
0.0
0
LINE
8
0
6
CONTINUOUS
10
-32.742140
20
415.528185
30
0.0
11
-32.989440
21
417.047195
31
0.0
0
LINE
8
0
6
CONTINUOUS
10
-47.095130
20
421.420975
30
0.0
11
-46.510580
21
419.608765
31
0.0
0
LINE
8
0
6
CONTINUOUS
10
-33.291990
20
418.465805
30
0.0
11
-33.797010
21
419.665065
31
0.0
0
LINE
8
0
6
CONTINUOUS
10
-48.307870
20
425.030745
30
0.0
11
-47.692620
21
423.229065
31
0.0
0
LINE
8
0
6
CONTINUOUS
10
-38.605730
20
396.622235
30
0.0
11
-37.797090
21
398.524555
31
0.0
0
LINE
8
0
6
CONTINUOUS
10
-40.666023
20
399.812825
30
0.0
11
-40.507150
21
399.356305
31
0.0
0
LINE
8
0
6
CONTINUOUS
10
-39.369470
20
395.421445
30
0.0
11
-39.168800
21
395.676725
31
0.0
0
LINE
8
0
6
CONTINUOUS
10
-40.507150
20
399.356305
30
0.0
11
-39.369470
21
395.421445
31
0.0
0
LINE
8
0
6
CONTINUOUS
10
-39.168800
20
395.676725
30
0.0
11
-38.605730
21
396.622235
31
0.0
0
LINE
8
0
6
CONTINUOUS
10
-33.626170
20
410.386355
30
0.0
11
-33.304800
21
411.788945
31
0.0
0
LINE
8
0
6
CONTINUOUS
10
-51.801320
20
447.309115
30
0.0
11
-56.328260
21
454.192195
31
0.0
0
LINE
8
0
6
CONTINUOUS
10
-47.736850
20
441.092985
30
0.0
11
-51.794103
21
447.298078
31
0.0
0
LINE
8
0
6
CONTINUOUS
10
-95.239600
20
513.735195
30
0.0
11
-96.693080
21
515.999225
31
0.0
0
LINE
8
0
6
CONTINUOUS
10
-88.209760
20
503.003995
30
0.0
11
-91.025500
21
507.298125
31
0.0
0
LINE
8
0
6
CONTINUOUS
10
-91.025500
20
507.298125
30
0.0
11
-93.395310
21
510.929265
31
0.0
0
LINE
8
0
6
CONTINUOUS
10
-93.395310
20
510.929265
30
0.0
11
-95.239600
21
513.735195
31
0.0
0
LINE
8
0
6
CONTINUOUS
10
-96.693080
20
515.999225
30
0.0
11
-97.329670
21
517.221375
31
0.0
0
LINE
8
0
6
CONTINUOUS
10
-96.771540
20
514.665835
30
0.0
11
-95.877268
21
511.994656
31
0.0
0
LINE
8
0
6
CONTINUOUS
10
-40.703410
20
430.349355
30
0.0
11
-44.165960
21
435.571445
31
0.0
0
LINE
8
0
6
CONTINUOUS
10
-44.165960
20
435.571445
30
0.0
11
-47.736850
21
441.092985
31
0.0
0
LINE
8
0
6
CONTINUOUS
10
-56.328260
20
454.192195
30
0.0
11
-60.381010
21
460.442505
31
0.0
0
LINE
8
0
6
CONTINUOUS
10
-60.381010
20
460.442505
30
0.0
11
-64.770930
21
467.180405
31
0.0
0
LINE
8
0
6
CONTINUOUS
10
-50.479404
20
430.582325
30
0.0
11
-50.366780
21
430.360945
31
0.0
0
LINE
8
0
6
CONTINUOUS
10
-32.989440
20
417.047195
30
0.0
11
-33.291990
21
418.465805
31
0.0
0
LINE
8
0
6
CONTINUOUS
10
-47.692620
20
423.229065
30
0.0
11
-47.095130
21
421.420975
31
0.0
0
LINE
8
0
6
CONTINUOUS
10
-55.255644
20
438.151407
30
0.0
11
-54.538620
21
437.233585
31
0.0
0
LINE
8
0
6
CONTINUOUS
10
-32.983450
20
413.191525
30
0.0
11
-32.742140
21
415.528185
31
0.0
0
LINE
8
0
6
CONTINUOUS
10
-46.510580
20
419.608765
30
0.0
11
-46.386617
21
419.105225
31
0.0
0
LINE
8
0
6
CONTINUOUS
10
-46.184118
20
419.166266
30
0.0
11
-46.240280
21
419.352115
31
0.0
0
LINE
8
0
6
CONTINUOUS
10
-40.055070
20
412.120135
30
0.0
11
-42.590630
21
415.741725
31
0.0
0
LINE
8
0
6
CONTINUOUS
10
-54.655570
20
437.560115
30
0.0
11
-53.288239
21
435.839445
31
0.0
0
LINE
8
0
6
CONTINUOUS
10
-50.767333
20
432.667096
30
0.0
11
-50.534150
21
432.373655
31
0.0
0
LINE
8
0
6
CONTINUOUS
10
-50.366780
20
430.360945
30
0.0
11
-49.700600
21
428.575665
31
0.0
0
LINE
8
0
6
CONTINUOUS
10
-49.700600
20
428.575665
30
0.0
11
-49.008140
21
426.801915
31
0.0
0
LINE
8
0
6
CONTINUOUS
10
-49.008140
20
426.801915
30
0.0
11
-48.307870
21
425.030745
31
0.0
0
LINE
8
0
6
CONTINUOUS
10
-33.797010
20
419.665065
30
0.0
11
-34.475880
21
420.769955
31
0.0
0
LINE
8
0
6
CONTINUOUS
10
-36.605720
20
401.280595
30
0.0
11
-35.339790
21
404.444355
31
0.0
0
LINE
8
0
6
CONTINUOUS
10
-37.797090
20
398.524555
30
0.0
11
-36.605720
21
401.280595
31
0.0
0
LINE
8
0
6
CONTINUOUS
10
-33.304800
20
411.788945
30
0.0
11
-32.983450
21
413.191525
31
0.0
0
LINE
8
0
6
CONTINUOUS
10
-44.884510
20
409.051595
30
0.0
11
-43.306810
21
404.269715
31
0.0
0
LINE
8
0
6
CONTINUOUS
10
-46.167560
20
413.919065
30
0.0
11
-44.884510
21
409.051595
31
0.0
0
LINE
8
0
6
CONTINUOUS
10
-41.304440
20
399.620365
30
0.0
11
-40.666023
21
399.812825
31
0.0
0
LINE
8
0
6
CONTINUOUS
10
-46.386617
20
419.105225
30
0.0
11
-47.023430
21
418.913265
31
0.0
0
LINE
8
0
6
CONTINUOUS
10
-47.187840
20
418.063435
30
0.0
11
-46.167560
21
413.919065
31
0.0
0
LINE
8
0
6
CONTINUOUS
10
-43.306810
20
404.269715
30
0.0
11
-41.855560
21
400.099565
31
0.0
0
LINE
8
0
6
CONTINUOUS
10
-43.832160
20
412.846065
30
0.0
11
-45.553950
21
416.641385
31
0.0
0
LINE
8
0
6
CONTINUOUS
10
-40.737380
20
401.407855
30
0.0
11
-40.097790
21
403.779985
31
0.0
0
LINE
8
0
6
CONTINUOUS
10
-41.019590
20
401.488415
30
0.0
11
-40.375870
21
403.768385
31
0.0
0
LINE
8
0
6
CONTINUOUS
10
-41.597710
20
399.682085
30
0.0
11
-41.304440
21
399.620365
31
0.0
0
LINE
8
0
6
CONTINUOUS
10
-41.304440
20
399.620365
30
0.0
11
-41.128980
21
400.058825
31
0.0
0
LINE
8
0
6
CONTINUOUS
10
-41.814100
20
399.980315
30
0.0
11
-41.597710
21
399.682085
31
0.0
0
LINE
8
0
6
CONTINUOUS
10
-41.597710
20
399.682085
30
0.0
11
-41.421190
21
400.122145
31
0.0
0
LINE
8
0
6
CONTINUOUS
10
-40.156650
20
406.458895
30
0.0
11
-40.375870
21
403.768385
31
0.0
0
LINE
8
0
6
CONTINUOUS
10
-43.529760
20
415.092235
30
0.0
11
-41.236510
21
411.757275
31
0.0
0
LINE
8
0
6
CONTINUOUS
10
-45.594960
20
417.603605
30
0.0
11
-46.765940
21
418.668825
31
0.0
0
LINE
8
0
6
CONTINUOUS
10
-46.955510
20
418.408055
30
0.0
11
-45.756430
21
417.343065
31
0.0
0
LINE
8
0
6
CONTINUOUS
10
-47.224430
20
418.656545
30
0.0
11
-47.218040
21
418.186035
31
0.0
0
LINE
8
0
6
CONTINUOUS
10
-47.023430
20
418.913265
30
0.0
11
-47.224430
21
418.656545
31
0.0
0
LINE
8
0
6
CONTINUOUS
10
-46.765940
20
418.668825
30
0.0
11
-47.023430
21
418.913265
31
0.0
0
LINE
8
0
6
CONTINUOUS
10
-47.224430
20
418.656545
30
0.0
11
-46.955510
21
418.408055
31
0.0
0
LINE
8
0
6
CONTINUOUS
10
-45.756430
20
417.343065
30
0.0
11
-43.529760
21
415.092235
31
0.0
0
LINE
8
0
6
CONTINUOUS
10
-40.265470
20
409.334105
30
0.0
11
-40.156650
21
406.458895
31
0.0
0
LINE
8
0
6
CONTINUOUS
10
-41.128980
20
400.058825
30
0.0
11
-40.737380
21
401.407855
31
0.0
0
LINE
8
0
6
CONTINUOUS
10
-41.421190
20
400.122145
30
0.0
11
-41.019590
21
401.488415
31
0.0
0
LINE
8
0
6
CONTINUOUS
10
-41.855560
20
400.099565
30
0.0
11
-41.814100
21
399.980315
31
0.0
0
LINE
8
0
6
CONTINUOUS
10
-47.218040
20
418.186035
30
0.0
11
-47.187840
21
418.063435
31
0.0
0
LINE
8
0
6
CONTINUOUS
10
-73.041760
20
480.725095
30
0.0
11
-68.701670
21
474.108355
31
0.0
0
LINE
8
0
6
CONTINUOUS
10
-35.484510
20
459.858935
30
0.0
11
-42.236950
21
470.603485
31
0.0
0
LINE
8
0
6
CONTINUOUS
10
-84.272990
20
528.751225
30
0.0
11
-84.742930
21
528.797305
31
0.0
0
LINE
8
0
6
CONTINUOUS
10
-50.445760
20
483.122405
30
0.0
11
-50.847110
21
483.734435
31
0.0
0
LINE
8
0
6
CONTINUOUS
10
-42.291380
20
470.686495
30
0.0
11
-42.345100
21
470.768435
31
0.0
0
LINE
8
0
6
CONTINUOUS
10
-43.631120
20
472.729645
30
0.0
11
-44.113510
21
473.465425
31
0.0
0
LINE
8
0
6
CONTINUOUS
10
-49.457100
20
481.614685
30
0.0
11
-49.963840
21
482.387395
31
0.0
0
LINE
8
0
6
CONTINUOUS
10
-42.882950
20
471.588665
30
0.0
11
-43.229770
21
472.117615
31
0.0
0
LINE
8
0
6
CONTINUOUS
10
-47.038370
20
477.925945
30
0.0
11
-47.664760
21
478.881225
31
0.0
0
LINE
8
0
6
CONTINUOUS
10
-47.664760
20
478.881225
30
0.0
11
-48.256120
21
479.783025
31
0.0
0
LINE
8
0
6
CONTINUOUS
10
-86.125370
20
528.317715
30
0.0
11
-86.646270
21
527.991945
31
0.0
0
LINE
8
0
6
CONTINUOUS
10
-91.025430
20
507.298125
30
0.0
11
-90.181288
21
506.010823
31
0.0
0
LINE
8
0
6
CONTINUOUS
10
-89.912599
20
505.601077
30
0.0
11
-88.209680
21
503.004155
31
0.0
0
LINE
8
0
6
CONTINUOUS
10
-93.395230
20
510.929265
30
0.0
11
-91.025430
21
507.298125
31
0.0
0
LINE
8
0
6
CONTINUOUS
10
-95.239560
20
513.735195
30
0.0
11
-93.395230
21
510.929265
31
0.0
0
LINE
8
0
6
CONTINUOUS
10
-96.693000
20
515.999295
30
0.0
11
-95.239560
21
513.735195
31
0.0
0
LINE
8
0
6
CONTINUOUS
10
-97.329600
20
517.221375
30
0.0
11
-96.693000
21
515.999295
31
0.0
0
LINE
8
0
6
CONTINUOUS
10
-97.636070
20
517.688905
30
0.0
11
-97.329600
21
517.221375
31
0.0
0
LINE
8
0
6
CONTINUOUS
10
-97.428780
20
518.623355
30
0.0
11
-97.636070
21
517.688905
31
0.0
0
LINE
8
0
6
CONTINUOUS
10
-97.169490
20
521.409455
30
0.0
11
-98.081700
21
520.370025
31
0.0
0
LINE
8
0
6
CONTINUOUS
10
-88.415140
20
504.231265
30
0.0
11
-85.119020
21
499.213105
31
0.0
0
LINE
8
0
6
CONTINUOUS
10
-84.865610
20
500.194545
30
0.0
11
-88.240850
21
505.338445
31
0.0
0
LINE
8
0
6
CONTINUOUS
10
-85.119020
20
499.213105
30
0.0
11
-81.434740
21
493.526005
31
0.0
0
LINE
8
0
6
CONTINUOUS
10
-81.131670
20
494.487615
30
0.0
11
-84.865610
21
500.194545
31
0.0
0
LINE
8
0
6
CONTINUOUS
10
-81.434740
20
493.526005
30
0.0
11
-77.536120
21
487.570035
31
0.0
0
LINE
8
0
6
CONTINUOUS
10
-77.536120
20
487.570035
30
0.0
11
-73.041760
21
480.725095
31
0.0
0
LINE
8
0
6
CONTINUOUS
10
-68.701670
20
474.108355
30
0.0
11
-64.367640
21
467.417145
31
0.0
0
LINE
8
0
6
CONTINUOUS
10
-81.131670
20
494.487615
30
0.0
11
-77.112270
21
488.155515
31
0.0
0
LINE
8
0
6
CONTINUOUS
10
-77.112270
20
488.155515
30
0.0
11
-72.706260
21
481.301265
31
0.0
0
LINE
8
0
6
CONTINUOUS
10
-72.706260
20
481.301265
30
0.0
11
-68.240160
21
474.522705
31
0.0
0
LINE
8
0
6
CONTINUOUS
10
-68.240160
20
474.522705
30
0.0
11
-63.674580
21
467.630615
31
0.0
0
LINE
8
0
6
CONTINUOUS
10
-44.165900
20
435.571515
30
0.0
11
-40.703340
21
430.349425
31
0.0
0
LINE
8
0
6
CONTINUOUS
10
-47.736780
20
441.092985
30
0.0
11
-44.165900
21
435.571515
31
0.0
0
LINE
8
0
6
CONTINUOUS
10
-51.801250
20
447.309265
30
0.0
11
-47.736780
21
441.092985
31
0.0
0
LINE
8
0
6
CONTINUOUS
10
-56.328190
20
454.192275
30
0.0
11
-51.801250
21
447.309265
31
0.0
0
LINE
8
0
6
CONTINUOUS
10
-60.380940
20
460.442505
30
0.0
11
-56.328190
21
454.192275
31
0.0
0
LINE
8
0
6
CONTINUOUS
10
-64.770850
20
467.180485
30
0.0
11
-60.388360
21
460.453894
31
0.0
0
LINE
8
0
6
CONTINUOUS
10
-39.844290
20
429.861295
30
0.0
11
-36.851470
21
425.355535
31
0.0
0
LINE
8
0
6
CONTINUOUS
10
-36.851470
20
425.355535
30
0.0
11
-34.470600
21
421.619115
31
0.0
0
LINE
8
0
6
CONTINUOUS
10
-34.470600
20
421.619115
30
0.0
11
-33.436420
21
420.035855
31
0.0
0
LINE
8
0
6
CONTINUOUS
10
-38.727580
20
429.517515
30
0.0
11
-35.539270
21
424.970855
31
0.0
0
LINE
8
0
6
CONTINUOUS
10
-35.539270
20
424.970855
30
0.0
11
-33.210230
21
421.140445
31
0.0
0
LINE
8
0
6
CONTINUOUS
10
-46.411710
20
476.970215
30
0.0
11
-47.038370
21
477.925945
31
0.0
0
LINE
8
0
6
CONTINUOUS
10
-51.440320
20
484.639125
30
0.0
11
-51.677410
21
485.000765
31
0.0
0
LINE
8
0
6
CONTINUOUS
10
-74.395140
20
516.441805
30
0.0
11
-84.018740
21
528.434375
31
0.0
0
LINE
8
0
6
CONTINUOUS
10
-45.168010
20
475.073545
30
0.0
11
-45.820240
21
476.068195
31
0.0
0
LINE
8
0
6
CONTINUOUS
10
-15.458730
20
423.876265
30
0.0
11
-22.624840
21
437.480625
31
0.0
0
LINE
8
0
6
CONTINUOUS
10
-51.839800
20
485.248415
30
0.0
11
-59.000260
21
495.725405
31
0.0
0
LINE
8
0
6
CONTINUOUS
10
-59.000260
20
495.725405
30
0.0
11
-66.561620
21
506.135335
31
0.0
0
LINE
8
0
6
CONTINUOUS
10
-66.561620
20
506.135335
30
0.0
11
-74.395140
21
516.441805
31
0.0
0
LINE
8
0
6
CONTINUOUS
10
-88.240850
20
505.338445
30
0.0
11
-91.160120
21
509.513095
31
0.0
0
LINE
8
0
6
CONTINUOUS
10
-91.178660
20
508.431245
30
0.0
11
-88.415140
21
504.231265
31
0.0
0
LINE
8
0
6
CONTINUOUS
10
-91.160120
20
509.513095
30
0.0
11
-93.585360
21
513.412475
31
0.0
0
LINE
8
0
6
CONTINUOUS
10
-93.710970
20
512.370605
30
0.0
11
-91.178660
21
508.431245
31
0.0
0
LINE
8
0
6
CONTINUOUS
10
-93.585360
20
513.412475
30
0.0
11
-95.562170
21
516.351165
31
0.0
0
LINE
8
0
6
CONTINUOUS
10
-95.528180
20
515.084075
30
0.0
11
-93.710970
21
512.370605
31
0.0
0
LINE
8
0
6
CONTINUOUS
10
-95.562170
20
516.351165
30
0.0
11
-97.045710
21
518.657225
31
0.0
0
LINE
8
0
6
CONTINUOUS
10
-96.943010
20
517.197115
30
0.0
11
-95.528180
21
515.084075
31
0.0
0
LINE
8
0
6
CONTINUOUS
10
-97.045710
20
518.657225
30
0.0
11
-97.817300
21
519.826505
31
0.0
0
LINE
8
0
6
CONTINUOUS
10
-97.711140
20
518.459625
30
0.0
11
-96.943010
21
517.197115
31
0.0
0
LINE
8
0
6
CONTINUOUS
10
-97.817300
20
519.826505
30
0.0
11
-98.081700
21
520.370025
31
0.0
0
LINE
8
0
6
CONTINUOUS
10
-98.160780
20
518.941955
30
0.0
11
-97.711140
21
518.459625
31
0.0
0
LINE
8
0
6
CONTINUOUS
10
-98.081700
20
520.370025
30
0.0
11
-98.160780
21
518.941955
31
0.0
0
LINE
8
0
6
CONTINUOUS
10
-38.727580
20
429.517515
30
0.0
11
-42.173570
21
434.827115
31
0.0
0
LINE
8
0
6
CONTINUOUS
10
-43.272530
20
435.122225
30
0.0
11
-39.844290
21
429.861295
31
0.0
0
LINE
8
0
6
CONTINUOUS
10
-42.173570
20
434.827115
30
0.0
11
-45.862840
21
440.539245
31
0.0
0
LINE
8
0
6
CONTINUOUS
10
-46.878810
20
440.644535
30
0.0
11
-43.272530
21
435.122225
31
0.0
0
LINE
8
0
6
CONTINUOUS
10
-45.862840
20
440.539245
30
0.0
11
-50.204000
21
447.120665
31
0.0
0
LINE
8
0
6
CONTINUOUS
10
-51.257390
20
447.362065
30
0.0
11
-46.878810
21
440.644535
31
0.0
0
LINE
8
0
6
CONTINUOUS
10
-50.204000
20
447.120665
30
0.0
11
-54.467870
21
453.708035
31
0.0
0
LINE
8
0
6
CONTINUOUS
10
-55.525970
20
453.850705
30
0.0
11
-51.257390
21
447.362065
31
0.0
0
LINE
8
0
6
CONTINUOUS
10
-54.467870
20
453.708035
30
0.0
11
-59.012290
21
460.510715
31
0.0
0
LINE
8
0
6
CONTINUOUS
10
-59.826940
20
460.400085
30
0.0
11
-55.525970
21
453.850705
31
0.0
0
LINE
8
0
6
CONTINUOUS
10
-59.012290
20
460.510715
30
0.0
11
-63.674580
21
467.630615
31
0.0
0
LINE
8
0
6
CONTINUOUS
10
-64.367640
20
467.417145
30
0.0
11
-59.826940
21
460.400085
31
0.0
0
LINE
8
0
6
CONTINUOUS
10
-18.124080
20
426.522065
30
0.0
11
-17.393440
21
425.407105
31
0.0
0
LINE
8
0
6
CONTINUOUS
10
-20.073940
20
429.495085
30
0.0
11
-19.099010
21
428.008575
31
0.0
0
LINE
8
0
6
CONTINUOUS
10
-22.639210
20
433.407135
30
0.0
11
-20.073940
21
429.495085
31
0.0
0
LINE
8
0
6
CONTINUOUS
10
-42.064190
20
461.123735
30
0.0
11
-37.719720
21
454.498295
31
0.0
0
LINE
8
0
6
CONTINUOUS
10
-37.719720
20
454.498295
30
0.0
11
-33.681690
21
448.339995
31
0.0
0
LINE
8
0
6
CONTINUOUS
10
-33.681690
20
448.339995
30
0.0
11
-29.847650
21
442.493595
31
0.0
0
LINE
8
0
6
CONTINUOUS
10
-29.847650
20
442.493595
30
0.0
11
-26.371510
21
437.192995
31
0.0
0
LINE
8
0
6
CONTINUOUS
10
-85.178110
20
528.781125
30
0.0
11
-86.125370
21
528.317715
31
0.0
0
LINE
8
0
6
CONTINUOUS
10
-84.742930
20
528.797305
30
0.0
11
-85.178110
21
528.781125
31
0.0
0
LINE
8
0
6
CONTINUOUS
10
-85.178110
20
528.781125
30
0.0
11
-84.817730
21
528.234105
31
0.0
0
LINE
8
0
6
CONTINUOUS
10
-84.817730
20
528.234105
30
0.0
11
-83.920320
21
526.864625
31
0.0
0
LINE
8
0
6
CONTINUOUS
10
7.814440
20
328.025245
30
0.0
11
-10.709980
21
400.185315
31
0.0
0
LINE
8
0
6
CONTINUOUS
10
-38.586970
20
392.689975
30
0.0
11
-17.812030
21
321.158635
31
0.0
0
LINE
8
0
6
CONTINUOUS
10
4.248250
20
326.493035
30
0.0
11
5.831330
21
326.918295
31
0.0
0
LINE
8
0
6
CONTINUOUS
10
7.028760
20
327.240375
30
0.0
11
7.740840
21
327.432445
31
0.0
0
LINE
8
0
6
CONTINUOUS
10
-17.425240
20
320.689205
30
0.0
11
-16.751660
21
320.868375
31
0.0
0
LINE
8
0
6
CONTINUOUS
10
7.740840
20
327.432445
30
0.0
11
7.956360
21
327.491565
31
0.0
0
LINE
8
0
6
CONTINUOUS
10
7.956360
20
327.491565
30
0.0
11
7.814440
21
328.025245
31
0.0
0
LINE
8
0
6
CONTINUOUS
10
-17.667130
20
320.625765
30
0.0
11
-17.425240
21
320.689205
31
0.0
0
LINE
8
0
6
CONTINUOUS
10
-17.812030
20
321.158635
30
0.0
11
-17.667130
21
320.625765
31
0.0
0
LINE
8
0
6
CONTINUOUS
10
-16.751660
20
320.868375
30
0.0
11
-15.555190
21
321.187785
31
0.0
0
LINE
8
0
6
CONTINUOUS
10
-13.955210
20
321.615415
30
0.0
11
-12.011930
21
322.135235
31
0.0
0
LINE
8
0
6
CONTINUOUS
10
2.301480
20
325.970535
30
0.0
11
4.248250
21
326.493035
31
0.0
0
LINE
8
0
6
CONTINUOUS
10
-9.788030
20
322.730485
30
0.0
11
-8.579210
21
323.054195
31
0.0
0
LINE
8
0
6
CONTINUOUS
10
0.064160
20
325.370405
30
0.0
11
2.301480
21
325.970535
31
0.0
0
LINE
8
0
6
CONTINUOUS
10
-12.011930
20
322.135235
30
0.0
11
-9.788030
21
322.730485
31
0.0
0
LINE
8
0
6
CONTINUOUS
10
-15.555190
20
321.187785
30
0.0
11
-13.955210
21
321.615415
31
0.0
0
LINE
8
0
6
CONTINUOUS
10
5.831330
20
326.918295
30
0.0
11
7.028760
21
327.240375
31
0.0
0
LINE
8
0
6
CONTINUOUS
10
-2.349860
20
324.723165
30
0.0
11
0.064160
21
325.370405
31
0.0
0
LINE
8
0
6
CONTINUOUS
10
-34.475830
20
420.769955
30
0.0
11
-33.796970
21
419.665065
31
0.0
0
LINE
8
0
6
CONTINUOUS
10
-34.630890
20
406.174775
30
0.0
11
-35.339740
21
404.444425
31
0.0
0
LINE
8
0
6
CONTINUOUS
10
-36.605680
20
401.280675
30
0.0
11
-37.797020
21
398.524625
31
0.0
0
LINE
8
0
6
CONTINUOUS
10
-33.304760
20
411.788945
30
0.0
11
-33.626130
21
410.386355
31
0.0
0
LINE
8
0
6
CONTINUOUS
10
-33.626130
20
410.386355
30
0.0
11
-33.947510
21
408.983765
31
0.0
0
LINE
8
0
6
CONTINUOUS
10
-38.605660
20
396.622315
30
0.0
11
-39.168740
21
395.676805
31
0.0
0
LINE
8
0
6
CONTINUOUS
10
-39.369420
20
395.421525
30
0.0
11
-38.630470
21
394.982605
31
0.0
0
LINE
8
0
6
CONTINUOUS
10
-39.168740
20
395.676805
30
0.0
11
-39.369420
21
395.421525
31
0.0
0
LINE
8
0
6
CONTINUOUS
10
-37.797020
20
398.524625
30
0.0
11
-38.605660
21
396.622315
31
0.0
0
LINE
8
0
6
CONTINUOUS
10
-35.339740
20
404.444425
30
0.0
11
-36.605680
21
401.280675
31
0.0
0
LINE
8
0
6
CONTINUOUS
10
-14.570550
20
415.842815
30
0.0
11
-15.117960
21
418.072515
31
0.0
0
LINE
8
0
6
CONTINUOUS
10
-33.947510
20
408.983765
30
0.0
11
-34.630890
21
406.174775
31
0.0
0
LINE
8
0
6
CONTINUOUS
10
-15.333690
20
421.299595
30
0.0
11
-15.405590
21
422.375185
31
0.0
0
LINE
8
0
6
CONTINUOUS
10
-15.405590
20
422.375185
30
0.0
11
-15.312110
21
422.911985
31
0.0
0
LINE
8
0
6
CONTINUOUS
10
-31.904890
20
416.521915
30
0.0
11
-31.581830
21
414.966735
31
0.0
0
LINE
8
0
6
CONTINUOUS
10
-29.810490
20
415.259855
30
0.0
11
-30.256330
21
416.726685
31
0.0
0
LINE
8
0
6
CONTINUOUS
10
-32.989380
20
417.047275
30
0.0
11
-32.742090
21
415.528255
31
0.0
0
LINE
8
0
6
CONTINUOUS
10
-17.377100
20
423.473355
30
0.0
11
-17.244630
21
421.332395
31
0.0
0
LINE
8
0
6
CONTINUOUS
10
-32.833470
20
419.013365
30
0.0
11
-32.365980
21
417.967075
31
0.0
0
LINE
8
0
6
CONTINUOUS
10
-30.832930
20
417.640075
30
0.0
11
-31.470400
21
418.693235
31
0.0
0
LINE
8
0
6
CONTINUOUS
10
-32.365980
20
417.967075
30
0.0
11
-31.904890
21
416.521915
31
0.0
0
LINE
8
0
6
CONTINUOUS
10
-33.796970
20
419.665065
30
0.0
11
-33.291940
21
418.465885
31
0.0
0
LINE
8
0
6
CONTINUOUS
10
-16.213810
20
423.607485
30
0.0
11
-15.969760
21
421.757665
31
0.0
0
LINE
8
0
6
CONTINUOUS
10
-42.759520
20
471.400455
30
0.0
11
-42.882950
21
471.588665
31
0.0
0
LINE
8
0
6
CONTINUOUS
10
-33.210230
20
421.140445
30
0.0
11
-32.061580
21
419.462895
31
0.0
0
LINE
8
0
6
CONTINUOUS
10
-19.099010
20
428.008575
30
0.0
11
-18.124080
21
426.522065
31
0.0
0
LINE
8
0
6
CONTINUOUS
10
-33.436420
20
420.035855
30
0.0
11
-32.833470
21
419.013365
31
0.0
0
LINE
8
0
6
CONTINUOUS
10
-31.470400
20
418.693235
30
0.0
11
-32.061580
21
419.462895
31
0.0
0
LINE
8
0
6
CONTINUOUS
10
-42.517470
20
471.031345
30
0.0
11
-42.636120
21
471.212315
31
0.0
0
LINE
8
0
6
CONTINUOUS
10
-17.393440
20
425.407105
30
0.0
11
-16.662810
21
424.292145
31
0.0
0
LINE
8
0
6
CONTINUOUS
10
-33.291940
20
418.465885
30
0.0
11
-32.989380
21
417.047275
31
0.0
0
LINE
8
0
6
CONTINUOUS
10
-33.291940
20
418.465885
30
0.0
11
-31.977790
21
417.383655
31
0.0
0
LINE
8
0
6
CONTINUOUS
10
-96.700290
20
521.702885
30
0.0
11
-97.169490
21
521.409455
31
0.0
0
LINE
8
0
6
CONTINUOUS
10
-86.646270
20
527.991945
30
0.0
11
-96.700290
21
521.702885
31
0.0
0
LINE
8
0
6
CONTINUOUS
10
-17.377100
20
423.473355
30
0.0
11
-16.916610
21
422.771915
31
0.0
0
LINE
8
0
6
CONTINUOUS
10
-16.213810
20
423.607485
30
0.0
11
-16.662810
21
424.292145
31
0.0
0
LINE
8
0
6
CONTINUOUS
10
-22.624840
20
437.480625
30
0.0
11
-28.952930
21
448.773955
31
0.0
0
LINE
8
0
6
CONTINUOUS
10
-28.952930
20
448.773955
30
0.0
11
-35.484510
21
459.858935
31
0.0
0
LINE
8
0
6
CONTINUOUS
10
-30.832930
20
417.640075
30
0.0
11
-30.256330
21
416.726685
31
0.0
0
LINE
8
0
6
CONTINUOUS
10
-15.312110
20
422.911985
30
0.0
11
-15.269420
21
423.516845
31
0.0
0
LINE
8
0
6
CONTINUOUS
10
-15.117960
20
418.072515
30
0.0
11
-15.189880
21
419.148255
31
0.0
0
LINE
8
0
6
CONTINUOUS
10
-15.189880
20
419.148255
30
0.0
11
-15.261780
21
420.223845
31
0.0
0
LINE
8
0
6
CONTINUOUS
10
-15.261780
20
420.223845
30
0.0
11
-15.333690
21
421.299595
31
0.0
0
LINE
8
0
6
CONTINUOUS
10
-15.969760
20
421.757665
30
0.0
11
-16.916610
21
422.771915
31
0.0
0
LINE
8
0
6
CONTINUOUS
10
-18.446970
20
422.655025
30
0.0
11
-17.572660
21
419.893035
31
0.0
0
LINE
8
0
6
CONTINUOUS
10
-17.244630
20
421.332395
30
0.0
11
-18.446970
21
422.655025
31
0.0
0
LINE
8
0
6
CONTINUOUS
10
-31.581830
20
414.966735
30
0.0
11
-31.613150
21
413.516845
31
0.0
0
LINE
8
0
6
CONTINUOUS
10
-29.364650
20
413.792875
30
0.0
11
-29.810490
21
415.259855
31
0.0
0
LINE
8
0
6
CONTINUOUS
10
-32.742090
20
415.528255
30
0.0
11
-32.983380
21
413.191525
31
0.0
0
LINE
8
0
6
CONTINUOUS
10
-17.900670
20
418.453525
30
0.0
11
-16.584690
21
418.262175
31
0.0
0
LINE
8
0
6
CONTINUOUS
10
-33.962520
20
404.840545
30
0.0
11
-34.771080
21
403.095625
31
0.0
0
LINE
8
0
6
CONTINUOUS
10
-36.092590
20
399.520955
30
0.0
11
-37.289270
21
396.950835
31
0.0
0
LINE
8
0
6
CONTINUOUS
10
-10.709980
20
400.185315
30
0.0
11
-14.023120
21
413.613125
31
0.0
0
LINE
8
0
6
CONTINUOUS
10
-38.202090
20
395.321735
30
0.0
11
-38.722900
21
394.371335
31
0.0
0
LINE
8
0
6
CONTINUOUS
10
-38.830800
20
393.927765
30
0.0
11
-38.586970
21
392.689975
31
0.0
0
LINE
8
0
6
CONTINUOUS
10
-38.722900
20
394.371335
30
0.0
11
-38.830800
21
393.927765
31
0.0
0
LINE
8
0
6
CONTINUOUS
10
-37.289270
20
396.950835
30
0.0
11
-38.202090
21
395.321735
31
0.0
0
LINE
8
0
6
CONTINUOUS
10
-34.771080
20
403.095625
30
0.0
11
-36.092590
21
399.520955
31
0.0
0
LINE
8
0
6
CONTINUOUS
10
-33.002470
20
407.636875
30
0.0
11
-33.962520
21
404.840545
31
0.0
0
LINE
8
0
6
CONTINUOUS
10
-32.248850
20
410.226745
30
0.0
11
-33.002470
21
407.636875
31
0.0
0
LINE
8
0
6
CONTINUOUS
10
-14.023120
20
413.613125
30
0.0
11
-14.570550
21
415.842815
31
0.0
0
LINE
8
0
6
CONTINUOUS
10
-31.613150
20
413.516845
30
0.0
11
-31.737410
21
412.178195
31
0.0
0
LINE
8
0
6
CONTINUOUS
10
-28.585890
20
412.205815
30
0.0
11
-29.364650
21
413.792875
31
0.0
0
LINE
8
0
6
CONTINUOUS
10
-31.737410
20
412.178195
30
0.0
11
-32.248850
21
410.226745
31
0.0
0
LINE
8
0
6
CONTINUOUS
10
-27.807150
20
410.618745
30
0.0
11
-28.585890
21
412.205815
31
0.0
0
LINE
8
0
6
CONTINUOUS
10
-8.579210
20
323.054195
30
0.0
11
-7.370380
21
323.377915
31
0.0
0
LINE
8
0
6
CONTINUOUS
10
-32.983380
20
413.191525
30
0.0
11
-33.304760
21
411.788945
31
0.0
0
LINE
8
0
6
CONTINUOUS
10
-73.051680
20
479.799495
30
0.0
11
-69.124300
21
473.808895
31
0.0
0
LINE
8
0
6
CONTINUOUS
10
-88.209680
20
503.004155
30
0.0
11
-85.149610
21
498.306575
31
0.0
0
LINE
8
0
6
CONTINUOUS
10
-85.149610
20
498.306575
30
0.0
11
-81.408770
21
492.608185
31
0.0
0
LINE
8
0
6
CONTINUOUS
10
-81.408770
20
492.608185
30
0.0
11
-77.591780
21
486.781925
31
0.0
0
LINE
8
0
6
CONTINUOUS
10
-77.591780
20
486.781925
30
0.0
11
-73.051680
21
479.799495
31
0.0
0
LINE
8
0
6
CONTINUOUS
10
-69.124300
20
473.808895
30
0.0
11
-64.770850
21
467.180485
31
0.0
0
LINE
8
0
6
CONTINUOUS
10
-40.703340
20
430.349425
30
0.0
11
-38.026760
21
426.170805
31
0.0
0
LINE
8
0
6
CONTINUOUS
10
-38.026760
20
426.170805
30
0.0
11
-35.482640
21
422.314455
31
0.0
0
LINE
8
0
6
CONTINUOUS
10
-35.482640
20
422.314455
30
0.0
11
-34.475830
21
420.769955
31
0.0
0
LINE
8
0
6
CONTINUOUS
10
-34.771080
20
403.095625
30
0.0
11
-33.962520
21
404.840545
31
0.0
0
LINE
8
0
6
CONTINUOUS
10
-33.819150
20
406.096035
30
0.0
11
-34.577850
21
404.358365
31
0.0
0
LINE
8
0
6
CONTINUOUS
10
-37.289270
20
396.950835
30
0.0
11
-36.092590
21
399.520955
31
0.0
0
LINE
8
0
6
CONTINUOUS
10
-36.029690
20
400.778355
30
0.0
11
-37.073520
21
398.045655
31
0.0
0
LINE
8
0
6
CONTINUOUS
10
-32.248850
20
410.226745
30
0.0
11
-31.737410
21
412.178195
31
0.0
0
LINE
8
0
6
CONTINUOUS
10
-32.046360
20
412.572785
30
0.0
11
-32.389420
21
410.855945
31
0.0
0
LINE
8
0
6
CONTINUOUS
10
-33.002470
20
407.636875
30
0.0
11
-32.248850
21
410.226745
31
0.0
0
LINE
8
0
6
CONTINUOUS
10
-32.389420
20
410.855945
30
0.0
11
-32.985500
21
408.894505
31
0.0
0
LINE
8
0
6
CONTINUOUS
10
-38.722900
20
394.371335
30
0.0
11
-38.202090
21
395.321735
31
0.0
0
LINE
8
0
6
CONTINUOUS
10
-37.934230
20
396.279905
30
0.0
11
-38.476190
21
395.332035
31
0.0
0
LINE
8
0
6
CONTINUOUS
10
-38.830800
20
393.927765
30
0.0
11
-38.722900
21
394.371335
31
0.0
0
LINE
8
0
6
CONTINUOUS
10
-38.630470
20
394.982605
30
0.0
11
-38.830800
21
393.927765
31
0.0
0
LINE
8
0
6
CONTINUOUS
10
-38.476190
20
395.332035
30
0.0
11
-38.630470
21
394.982605
31
0.0
0
LINE
8
0
6
CONTINUOUS
10
-38.202090
20
395.321735
30
0.0
11
-37.289270
21
396.950835
31
0.0
0
LINE
8
0
6
CONTINUOUS
10
-37.073520
20
398.045655
30
0.0
11
-37.934230
21
396.279905
31
0.0
0
LINE
8
0
6
CONTINUOUS
10
-36.092590
20
399.520955
30
0.0
11
-34.771080
21
403.095625
31
0.0
0
LINE
8
0
6
CONTINUOUS
10
-34.577850
20
404.358365
30
0.0
11
-36.029690
21
400.778355
31
0.0
0
LINE
8
0
6
CONTINUOUS
10
-33.962520
20
404.840545
30
0.0
11
-33.002470
21
407.636875
31
0.0
0
LINE
8
0
6
CONTINUOUS
10
-32.985500
20
408.894505
30
0.0
11
-33.819150
21
406.096035
31
0.0
0
LINE
8
0
6
CONTINUOUS
10
-31.645340
20
415.819545
30
0.0
11
-31.806860
21
413.937985
31
0.0
0
LINE
8
0
6
CONTINUOUS
10
-31.613150
20
413.516845
30
0.0
11
-31.581830
21
414.966735
31
0.0
0
LINE
8
0
6
CONTINUOUS
10
-31.737410
20
412.178195
30
0.0
11
-31.613150
21
413.516845
31
0.0
0
LINE
8
0
6
CONTINUOUS
10
-31.806860
20
413.937985
30
0.0
11
-32.046360
21
412.572785
31
0.0
0
LINE
8
0
6
CONTINUOUS
10
-4.856670
20
324.051365
30
0.0
11
-7.370380
21
323.377915
31
0.0
0
LINE
8
0
6
CONTINUOUS
10
-2.349860
20
324.723165
30
0.0
11
-4.856670
21
324.051365
31
0.0
0
LINE
8
0
6
CONTINUOUS
10
-9.185830
20
322.892142
30
0.0
11
-10.324530
21
322.587435
31
0.0
0
LINE
8
0
6
CONTINUOUS
10
4.940790
20
326.352845
30
0.0
11
4.858160
21
326.661185
31
0.0
0
LINE
8
0
6
CONTINUOUS
10
-14.622650
20
321.441305
30
0.0
11
-14.540020
21
321.132965
31
0.0
0
LINE
8
0
6
CONTINUOUS
10
-46.894710
20
477.706835
30
0.0
11
-46.864170
21
477.660215
31
0.0
0
LINE
8
0
6
CONTINUOUS
10
-46.926860
20
477.755895
30
0.0
11
-46.894710
21
477.706835
31
0.0
0
LINE
8
0
6
CONTINUOUS
10
-46.864170
20
477.660215
30
0.0
11
-46.836170
21
477.617495
31
0.0
0
LINE
8
0
6
CONTINUOUS
10
-47.325570
20
478.363955
30
0.0
11
-51.440320
21
484.639125
31
0.0
0
LINE
8
0
6
CONTINUOUS
10
-45.820240
20
476.068195
30
0.0
11
-47.015100
21
477.890475
31
0.0
0
LINE
8
0
6
CONTINUOUS
10
-47.049640
20
477.943115
30
0.0
11
-46.411710
21
476.970215
31
0.0
0
LINE
8
0
6
CONTINUOUS
10
-46.853480
20
477.643895
30
0.0
11
-46.882890
21
477.688755
31
0.0
0
LINE
8
0
6
CONTINUOUS
10
-46.914770
20
477.737425
30
0.0
11
-46.947180
21
477.786865
31
0.0
0
LINE
8
0
6
CONTINUOUS
10
-46.726430
20
477.450105
30
0.0
11
-42.291380
21
470.686495
31
0.0
0
LINE
8
0
6
CONTINUOUS
10
-82.219710
20
478.413545
30
0.0
11
-83.410150
21
480.226895
31
0.0
0
LINE
8
0
6
CONTINUOUS
10
-60.712980
20
445.615235
30
0.0
11
-61.173541
21
446.316868
31
0.0
0
LINE
8
0
6
CONTINUOUS
10
-63.470610
20
448.377225
30
0.0
11
-61.514070
21
445.397185
31
0.0
0
LINE
8
0
6
CONTINUOUS
10
-59.899820
20
442.935255
30
0.0
11
-59.077290
21
443.120575
31
0.0
0
LINE
8
0
6
CONTINUOUS
10
-60.340570
20
443.605275
30
0.0
11
-59.899820
21
442.935255
31
0.0
0
LINE
8
0
6
CONTINUOUS
10
-68.999160
20
456.805345
30
0.0
11
-66.063630
21
452.332385
31
0.0
0
LINE
8
0
6
CONTINUOUS
10
-69.286496
20
458.685323
30
0.0
11
-71.466920
21
462.013855
31
0.0
0
LINE
8
0
6
CONTINUOUS
10
-83.856280
20
480.906295
30
0.0
11
-84.354440
21
480.225675
31
0.0
0
LINE
8
0
6
CONTINUOUS
10
-81.662539
20
477.562894
30
0.0
11
-82.219710
21
478.413545
31
0.0
0
LINE
8
0
6
CONTINUOUS
10
-82.739070
20
477.765885
30
0.0
11
-80.784870
21
474.782255
31
0.0
0
LINE
8
0
6
CONTINUOUS
10
-77.612190
20
471.382755
30
0.0
11
-79.363758
21
474.054490
31
0.0
0
LINE
8
0
6
CONTINUOUS
10
-80.784870
20
474.782255
30
0.0
11
-78.192120
21
470.826795
31
0.0
0
LINE
8
0
6
CONTINUOUS
10
-71.466920
20
462.013855
30
0.0
11
-73.551716
21
465.193124
31
0.0
0
LINE
8
0
6
CONTINUOUS
10
-75.256710
20
466.353535
30
0.0
11
-72.127170
21
461.581115
31
0.0
0
LINE
8
0
6
CONTINUOUS
10
-75.774241
20
468.581470
30
0.0
11
-77.612190
21
471.382755
31
0.0
0
LINE
8
0
6
CONTINUOUS
10
-74.743420
20
469.604035
30
0.0
11
-75.108452
21
470.160398
31
0.0
0
LINE
8
0
6
CONTINUOUS
10
-77.384466
20
473.629383
30
0.0
11
-78.931770
21
475.987705
31
0.0
0
LINE
8
0
6
CONTINUOUS
10
-79.356760
20
475.392155
30
0.0
11
-75.237980
21
469.115145
31
0.0
0
LINE
8
0
6
CONTINUOUS
10
-87.057136
20
488.382233
30
0.0
11
-87.096820
21
488.442685
31
0.0
0
LINE
8
0
6
CONTINUOUS
10
-87.383190
20
487.635655
30
0.0
11
-85.734480
21
485.124815
31
0.0
0
LINE
8
0
6
CONTINUOUS
10
-55.526159
20
440.298826
30
0.0
11
-57.615068
21
443.481129
31
0.0
0
LINE
8
0
6
CONTINUOUS
10
-58.703460
20
443.896785
30
0.0
11
-55.959260
21
439.716795
31
0.0
0
LINE
8
0
6
CONTINUOUS
10
-65.813770
20
455.979615
30
0.0
11
-69.222367
21
461.183029
31
0.0
0
LINE
8
0
6
CONTINUOUS
10
-70.847680
20
462.420195
30
0.0
11
-66.459480
21
455.720675
31
0.0
0
LINE
8
0
6
CONTINUOUS
10
-59.928552
20
447.008806
30
0.0
11
-61.625230
21
449.596325
31
0.0
0
LINE
8
0
6
CONTINUOUS
10
-62.340540
20
449.444125
30
0.0
11
-58.719816
21
443.921731
31
0.0
0
LINE
8
0
6
CONTINUOUS
10
-54.312510
20
437.202535
30
0.0
11
-53.694300
21
436.262515
31
0.0
0
LINE
8
0
6
CONTINUOUS
10
-87.725140
20
489.399415
30
0.0
11
-88.000870
21
488.576275
31
0.0
0
LINE
8
0
6
CONTINUOUS
10
-87.096820
20
488.442685
30
0.0
11
-87.649931
21
489.284896
31
0.0
0
LINE
8
0
6
CONTINUOUS
10
-88.000870
20
488.576275
30
0.0
11
-87.383190
21
487.635655
31
0.0
0
LINE
8
0
6
CONTINUOUS
10
-82.844879
20
481.956717
30
0.0
11
-84.930591
21
485.141111
31
0.0
0
LINE
8
0
6
CONTINUOUS
10
-85.734480
20
485.124815
30
0.0
11
-82.993510
21
480.939945
31
0.0
0
LINE
8
0
6
CONTINUOUS
10
-78.931770
20
475.987705
30
0.0
11
-80.532055
21
478.428635
31
0.0
0
LINE
8
0
6
CONTINUOUS
10
-82.993510
20
480.939945
30
0.0
11
-79.356760
21
475.392155
31
0.0
0
LINE
8
0
6
CONTINUOUS
10
-55.959260
20
439.716795
30
0.0
11
-54.312510
21
437.202535
31
0.0
0
LINE
8
0
6
CONTINUOUS
10
-71.236179
20
464.255682
30
0.0
11
-74.743420
21
469.604035
31
0.0
0
LINE
8
0
6
CONTINUOUS
10
-75.237980
20
469.115145
30
0.0
11
-70.847680
21
462.420195
31
0.0
0
LINE
8
0
6
CONTINUOUS
10
-61.625230
20
449.596325
30
0.0
11
-63.076383
21
451.807866
31
0.0
0
LINE
8
0
6
CONTINUOUS
10
-65.352528
20
455.276688
30
0.0
11
-65.813770
21
455.979615
31
0.0
0
LINE
8
0
6
CONTINUOUS
10
-66.459480
20
455.720675
30
0.0
11
-62.340540
21
449.444125
31
0.0
0
LINE
8
0
6
CONTINUOUS
10
-80.030190
20
480.141145
30
0.0
11
-74.759060
21
472.108005
31
0.0
0
LINE
8
0
6
CONTINUOUS
10
-90.302280
20
495.810165
30
0.0
11
-88.192290
21
492.596815
31
0.0
0
LINE
8
0
6
CONTINUOUS
10
-53.598480
20
439.833905
30
0.0
11
-50.086490
21
434.484405
31
0.0
0
LINE
8
0
6
CONTINUOUS
10
-69.140450
20
463.539885
30
0.0
11
-63.524510
21
454.965975
31
0.0
0
LINE
8
0
6
CONTINUOUS
10
-58.253160
20
446.933365
30
0.0
11
-53.598480
21
439.833905
31
0.0
0
LINE
8
0
6
CONTINUOUS
10
-91.092790
20
497.013855
30
0.0
11
-90.302280
21
495.810165
31
0.0
0
LINE
8
0
6
CONTINUOUS
10
-88.192290
20
492.596815
30
0.0
11
-84.684410
21
487.241055
31
0.0
0
LINE
8
0
6
CONTINUOUS
10
-84.684410
20
487.241055
30
0.0
11
-80.030190
21
480.141145
31
0.0
0
LINE
8
0
6
CONTINUOUS
10
-50.086490
20
434.484405
30
0.0
11
-49.468311
21
433.540584
31
0.0
0
LINE
8
0
6
CONTINUOUS
10
-74.759060
20
472.108005
30
0.0
11
-69.140450
21
463.539885
31
0.0
0
LINE
8
0
6
CONTINUOUS
10
-63.524510
20
454.965975
30
0.0
11
-58.253160
21
446.933365
31
0.0
0
LINE
8
0
6
CONTINUOUS
10
-80.898210
20
485.172885
30
0.0
11
-74.383600
21
475.244755
31
0.0
0
LINE
8
0
6
CONTINUOUS
10
-93.593520
20
504.538345
30
0.0
11
-90.985790
21
500.566945
31
0.0
0
LINE
8
0
6
CONTINUOUS
10
-48.231160
20
435.357135
30
0.0
11
-43.890690
21
428.745655
31
0.0
0
LINE
8
0
6
CONTINUOUS
10
-67.439540
20
464.655385
30
0.0
11
-60.498790
21
454.058835
31
0.0
0
LINE
8
0
6
CONTINUOUS
10
-53.983900
20
444.131315
30
0.0
11
-48.231160
21
435.357135
31
0.0
0
LINE
8
0
6
CONTINUOUS
10
-94.570500
20
506.026075
30
0.0
11
-93.593520
21
504.538345
31
0.0
0
LINE
8
0
6
CONTINUOUS
10
-90.985790
20
500.566945
30
0.0
11
-86.650390
21
493.947835
31
0.0
0
LINE
8
0
6
CONTINUOUS
10
-86.650390
20
493.947835
30
0.0
11
-80.898210
21
485.172885
31
0.0
0
LINE
8
0
6
CONTINUOUS
10
-74.383600
20
475.244755
30
0.0
11
-67.439540
21
464.655385
31
0.0
0
LINE
8
0
6
CONTINUOUS
10
-60.498790
20
454.058835
30
0.0
11
-53.983900
21
444.131315
31
0.0
0
LINE
8
0
6
CONTINUOUS
10
-15.627300
20
424.062505
30
0.0
11
-15.508000
21
423.880615
31
0.0
0
LINE
8
0
6
CONTINUOUS
10
-16.495720
20
425.387805
30
0.0
11
-16.061500
21
424.725185
31
0.0
0
LINE
8
0
6
CONTINUOUS
10
-17.977240
20
427.648465
30
0.0
11
-17.236490
21
426.518095
31
0.0
0
LINE
8
0
6
CONTINUOUS
10
-19.869250
20
430.532535
30
0.0
11
-18.923250
21
429.090425
31
0.0
0
LINE
8
0
6
CONTINUOUS
10
-22.424450
20
434.430315
30
0.0
11
-19.869250
21
430.532535
31
0.0
0
LINE
8
0
6
CONTINUOUS
10
-25.388800
20
438.951565
30
0.0
11
-22.424450
21
434.430315
31
0.0
0
LINE
8
0
6
CONTINUOUS
10
-49.770610
20
476.134185
30
0.0
11
-45.323350
21
469.351805
31
0.0
0
LINE
8
0
6
CONTINUOUS
10
-45.323350
20
469.351805
30
0.0
11
-41.081530
21
462.882695
31
0.0
0
LINE
8
0
6
CONTINUOUS
10
-41.081530
20
462.882695
30
0.0
11
-36.584310
21
456.022645
31
0.0
0
LINE
8
0
6
CONTINUOUS
10
-36.584310
20
456.022645
30
0.0
11
-32.596370
21
449.942625
31
0.0
0
LINE
8
0
6
CONTINUOUS
10
-32.596370
20
449.942625
30
0.0
11
-28.813640
21
444.174195
31
0.0
0
LINE
8
0
6
CONTINUOUS
10
-28.813640
20
444.174195
30
0.0
11
-25.388800
21
438.951565
31
0.0
0
LINE
8
0
6
CONTINUOUS
10
-54.217820
20
482.916415
30
0.0
11
-49.770610
21
476.134185
31
0.0
0
LINE
8
0
6
CONTINUOUS
10
-62.958170
20
496.245575
30
0.0
11
-58.459660
21
489.385525
31
0.0
0
LINE
8
0
6
CONTINUOUS
10
-66.944880
20
502.326125
30
0.0
11
-62.958170
21
496.245575
31
0.0
0
LINE
8
0
6
CONTINUOUS
10
-70.727650
20
508.094785
30
0.0
11
-66.944880
21
502.326125
31
0.0
0
LINE
8
0
6
CONTINUOUS
10
-74.151150
20
513.317265
30
0.0
11
-70.727650
21
508.094785
31
0.0
0
LINE
8
0
6
CONTINUOUS
10
-84.018740
20
528.434375
30
0.0
11
-84.272990
21
528.751225
31
0.0
0
LINE
8
0
6
CONTINUOUS
10
-84.272990
20
528.751225
30
0.0
11
-83.913920
21
528.206175
31
0.0
0
LINE
8
0
6
CONTINUOUS
10
-83.913920
20
528.206175
30
0.0
11
-83.045460
21
526.880645
31
0.0
0
LINE
8
0
6
CONTINUOUS
10
-83.045460
20
526.880645
30
0.0
11
-81.562690
21
524.620365
31
0.0
0
LINE
8
0
6
CONTINUOUS
10
-81.562690
20
524.620365
30
0.0
11
-79.671930
21
521.735845
31
0.0
0
LINE
8
0
6
CONTINUOUS
10
-79.671930
20
521.735845
30
0.0
11
-77.116740
21
517.837825
31
0.0
0
LINE
8
0
6
CONTINUOUS
10
-77.116740
20
517.837825
30
0.0
11
-74.151150
21
513.317265
31
0.0
0
LINE
8
0
6
CONTINUOUS
10
-58.459660
20
489.385525
30
0.0
11
-54.217820
21
482.916415
31
0.0
0
LINE
8
0
6
CONTINUOUS
10
-18.923250
20
429.090425
30
0.0
11
-17.977240
21
427.648465
31
0.0
0
LINE
8
0
6
CONTINUOUS
10
-17.236490
20
426.518095
30
0.0
11
-16.495720
21
425.387805
31
0.0
0
LINE
8
0
6
CONTINUOUS
10
-16.061500
20
424.725185
30
0.0
11
-15.627300
21
424.062505
31
0.0
0
LINE
8
0
6
CONTINUOUS
10
-15.388710
20
423.698735
30
0.0
11
-15.269420
21
423.516845
31
0.0
0
LINE
8
0
6
CONTINUOUS
10
-15.269420
20
423.516845
30
0.0
11
-15.458730
21
423.876265
31
0.0
0
LINE
8
0
6
CONTINUOUS
10
-15.508000
20
423.880615
30
0.0
11
-15.388710
21
423.698735
31
0.0
0
LINE
8
0
6
CONTINUOUS
10
-82.739070
20
477.765885
30
0.0
11
-83.914110
21
479.555135
31
0.0
0
LINE
8
0
6
CONTINUOUS
10
-75.256710
20
466.353535
30
0.0
11
-78.192120
21
470.826795
31
0.0
0
LINE
8
0
6
CONTINUOUS
10
-68.999160
20
456.805345
30
0.0
11
-72.127170
21
461.581115
31
0.0
0
LINE
8
0
6
CONTINUOUS
10
-83.914110
20
479.555135
30
0.0
11
-84.354440
21
480.225675
31
0.0
0
LINE
8
0
6
CONTINUOUS
10
-63.470610
20
448.377225
30
0.0
11
-66.063630
21
452.332385
31
0.0
0
LINE
8
0
6
CONTINUOUS
10
-60.340570
20
443.605275
30
0.0
11
-61.514070
21
445.397185
31
0.0
0
LINE
8
0
6
CONTINUOUS
10
-71.421942
20
460.505423
30
0.0
11
-71.662650
21
460.111235
31
0.0
0
LINE
8
0
6
CONTINUOUS
10
-71.662650
20
460.111235
30
0.0
11
-71.591280
21
460.001375
31
0.0
0
LINE
8
0
6
CONTINUOUS
10
-71.591280
20
460.001375
30
0.0
11
-71.345460
21
459.628525
31
0.0
0
LINE
8
0
6
CONTINUOUS
10
-68.691540
20
455.579075
30
0.0
11
-68.104490
21
454.685055
31
0.0
0
LINE
8
0
6
CONTINUOUS
10
-69.291860
20
456.495135
30
0.0
11
-68.691540
21
455.579075
31
0.0
0
LINE
8
0
6
CONTINUOUS
10
-69.897710
20
457.422635
30
0.0
11
-69.291860
21
456.495135
31
0.0
0
LINE
8
0
6
CONTINUOUS
10
-70.476910
20
458.301845
30
0.0
11
-69.897710
21
457.422635
31
0.0
0
LINE
8
0
6
CONTINUOUS
10
-70.960440
20
459.040375
30
0.0
11
-70.476910
21
458.301845
31
0.0
0
LINE
8
0
6
CONTINUOUS
10
-71.345460
20
459.628525
30
0.0
11
-70.960440
21
459.040375
31
0.0
0
LINE
8
0
6
CONTINUOUS
10
-68.104490
20
454.685055
30
0.0
11
-67.599750
21
453.913655
31
0.0
0
LINE
8
0
6
CONTINUOUS
10
-67.599750
20
453.913655
30
0.0
11
-67.235660
21
453.362425
31
0.0
0
LINE
8
0
6
CONTINUOUS
10
-67.235660
20
453.362425
30
0.0
11
-67.020430
21
453.034515
31
0.0
0
LINE
8
0
6
CONTINUOUS
10
-66.918470
20
452.876125
30
0.0
11
-66.462169
21
452.939651
31
0.0
0
LINE
8
0
6
CONTINUOUS
10
-67.020430
20
453.034515
30
0.0
11
-66.918470
21
452.876125
31
0.0
0
LINE
8
0
6
CONTINUOUS
10
-80.984192
20
475.091443
30
0.0
11
-81.224150
21
474.693755
31
0.0
0
LINE
8
0
6
CONTINUOUS
10
-81.224150
20
474.693755
30
0.0
11
-81.141220
21
474.568865
31
0.0
0
LINE
8
0
6
CONTINUOUS
10
-81.141220
20
474.568865
30
0.0
11
-80.905700
21
474.206395
31
0.0
0
LINE
8
0
6
CONTINUOUS
10
-80.905700
20
474.206395
30
0.0
11
-80.511470
21
473.606565
31
0.0
0
LINE
8
0
6
CONTINUOUS
10
-80.511470
20
473.606565
30
0.0
11
-80.036980
21
472.883525
31
0.0
0
LINE
8
0
6
CONTINUOUS
10
-80.036980
20
472.883525
30
0.0
11
-79.480670
21
472.034375
31
0.0
0
LINE
8
0
6
CONTINUOUS
10
-79.480670
20
472.034375
30
0.0
11
-78.849790
21
471.073535
31
0.0
0
LINE
8
0
6
CONTINUOUS
10
-76.559390
20
467.579265
30
0.0
11
-76.477810
21
467.455365
31
0.0
0
LINE
8
0
6
CONTINUOUS
10
-76.477810
20
467.455365
30
0.0
11
-76.020102
21
467.516525
31
0.0
0
LINE
8
0
6
CONTINUOUS
10
-76.797370
20
467.941135
30
0.0
11
-76.559390
21
467.579265
31
0.0
0
LINE
8
0
6
CONTINUOUS
10
-77.189480
20
468.541565
30
0.0
11
-76.797370
21
467.941135
31
0.0
0
LINE
8
0
6
CONTINUOUS
10
-77.663860
20
469.264375
30
0.0
11
-77.189480
21
468.541565
31
0.0
0
LINE
8
0
6
CONTINUOUS
10
-78.220330
20
470.113525
30
0.0
11
-77.663860
21
469.264375
31
0.0
0
LINE
8
0
6
CONTINUOUS
10
-78.849790
20
471.073535
30
0.0
11
-78.220330
21
470.113525
31
0.0
0
LINE
8
0
6
CONTINUOUS
10
-66.912540
20
452.870255
30
0.0
11
-66.456583
21
452.933739
31
0.0
0
LINE
8
0
6
CONTINUOUS
10
-95.171130
20
507.448425
30
0.0
11
-94.256900
21
506.054155
31
0.0
0
LINE
8
0
6
CONTINUOUS
10
-93.589697
20
508.485370
30
0.0
11
-95.171130
21
507.448425
31
0.0
0
LINE
8
0
6
CONTINUOUS
10
-94.256900
20
506.054155
30
0.0
11
-93.177110
21
504.407505
31
0.0
0
LINE
8
0
6
CONTINUOUS
10
-92.878764
20
506.957811
30
0.0
11
-94.256900
21
506.054155
31
0.0
0
LINE
8
0
6
CONTINUOUS
10
-93.011590
20
504.154965
30
0.0
11
-92.340072
21
504.595286
31
0.0
0
LINE
8
0
6
CONTINUOUS
10
-93.177110
20
504.407505
30
0.0
11
-93.011590
21
504.154965
31
0.0
0
LINE
8
0
6
CONTINUOUS
10
-92.260491
20
505.008532
30
0.0
11
-93.177110
21
504.407505
31
0.0
0
LINE
8
0
6
CONTINUOUS
10
-92.355840
20
503.184505
30
0.0
11
-91.321710
21
501.607515
31
0.0
0
LINE
8
0
6
CONTINUOUS
10
-90.343700
20
500.115965
30
0.0
11
-89.684921
21
500.547927
31
0.0
0
LINE
8
0
6
CONTINUOUS
10
-91.321710
20
501.607515
30
0.0
11
-90.343700
21
500.115965
31
0.0
0
LINE
8
0
6
CONTINUOUS
10
-89.979002
20
502.487929
30
0.0
11
-91.321710
21
501.607515
31
0.0
0
LINE
8
0
6
CONTINUOUS
10
-90.343700
20
500.115965
30
0.0
11
-91.321710
21
501.607515
31
0.0
0
LINE
8
0
6
CONTINUOUS
10
-92.355840
20
503.184505
30
0.0
11
-92.411960
21
503.270115
31
0.0
0
LINE
8
0
6
CONTINUOUS
10
-91.321710
20
501.607515
30
0.0
11
-92.355840
21
503.184505
31
0.0
0
LINE
8
0
6
CONTINUOUS
10
-92.355840
20
503.184505
30
0.0
11
-91.697378
21
503.616275
31
0.0
0
LINE
8
0
6
CONTINUOUS
10
-92.411960
20
503.270115
30
0.0
11
-92.355840
21
503.184505
31
0.0
0
LINE
8
0
6
CONTINUOUS
10
-91.070371
20
504.149795
30
0.0
11
-92.411960
21
503.270115
31
0.0
0
LINE
8
0
6
CONTINUOUS
10
-88.559680
20
497.261815
30
0.0
11
-87.443690
21
495.559845
31
0.0
0
LINE
8
0
6
CONTINUOUS
10
-86.602020
20
494.276275
30
0.0
11
-85.884906
21
494.746497
31
0.0
0
LINE
8
0
6
CONTINUOUS
10
-87.443690
20
495.559845
30
0.0
11
-86.602020
21
494.276275
31
0.0
0
LINE
8
0
6
CONTINUOUS
10
-86.123688
20
496.425403
30
0.0
11
-87.443690
21
495.559845
31
0.0
0
LINE
8
0
6
CONTINUOUS
10
-88.559680
20
497.261815
30
0.0
11
-87.841168
21
497.732961
31
0.0
0
LINE
8
0
6
CONTINUOUS
10
-88.834000
20
497.680205
30
0.0
11
-88.559680
21
497.261815
31
0.0
0
LINE
8
0
6
CONTINUOUS
10
-87.514868
20
498.545164
30
0.0
11
-88.834000
21
497.680205
31
0.0
0
LINE
8
0
6
CONTINUOUS
10
-84.020570
20
490.450665
30
0.0
11
-82.862810
21
488.684995
31
0.0
0
LINE
8
0
6
CONTINUOUS
10
-82.187610
20
487.655335
30
0.0
11
-81.522066
21
488.091732
31
0.0
0
LINE
8
0
6
CONTINUOUS
10
-82.862810
20
488.684995
30
0.0
11
-82.187610
21
487.655335
31
0.0
0
LINE
8
0
6
CONTINUOUS
10
-81.561344
20
489.538398
30
0.0
11
-82.862810
21
488.684995
31
0.0
0
LINE
8
0
6
CONTINUOUS
10
-82.187610
20
487.655335
30
0.0
11
-82.862810
21
488.684995
31
0.0
0
LINE
8
0
6
CONTINUOUS
10
-84.020570
20
490.450665
30
0.0
11
-84.503060
21
491.186525
31
0.0
0
LINE
8
0
6
CONTINUOUS
10
-82.862810
20
488.684995
30
0.0
11
-84.020570
21
490.450665
31
0.0
0
LINE
8
0
6
CONTINUOUS
10
-84.020570
20
490.450665
30
0.0
11
-83.354784
21
490.887229
31
0.0
0
LINE
8
0
6
CONTINUOUS
10
-84.503060
20
491.186525
30
0.0
11
-84.020570
21
490.450665
31
0.0
0
LINE
8
0
6
CONTINUOUS
10
-83.214334
20
492.031543
30
0.0
11
-84.503060
21
491.186525
31
0.0
0
LINE
8
0
6
CONTINUOUS
10
-78.828890
20
482.456975
30
0.0
11
-77.671050
21
480.691145
31
0.0
0
LINE
8
0
6
CONTINUOUS
10
-77.187610
20
479.953915
30
0.0
11
-76.485731
21
480.414140
31
0.0
0
LINE
8
0
6
CONTINUOUS
10
-77.671050
20
480.691145
30
0.0
11
-77.187610
21
479.953915
31
0.0
0
LINE
8
0
6
CONTINUOUS
10
-76.411979
20
481.516732
30
0.0
11
-77.671050
21
480.691145
31
0.0
0
LINE
8
0
6
CONTINUOUS
10
-77.187610
20
479.953915
30
0.0
11
-77.671050
21
480.691145
31
0.0
0
LINE
8
0
6
CONTINUOUS
10
-78.828890
20
482.456975
30
0.0
11
-79.503242
21
483.485342
31
0.0
0
LINE
8
0
6
CONTINUOUS
10
-77.671050
20
480.691145
30
0.0
11
-78.828890
21
482.456975
31
0.0
0
LINE
8
0
6
CONTINUOUS
10
-78.828890
20
482.456975
30
0.0
11
-78.127712
21
482.916736
31
0.0
0
LINE
8
0
6
CONTINUOUS
10
-79.503290
20
483.485415
30
0.0
11
-78.828890
21
482.456975
31
0.0
0
LINE
8
0
6
CONTINUOUS
10
-78.221153
20
484.326116
30
0.0
11
-79.503290
21
483.485415
31
0.0
0
LINE
8
0
6
CONTINUOUS
10
-73.129960
20
473.819275
30
0.0
11
-72.014310
21
472.117925
31
0.0
0
LINE
8
0
6
CONTINUOUS
10
-71.741330
20
471.701585
30
0.0
11
-71.062672
21
472.146590
31
0.0
0
LINE
8
0
6
CONTINUOUS
10
-72.014310
20
472.117925
30
0.0
11
-71.741330
21
471.701585
31
0.0
0
LINE
8
0
6
CONTINUOUS
10
-70.815077
20
472.904265
30
0.0
11
-72.014310
21
472.117925
31
0.0
0
LINE
8
0
6
CONTINUOUS
10
-73.129960
20
473.819275
30
0.0
11
-72.451339
21
474.264246
31
0.0
0
LINE
8
0
6
CONTINUOUS
10
-73.972550
20
475.104375
30
0.0
11
-73.129960
21
473.819275
31
0.0
0
LINE
8
0
6
CONTINUOUS
10
-72.794966
20
475.876516
30
0.0
11
-73.972550
21
475.104375
31
0.0
0
LINE
8
0
6
CONTINUOUS
10
-67.200850
20
464.673155
30
0.0
11
-66.167370
21
463.097075
31
0.0
0
LINE
8
0
6
CONTINUOUS
10
-66.112710
20
463.013615
30
0.0
11
-65.386942
21
463.489516
31
0.0
0
LINE
8
0
6
CONTINUOUS
10
-66.167370
20
463.097075
30
0.0
11
-66.112710
21
463.013615
31
0.0
0
LINE
8
0
6
CONTINUOUS
10
-64.930077
20
463.908370
30
0.0
11
-66.167370
21
463.097075
31
0.0
0
LINE
8
0
6
CONTINUOUS
10
-66.112710
20
463.013615
30
0.0
11
-66.167370
21
463.097075
31
0.0
0
LINE
8
0
6
CONTINUOUS
10
-66.208350
20
463.159486
30
0.0
11
-66.112710
21
463.013615
31
0.0
0
LINE
8
0
6
CONTINUOUS
10
-67.200850
20
464.673155
30
0.0
11
-68.179620
21
466.165925
31
0.0
0
LINE
8
0
6
CONTINUOUS
10
-66.167370
20
463.097075
30
0.0
11
-67.200850
21
464.673155
31
0.0
0
LINE
8
0
6
CONTINUOUS
10
-67.200850
20
464.673155
30
0.0
11
-66.474358
21
465.149517
31
0.0
0
LINE
8
0
6
CONTINUOUS
10
-68.179620
20
466.165925
30
0.0
11
-67.200850
21
464.673155
31
0.0
0
LINE
8
0
6
CONTINUOUS
10
-66.988401
20
466.947011
30
0.0
11
-68.179620
21
466.165925
31
0.0
0
LINE
8
0
6
CONTINUOUS
10
-60.745780
20
454.993895
30
0.0
11
-60.099371
21
455.417747
31
0.0
0
LINE
8
0
6
CONTINUOUS
10
-61.661100
20
456.389775
30
0.0
11
-60.745780
21
454.993895
31
0.0
0
LINE
8
0
6
CONTINUOUS
10
-61.661100
20
456.389775
30
0.0
11
-61.014049
21
456.814054
31
0.0
0
LINE
8
0
6
CONTINUOUS
10
-62.740200
20
458.035435
30
0.0
11
-61.661100
21
456.389775
31
0.0
0
LINE
8
0
6
CONTINUOUS
10
-62.740200
20
458.035435
30
0.0
11
-62.092395
21
458.460208
31
0.0
0
LINE
8
0
6
CONTINUOUS
10
-62.903980
20
458.285215
30
0.0
11
-62.740200
21
458.035435
31
0.0
0
LINE
8
0
6
CONTINUOUS
10
-62.265423
20
458.703932
30
0.0
11
-62.903980
21
458.285215
31
0.0
0
LINE
8
0
6
CONTINUOUS
10
-55.621100
20
447.025605
30
0.0
11
-54.902774
21
447.496612
31
0.0
0
LINE
8
0
6
CONTINUOUS
10
-56.383080
20
448.187565
30
0.0
11
-55.621100
21
447.025605
31
0.0
0
LINE
8
0
6
CONTINUOUS
10
-56.383080
20
448.187565
30
0.0
11
-55.665089
21
448.658368
31
0.0
0
LINE
8
0
6
CONTINUOUS
10
-57.525040
20
449.929195
30
0.0
11
-56.383080
21
448.187565
31
0.0
0
LINE
8
0
6
CONTINUOUS
10
-57.525040
20
449.929195
30
0.0
11
-56.807642
21
450.399603
31
0.0
0
LINE
8
0
6
CONTINUOUS
10
-57.905030
20
450.508725
30
0.0
11
-57.525040
21
449.929195
31
0.0
0
LINE
8
0
6
CONTINUOUS
10
-57.240227
20
450.944638
30
0.0
11
-57.905030
21
450.508725
31
0.0
0
LINE
8
0
6
CONTINUOUS
10
-50.761400
20
439.765935
30
0.0
11
-50.111606
21
440.192005
31
0.0
0
LINE
8
0
6
CONTINUOUS
10
-51.342250
20
440.651705
30
0.0
11
-50.761400
21
439.765935
31
0.0
0
LINE
8
0
6
CONTINUOUS
10
-51.342250
20
440.651705
30
0.0
11
-50.692432
21
441.077799
31
0.0
0
LINE
8
0
6
CONTINUOUS
10
-52.505330
20
442.425385
30
0.0
11
-51.342250
21
440.651705
31
0.0
0
LINE
8
0
6
CONTINUOUS
10
-52.505330
20
442.425385
30
0.0
11
-51.855477
21
442.851508
31
0.0
0
LINE
8
0
6
CONTINUOUS
10
-53.087550
20
443.313375
30
0.0
11
-52.505330
21
442.425385
31
0.0
0
LINE
8
0
6
CONTINUOUS
10
-52.441943
20
443.736707
30
0.0
11
-53.087550
21
443.313375
31
0.0
0
LINE
8
0
6
CONTINUOUS
10
-46.446850
20
433.174135
30
0.0
11
-45.790716
21
433.604377
31
0.0
0
LINE
8
0
6
CONTINUOUS
10
-46.826890
20
433.753735
30
0.0
11
-46.446850
21
433.174135
31
0.0
0
LINE
8
0
6
CONTINUOUS
10
-46.826890
20
433.753735
30
0.0
11
-46.171046
21
434.183781
31
0.0
0
LINE
8
0
6
CONTINUOUS
10
-47.968870
20
435.495305
30
0.0
11
-46.826890
21
433.753735
31
0.0
0
LINE
8
0
6
CONTINUOUS
10
-47.968870
20
435.495305
30
0.0
11
-47.313643
21
435.924952
31
0.0
0
LINE
8
0
6
CONTINUOUS
10
-48.730800
20
436.657255
30
0.0
11
-47.968870
21
435.495305
31
0.0
0
LINE
8
0
6
CONTINUOUS
10
-48.090072
20
437.077395
30
0.0
11
-48.730800
21
436.657255
31
0.0
0
LINE
8
0
6
CONTINUOUS
10
-42.922350
20
427.702255
30
0.0
11
-42.219646
21
428.163027
31
0.0
0
LINE
8
0
6
CONTINUOUS
10
-43.088470
20
427.955625
30
0.0
11
-42.922350
21
427.702255
31
0.0
0
LINE
8
0
6
CONTINUOUS
10
-44.168480
20
429.602665
30
0.0
11
-45.082280
21
430.996319
31
0.0
0
LINE
8
0
6
CONTINUOUS
10
-43.088470
20
427.955625
30
0.0
11
-44.168480
21
429.602665
31
0.0
0
LINE
8
0
6
CONTINUOUS
10
-42.922350
20
427.702255
30
0.0
11
-43.088470
21
427.955625
31
0.0
0
LINE
8
0
6
CONTINUOUS
10
-43.088470
20
427.955625
30
0.0
11
-42.385678
21
428.416465
31
0.0
0
LINE
8
0
6
CONTINUOUS
10
-44.168480
20
429.602665
30
0.0
11
-43.088470
21
427.955625
31
0.0
0
LINE
8
0
6
CONTINUOUS
10
-44.168480
20
429.602665
30
0.0
11
-43.466205
21
430.063163
31
0.0
0
LINE
8
0
6
CONTINUOUS
10
-45.082330
20
430.996395
30
0.0
11
-44.168480
21
429.602665
31
0.0
0
LINE
8
0
6
CONTINUOUS
10
-44.426381
20
431.426502
30
0.0
11
-45.082330
21
430.996395
31
0.0
0
LINE
8
0
6
CONTINUOUS
10
-95.755610
20
508.269805
30
0.0
11
-95.174060
21
507.382965
31
0.0
0
LINE
8
0
6
CONTINUOUS
10
-97.500190
20
510.930485
30
0.0
11
-96.918680
21
510.043645
31
0.0
0
LINE
8
0
6
CONTINUOUS
10
-95.876255
20
511.995320
30
0.0
11
-97.500190
21
510.930485
31
0.0
0
LINE
8
0
6
CONTINUOUS
10
-96.918680
20
510.043645
30
0.0
11
-95.755610
21
508.269805
31
0.0
0
LINE
8
0
6
CONTINUOUS
10
-92.907870
20
499.832455
30
0.0
11
-92.326320
21
498.945615
31
0.0
0
LINE
8
0
6
CONTINUOUS
10
-94.652480
20
502.493135
30
0.0
11
-94.070930
21
501.606295
31
0.0
0
LINE
8
0
6
CONTINUOUS
10
-92.970114
20
503.596263
30
0.0
11
-94.652480
21
502.493135
31
0.0
0
LINE
8
0
6
CONTINUOUS
10
-94.070930
20
501.606295
30
0.0
11
-92.907870
21
499.832455
31
0.0
0
LINE
8
0
6
CONTINUOUS
10
-92.571312
20
502.589600
30
0.0
11
-94.070930
21
501.606295
31
0.0
0
LINE
8
0
6
CONTINUOUS
10
-92.310748
20
498.955826
30
0.0
11
-91.677422
21
497.989909
31
0.0
0
LINE
8
0
6
CONTINUOUS
10
-47.424180
20
430.390475
30
0.0
11
-46.065685
21
431.281274
31
0.0
0
LINE
8
0
6
CONTINUOUS
10
-48.407520
20
431.890105
30
0.0
11
-47.424180
21
430.390475
31
0.0
0
LINE
8
0
6
CONTINUOUS
10
-48.407520
20
431.890105
30
0.0
11
-47.193118
21
432.686418
31
0.0
0
LINE
8
0
6
CONTINUOUS
10
-49.437080
20
433.460235
30
0.0
11
-48.407520
21
431.890105
31
0.0
0
LINE
8
0
6
CONTINUOUS
10
-49.437080
20
433.460235
30
0.0
11
-48.593360
21
434.013484
31
0.0
0
LINE
8
0
6
CONTINUOUS
10
-49.483330
20
433.530735
30
0.0
11
-49.437080
21
433.460235
31
0.0
0
LINE
8
0
6
CONTINUOUS
10
-48.873393
20
433.930685
30
0.0
11
-49.483330
21
433.530735
31
0.0
0
LINE
8
0
6
CONTINUOUS
10
-47.424180
20
430.390475
30
0.0
11
-48.407520
21
431.890105
31
0.0
0
LINE
8
0
6
CONTINUOUS
10
-49.437080
20
433.460235
30
0.0
11
-49.483330
21
433.530735
31
0.0
0
LINE
8
0
6
CONTINUOUS
10
-48.407520
20
431.890105
30
0.0
11
-49.437080
21
433.460235
31
0.0
0
LINE
8
0
6
CONTINUOUS
10
-51.025890
20
436.017915
30
0.0
11
-49.922570
21
434.335325
31
0.0
0
LINE
8
0
6
CONTINUOUS
10
-51.025890
20
436.017915
30
0.0
11
-49.851754
21
436.787825
31
0.0
0
LINE
8
0
6
CONTINUOUS
10
-51.896260
20
437.345275
30
0.0
11
-51.025890
21
436.017915
31
0.0
0
LINE
8
0
6
CONTINUOUS
10
-51.095142
20
437.870579
30
0.0
11
-51.896260
21
437.345275
31
0.0
0
LINE
8
0
6
CONTINUOUS
10
-49.922570
20
434.335325
30
0.0
11
-51.025890
21
436.017915
31
0.0
0
LINE
8
0
6
CONTINUOUS
10
-49.689630
20
433.979955
30
0.0
11
-49.922570
21
434.335325
31
0.0
0
LINE
8
0
6
CONTINUOUS
10
-51.025890
20
436.017915
30
0.0
11
-51.896260
21
437.345275
31
0.0
0
LINE
8
0
6
CONTINUOUS
10
-49.689630
20
433.979955
30
0.0
11
-48.516268
21
434.749356
31
0.0
0
LINE
8
0
6
CONTINUOUS
10
-49.922570
20
434.335325
30
0.0
11
-49.689630
21
433.979955
31
0.0
0
LINE
8
0
6
CONTINUOUS
10
-48.562338
20
435.227236
30
0.0
11
-49.922570
21
434.335325
31
0.0
0
LINE
8
0
6
CONTINUOUS
10
-55.690660
20
443.117215
30
0.0
11
-54.531430
21
441.349255
31
0.0
0
LINE
8
0
6
CONTINUOUS
10
-55.690660
20
443.117215
30
0.0
11
-54.499553
21
443.898242
31
0.0
0
LINE
8
0
6
CONTINUOUS
10
-56.351960
20
444.125675
30
0.0
11
-55.690660
21
443.117215
31
0.0
0
LINE
8
0
6
CONTINUOUS
10
-55.534150
20
444.661933
30
0.0
11
-56.351960
21
444.125675
31
0.0
0
LINE
8
0
6
CONTINUOUS
10
-54.531430
20
441.349255
30
0.0
11
-55.690660
21
443.117215
31
0.0
0
LINE
8
0
6
CONTINUOUS
10
-54.033480
20
440.589905
30
0.0
11
-54.531430
21
441.349255
31
0.0
0
LINE
8
0
6
CONTINUOUS
10
-54.694790
20
441.598355
30
0.0
11
-54.348889
21
441.070881
31
0.0
0
LINE
8
0
6
CONTINUOUS
10
-55.690660
20
443.117215
30
0.0
11
-56.351960
21
444.125675
31
0.0
0
LINE
8
0
6
CONTINUOUS
10
-54.033480
20
440.589905
30
0.0
11
-52.858652
21
441.360258
31
0.0
0
LINE
8
0
6
CONTINUOUS
10
-54.531430
20
441.349255
30
0.0
11
-54.033480
21
440.589905
31
0.0
0
LINE
8
0
6
CONTINUOUS
10
-53.161768
20
442.247363
30
0.0
11
-54.531430
21
441.349255
31
0.0
0
LINE
8
0
6
CONTINUOUS
10
-61.140550
20
451.421505
30
0.0
11
-59.992550
21
449.670715
31
0.0
0
LINE
8
0
6
CONTINUOUS
10
-61.140550
20
451.421505
30
0.0
11
-59.933868
21
452.212730
31
0.0
0
LINE
8
0
6
CONTINUOUS
10
-61.552800
20
452.050175
30
0.0
11
-61.140550
21
451.421505
31
0.0
0
LINE
8
0
6
CONTINUOUS
10
-60.720204
20
452.596128
30
0.0
11
-61.552800
21
452.050175
31
0.0
0
LINE
8
0
6
CONTINUOUS
10
-59.992550
20
449.670715
30
0.0
11
-61.140550
21
451.421505
31
0.0
0
LINE
8
0
6
CONTINUOUS
10
-59.256850
20
448.548735
30
0.0
11
-59.992550
21
449.670715
31
0.0
0
LINE
8
0
6
CONTINUOUS
10
-61.140550
20
451.421505
30
0.0
11
-61.552800
21
452.050175
31
0.0
0
LINE
8
0
6
CONTINUOUS
10
-59.256850
20
448.548735
30
0.0
11
-58.063859
21
449.330996
31
0.0
0
LINE
8
0
6
CONTINUOUS
10
-59.992550
20
449.670715
30
0.0
11
-59.256850
21
448.548735
31
0.0
0
LINE
8
0
6
CONTINUOUS
10
-58.613328
20
450.575106
30
0.0
11
-59.992550
21
449.670715
31
0.0
0
LINE
8
0
6
CONTINUOUS
10
-67.052530
20
460.445935
30
0.0
11
-65.983200
21
458.815155
31
0.0
0
LINE
8
0
6
CONTINUOUS
10
-67.052530
20
460.445935
30
0.0
11
-65.829338
21
461.247999
31
0.0
0
LINE
8
0
6
CONTINUOUS
10
-67.191050
20
460.657195
30
0.0
11
-67.052530
21
460.445935
31
0.0
0
LINE
8
0
6
CONTINUOUS
10
-66.339691
20
461.215453
30
0.0
11
-67.191050
21
460.657195
31
0.0
0
LINE
8
0
6
CONTINUOUS
10
-65.983200
20
458.815155
30
0.0
11
-67.052530
21
460.445935
31
0.0
0
LINE
8
0
6
CONTINUOUS
10
-65.052370
20
457.395635
30
0.0
11
-65.983200
21
458.815155
31
0.0
0
LINE
8
0
6
CONTINUOUS
10
-67.052530
20
460.445935
30
0.0
11
-67.191050
21
460.657195
31
0.0
0
LINE
8
0
6
CONTINUOUS
10
-65.052370
20
457.395635
30
0.0
11
-63.838821
21
458.191377
31
0.0
0
LINE
8
0
6
CONTINUOUS
10
-65.983200
20
458.815155
30
0.0
11
-65.052370
21
457.395635
31
0.0
0
LINE
8
0
6
CONTINUOUS
10
-64.596772
20
459.724253
30
0.0
11
-65.983200
21
458.815155
31
0.0
0
LINE
8
0
6
CONTINUOUS
10
-73.045880
20
469.591065
30
0.0
11
-72.115060
21
468.171535
31
0.0
0
LINE
8
0
6
CONTINUOUS
10
-71.813995
20
470.398829
30
0.0
11
-73.045880
21
469.591065
31
0.0
0
LINE
8
0
6
CONTINUOUS
10
-72.115060
20
468.171535
30
0.0
11
-73.045880
21
469.591065
31
0.0
0
LINE
8
0
6
CONTINUOUS
10
-71.045760
20
466.540685
30
0.0
11
-72.115060
21
468.171535
31
0.0
0
LINE
8
0
6
CONTINUOUS
10
-70.907210
20
466.329495
30
0.0
11
-71.045760
21
466.540685
31
0.0
0
LINE
8
0
6
CONTINUOUS
10
-72.115060
20
468.171535
30
0.0
11
-71.045760
21
466.540685
31
0.0
0
LINE
8
0
6
CONTINUOUS
10
-70.706052
20
469.095441
30
0.0
11
-72.115060
21
468.171535
31
0.0
0
LINE
8
0
6
CONTINUOUS
10
-70.907210
20
466.329495
30
0.0
11
-70.046995
21
466.893542
31
0.0
0
LINE
8
0
6
CONTINUOUS
10
-71.045760
20
466.540685
30
0.0
11
-70.907210
21
466.329495
31
0.0
0
LINE
8
0
6
CONTINUOUS
10
-69.811603
20
467.349947
30
0.0
11
-71.045760
21
466.540685
31
0.0
0
LINE
8
0
6
CONTINUOUS
10
-78.844300
20
478.436055
30
0.0
11
-78.108560
21
477.313995
31
0.0
0
LINE
8
0
6
CONTINUOUS
10
-77.487942
20
479.325436
30
0.0
11
-78.844300
21
478.436055
31
0.0
0
LINE
8
0
6
CONTINUOUS
10
-78.108560
20
477.313995
30
0.0
11
-78.844238
21
478.435960
31
0.0
0
LINE
8
0
6
CONTINUOUS
10
-76.960600
20
475.563355
30
0.0
11
-78.108560
21
477.313995
31
0.0
0
LINE
8
0
6
CONTINUOUS
10
-76.548350
20
474.934545
30
0.0
11
-76.960600
21
475.563355
31
0.0
0
LINE
8
0
6
CONTINUOUS
10
-78.108560
20
477.313995
30
0.0
11
-76.960600
21
475.563355
31
0.0
0
LINE
8
0
6
CONTINUOUS
10
-76.584202
20
478.313552
30
0.0
11
-78.108560
21
477.313995
31
0.0
0
LINE
8
0
6
CONTINUOUS
10
-76.548350
20
474.934545
30
0.0
11
-75.670040
21
475.510473
31
0.0
0
LINE
8
0
6
CONTINUOUS
10
-76.960600
20
475.563355
30
0.0
11
-76.548350
21
474.934545
31
0.0
0
LINE
8
0
6
CONTINUOUS
10
-75.675353
20
476.406096
30
0.0
11
-76.960600
21
475.563355
31
0.0
0
LINE
8
0
6
CONTINUOUS
10
-84.067300
20
486.395115
30
0.0
11
-83.569410
21
485.635685
31
0.0
0
LINE
8
0
6
CONTINUOUS
10
-82.717958
20
487.279897
30
0.0
11
-84.067300
21
486.395115
31
0.0
0
LINE
8
0
6
CONTINUOUS
10
-83.569410
20
485.635685
30
0.0
11
-82.410160
21
483.867795
31
0.0
0
LINE
8
0
6
CONTINUOUS
10
-82.005034
20
486.661479
30
0.0
11
-83.569410
21
485.635685
31
0.0
0
LINE
8
0
6
CONTINUOUS
10
-81.748850
20
482.859265
30
0.0
11
-80.779480
21
483.494894
31
0.0
0
LINE
8
0
6
CONTINUOUS
10
-82.410160
20
483.867795
30
0.0
11
-81.748850
21
482.859265
31
0.0
0
LINE
8
0
6
CONTINUOUS
10
-81.033169
20
484.770722
30
0.0
11
-82.410160
21
483.867795
31
0.0
0
LINE
8
0
6
CONTINUOUS
10
-88.398170
20
493.013455
30
0.0
11
-88.165210
21
492.658235
31
0.0
0
LINE
8
0
6
CONTINUOUS
10
-86.992292
20
493.935318
30
0.0
11
-88.398170
21
493.013455
31
0.0
0
LINE
8
0
6
CONTINUOUS
10
-88.165210
20
492.658235
30
0.0
11
-88.398170
21
493.013455
31
0.0
0
LINE
8
0
6
CONTINUOUS
10
-87.061880
20
490.975645
30
0.0
11
-88.165210
21
492.658235
31
0.0
0
LINE
8
0
6
CONTINUOUS
10
-86.191560
20
489.648285
30
0.0
11
-87.061880
21
490.975645
31
0.0
0
LINE
8
0
6
CONTINUOUS
10
-88.165210
20
492.658235
30
0.0
11
-87.061880
21
490.975645
31
0.0
0
LINE
8
0
6
CONTINUOUS
10
-86.559166
20
493.711323
30
0.0
11
-88.165210
21
492.658235
31
0.0
0
LINE
8
0
6
CONTINUOUS
10
-86.191560
20
489.648285
30
0.0
11
-85.208069
21
490.293160
31
0.0
0
LINE
8
0
6
CONTINUOUS
10
-87.061880
20
490.975645
30
0.0
11
-86.191560
21
489.648285
31
0.0
0
LINE
8
0
6
CONTINUOUS
10
-85.667052
20
491.890240
30
0.0
11
-87.061880
21
490.975645
31
0.0
0
LINE
8
0
6
CONTINUOUS
10
-89.621430
20
494.847565
30
0.0
11
-88.809213
21
495.380138
31
0.0
0
LINE
8
0
6
CONTINUOUS
10
-89.667700
20
494.918065
30
0.0
11
-89.621430
21
494.847565
31
0.0
0
LINE
8
0
6
CONTINUOUS
10
-91.680600
20
497.987825
30
0.0
11
-90.697290
21
496.488185
31
0.0
0
LINE
8
0
6
CONTINUOUS
10
-90.045616
20
499.059924
30
0.0
11
-91.680600
21
497.987825
31
0.0
0
LINE
8
0
6
CONTINUOUS
10
-89.667700
20
494.918065
30
0.0
11
-88.656984
21
495.580805
31
0.0
0
LINE
8
0
6
CONTINUOUS
10
-90.697290
20
496.488185
30
0.0
11
-89.667700
21
494.918065
31
0.0
0
LINE
8
0
6
CONTINUOUS
10
-89.275809
20
497.420285
30
0.0
11
-90.697290
21
496.488185
31
0.0
0
LINE
8
0
6
CONTINUOUS
10
-91.934740
20
498.399655
30
0.0
11
-91.609990
21
497.904435
31
0.0
0
LINE
8
0
6
CONTINUOUS
10
-93.869130
20
501.349715
30
0.0
11
-93.064340
21
500.122375
31
0.0
0
LINE
8
0
6
CONTINUOUS
10
-92.224768
20
502.427947
30
0.0
11
-93.869130
21
501.349715
31
0.0
0
LINE
8
0
6
CONTINUOUS
10
-91.934740
20
498.399655
30
0.0
11
-90.898152
21
499.079370
31
0.0
0
LINE
8
0
6
CONTINUOUS
10
-93.064340
20
500.122375
30
0.0
11
-91.934740
21
498.399655
31
0.0
0
LINE
8
0
6
CONTINUOUS
10
-91.613584
20
501.073637
30
0.0
11
-93.064340
21
500.122375
31
0.0
0
LINE
8
0
6
CONTINUOUS
10
-89.403910
20
491.429135
30
0.0
11
-88.822360
21
490.542295
31
0.0
0
LINE
8
0
6
CONTINUOUS
10
-91.148490
20
494.089735
30
0.0
11
-90.566980
21
493.202895
31
0.0
0
LINE
8
0
6
CONTINUOUS
10
-89.799120
20
494.974532
30
0.0
11
-91.148490
21
494.089735
31
0.0
0
LINE
8
0
6
CONTINUOUS
10
-90.566980
20
493.202895
30
0.0
11
-89.403910
21
491.429135
31
0.0
0
LINE
8
0
6
CONTINUOUS
10
-89.358144
20
493.995542
30
0.0
11
-90.566980
21
493.202895
31
0.0
0
LINE
8
0
6
CONTINUOUS
10
-55.979360
20
437.676845
30
0.0
11
-55.255155
21
438.151728
31
0.0
0
LINE
8
0
6
CONTINUOUS
10
-56.560890
20
438.563765
30
0.0
11
-55.979360
21
437.676845
31
0.0
0
LINE
8
0
6
CONTINUOUS
10
-56.560890
20
438.563765
30
0.0
11
-55.867953
21
439.018137
31
0.0
0
LINE
8
0
6
CONTINUOUS
10
-57.723950
20
440.337525
30
0.0
11
-56.560890
21
438.563765
31
0.0
0
LINE
8
0
6
CONTINUOUS
10
-58.305480
20
441.224365
30
0.0
11
-57.723950
21
440.337525
31
0.0
0
LINE
8
0
6
CONTINUOUS
10
-55.979360
20
437.676845
30
0.0
11
-56.560890
21
438.563765
31
0.0
0
LINE
8
0
6
CONTINUOUS
10
-57.723950
20
440.337525
30
0.0
11
-58.305480
21
441.224365
31
0.0
0
LINE
8
0
6
CONTINUOUS
10
-56.560890
20
438.563765
30
0.0
11
-57.723950
21
440.337525
31
0.0
0
LINE
8
0
6
CONTINUOUS
10
-57.439420
20
440.191655
30
0.0
11
-56.424323
21
440.857269
31
0.0
0
LINE
8
0
6
CONTINUOUS
10
-58.400620
20
441.657485
30
0.0
11
-57.439420
21
440.191655
31
0.0
0
LINE
8
0
6
CONTINUOUS
10
-58.400620
20
441.657485
30
0.0
11
-57.488582
21
442.255523
31
0.0
0
LINE
8
0
6
CONTINUOUS
10
-59.448350
20
443.255315
30
0.0
11
-58.400620
21
441.657485
31
0.0
0
LINE
8
0
6
CONTINUOUS
10
-59.448350
20
443.255315
30
0.0
11
-58.813279
21
443.671747
31
0.0
0
LINE
8
0
6
CONTINUOUS
10
-59.534860
20
443.387295
30
0.0
11
-59.448350
21
443.255315
31
0.0
0
LINE
8
0
6
CONTINUOUS
10
-59.052729
20
443.703436
30
0.0
11
-59.534860
21
443.387295
31
0.0
0
LINE
8
0
6
CONTINUOUS
10
-57.439420
20
440.191655
30
0.0
11
-58.400620
21
441.657485
31
0.0
0
LINE
8
0
6
CONTINUOUS
10
-59.448350
20
443.255315
30
0.0
11
-59.534860
21
443.387295
31
0.0
0
LINE
8
0
6
CONTINUOUS
10
-58.400620
20
441.657485
30
0.0
11
-59.448350
21
443.255315
31
0.0
0
LINE
8
0
6
CONTINUOUS
10
-62.943430
20
448.589785
30
0.0
11
-61.793450
21
446.835935
31
0.0
0
LINE
8
0
6
CONTINUOUS
10
-62.943430
20
448.589785
30
0.0
11
-62.010609
21
449.201441
31
0.0
0
LINE
8
0
6
CONTINUOUS
10
-63.669050
20
449.696355
30
0.0
11
-62.943430
21
448.589785
31
0.0
0
LINE
8
0
6
CONTINUOUS
10
-63.016978
20
450.123936
30
0.0
11
-63.669050
21
449.696355
31
0.0
0
LINE
8
0
6
CONTINUOUS
10
-61.793450
20
446.835935
30
0.0
11
-62.943430
21
448.589785
31
0.0
0
LINE
8
0
6
CONTINUOUS
10
-61.369080
20
446.188815
30
0.0
11
-61.793450
21
446.835935
31
0.0
0
LINE
8
0
6
CONTINUOUS
10
-62.943430
20
448.589785
30
0.0
11
-63.669019
21
449.696308
31
0.0
0
LINE
8
0
6
CONTINUOUS
10
-61.369080
20
446.188815
30
0.0
11
-60.440510
21
446.797681
31
0.0
0
LINE
8
0
6
CONTINUOUS
10
-61.793450
20
446.835935
30
0.0
11
-61.369080
21
446.188815
31
0.0
0
LINE
8
0
6
CONTINUOUS
10
-60.735459
20
447.529685
30
0.0
11
-61.793450
21
446.835935
31
0.0
0
LINE
8
0
6
CONTINUOUS
10
-69.221800
20
458.166195
30
0.0
11
-68.110770
21
456.471865
31
0.0
0
LINE
8
0
6
CONTINUOUS
10
-69.221800
20
458.166195
30
0.0
11
-68.277157
21
458.785623
31
0.0
0
LINE
8
0
6
CONTINUOUS
10
-69.479330
20
458.558965
30
0.0
11
-69.221800
21
458.166195
31
0.0
0
LINE
8
0
6
CONTINUOUS
10
-68.816290
20
458.993728
30
0.0
11
-69.479330
21
458.558965
31
0.0
0
LINE
8
0
6
CONTINUOUS
10
-67.257310
20
455.170285
30
0.0
11
-66.321117
21
455.784159
31
0.0
0
LINE
8
0
6
CONTINUOUS
10
-68.110770
20
456.471865
30
0.0
11
-67.257310
21
455.170285
31
0.0
0
LINE
8
0
6
CONTINUOUS
10
-67.299816
20
457.003627
30
0.0
11
-68.110770
21
456.471865
31
0.0
0
LINE
8
0
6
CONTINUOUS
10
-75.968240
20
468.454285
30
0.0
11
-75.114740
21
467.152715
31
0.0
0
LINE
8
0
6
CONTINUOUS
10
-75.002949
20
469.087247
30
0.0
11
-75.968240
21
468.454285
31
0.0
0
LINE
8
0
6
CONTINUOUS
10
-75.114740
20
467.152715
30
0.0
11
-75.968240
21
468.454285
31
0.0
0
LINE
8
0
6
CONTINUOUS
10
-74.003710
20
465.458375
30
0.0
11
-75.114740
21
467.152715
31
0.0
0
LINE
8
0
6
CONTINUOUS
10
-73.746180
20
465.065615
30
0.0
11
-74.003710
21
465.458375
31
0.0
0
LINE
8
0
6
CONTINUOUS
10
-75.114740
20
467.152715
30
0.0
11
-74.003710
21
465.458375
31
0.0
0
LINE
8
0
6
CONTINUOUS
10
-74.300995
20
467.686298
30
0.0
11
-75.114740
21
467.152715
31
0.0
0
LINE
8
0
6
CONTINUOUS
10
-73.746180
20
465.065615
30
0.0
11
-73.067939
21
465.510354
31
0.0
0
LINE
8
0
6
CONTINUOUS
10
-74.003710
20
465.458375
30
0.0
11
-73.746180
21
465.065615
31
0.0
0
LINE
8
0
6
CONTINUOUS
10
-73.044114
20
466.087595
30
0.0
11
-74.003710
21
465.458375
31
0.0
0
LINE
8
0
6
CONTINUOUS
10
-81.858520
20
477.434385
30
0.0
11
-81.434130
21
476.787265
31
0.0
0
LINE
8
0
6
CONTINUOUS
10
-80.863144
20
478.087076
30
0.0
11
-81.858520
21
477.434385
31
0.0
0
LINE
8
0
6
CONTINUOUS
10
-81.434130
20
476.787265
30
0.0
11
-80.284190
21
475.033415
31
0.0
0
LINE
8
0
6
CONTINUOUS
10
-80.312156
20
477.522948
30
0.0
11
-81.434130
21
476.787265
31
0.0
0
LINE
8
0
6
CONTINUOUS
10
-79.558560
20
473.926845
30
0.0
11
-78.855974
21
474.387538
31
0.0
0
LINE
8
0
6
CONTINUOUS
10
-80.284190
20
475.033415
30
0.0
11
-79.558560
21
473.926845
31
0.0
0
LINE
8
0
6
CONTINUOUS
10
-79.299130
20
475.679339
30
0.0
11
-80.284190
21
475.033415
31
0.0
0
LINE
8
0
6
CONTINUOUS
10
-83.694840
20
480.234525
30
0.0
11
-83.125991
21
480.607521
31
0.0
0
LINE
8
0
6
CONTINUOUS
10
-83.781390
20
480.366515
30
0.0
11
-83.694840
21
480.234525
31
0.0
0
LINE
8
0
6
CONTINUOUS
10
-85.790290
20
483.430175
30
0.0
11
-84.829060
21
481.964265
31
0.0
0
LINE
8
0
6
CONTINUOUS
10
-85.031397
20
483.927781
30
0.0
11
-85.790290
21
483.430175
31
0.0
0
LINE
8
0
6
CONTINUOUS
10
-83.781390
20
480.366515
30
0.0
11
-83.071135
21
480.832229
31
0.0
0
LINE
8
0
6
CONTINUOUS
10
-84.829060
20
481.964265
30
0.0
11
-83.781390
21
480.366515
31
0.0
0
LINE
8
0
6
CONTINUOUS
10
-83.832105
20
482.617993
30
0.0
11
-84.829060
21
481.964265
31
0.0
0
LINE
8
0
6
CONTINUOUS
10
-50.696710
20
430.439835
30
0.0
11
-50.476298
21
430.584361
31
0.0
0
LINE
8
0
6
CONTINUOUS
10
-51.278240
20
431.326675
30
0.0
11
-50.696710
21
430.439835
31
0.0
0
LINE
8
0
6
CONTINUOUS
10
-51.278240
20
431.326675
30
0.0
11
-50.896537
21
431.576969
31
0.0
0
LINE
8
0
6
CONTINUOUS
10
-52.441320
20
433.100435
30
0.0
11
-51.278240
21
431.326675
31
0.0
0
LINE
8
0
6
CONTINUOUS
10
-52.441320
20
433.100435
30
0.0
11
-51.865278
21
433.478156
31
0.0
0
LINE
8
0
6
CONTINUOUS
10
-53.022870
20
433.987275
30
0.0
11
-52.441320
21
433.100435
31
0.0
0
LINE
8
0
6
CONTINUOUS
10
-52.413754
20
434.386684
30
0.0
11
-53.022870
21
433.987275
31
0.0
0
LINE
8
0
6
CONTINUOUS
10
-51.079610
20
432.462315
30
0.0
11
-50.339498
21
432.947616
31
0.0
0
LINE
8
0
6
CONTINUOUS
10
-51.943520
20
433.779835
30
0.0
11
-51.079618
21
432.462327
31
0.0
0
LINE
8
0
6
CONTINUOUS
10
-51.943520
20
433.779835
30
0.0
11
-51.089665
21
434.339728
31
0.0
0
LINE
8
0
6
CONTINUOUS
10
-53.049860
20
435.467075
30
0.0
11
-51.943520
21
433.779835
31
0.0
0
LINE
8
0
6
CONTINUOUS
10
-53.049860
20
435.467075
30
0.0
11
-52.420758
21
435.879585
31
0.0
0
LINE
8
0
6
CONTINUOUS
10
-53.292280
20
435.836795
30
0.0
11
-53.049860
21
435.467075
31
0.0
0
LINE
8
0
6
CONTINUOUS
10
-52.915505
20
436.083852
30
0.0
11
-53.292280
21
435.836795
31
0.0
0
LINE
8
0
6
CONTINUOUS
10
-54.822530
20
438.709255
30
0.0
11
-53.759720
21
437.088315
31
0.0
0
LINE
8
0
6
CONTINUOUS
10
-54.822530
20
438.709255
30
0.0
11
-53.758065
21
439.407241
31
0.0
0
LINE
8
0
6
CONTINUOUS
10
-55.763040
20
440.143585
30
0.0
11
-54.822530
21
438.709255
31
0.0
0
LINE
8
0
6
CONTINUOUS
10
-55.010527
20
440.637028
30
0.0
11
-55.763040
21
440.143585
31
0.0
0
LINE
8
0
6
CONTINUOUS
10
-53.759720
20
437.088315
30
0.0
11
-54.822530
21
438.709255
31
0.0
0
LINE
8
0
6
CONTINUOUS
10
-53.637440
20
436.901855
30
0.0
11
-53.759720
21
437.088315
31
0.0
0
LINE
8
0
6
CONTINUOUS
10
-54.822530
20
438.709255
30
0.0
11
-55.763001
21
440.143525
31
0.0
0
LINE
8
0
6
CONTINUOUS
10
-53.637440
20
436.901855
30
0.0
11
-52.591916
21
437.587431
31
0.0
0
LINE
8
0
6
CONTINUOUS
10
-53.759720
20
437.088315
30
0.0
11
-53.637440
21
436.901855
31
0.0
0
LINE
8
0
6
CONTINUOUS
10
-52.557728
20
437.876491
30
0.0
11
-53.759720
21
437.088315
31
0.0
0
LINE
8
0
6
CONTINUOUS
10
-59.479440
20
445.811315
30
0.0
11
-58.322820
21
444.047395
31
0.0
0
LINE
8
0
6
CONTINUOUS
10
-59.479440
20
445.811315
30
0.0
11
-58.403134
21
446.517075
31
0.0
0
LINE
8
0
6
CONTINUOUS
10
-60.163660
20
446.854705
30
0.0
11
-59.479440
21
445.811315
31
0.0
0
LINE
8
0
6
CONTINUOUS
10
-59.401846
20
447.354243
30
0.0
11
-60.163660
21
446.854705
31
0.0
0
LINE
8
0
6
CONTINUOUS
10
-57.850380
20
443.326875
30
0.0
11
-56.782943
21
444.026822
31
0.0
0
LINE
8
0
6
CONTINUOUS
10
-58.322820
20
444.047395
30
0.0
11
-57.850380
21
443.326875
31
0.0
0
LINE
8
0
6
CONTINUOUS
10
-57.103165
20
444.847152
30
0.0
11
-58.322820
21
444.047395
31
0.0
0
LINE
8
0
6
CONTINUOUS
10
-65.227280
20
454.576495
30
0.0
11
-64.089740
21
452.841645
31
0.0
0
LINE
8
0
6
CONTINUOUS
10
-65.227280
20
454.576495
30
0.0
11
-64.152867
21
455.281002
31
0.0
0
LINE
8
0
6
CONTINUOUS
10
-65.586090
20
455.123675
30
0.0
11
-65.227280
21
454.576495
31
0.0
0
LINE
8
0
6
CONTINUOUS
10
-64.825909
20
455.622134
30
0.0
11
-65.586090
21
455.123675
31
0.0
0
LINE
8
0
6
CONTINUOUS
10
-63.311010
20
451.654055
30
0.0
11
-62.230978
21
452.362261
31
0.0
0
LINE
8
0
6
CONTINUOUS
10
-64.089740
20
452.841645
30
0.0
11
-63.311010
21
451.654055
31
0.0
0
LINE
8
0
6
CONTINUOUS
10
-62.854965
20
453.651316
30
0.0
11
-64.089740
21
452.841645
31
0.0
0
LINE
8
0
6
CONTINUOUS
10
-71.479830
20
464.096065
30
0.0
11
-70.472600
21
462.559965
31
0.0
0
LINE
8
0
6
CONTINUOUS
10
-70.311559
20
464.862122
30
0.0
11
-71.479830
21
464.096065
31
0.0
0
LINE
8
0
6
CONTINUOUS
10
-70.472600
20
462.559965
30
0.0
11
-69.465370
21
461.023865
31
0.0
0
LINE
8
0
6
CONTINUOUS
10
-69.141232
20
463.432947
30
0.0
11
-70.472600
21
462.559965
31
0.0
0
LINE
8
0
6
CONTINUOUS
10
-68.312413
20
461.779861
30
0.0
11
-69.465370
21
461.023865
31
0.0
0
LINE
8
0
6
CONTINUOUS
10
-77.617720
20
473.476565
30
0.0
11
-76.838990
21
472.288975
31
0.0
0
LINE
8
0
6
CONTINUOUS
10
-76.497564
20
474.211052
30
0.0
11
-77.617720
21
473.476565
31
0.0
0
LINE
8
0
6
CONTINUOUS
10
-76.838990
20
472.288975
30
0.0
11
-77.617661
21
473.476476
31
0.0
0
LINE
8
0
6
CONTINUOUS
10
-75.701480
20
470.554195
30
0.0
11
-76.838990
21
472.288975
31
0.0
0
LINE
8
0
6
CONTINUOUS
10
-75.342630
20
470.006945
30
0.0
11
-75.701480
21
470.554195
31
0.0
0
LINE
8
0
6
CONTINUOUS
10
-76.838990
20
472.288975
30
0.0
11
-75.701480
21
470.554195
31
0.0
0
LINE
8
0
6
CONTINUOUS
10
-75.568956
20
473.121740
30
0.0
11
-76.838990
21
472.288975
31
0.0
0
LINE
8
0
6
CONTINUOUS
10
-75.342630
20
470.006945
30
0.0
11
-74.556644
21
470.522330
31
0.0
0
LINE
8
0
6
CONTINUOUS
10
-75.701480
20
470.554195
30
0.0
11
-75.342630
21
470.006945
31
0.0
0
LINE
8
0
6
CONTINUOUS
10
-74.598523
20
471.277421
30
0.0
11
-75.701480
21
470.554195
31
0.0
0
LINE
8
0
6
CONTINUOUS
10
-83.079340
20
481.802975
30
0.0
11
-82.606920
21
481.082615
31
0.0
0
LINE
8
0
6
CONTINUOUS
10
-81.935964
20
482.552715
30
0.0
11
-83.079340
21
481.802975
31
0.0
0
LINE
8
0
6
CONTINUOUS
10
-82.606920
20
481.082615
30
0.0
11
-83.079340
21
481.802975
31
0.0
0
LINE
8
0
6
CONTINUOUS
10
-81.450310
20
479.318695
30
0.0
11
-82.606920
21
481.082615
31
0.0
0
LINE
8
0
6
CONTINUOUS
10
-80.766100
20
478.275225
30
0.0
11
-81.450310
21
479.318695
31
0.0
0
LINE
8
0
6
CONTINUOUS
10
-82.606920
20
481.082615
30
0.0
11
-81.450310
21
479.318695
31
0.0
0
LINE
8
0
6
CONTINUOUS
10
-81.314991
20
481.929738
30
0.0
11
-82.606920
21
481.082615
31
0.0
0
LINE
8
0
6
CONTINUOUS
10
-80.766100
20
478.275225
30
0.0
11
-79.942704
21
478.815137
31
0.0
0
LINE
8
0
6
CONTINUOUS
10
-81.450310
20
479.318695
30
0.0
11
-80.766100
21
478.275225
31
0.0
0
LINE
8
0
6
CONTINUOUS
10
-80.308531
20
480.067363
30
0.0
11
-81.450310
21
479.318695
31
0.0
0
LINE
8
0
6
CONTINUOUS
10
-87.292590
20
488.227845
30
0.0
11
-87.170330
21
488.041385
31
0.0
0
LINE
8
0
6
CONTINUOUS
10
-86.126192
20
488.992668
30
0.0
11
-87.292590
21
488.227845
31
0.0
0
LINE
8
0
6
CONTINUOUS
10
-87.170330
20
488.041385
30
0.0
11
-86.107560
21
486.420515
31
0.0
0
LINE
8
0
6
CONTINUOUS
10
-85.858550
20
488.901529
30
0.0
11
-87.170330
21
488.041385
31
0.0
0
LINE
8
0
6
CONTINUOUS
10
-85.167010
20
484.986115
30
0.0
11
-84.325305
21
485.538041
31
0.0
0
LINE
8
0
6
CONTINUOUS
10
-86.107560
20
486.420515
30
0.0
11
-85.167010
21
484.986115
31
0.0
0
LINE
8
0
6
CONTINUOUS
10
-84.948539
20
487.180498
30
0.0
11
-86.107560
21
486.420515
31
0.0
0
LINE
8
0
6
CONTINUOUS
10
-87.885780
20
489.130245
30
0.0
11
-87.189752
21
489.586646
31
0.0
0
LINE
8
0
6
CONTINUOUS
10
-88.128200
20
489.499965
30
0.0
11
-87.885780
21
489.130245
31
0.0
0
LINE
8
0
6
CONTINUOUS
10
-89.234540
20
491.187285
30
0.0
11
-90.098460
21
492.504735
31
0.0
0
LINE
8
0
6
CONTINUOUS
10
-88.128200
20
489.499965
30
0.0
11
-89.234540
21
491.187285
31
0.0
0
LINE
8
0
6
CONTINUOUS
10
-87.885780
20
489.130245
30
0.0
11
-88.128200
21
489.499965
31
0.0
0
LINE
8
0
6
CONTINUOUS
10
-90.098460
20
492.504735
30
0.0
11
-89.234540
21
491.187285
31
0.0
0
LINE
8
0
6
CONTINUOUS
10
-88.761828
20
493.381192
30
0.0
11
-90.098460
21
492.504735
31
0.0
0
LINE
8
0
6
CONTINUOUS
10
-88.128200
20
489.499965
30
0.0
11
-87.271030
21
490.062033
31
0.0
0
LINE
8
0
6
CONTINUOUS
10
-89.234540
20
491.187285
30
0.0
11
-88.128200
21
489.499965
31
0.0
0
LINE
8
0
6
CONTINUOUS
10
-88.057086
20
491.959347
30
0.0
11
-89.234540
21
491.187285
31
0.0
0
LINE
8
0
6
CONTINUOUS
10
-87.385330
20
485.856325
30
0.0
11
-86.803780
21
484.969485
31
0.0
0
LINE
8
0
6
CONTINUOUS
10
-86.229061
20
486.614505
30
0.0
11
-87.385330
21
485.856325
31
0.0
0
LINE
8
0
6
CONTINUOUS
10
-86.803780
20
484.969485
30
0.0
11
-85.640720
21
483.195645
31
0.0
0
LINE
8
0
6
CONTINUOUS
10
-85.773880
20
485.644794
30
0.0
11
-86.803780
21
484.969485
31
0.0
0
LINE
8
0
6
CONTINUOUS
10
-96.849060
20
510.097805
30
0.0
11
-96.088520
21
508.937985
31
0.0
0
LINE
8
0
6
CONTINUOUS
10
-95.282946
20
511.124706
30
0.0
11
-96.849060
21
510.097805
31
0.0
0
LINE
8
0
6
CONTINUOUS
10
-96.088520
20
508.937985
30
0.0
11
-95.129671
21
507.475609
31
0.0
0
LINE
8
0
6
CONTINUOUS
10
-94.759268
20
509.809576
30
0.0
11
-96.088520
21
508.937985
31
0.0
0
LINE
8
0
6
CONTINUOUS
10
-95.129635
20
507.475554
30
0.0
11
-96.088520
21
508.937985
31
0.0
0
LINE
8
0
6
CONTINUOUS
10
-96.088520
20
508.937985
30
0.0
11
-96.849021
21
510.097745
31
0.0
0
LINE
8
0
6
CONTINUOUS
10
6.497230
20
-399.122005
30
0.0
11
6.497230
21
-386.608275
31
0.0
0
LINE
8
0
6
CONTINUOUS
10
-0.463180
20
-386.608275
30
0.0
11
-0.463180
21
-399.122005
31
0.0
0
LINE
8
0
6
CONTINUOUS
10
6.497230
20
-415.838545
30
0.0
11
6.497230
21
-399.122005
31
0.0
0
LINE
8
0
6
CONTINUOUS
10
-0.463180
20
-399.122005
30
0.0
11
-0.463180
21
-415.838545
31
0.0
0
LINE
8
0
6
CONTINUOUS
10
6.497230
20
-432.324215
30
0.0
11
6.497230
21
-415.838545
31
0.0
0
LINE
8
0
6
CONTINUOUS
10
-0.463180
20
-415.838545
30
0.0
11
-0.463180
21
-432.324215
31
0.0
0
LINE
8
0
6
CONTINUOUS
10
6.497230
20
-448.551105
30
0.0
11
6.497230
21
-432.324215
31
0.0
0
LINE
8
0
6
CONTINUOUS
10
-0.463180
20
-432.324215
30
0.0
11
-0.463180
21
-448.551105
31
0.0
0
LINE
8
0
6
CONTINUOUS
10
6.497230
20
-464.491195
30
0.0
11
6.497230
21
-448.551105
31
0.0
0
LINE
8
0
6
CONTINUOUS
10
-0.463180
20
-448.551105
30
0.0
11
-0.463180
21
-464.491195
31
0.0
0
LINE
8
0
6
CONTINUOUS
10
6.497230
20
-480.116575
30
0.0
11
6.497230
21
-464.491195
31
0.0
0
LINE
8
0
6
CONTINUOUS
10
-0.463180
20
-464.491195
30
0.0
11
-0.463180
21
-480.116575
31
0.0
0
LINE
8
0
6
CONTINUOUS
10
6.497230
20
-495.399325
30
0.0
11
6.497230
21
-480.116575
31
0.0
0
LINE
8
0
6
CONTINUOUS
10
-0.463180
20
-480.116575
30
0.0
11
-0.463180
21
-495.399325
31
0.0
0
LINE
8
0
6
CONTINUOUS
10
6.497230
20
-510.311435
30
0.0
11
6.497230
21
-495.399325
31
0.0
0
LINE
8
0
6
CONTINUOUS
10
-0.463180
20
-495.399325
30
0.0
11
-0.463180
21
-510.311435
31
0.0
0
LINE
8
0
6
CONTINUOUS
10
6.497220
20
-524.760135
30
0.0
11
6.497230
21
-510.311435
31
0.0
0
LINE
8
0
6
CONTINUOUS
10
-0.463180
20
-510.311435
30
0.0
11
-0.463180
21
-524.794615
31
0.0
0
LINE
8
0
6
CONTINUOUS
10
6.506890
20
-541.025925
30
0.0
11
6.497220
21
-524.760135
31
0.0
0
LINE
8
0
6
CONTINUOUS
10
-0.463180
20
-524.794615
30
0.0
11
-0.453410
21
-541.183475
31
0.0
0
LINE
8
0
6
CONTINUOUS
10
6.538500
20
-555.861055
30
0.0
11
6.506890
21
-541.025925
31
0.0
0
LINE
8
0
6
CONTINUOUS
10
-0.421330
20
-556.226505
30
0.0
11
-0.453410
21
-541.183475
31
0.0
0
LINE
8
0
6
CONTINUOUS
10
6.595730
20
-569.424285
30
0.0
11
6.538500
21
-555.861055
31
0.0
0
LINE
8
0
6
CONTINUOUS
10
-0.362920
20
-570.061875
30
0.0
11
-0.421330
21
-556.226505
31
0.0
0
LINE
8
0
6
CONTINUOUS
10
6.681980
20
-581.833575
30
0.0
11
6.595730
21
-569.424285
31
0.0
0
LINE
8
0
6
CONTINUOUS
10
-0.274260
20
-582.808455
30
0.0
11
-0.362920
21
-570.061875
31
0.0
0
LINE
8
0
6
CONTINUOUS
10
6.800590
20
-593.225705
30
0.0
11
6.681980
21
-581.833575
31
0.0
0
LINE
8
0
6
CONTINUOUS
10
-0.151490
20
-594.594195
30
0.0
11
-0.274260
21
-582.808455
31
0.0
0
LINE
8
0
6
CONTINUOUS
10
-0.266420
20
-584.640735
30
0.0
11
-0.135840
21
-597.166135
31
0.0
0
LINE
8
0
6
CONTINUOUS
10
6.955110
20
-603.761295
30
0.0
11
6.800590
21
-593.225705
31
0.0
0
LINE
8
0
6
CONTINUOUS
10
0.009360
20
-605.557865
30
0.0
11
-0.151490
21
-594.594195
31
0.0
0
LINE
8
0
6
CONTINUOUS
10
-0.135840
20
-597.166135
30
0.0
11
0.036910
21
-608.934405
31
0.0
0
LINE
8
0
6
CONTINUOUS
10
7.149870
20
-613.621215
30
0.0
11
6.955110
21
-603.761295
31
0.0
0
LINE
8
0
6
CONTINUOUS
10
0.212620
20
-615.848005
30
0.0
11
0.009360
21
-605.557865
31
0.0
0
LINE
8
0
6
CONTINUOUS
10
0.036910
20
-608.934405
30
0.0
11
0.256170
21
-620.033115
31
0.0
0
LINE
8
0
6
CONTINUOUS
10
7.390160
20
-622.989425
30
0.0
11
7.149870
21
-613.621215
31
0.0
0
LINE
8
0
6
CONTINUOUS
10
0.463100
20
-625.614475
30
0.0
11
0.212620
21
-615.848005
31
0.0
0
LINE
8
0
6
CONTINUOUS
10
0.256170
20
-620.033115
30
0.0
11
0.525790
21
-630.547945
31
0.0
0
LINE
8
0
6
CONTINUOUS
10
7.682020
20
-632.032855
30
0.0
11
7.390160
21
-622.989425
31
0.0
0
LINE
8
0
6
CONTINUOUS
10
0.765920
20
-634.999085
30
0.0
11
0.463100
21
-625.614475
31
0.0
0
LINE
8
0
6
CONTINUOUS
10
0.525790
20
-630.547945
30
0.0
11
0.849190
21
-640.573885
31
0.0
0
LINE
8
0
6
CONTINUOUS
10
1.123440
20
-644.066315
30
0.0
11
0.765920
21
-634.999085
31
0.0
0
LINE
8
0
6
CONTINUOUS
10
0.849190
20
-640.573885
30
0.0
11
1.232960
21
-650.293425
31
0.0
0
LINE
8
0
6
CONTINUOUS
10
1.625850
20
-653.635325
30
0.0
11
1.123440
21
-644.066315
31
0.0
0
LINE
8
0
6
CONTINUOUS
10
1.232960
20
-650.293425
30
0.0
11
1.773170
21
-660.570225
31
0.0
0
LINE
8
0
6
CONTINUOUS
10
2.205220
20
-661.072385
30
0.0
11
1.625850
21
-653.635325
31
0.0
0
LINE
8
0
6
CONTINUOUS
10
1.773170
20
-660.570225
30
0.0
11
2.394960
21
-668.560335
31
0.0
0
LINE
8
0
6
CONTINUOUS
10
2.848200
20
-666.376575
30
0.0
11
2.205220
21
-661.072385
31
0.0
0
LINE
8
0
6
CONTINUOUS
10
2.394960
20
-668.560335
30
0.0
11
3.077410
21
-674.195025
31
0.0
0
LINE
8
0
6
CONTINUOUS
10
3.537740
20
-669.486695
30
0.0
11
2.848200
21
-666.376575
31
0.0
0
LINE
8
0
6
CONTINUOUS
10
3.077410
20
-674.195025
30
0.0
11
3.803840
21
-677.474055
31
0.0
0
LINE
8
0
6
CONTINUOUS
10
4.256530
20
-670.353085
30
0.0
11
3.537740
21
-669.486695
31
0.0
0
LINE
8
0
6
CONTINUOUS
10
3.803840
20
-677.474055
30
0.0
11
4.557800
21
-678.384015
31
0.0
0
LINE
8
0
6
CONTINUOUS
10
11.659190
20
-682.141875
30
0.0
11
18.459300
21
-677.868805
31
0.0
0
LINE
8
0
6
CONTINUOUS
10
18.459300
20
-677.868805
30
0.0
11
19.222240
21
-676.389235
31
0.0
0
LINE
8
0
6
CONTINUOUS
10
4.987180
20
-668.936085
30
0.0
11
4.256530
21
-670.353085
31
0.0
0
LINE
8
0
6
CONTINUOUS
10
4.557800
20
-678.384015
30
0.0
11
11.659190
21
-682.141875
31
0.0
0
LINE
8
0
6
CONTINUOUS
10
5.322950
20
-676.900105
30
0.0
11
4.557800
21
-678.384015
31
0.0
0
LINE
8
0
6
CONTINUOUS
10
11.659190
20
-682.141875
30
0.0
11
12.440490
21
-680.626605
31
0.0
0
LINE
8
0
6
CONTINUOUS
10
19.222240
20
-676.389235
30
0.0
11
19.979950
21
-672.489015
31
0.0
0
LINE
8
0
6
CONTINUOUS
10
5.712410
20
-665.204165
30
0.0
11
4.987180
21
-668.936085
31
0.0
0
LINE
8
0
6
CONTINUOUS
10
6.082900
20
-672.988355
30
0.0
11
5.322950
21
-676.900105
31
0.0
0
LINE
8
0
6
CONTINUOUS
10
12.440490
20
-680.626605
30
0.0
11
13.216670
21
-676.630705
31
0.0
0
LINE
8
0
6
CONTINUOUS
10
19.979950
20
-672.489015
30
0.0
11
20.715840
21
-666.127475
31
0.0
0
LINE
8
0
6
CONTINUOUS
10
6.415000
20
-659.132695
30
0.0
11
5.712410
21
-665.204165
31
0.0
0
LINE
8
0
6
CONTINUOUS
10
6.821060
20
-666.606905
30
0.0
11
6.082900
21
-672.988355
31
0.0
0
LINE
8
0
6
CONTINUOUS
10
13.216670
20
-676.630705
30
0.0
11
13.971480
21
-670.104295
31
0.0
0
LINE
8
0
6
CONTINUOUS
10
20.715840
20
-666.127475
30
0.0
11
21.413100
21
-657.257845
31
0.0
0
LINE
8
0
6
CONTINUOUS
10
7.077960
20
-650.702975
30
0.0
11
6.415000
21
-659.132695
31
0.0
0
LINE
8
0
6
CONTINUOUS
10
7.520690
20
-657.707215
30
0.0
11
6.821060
21
-666.606905
31
0.0
0
LINE
8
0
6
CONTINUOUS
10
13.971480
20
-670.104295
30
0.0
11
14.688250
21
-660.984645
31
0.0
0
LINE
8
0
6
CONTINUOUS
10
21.413100
20
-657.257845
30
0.0
11
22.052020
21
-645.883255
31
0.0
0
LINE
8
0
6
CONTINUOUS
10
7.687260
20
-639.846725
30
0.0
11
7.077960
21
-650.702975
31
0.0
0
LINE
8
0
6
CONTINUOUS
10
8.161620
20
-646.296995
30
0.0
11
7.520690
21
-657.707215
31
0.0
0
LINE
8
0
6
CONTINUOUS
10
14.688250
20
-660.984645
30
0.0
11
15.344010
21
-649.315265
31
0.0
0
LINE
8
0
6
CONTINUOUS
10
22.052020
20
-645.883255
30
0.0
11
22.440820
21
-637.149125
31
0.0
0
LINE
8
0
6
CONTINUOUS
10
8.055660
20
-631.563495
30
0.0
11
7.687260
21
-639.846725
31
0.0
0
LINE
8
0
6
CONTINUOUS
10
8.551830
20
-637.532045
30
0.0
11
8.161620
21
-646.296995
31
0.0
0
LINE
8
0
6
CONTINUOUS
10
15.344010
20
-649.315265
30
0.0
11
15.744410
21
-640.324855
31
0.0
0
LINE
8
0
6
CONTINUOUS
10
22.440820
20
-637.149125
30
0.0
11
22.788770
21
-627.989275
31
0.0
0
LINE
8
0
6
CONTINUOUS
10
8.386820
20
-622.848285
30
0.0
11
8.055660
21
-631.563495
31
0.0
0
LINE
8
0
6
CONTINUOUS
10
8.900930
20
-628.341675
30
0.0
11
8.551830
21
-637.532045
31
0.0
0
LINE
8
0
6
CONTINUOUS
10
15.744410
20
-640.324855
30
0.0
11
16.101910
21
-630.912245
31
0.0
0
LINE
8
0
6
CONTINUOUS
10
22.788770
20
-627.989275
30
0.0
11
23.097680
21
-618.236235
31
0.0
0
LINE
8
0
6
CONTINUOUS
10
8.678520
20
-613.641055
30
0.0
11
8.386820
21
-622.848285
31
0.0
0
LINE
8
0
6
CONTINUOUS
10
9.211020
20
-618.551255
30
0.0
11
8.900930
21
-628.341675
31
0.0
0
LINE
8
0
6
CONTINUOUS
10
16.101910
20
-630.912245
30
0.0
11
16.420590
21
-620.848845
31
0.0
0
LINE
8
0
6
CONTINUOUS
10
23.097680
20
-618.236235
30
0.0
11
23.366740
21
-607.780915
31
0.0
0
LINE
8
0
6
CONTINUOUS
10
8.931220
20
-603.823245
30
0.0
11
8.678520
21
-613.641055
31
0.0
0
LINE
8
0
6
CONTINUOUS
10
9.481200
20
-608.052135
30
0.0
11
9.211020
21
-618.551255
31
0.0
0
LINE
8
0
6
CONTINUOUS
10
16.420590
20
-620.848845
30
0.0
11
16.698950
21
-610.030975
31
0.0
0
LINE
8
0
6
CONTINUOUS
10
23.366740
20
-607.780915
30
0.0
11
23.595130
21
-596.522365
31
0.0
0
LINE
8
0
6
CONTINUOUS
10
9.145360
20
-593.268275
30
0.0
11
8.931220
21
-603.823245
31
0.0
0
LINE
8
0
6
CONTINUOUS
10
9.710570
20
-596.745375
30
0.0
11
9.481200
21
-608.052135
31
0.0
0
LINE
8
0
6
CONTINUOUS
10
16.698950
20
-610.030975
30
0.0
11
16.935450
21
-598.372425
31
0.0
0
LINE
8
0
6
CONTINUOUS
10
23.595130
20
-596.522365
30
0.0
11
23.782230
21
-584.365765
31
0.0
0
LINE
8
0
6
CONTINUOUS
10
9.321160
20
-581.843335
30
0.0
11
9.145360
21
-593.268275
31
0.0
0
LINE
8
0
6
CONTINUOUS
10
9.898440
20
-584.538725
30
0.0
11
9.710570
21
-596.745375
31
0.0
0
LINE
8
0
6
CONTINUOUS
10
16.935450
20
-598.372425
30
0.0
11
17.128970
21
-585.799945
31
0.0
0
LINE
8
0
6
CONTINUOUS
10
23.782230
20
-584.365765
30
0.0
11
23.927690
21
-571.218035
31
0.0
0
LINE
8
0
6
CONTINUOUS
10
9.458620
20
-569.413835
30
0.0
11
9.321160
21
-581.843335
31
0.0
0
LINE
8
0
6
CONTINUOUS
10
10.044440
20
-571.341705
30
0.0
11
9.898440
21
-584.538725
31
0.0
0
LINE
8
0
6
CONTINUOUS
10
17.128970
20
-585.799945
30
0.0
11
17.278980
21
-572.243725
31
0.0
0
LINE
8
0
6
CONTINUOUS
10
23.927690
20
-571.218035
30
0.0
11
24.031430
21
-556.982345
31
0.0
0
LINE
8
0
6
CONTINUOUS
10
9.557410
20
-555.848925
30
0.0
11
9.458620
21
-569.413835
31
0.0
0
LINE
8
0
6
CONTINUOUS
10
10.148530
20
-557.060015
30
0.0
11
10.044440
21
-571.341705
31
0.0
0
LINE
8
0
6
CONTINUOUS
10
17.278980
20
-572.243725
30
0.0
11
17.385540
21
-557.626725
31
0.0
0
LINE
8
0
6
CONTINUOUS
10
24.031430
20
-556.982345
30
0.0
11
24.093580
21
-541.556015
31
0.0
0
LINE
8
0
6
CONTINUOUS
10
9.617070
20
-541.023785
30
0.0
11
9.557410
21
-555.848925
31
0.0
0
LINE
8
0
6
CONTINUOUS
10
10.210840
20
-541.592485
30
0.0
11
10.148530
21
-557.060015
31
0.0
0
LINE
8
0
6
CONTINUOUS
10
17.385540
20
-557.626725
30
0.0
11
17.449090
21
-541.858595
31
0.0
0
LINE
8
0
6
CONTINUOUS
10
24.093580
20
-541.556015
30
0.0
11
24.114250
21
-524.887695
31
0.0
0
LINE
8
0
6
CONTINUOUS
10
9.637090
20
-524.762265
30
0.0
11
9.617070
21
-541.023785
31
0.0
0
LINE
8
0
6
CONTINUOUS
10
10.231560
20
-524.896315
30
0.0
11
10.210840
21
-541.592485
31
0.0
0
LINE
8
0
6
CONTINUOUS
10
17.449090
20
-541.858595
30
0.0
11
17.470140
21
-524.958955
31
0.0
0
LINE
8
0
6
CONTINUOUS
10
24.114250
20
-524.887695
30
0.0
11
24.114270
21
-495.005795
31
0.0
0
LINE
8
0
6
CONTINUOUS
10
9.637070
20
-495.005795
30
0.0
11
9.637090
21
-524.762265
31
0.0
0
LINE
8
0
6
CONTINUOUS
10
10.231580
20
-495.005795
30
0.0
11
10.231560
21
-524.896315
31
0.0
0
LINE
8
0
6
CONTINUOUS
10
17.470140
20
-524.958955
30
0.0
11
17.470180
21
-495.005795
31
0.0
0
LINE
8
0
6
CONTINUOUS
10
24.114270
20
-495.005795
30
0.0
11
24.114270
21
-438.552325
31
0.0
0
LINE
8
0
6
CONTINUOUS
10
9.637070
20
-438.552325
30
0.0
11
9.637070
21
-495.005795
31
0.0
0
LINE
8
0
6
CONTINUOUS
10
10.231580
20
-438.552325
30
0.0
11
10.231580
21
-495.005795
31
0.0
0
LINE
8
0
6
CONTINUOUS
10
17.470180
20
-495.005795
30
0.0
11
17.470180
21
-438.552325
31
0.0
0
LINE
8
0
6
CONTINUOUS
10
24.114270
20
-438.552325
30
0.0
11
24.114270
21
-362.051395
31
0.0
0
LINE
8
0
6
CONTINUOUS
10
9.637070
20
-362.051395
30
0.0
11
9.637070
21
-438.552325
31
0.0
0
LINE
8
0
6
CONTINUOUS
10
10.231580
20
-362.051395
30
0.0
11
10.231580
21
-438.552325
31
0.0
0
LINE
8
0
6
CONTINUOUS
10
17.470180
20
-438.552325
30
0.0
11
17.470180
21
-362.051395
31
0.0
0
LINE
8
0
6
CONTINUOUS
10
24.114270
20
-362.051395
30
0.0
11
24.114270
21
-272.090035
31
0.0
0
LINE
8
0
6
CONTINUOUS
10
9.637070
20
-272.090035
30
0.0
11
9.637070
21
-362.051395
31
0.0
0
LINE
8
0
6
CONTINUOUS
10
10.231580
20
-272.090035
30
0.0
11
10.231580
21
-362.051395
31
0.0
0
LINE
8
0
6
CONTINUOUS
10
17.470180
20
-362.051395
30
0.0
11
17.470180
21
-272.090035
31
0.0
0
LINE
8
0
6
CONTINUOUS
10
24.114270
20
-272.090035
30
0.0
11
24.114270
21
-175.255125
31
0.0
0
LINE
8
0
6
CONTINUOUS
10
9.637070
20
-175.255125
30
0.0
11
9.637070
21
-272.090035
31
0.0
0
LINE
8
0
6
CONTINUOUS
10
10.231580
20
-175.255125
30
0.0
11
10.231580
21
-272.090035
31
0.0
0
LINE
8
0
6
CONTINUOUS
10
17.470180
20
-272.090035
30
0.0
11
17.470180
21
-175.255125
31
0.0
0
LINE
8
0
6
CONTINUOUS
10
24.114270
20
-175.255125
30
0.0
11
24.114270
21
-78.133625
31
0.0
0
LINE
8
0
6
CONTINUOUS
10
9.637070
20
-78.133625
30
0.0
11
9.637070
21
-175.255125
31
0.0
0
LINE
8
0
6
CONTINUOUS
10
10.231580
20
-78.133625
30
0.0
11
10.231580
21
-175.255125
31
0.0
0
LINE
8
0
6
CONTINUOUS
10
17.470180
20
-175.255125
30
0.0
11
17.470180
21
-78.133625
31
0.0
0
LINE
8
0
6
CONTINUOUS
10
24.114270
20
-78.133625
30
0.0
11
24.114270
21
12.687585
31
0.0
0
LINE
8
0
6
CONTINUOUS
10
9.637070
20
12.687585
30
0.0
11
9.637070
21
-78.133625
31
0.0
0
LINE
8
0
6
CONTINUOUS
10
10.231580
20
12.687585
30
0.0
11
10.231580
21
-78.133625
31
0.0
0
LINE
8
0
6
CONTINUOUS
10
17.470180
20
-78.133625
30
0.0
11
17.470180
21
12.687585
31
0.0
0
LINE
8
0
6
CONTINUOUS
10
24.114270
20
12.687585
30
0.0
11
24.114270
21
90.621565
31
0.0
0
LINE
8
0
6
CONTINUOUS
10
9.637070
20
90.621565
30
0.0
11
9.637070
21
12.687585
31
0.0
0
LINE
8
0
6
CONTINUOUS
10
10.231580
20
90.621565
30
0.0
11
10.231580
21
12.687585
31
0.0
0
LINE
8
0
6
CONTINUOUS
10
17.470180
20
12.687585
30
0.0
11
17.470180
21
90.621565
31
0.0
0
LINE
8
0
6
CONTINUOUS
10
24.114270
20
90.621565
30
0.0
11
24.114270
21
149.081385
31
0.0
0
LINE
8
0
6
CONTINUOUS
10
9.637070
20
149.081385
30
0.0
11
9.637070
21
90.621565
31
0.0
0
LINE
8
0
6
CONTINUOUS
10
10.231580
20
149.081385
30
0.0
11
10.231580
21
90.621565
31
0.0
0
LINE
8
0
6
CONTINUOUS
10
17.470180
20
90.621565
30
0.0
11
17.470180
21
149.081385
31
0.0
0
LINE
8
0
6
CONTINUOUS
10
24.114270
20
149.081385
30
0.0
11
24.114070
21
181.534195
31
0.0
0
LINE
8
0
6
CONTINUOUS
10
9.637270
20
181.426235
30
0.0
11
9.637070
21
149.081385
31
0.0
0
LINE
8
0
6
CONTINUOUS
10
10.231770
20
181.430665
30
0.0
11
10.231580
21
149.081385
31
0.0
0
LINE
8
0
6
CONTINUOUS
10
17.470180
20
149.081385
30
0.0
11
17.470170
21
181.484645
31
0.0
0
LINE
8
0
6
CONTINUOUS
10
24.114070
20
181.534195
30
0.0
11
23.845460
21
199.494815
31
0.0
0
LINE
8
0
6
CONTINUOUS
10
9.374870
20
199.057615
30
0.0
11
9.637270
21
181.426235
31
0.0
0
LINE
8
0
6
CONTINUOUS
10
9.969110
20
199.075545
30
0.0
11
10.231770
21
181.430665
31
0.0
0
LINE
8
0
6
CONTINUOUS
10
17.470170
20
181.484645
30
0.0
11
17.204410
21
199.294165
31
0.0
0
LINE
8
0
6
CONTINUOUS
10
23.845460
20
199.494815
30
0.0
11
23.093280
21
216.018795
31
0.0
0
LINE
8
0
6
CONTINUOUS
10
8.642950
20
215.137065
30
0.0
11
9.374870
21
199.057615
31
0.0
0
LINE
8
0
6
CONTINUOUS
10
9.236360
20
215.173265
30
0.0
11
9.969110
21
199.075545
31
0.0
0
LINE
8
0
6
CONTINUOUS
10
17.204410
20
199.294165
30
0.0
11
16.461530
21
215.614125
31
0.0
0
LINE
8
0
6
CONTINUOUS
10
23.093280
20
216.018795
30
0.0
11
21.939250
21
231.095545
31
0.0
0
LINE
8
0
6
CONTINUOUS
10
7.523130
20
229.767035
30
0.0
11
8.642950
21
215.137065
31
0.0
0
LINE
8
0
6
CONTINUOUS
10
8.115140
20
229.821625
30
0.0
11
9.236360
21
215.173265
31
0.0
0
LINE
8
0
6
CONTINUOUS
10
16.461530
20
215.614125
30
0.0
11
15.323200
21
230.485845
31
0.0
0
LINE
8
0
6
CONTINUOUS
10
21.939250
20
231.095545
30
0.0
11
20.465200
21
244.768715
31
0.0
0
LINE
8
0
6
CONTINUOUS
10
6.096970
20
242.995755
30
0.0
11
7.523130
21
229.767035
31
0.0
0
LINE
8
0
6
CONTINUOUS
10
6.687010
20
243.068545
30
0.0
11
8.115140
21
229.821625
31
0.0
0
LINE
8
0
6
CONTINUOUS
10
15.323200
20
230.485845
30
0.0
11
13.871130
21
243.955045
31
0.0
0
LINE
8
0
6
CONTINUOUS
10
20.465200
20
244.768715
30
0.0
11
18.753320
21
257.081185
31
0.0
0
LINE
8
0
6
CONTINUOUS
10
4.445650
20
254.872135
30
0.0
11
6.096970
21
242.995755
31
0.0
0
LINE
8
0
6
CONTINUOUS
10
5.033210
20
254.962845
30
0.0
11
6.687010
21
243.068545
31
0.0
0
LINE
8
0
6
CONTINUOUS
10
13.871130
20
243.955045
30
0.0
11
12.187040
21
256.067355
31
0.0
0
LINE
8
0
6
CONTINUOUS
10
18.753320
20
257.081185
30
0.0
11
16.886340
21
268.074915
31
0.0
0
LINE
8
0
6
CONTINUOUS
10
2.649800
20
265.446125
30
0.0
11
4.445650
21
254.872135
31
0.0
0
LINE
8
0
6
CONTINUOUS
10
3.234440
20
265.554085
30
0.0
11
5.033210
21
254.962845
31
0.0
0
LINE
8
0
6
CONTINUOUS
10
12.187040
20
256.067355
30
0.0
11
10.352700
21
266.868475
31
0.0
0
LINE
8
0
6
CONTINUOUS
10
16.886340
20
268.074915
30
0.0
11
14.947810
21
277.790035
31
0.0
0
LINE
8
0
6
CONTINUOUS
10
0.789230
20
274.769405
30
0.0
11
2.649800
21
265.446125
31
0.0
0
LINE
8
0
6
CONTINUOUS
10
1.370670
20
274.893455
30
0.0
11
3.234440
21
265.554085
31
0.0
0
LINE
8
0
6
CONTINUOUS
10
10.352700
20
266.868475
30
0.0
11
8.449960
21
276.403775
31
0.0
0
LINE
8
0
6
CONTINUOUS
10
14.947810
20
277.790035
30
0.0
11
13.022540
21
286.264115
31
0.0
0
LINE
8
0
6
CONTINUOUS
10
-1.057470
20
282.896235
30
0.0
11
0.789230
21
274.769405
31
0.0
0
LINE
8
0
6
CONTINUOUS
10
-0.479270
20
283.034555
30
0.0
11
1.370670
21
274.893455
31
0.0
0
LINE
8
0
6
CONTINUOUS
10
8.449960
20
276.403775
30
0.0
11
6.560740
21
284.718475
31
0.0
0
LINE
8
0
6
CONTINUOUS
10
13.022540
20
286.264115
30
0.0
11
11.197340
21
293.529775
31
0.0
0
LINE
8
0
6
CONTINUOUS
10
-2.813790
20
289.885905
30
0.0
11
-1.057470
21
282.896235
31
0.0
0
LINE
8
0
6
CONTINUOUS
10
-2.238410
20
290.035555
30
0.0
11
-0.479270
21
283.034555
31
0.0
0
LINE
8
0
6
CONTINUOUS
10
6.560740
20
284.718475
30
0.0
11
4.767150
21
291.857495
31
0.0
0
LINE
8
0
6
CONTINUOUS
10
11.197340
20
293.529775
30
0.0
11
10.302078
21
296.858959
31
0.0
0
LINE
8
0
6
CONTINUOUS
10
-3.681510
20
293.112107
30
0.0
11
-2.813790
21
289.885905
31
0.0
0
LINE
8
0
6
CONTINUOUS
10
-3.107259
20
293.265981
30
0.0
11
-2.238410
21
290.035555
31
0.0
0
LINE
8
0
6
CONTINUOUS
10
4.767150
20
291.857495
30
0.0
11
3.884557
21
295.139311
31
0.0
0
LINE
8
0
6
CONTINUOUS
10
-2.224530
20
-365.108185
30
0.0
11
-4.473870
21
-365.108185
31
0.0
0
LINE
8
0
6
CONTINUOUS
10
-3.553740
20
-384.261775
30
0.0
11
-1.492680
21
-384.261935
31
0.0
0
LINE
8
0
6
CONTINUOUS
10
9.637070
20
-365.108185
30
0.0
11
5.724210
21
-365.108185
31
0.0
0
LINE
8
0
6
CONTINUOUS
10
5.790750
20
-384.261775
30
0.0
11
9.637070
21
-384.261925
31
0.0
0
LINE
8
0
6
CONTINUOUS
10
5.724210
20
-365.108185
30
0.0
11
1.356500
21
-365.108185
31
0.0
0
LINE
8
0
6
CONTINUOUS
10
1.788610
20
-384.261935
30
0.0
11
5.790750
21
-384.261775
31
0.0
0
LINE
8
0
6
CONTINUOUS
10
1.356500
20
-365.108185
30
0.0
11
-2.224530
21
-365.108185
31
0.0
0
LINE
8
0
6
CONTINUOUS
10
-1.492680
20
-384.261935
30
0.0
11
1.788610
21
-384.261935
31
0.0
0
LINE
8
0
6
CONTINUOUS
10
-4.473870
20
-365.108185
30
0.0
11
-5.048820
21
-365.108185
31
0.0
0
LINE
8
0
6
CONTINUOUS
10
-4.080590
20
-384.261935
30
0.0
11
-3.553740
21
-384.261775
31
0.0
0
LINE
8
0
6
CONTINUOUS
10
-5.048820
20
-365.108185
30
0.0
11
-4.080590
21
-384.261935
31
0.0
0
LINE
8
0
6
CONTINUOUS
10
1.575120
20
-363.608855
30
0.0
11
-1.854170
21
-363.608855
31
0.0
0
LINE
8
0
6
CONTINUOUS
10
-2.224530
20
-365.108185
30
0.0
11
1.356500
21
-365.108185
31
0.0
0
LINE
8
0
6
CONTINUOUS
10
9.637070
20
-384.261925
30
0.0
11
5.790750
21
-384.261775
31
0.0
0
LINE
8
0
6
CONTINUOUS
10
-1.492680
20
-384.261935
30
0.0
11
-3.553740
21
-384.261775
31
0.0
0
LINE
8
0
6
CONTINUOUS
10
-4.080590
20
-384.261935
30
0.0
11
-3.910260
21
-384.592595
31
0.0
0
LINE
8
0
6
CONTINUOUS
10
-3.553740
20
-384.261775
30
0.0
11
-4.080590
21
-384.261935
31
0.0
0
LINE
8
0
6
CONTINUOUS
10
1.788610
20
-384.261935
30
0.0
11
-1.492680
21
-384.261935
31
0.0
0
LINE
8
0
6
CONTINUOUS
10
5.790750
20
-384.261775
30
0.0
11
1.788610
21
-384.261935
31
0.0
0
LINE
8
0
6
CONTINUOUS
10
9.637070
20
-384.934085
30
0.0
11
5.790740
21
-384.934085
31
0.0
0
LINE
8
0
6
CONTINUOUS
10
5.790730
20
-385.850065
30
0.0
11
5.790740
21
-384.934085
31
0.0
0
LINE
8
0
6
CONTINUOUS
10
5.790740
20
-384.934085
30
0.0
11
1.788610
21
-384.934085
31
0.0
0
LINE
8
0
6
CONTINUOUS
10
-1.492680
20
-384.934085
30
0.0
11
-3.553750
21
-384.934085
31
0.0
0
LINE
8
0
6
CONTINUOUS
10
1.788610
20
-384.934085
30
0.0
11
-1.492680
21
-384.934085
31
0.0
0
LINE
8
0
6
CONTINUOUS
10
-3.553760
20
-385.850065
30
0.0
11
-3.553750
21
-384.934085
31
0.0
0
LINE
8
0
6
CONTINUOUS
10
-4.080590
20
-384.934085
30
0.0
11
-4.080610
21
-385.850065
31
0.0
0
LINE
8
0
6
CONTINUOUS
10
-3.553750
20
-384.934085
30
0.0
11
-4.080590
21
-384.934085
31
0.0
0
LINE
8
0
6
CONTINUOUS
10
-3.553750
20
-384.934085
30
0.0
11
-1.492680
21
-384.934085
31
0.0
0
LINE
8
0
6
CONTINUOUS
10
-1.363910
20
-384.592595
30
0.0
11
-3.391870
21
-384.592595
31
0.0
0
LINE
8
0
6
CONTINUOUS
10
1.788610
20
-384.934085
30
0.0
11
5.790740
21
-384.934085
31
0.0
0
LINE
8
0
6
CONTINUOUS
10
5.802510
20
-384.592595
30
0.0
11
1.864670
21
-384.592595
31
0.0
0
LINE
8
0
6
CONTINUOUS
10
-1.492680
20
-384.934085
30
0.0
11
1.788610
21
-384.934085
31
0.0
0
LINE
8
0
6
CONTINUOUS
10
1.864670
20
-384.592595
30
0.0
11
-1.363910
21
-384.592595
31
0.0
0
LINE
8
0
6
CONTINUOUS
10
-4.080590
20
-384.934085
30
0.0
11
-3.553750
21
-384.934085
31
0.0
0
LINE
8
0
6
CONTINUOUS
10
-3.910260
20
-384.592595
30
0.0
11
-4.080590
21
-384.934085
31
0.0
0
LINE
8
0
6
CONTINUOUS
10
-3.391870
20
-384.592595
30
0.0
11
-3.910260
21
-384.592595
31
0.0
0
LINE
8
0
6
CONTINUOUS
10
5.790740
20
-384.934085
30
0.0
11
9.637070
21
-384.934085
31
0.0
0
LINE
8
0
6
CONTINUOUS
10
9.637070
20
-384.592595
30
0.0
11
5.802510
21
-384.592595
31
0.0
0
LINE
8
0
6
CONTINUOUS
10
1.788590
20
-386.608275
30
0.0
11
5.790730
21
-386.608275
31
0.0
0
LINE
8
0
6
CONTINUOUS
10
-1.492680
20
-386.608275
30
0.0
11
1.788590
21
-386.608275
31
0.0
0
LINE
8
0
6
CONTINUOUS
10
-4.080610
20
-386.608275
30
0.0
11
-3.553760
21
-386.608275
31
0.0
0
LINE
8
0
6
CONTINUOUS
10
-4.080610
20
-385.850065
30
0.0
11
-4.080610
21
-386.608275
31
0.0
0
LINE
8
0
6
CONTINUOUS
10
-3.553760
20
-386.608275
30
0.0
11
-1.492680
21
-386.608275
31
0.0
0
LINE
8
0
6
CONTINUOUS
10
-3.553760
20
-385.850065
30
0.0
11
-3.553760
21
-386.608275
31
0.0
0
LINE
8
0
6
CONTINUOUS
10
5.790730
20
-386.608275
30
0.0
11
9.637070
21
-386.608275
31
0.0
0
LINE
8
0
6
CONTINUOUS
10
5.790730
20
-385.850065
30
0.0
11
5.790730
21
-386.608275
31
0.0
0
LINE
8
0
6
CONTINUOUS
10
-4.558780
20
-363.608855
30
0.0
11
-5.048820
21
-365.108185
31
0.0
0
LINE
8
0
6
CONTINUOUS
10
-4.008190
20
-363.608855
30
0.0
11
-4.558780
21
-363.608855
31
0.0
0
LINE
8
0
6
CONTINUOUS
10
-5.048820
20
-365.108185
30
0.0
11
-4.473870
21
-365.108185
31
0.0
0
LINE
8
0
6
CONTINUOUS
10
-1.854170
20
-363.608855
30
0.0
11
-4.008190
21
-363.608855
31
0.0
0
LINE
8
0
6
CONTINUOUS
10
-4.473870
20
-365.108185
30
0.0
11
-2.224530
21
-365.108185
31
0.0
0
LINE
8
0
6
CONTINUOUS
10
9.637070
20
-363.608855
30
0.0
11
5.757760
21
-363.608855
31
0.0
0
LINE
8
0
6
CONTINUOUS
10
5.724210
20
-365.108185
30
0.0
11
9.637070
21
-365.108185
31
0.0
0
LINE
8
0
6
CONTINUOUS
10
5.757760
20
-363.608855
30
0.0
11
1.575120
21
-363.608855
31
0.0
0
LINE
8
0
6
CONTINUOUS
10
1.356500
20
-365.108185
30
0.0
11
5.724210
21
-365.108185
31
0.0
0
LINE
8
0
6
CONTINUOUS
10
9.637070
20
-363.608855
30
0.0
11
7.288760
21
-363.608855
31
0.0
0
LINE
8
0
6
CONTINUOUS
10
7.288760
20
-363.608855
30
0.0
11
2.989610
21
-363.608855
31
0.0
0
LINE
8
0
6
CONTINUOUS
10
2.989610
20
-363.608855
30
0.0
11
-0.771630
21
-363.608855
31
0.0
0
LINE
8
0
6
CONTINUOUS
10
-0.771630
20
-363.608855
30
0.0
11
-3.422360
21
-363.608855
31
0.0
0
LINE
8
0
6
CONTINUOUS
10
-3.422360
20
-363.608855
30
0.0
11
-4.558780
21
-363.608855
31
0.0
0
LINE
8
0
6
CONTINUOUS
10
8.756380
20
298.885805
30
0.0
11
10.835144
21
299.442778
31
0.0
0
LINE
8
0
6
CONTINUOUS
10
5.422000
20
297.992325
30
0.0
11
1.605380
21
296.969715
31
0.0
0
LINE
8
0
6
CONTINUOUS
10
1.605380
20
296.969715
30
0.0
11
-2.107900
21
295.974695
31
0.0
0
LINE
8
0
6
CONTINUOUS
10
1.778690
20
296.322895
30
0.0
11
-1.934590
21
295.327875
31
0.0
0
LINE
8
0
6
CONTINUOUS
10
-5.632582
20
294.337002
30
0.0
11
-4.979070
21
294.512105
31
0.0
0
LINE
8
0
6
CONTINUOUS
10
-1.497680
20
293.697205
30
0.0
11
2.215610
21
294.692265
31
0.0
0
LINE
8
0
6
CONTINUOUS
10
-4.542140
20
292.881465
30
0.0
11
-1.497680
21
293.697205
31
0.0
0
LINE
8
0
6
CONTINUOUS
10
11.445802
20
297.165411
30
0.0
11
9.366600
21
296.608395
31
0.0
0
LINE
8
0
6
CONTINUOUS
10
-4.542140
20
292.881465
30
0.0
11
-5.195359
21
292.706457
31
0.0
0
LINE
8
0
6
CONTINUOUS
10
9.366600
20
296.608395
30
0.0
11
9.219140
21
297.158695
31
0.0
0
LINE
8
0
6
CONTINUOUS
10
9.366600
20
296.608395
30
0.0
11
6.032220
21
295.714875
31
0.0
0
LINE
8
0
6
CONTINUOUS
10
6.032220
20
295.714875
30
0.0
11
5.884760
21
296.265225
31
0.0
0
LINE
8
0
6
CONTINUOUS
10
2.215610
20
294.692265
30
0.0
11
6.032220
21
295.714875
31
0.0
0
LINE
8
0
6
CONTINUOUS
10
2.068140
20
295.242615
30
0.0
11
2.215610
21
294.692265
31
0.0
0
LINE
8
0
6
CONTINUOUS
10
5.412320
20
326.606975
30
0.0
11
2.686530
21
325.876655
31
0.0
0
LINE
8
0
6
CONTINUOUS
10
-13.721490
20
321.480105
30
0.0
11
-15.977430
21
320.875625
31
0.0
0
LINE
8
0
6
CONTINUOUS
10
-5.749430
20
323.616255
30
0.0
11
-10.129960
21
322.442475
31
0.0
0
LINE
8
0
6
CONTINUOUS
10
6.604190
20
326.926345
30
0.0
11
5.412320
21
326.606975
31
0.0
0
LINE
8
0
6
CONTINUOUS
10
6.758740
20
326.211585
30
0.0
11
6.604190
21
326.926345
31
0.0
0
LINE
8
0
6
CONTINUOUS
10
2.686530
20
325.876655
30
0.0
11
-1.246990
21
324.822655
31
0.0
0
LINE
8
0
6
CONTINUOUS
10
2.853480
20
325.165175
30
0.0
11
2.686530
21
325.876655
31
0.0
0
LINE
8
0
6
CONTINUOUS
10
-1.246990
20
324.822655
30
0.0
11
-1.067580
21
324.114535
31
0.0
0
LINE
8
0
6
CONTINUOUS
10
-10.129960
20
322.442475
30
0.0
11
-13.721490
21
321.480105
31
0.0
0
LINE
8
0
6
CONTINUOUS
10
-15.977430
20
320.875625
30
0.0
11
-16.554070
21
320.721055
31
0.0
0
LINE
8
0
6
CONTINUOUS
10
-16.554070
20
320.721055
30
0.0
11
-16.326180
21
320.025945
31
0.0
0
LINE
8
0
6
CONTINUOUS
10
-5.806012
20
294.983790
30
0.0
11
-5.152380
21
295.158925
31
0.0
0
LINE
8
0
6
CONTINUOUS
10
1.605380
20
296.969715
30
0.0
11
5.422000
21
297.992325
31
0.0
0
LINE
8
0
6
CONTINUOUS
10
-2.107900
20
295.974695
30
0.0
11
1.605380
21
296.969715
31
0.0
0
LINE
8
0
6
CONTINUOUS
10
7.634338
20
321.859422
30
0.0
11
6.758740
21
326.211585
31
0.0
0
LINE
8
0
6
CONTINUOUS
10
8.756380
20
298.885805
30
0.0
11
2.853480
21
325.165175
31
0.0
0
LINE
8
0
6
CONTINUOUS
10
5.422000
20
297.992325
30
0.0
11
8.756380
21
298.885805
31
0.0
0
LINE
8
0
6
CONTINUOUS
10
-1.067580
20
324.114535
30
0.0
11
5.422000
21
297.992325
31
0.0
0
LINE
8
0
6
CONTINUOUS
10
-5.152380
20
295.158925
30
0.0
11
-2.107900
21
295.974695
31
0.0
0
LINE
8
0
6
CONTINUOUS
10
-16.326180
20
320.025945
30
0.0
11
-14.881963
21
315.826240
31
0.0
0
LINE
8
0
6
CONTINUOUS
10
-5.721443
20
294.668398
30
0.0
11
-4.948400
21
294.875525
31
0.0
0
LINE
8
0
6
CONTINUOUS
10
-5.152380
20
295.158925
30
0.0
11
-5.806007
21
294.983791
31
0.0
0
LINE
8
0
6
CONTINUOUS
10
-2.107900
20
295.974695
30
0.0
11
-5.152380
21
295.158925
31
0.0
0
LINE
8
0
6
CONTINUOUS
10
10.835144
20
299.442778
30
0.0
11
8.756380
21
298.885805
31
0.0
0
LINE
8
0
6
CONTINUOUS
10
8.756380
20
298.885805
30
0.0
11
5.422000
21
297.992325
31
0.0
0
LINE
8
0
6
CONTINUOUS
10
8.929690
20
298.238985
30
0.0
11
5.595310
21
297.345505
31
0.0
0
LINE
8
0
6
CONTINUOUS
10
8.929690
20
298.238985
30
0.0
11
9.219140
21
297.158695
31
0.0
0
LINE
8
0
6
CONTINUOUS
10
11.008575
20
298.795991
30
0.0
11
8.929690
21
298.238985
31
0.0
0
LINE
8
0
6
CONTINUOUS
10
5.884760
20
296.265225
30
0.0
11
5.595310
21
297.345505
31
0.0
0
LINE
8
0
6
CONTINUOUS
10
1.778690
20
296.322895
30
0.0
11
2.068140
21
295.242615
31
0.0
0
LINE
8
0
6
CONTINUOUS
10
5.595310
20
297.345505
30
0.0
11
1.778690
21
296.322895
31
0.0
0
LINE
8
0
6
CONTINUOUS
10
-4.979070
20
294.512105
30
0.0
11
-5.632576
21
294.337003
31
0.0
0
LINE
8
0
6
CONTINUOUS
10
-1.934590
20
295.327875
30
0.0
11
-4.979070
21
294.512105
31
0.0
0
LINE
8
0
6
CONTINUOUS
10
-1.934590
20
295.327875
30
0.0
11
1.778690
21
296.322895
31
0.0
0
LINE
8
0
6
CONTINUOUS
10
1.700800
20
296.657255
30
0.0
11
-1.952830
21
295.678215
31
0.0
0
LINE
8
0
6
CONTINUOUS
10
-4.979070
20
294.512105
30
0.0
11
-1.934590
21
295.327875
31
0.0
0
LINE
8
0
6
CONTINUOUS
10
-1.952830
20
295.678215
30
0.0
11
-4.948400
21
294.875525
31
0.0
0
LINE
8
0
6
CONTINUOUS
10
5.595310
20
297.345505
30
0.0
11
8.929690
21
298.238985
31
0.0
0
LINE
8
0
6
CONTINUOUS
10
8.736050
20
298.542325
30
0.0
11
5.456020
21
297.663385
31
0.0
0
LINE
8
0
6
CONTINUOUS
10
1.778690
20
296.322895
30
0.0
11
5.595310
21
297.345505
31
0.0
0
LINE
8
0
6
CONTINUOUS
10
5.456020
20
297.663385
30
0.0
11
1.700800
21
296.657255
31
0.0
0
LINE
8
0
6
CONTINUOUS
10
8.929690
20
298.238985
30
0.0
11
11.008575
21
298.795991
31
0.0
0
LINE
8
0
6
CONTINUOUS
10
10.919714
20
299.127388
30
0.0
11
8.736050
21
298.542325
31
0.0
0
LINE
8
0
6
CONTINUOUS
10
-5.749430
20
323.616255
30
0.0
11
-1.246990
21
324.822655
31
0.0
0
LINE
8
0
6
CONTINUOUS
10
-59.026571
20
443.698019
30
0.0
11
-58.903892
21
443.688333
31
0.0
0
LINE
8
0
6
CONTINUOUS
10
-58.903892
20
443.688333
30
0.0
11
-58.813279
21
443.671747
31
0.0
0
LINE
8
0
6
CONTINUOUS
10
-57.488582
20
442.255523
30
0.0
11
-58.813279
21
443.671747
31
0.0
0
LINE
8
0
6
CONTINUOUS
10
-58.063859
20
449.330996
30
0.0
11
-58.274707
21
449.785539
31
0.0
0
LINE
8
0
6
CONTINUOUS
10
-48.593360
20
434.013484
30
0.0
11
-47.193118
21
432.686418
31
0.0
0
LINE
8
0
6
CONTINUOUS
10
-77.487942
20
479.325436
30
0.0
11
-77.354671
21
479.176426
31
0.0
0
LINE
8
0
6
CONTINUOUS
10
-89.275809
20
497.420285
30
0.0
11
-89.344446
21
497.555436
31
0.0
0
LINE
8
0
6
CONTINUOUS
10
-63.838821
20
458.191377
30
0.0
11
-64.494300
21
459.503438
31
0.0
0
LINE
8
0
6
CONTINUOUS
10
-92.034841
20
501.978472
30
0.0
11
-91.613584
21
501.073637
31
0.0
0
LINE
8
0
6
CONTINUOUS
10
-90.842269
20
498.673358
30
0.0
11
-90.898152
21
499.079370
31
0.0
0
LINE
8
0
6
CONTINUOUS
10
-89.344446
20
497.555436
30
0.0
11
-90.045591
21
499.059869
31
0.0
0
LINE
8
0
6
CONTINUOUS
10
-88.809213
20
495.380138
30
0.0
11
-88.676856
21
495.557511
31
0.0
0
LINE
8
0
6
CONTINUOUS
10
-64.596772
20
459.724253
30
0.0
11
-65.829338
21
461.247999
31
0.0
0
LINE
8
0
6
CONTINUOUS
10
-75.670040
20
475.510473
30
0.0
11
-75.675353
21
476.406096
31
0.0
0
LINE
8
0
6
CONTINUOUS
10
-77.354671
20
479.176426
30
0.0
11
-76.584202
21
478.313552
31
0.0
0
LINE
8
0
6
CONTINUOUS
10
-80.779480
20
483.494894
30
0.0
11
-80.980894
21
484.513882
31
0.0
0
LINE
8
0
6
CONTINUOUS
10
-80.980894
20
484.513882
30
0.0
11
-81.033169
21
484.770722
31
0.0
0
LINE
8
0
6
CONTINUOUS
10
-55.534150
20
444.661933
30
0.0
11
-54.499553
21
443.898242
31
0.0
0
LINE
8
0
6
CONTINUOUS
10
-52.858652
20
441.360258
30
0.0
11
-53.161768
21
442.247363
31
0.0
0
LINE
8
0
6
CONTINUOUS
10
-92.456625
20
502.275916
30
0.0
11
-92.571312
21
502.589600
31
0.0
0
LINE
8
0
6
CONTINUOUS
10
-63.016978
20
450.123936
30
0.0
11
-62.010609
21
449.201441
31
0.0
0
LINE
8
0
6
CONTINUOUS
10
-68.816290
20
458.993728
30
0.0
11
-68.277157
21
458.785623
31
0.0
0
LINE
8
0
6
CONTINUOUS
10
-92.224768
20
502.427947
30
0.0
11
-92.034841
21
501.978472
31
0.0
0
LINE
8
0
6
CONTINUOUS
10
-85.667052
20
491.890240
30
0.0
11
-86.559166
21
493.711323
31
0.0
0
LINE
8
0
6
CONTINUOUS
10
-85.208069
20
490.293160
30
0.0
11
-85.667052
21
491.890240
31
0.0
0
LINE
8
0
6
CONTINUOUS
10
-70.046995
20
466.893542
30
0.0
11
-69.811603
21
467.349947
31
0.0
0
LINE
8
0
6
CONTINUOUS
10
-70.706052
20
469.095441
30
0.0
11
-71.163263
21
469.617089
31
0.0
0
LINE
8
0
6
CONTINUOUS
10
-58.274707
20
449.785539
30
0.0
11
-58.613328
21
450.575106
31
0.0
0
LINE
8
0
6
CONTINUOUS
10
-58.613328
20
450.575106
30
0.0
11
-59.933868
21
452.212730
31
0.0
0
LINE
8
0
6
CONTINUOUS
10
11.364315
20
644.512485
30
0.0
11
12.091030
21
648.159485
31
0.0
0
LINE
8
0
6
CONTINUOUS
10
12.091030
20
648.159485
30
0.0
11
13.427080
21
650.158649
31
0.0
0
LINE
8
0
6
CONTINUOUS
10
12.094090
20
640.833895
30
0.0
11
11.364315
21
644.512485
31
0.0
0
LINE
8
0
6
CONTINUOUS
10
15.814380
20
654.080077
30
0.0
11
15.269265
21
653.409345
31
0.0
0
LINE
8
0
6
CONTINUOUS
10
-94.190919
20
508.091074
30
0.0
11
-94.759268
21
509.809576
31
0.0
0
LINE
8
0
6
CONTINUOUS
10
-88.057086
20
491.959347
30
0.0
11
-88.761817
21
493.381171
31
0.0
0
LINE
8
0
6
CONTINUOUS
10
-87.189752
20
489.586646
30
0.0
11
-87.271030
21
490.062033
31
0.0
0
LINE
8
0
6
CONTINUOUS
10
-84.948539
20
487.180498
30
0.0
11
-85.373350
21
487.956681
31
0.0
0
LINE
8
0
6
CONTINUOUS
10
-80.308531
20
480.067363
30
0.0
11
-81.314991
21
481.929738
31
0.0
0
LINE
8
0
6
CONTINUOUS
10
-81.935964
20
482.552715
30
0.0
11
-81.640382
21
482.239368
31
0.0
0
LINE
8
0
6
CONTINUOUS
10
-76.497564
20
474.211052
30
0.0
11
-75.568956
21
473.121740
31
0.0
0
LINE
8
0
6
CONTINUOUS
10
-64.825909
20
455.622134
30
0.0
11
-64.642049
21
455.527643
31
0.0
0
LINE
8
0
6
CONTINUOUS
10
-56.782943
20
444.026822
30
0.0
11
-56.939151
21
444.394158
31
0.0
0
LINE
8
0
6
CONTINUOUS
10
-53.213144
20
438.706939
30
0.0
11
-53.758065
21
439.407241
31
0.0
0
LINE
8
0
6
CONTINUOUS
10
-51.089665
20
434.339728
30
0.0
11
-52.420758
21
435.879585
31
0.0
0
LINE
8
0
6
CONTINUOUS
10
-50.896537
20
431.576969
30
0.0
11
-51.865278
21
433.478156
31
0.0
0
LINE
8
0
6
CONTINUOUS
10
-55.255155
20
438.151728
30
0.0
11
-55.867953
21
439.018137
31
0.0
0
LINE
8
0
6
CONTINUOUS
10
-89.799120
20
494.974532
30
0.0
11
-89.358144
21
493.995542
31
0.0
0
LINE
8
0
6
CONTINUOUS
10
-71.163263
20
469.617089
30
0.0
11
-71.813995
21
470.398829
31
0.0
0
LINE
8
0
6
CONTINUOUS
10
-92.260491
20
505.008532
30
0.0
11
-92.878764
21
506.957811
31
0.0
0
ENDSEC
0
EOF
