999
Erzeugt mit innoplus bad 
0
SECTION
2
HEADER
9
$ACADVER
1
AC1009
9
$DWGCODEPAGE
3
ISO8859-1
0
ENDSEC
0
SECTION
2
TABLES
0
TABLE
2
LAYER
70
1
0
LAYER
2
0
70
0
62
7
6
CONTINUOUS
0
ENDTAB
0
ENDSEC
0
SECTION
2
ENTITIES
0
LINE
8
0
6
CONTINUOUS
10
171.597405
20
20.528950
30
0.0
11
175.309615
21
20.528020
31
0.0
0
LINE
8
0
6
CONTINUOUS
10
163.272335
20
20.531010
30
0.0
11
171.597405
21
20.528950
31
0.0
0
LINE
8
0
6
CONTINUOUS
10
187.888385
20
63.279430
30
0.0
11
187.885655
21
63.974360
31
0.0
0
LINE
8
0
6
CONTINUOUS
10
151.409385
20
71.550620
30
0.0
11
42.328705
21
71.550610
31
0.0
0
LINE
8
0
6
CONTINUOUS
10
154.641555
20
73.894790
30
0.0
11
153.664115
21
72.978820
31
0.0
0
LINE
8
0
6
CONTINUOUS
10
154.162925
20
73.341100
30
0.0
11
152.889285
21
72.015380
31
0.0
0
LINE
8
0
6
CONTINUOUS
10
186.488135
20
75.150260
30
0.0
11
185.650105
21
75.150260
31
0.0
0
LINE
8
0
6
CONTINUOUS
10
151.409385
20
71.550620
30
0.0
11
149.658925
21
70.422600
31
0.0
0
LINE
8
0
6
CONTINUOUS
10
152.656885
20
72.159020
30
0.0
11
151.409385
21
71.550620
31
0.0
0
LINE
8
0
6
CONTINUOUS
10
153.664115
20
72.978820
30
0.0
11
152.656885
21
72.159020
31
0.0
0
LINE
8
0
6
CONTINUOUS
10
153.267395
20
68.203700
30
0.0
11
152.889285
21
72.015380
31
0.0
0
LINE
8
0
6
CONTINUOUS
10
155.473015
20
64.949360
30
0.0
11
153.267395
21
68.203700
31
0.0
0
LINE
8
0
6
CONTINUOUS
10
157.704085
20
61.676310
30
0.0
11
155.473015
21
64.949360
31
0.0
0
LINE
8
0
6
CONTINUOUS
10
30.465815
20
20.563990
30
0.0
11
163.272335
21
20.531010
31
0.0
0
LINE
8
0
6
CONTINUOUS
10
175.309615
20
20.528020
30
0.0
11
179.552125
21
20.526970
31
0.0
0
LINE
8
0
6
CONTINUOUS
10
154.464095
20
73.928180
30
0.0
11
154.162925
21
73.341100
31
0.0
0
LINE
8
0
6
CONTINUOUS
10
179.717335
20
75.150260
30
0.0
11
175.796325
21
75.150260
31
0.0
0
LINE
8
0
6
CONTINUOUS
10
175.796325
20
75.150260
30
0.0
11
171.597415
21
75.150260
31
0.0
0
LINE
8
0
6
CONTINUOUS
10
183.089715
20
75.150260
30
0.0
11
179.717335
21
75.150260
31
0.0
0
LINE
8
0
6
CONTINUOUS
10
183.142695
20
61.720430
30
0.0
11
185.733435
21
64.209430
31
0.0
0
LINE
8
0
6
CONTINUOUS
10
185.650105
20
75.150260
30
0.0
11
183.089715
21
75.150260
31
0.0
0
LINE
8
0
6
CONTINUOUS
10
187.326165
20
75.150260
30
0.0
11
186.488135
21
75.150260
31
0.0
0
LINE
8
0
6
CONTINUOUS
10
187.836375
20
75.150260
30
0.0
11
187.326165
21
75.150260
31
0.0
0
LINE
8
0
6
CONTINUOUS
10
187.843605
20
74.657580
30
0.0
11
187.836375
21
75.150260
31
0.0
0
LINE
8
0
6
CONTINUOUS
10
157.699965
20
75.150260
30
0.0
11
157.272315
21
75.150260
31
0.0
0
LINE
8
0
6
CONTINUOUS
10
157.272315
20
75.150260
30
0.0
11
155.066345
21
75.150260
31
0.0
0
LINE
8
0
6
CONTINUOUS
10
160.081125
20
75.150260
30
0.0
11
157.536785
21
75.150260
31
0.0
0
LINE
8
0
6
CONTINUOUS
10
163.444085
20
75.150260
30
0.0
11
160.081125
21
75.150260
31
0.0
0
LINE
8
0
6
CONTINUOUS
10
154.814995
20
75.150260
30
0.0
11
154.849105
21
74.737580
31
0.0
0
LINE
8
0
6
CONTINUOUS
10
155.318215
20
75.150260
30
0.0
11
154.814995
21
75.150260
31
0.0
0
LINE
8
0
6
CONTINUOUS
10
156.334625
20
75.150260
30
0.0
11
155.318215
21
75.150260
31
0.0
0
LINE
8
0
6
CONTINUOUS
10
154.814995
20
75.150260
30
0.0
11
155.853195
21
75.150250
31
0.0
0
LINE
8
0
6
CONTINUOUS
10
167.374935
20
75.150260
30
0.0
11
163.444085
21
75.150260
31
0.0
0
LINE
8
0
6
CONTINUOUS
10
157.971365
20
75.150260
30
0.0
11
156.334625
21
75.150260
31
0.0
0
LINE
8
0
6
CONTINUOUS
10
157.536785
20
75.150260
30
0.0
11
157.971365
21
75.150260
31
0.0
0
LINE
8
0
6
CONTINUOUS
10
155.853195
20
75.150250
30
0.0
11
157.536785
21
75.150260
31
0.0
0
LINE
8
0
6
CONTINUOUS
10
171.597415
20
75.150260
30
0.0
11
167.374935
21
75.150260
31
0.0
0
LINE
8
0
6
CONTINUOUS
10
171.597415
20
75.150260
30
0.0
11
157.699965
21
75.150260
31
0.0
0
LINE
8
0
6
CONTINUOUS
10
187.485175
20
63.722690
30
0.0
11
186.719785
21
63.714430
31
0.0
0
LINE
8
0
6
CONTINUOUS
10
188.287025
20
63.095120
30
0.0
11
187.485175
21
63.722690
31
0.0
0
LINE
8
0
6
CONTINUOUS
10
183.794625
20
20.525910
30
0.0
11
187.829285
21
20.524910
31
0.0
0
LINE
8
0
6
CONTINUOUS
10
179.552125
20
20.526970
30
0.0
11
183.794625
21
20.525910
31
0.0
0
LINE
8
0
6
CONTINUOUS
10
188.869025
20
49.886660
30
0.0
11
188.869025
21
54.549630
31
0.0
0
LINE
8
0
6
CONTINUOUS
10
188.869025
20
44.777250
30
0.0
11
188.869025
21
49.886660
31
0.0
0
LINE
8
0
6
CONTINUOUS
10
185.738455
20
63.523170
30
0.0
11
183.142695
21
61.720430
31
0.0
0
LINE
8
0
6
CONTINUOUS
10
186.719785
20
63.714430
30
0.0
11
185.738455
21
63.523170
31
0.0
0
LINE
8
0
6
CONTINUOUS
10
171.595195
20
58.064040
30
0.0
11
175.548275
21
59.323540
31
0.0
0
LINE
8
0
6
CONTINUOUS
10
185.733435
20
64.209430
30
0.0
11
185.657055
21
74.660620
31
0.0
0
LINE
8
0
6
CONTINUOUS
10
183.050915
20
62.219260
30
0.0
11
185.733435
21
64.209430
31
0.0
0
LINE
8
0
6
CONTINUOUS
10
175.548275
20
59.323540
30
0.0
11
179.364755
21
60.892580
31
0.0
0
LINE
8
0
6
CONTINUOUS
10
183.050915
20
62.219260
30
0.0
11
183.086945
21
74.658220
31
0.0
0
LINE
8
0
6
CONTINUOUS
10
179.364755
20
60.892580
30
0.0
11
183.050915
21
62.219260
31
0.0
0
LINE
8
0
6
CONTINUOUS
10
163.425305
20
60.716180
30
0.0
11
167.336765
21
58.900750
31
0.0
0
LINE
8
0
6
CONTINUOUS
10
157.679935
20
67.334620
30
0.0
11
160.235495
21
63.682550
31
0.0
0
LINE
8
0
6
CONTINUOUS
10
154.849105
20
74.737580
30
0.0
11
154.464095
21
73.928180
31
0.0
0
LINE
8
0
6
CONTINUOUS
10
187.885655
20
63.974360
30
0.0
11
187.843605
21
74.657580
31
0.0
0
LINE
8
0
6
CONTINUOUS
10
167.336765
20
58.900750
30
0.0
11
171.595195
21
58.064040
31
0.0
0
LINE
8
0
6
CONTINUOUS
10
18.428485
20
20.566990
30
0.0
11
22.140735
21
20.566060
31
0.0
0
LINE
8
0
6
CONTINUOUS
10
22.140735
20
20.566060
30
0.0
11
30.465815
21
20.563990
31
0.0
0
LINE
8
0
6
CONTINUOUS
10
5.852435
20
63.974360
30
0.0
11
5.849705
21
63.279430
31
0.0
0
LINE
8
0
6
CONTINUOUS
10
40.073965
20
72.978820
30
0.0
11
39.096535
21
73.894790
31
0.0
0
LINE
8
0
6
CONTINUOUS
10
40.848795
20
72.015380
30
0.0
11
39.575155
21
73.341080
31
0.0
0
LINE
8
0
6
CONTINUOUS
10
4.869065
20
62.557150
30
0.0
11
4.869065
21
61.091920
31
0.0
0
LINE
8
0
6
CONTINUOUS
10
8.087985
20
75.150260
30
0.0
11
7.249955
21
75.150260
31
0.0
0
LINE
8
0
6
CONTINUOUS
10
42.328705
20
71.550610
30
0.0
11
41.081205
21
72.159020
31
0.0
0
LINE
8
0
6
CONTINUOUS
10
44.079165
20
70.422600
30
0.0
11
42.328705
21
71.550610
31
0.0
0
LINE
8
0
6
CONTINUOUS
10
41.081205
20
72.159020
30
0.0
11
40.073965
21
72.978820
31
0.0
0
LINE
8
0
6
CONTINUOUS
10
40.848795
20
72.015380
30
0.0
11
40.470745
21
68.203740
31
0.0
0
LINE
8
0
6
CONTINUOUS
10
40.470745
20
68.203740
30
0.0
11
38.265075
21
64.949390
31
0.0
0
LINE
8
0
6
CONTINUOUS
10
38.265075
20
64.949390
30
0.0
11
36.034005
21
61.676300
31
0.0
0
LINE
8
0
6
CONTINUOUS
10
14.185915
20
20.568040
30
0.0
11
18.428485
21
20.566990
31
0.0
0
LINE
8
0
6
CONTINUOUS
10
39.575155
20
73.341080
30
0.0
11
39.273945
21
73.928150
31
0.0
0
LINE
8
0
6
CONTINUOUS
10
17.941765
20
75.150260
30
0.0
11
14.020755
21
75.150260
31
0.0
0
LINE
8
0
6
CONTINUOUS
10
22.140675
20
75.150260
30
0.0
11
17.941765
21
75.150260
31
0.0
0
LINE
8
0
6
CONTINUOUS
10
14.020755
20
75.150260
30
0.0
11
10.648375
21
75.150260
31
0.0
0
LINE
8
0
6
CONTINUOUS
10
10.648375
20
75.150260
30
0.0
11
8.087985
21
75.150260
31
0.0
0
LINE
8
0
6
CONTINUOUS
10
7.249955
20
75.150260
30
0.0
11
6.411925
21
75.150260
31
0.0
0
LINE
8
0
6
CONTINUOUS
10
5.901715
20
75.150260
30
0.0
11
5.894485
21
74.657580
31
0.0
0
LINE
8
0
6
CONTINUOUS
10
6.411925
20
75.150260
30
0.0
11
5.901715
21
75.150260
31
0.0
0
LINE
8
0
6
CONTINUOUS
10
38.671745
20
75.150260
30
0.0
11
36.465775
21
75.150260
31
0.0
0
LINE
8
0
6
CONTINUOUS
10
36.465775
20
75.150260
30
0.0
11
36.038125
21
75.150260
31
0.0
0
LINE
8
0
6
CONTINUOUS
10
36.201305
20
75.150260
30
0.0
11
33.656965
21
75.150260
31
0.0
0
LINE
8
0
6
CONTINUOUS
10
33.656965
20
75.150260
30
0.0
11
30.294005
21
75.150260
31
0.0
0
LINE
8
0
6
CONTINUOUS
10
38.888985
20
74.737580
30
0.0
11
38.923095
21
75.150260
31
0.0
0
LINE
8
0
6
CONTINUOUS
10
37.884895
20
75.150250
30
0.0
11
38.923095
21
75.150260
31
0.0
0
LINE
8
0
6
CONTINUOUS
10
38.419875
20
75.150260
30
0.0
11
37.403465
21
75.150260
31
0.0
0
LINE
8
0
6
CONTINUOUS
10
38.923095
20
75.150260
30
0.0
11
38.419875
21
75.150260
31
0.0
0
LINE
8
0
6
CONTINUOUS
10
30.294005
20
75.150260
30
0.0
11
26.363155
21
75.150260
31
0.0
0
LINE
8
0
6
CONTINUOUS
10
36.201305
20
75.150260
30
0.0
11
37.884895
21
75.150250
31
0.0
0
LINE
8
0
6
CONTINUOUS
10
35.766725
20
75.150260
30
0.0
11
36.201305
21
75.150260
31
0.0
0
LINE
8
0
6
CONTINUOUS
10
37.403465
20
75.150260
30
0.0
11
35.766725
21
75.150260
31
0.0
0
LINE
8
0
6
CONTINUOUS
10
26.363155
20
75.150260
30
0.0
11
22.140675
21
75.150260
31
0.0
0
LINE
8
0
6
CONTINUOUS
10
36.038125
20
75.150260
30
0.0
11
22.140675
21
75.150260
31
0.0
0
LINE
8
0
6
CONTINUOUS
10
7.882855
20
63.681950
30
0.0
11
7.991515
21
64.227300
31
0.0
0
LINE
8
0
6
CONTINUOUS
10
6.252915
20
63.722690
30
0.0
11
5.451065
21
63.095120
31
0.0
0
LINE
8
0
6
CONTINUOUS
10
7.018305
20
63.714430
30
0.0
11
6.252915
21
63.722690
31
0.0
0
LINE
8
0
6
CONTINUOUS
10
5.909405
20
20.570100
30
0.0
11
9.943315
21
20.569090
31
0.0
0
LINE
8
0
6
CONTINUOUS
10
9.943315
20
20.569090
30
0.0
11
14.185915
21
20.568040
31
0.0
0
LINE
8
0
6
CONTINUOUS
10
4.869065
20
39.912910
30
0.0
11
4.869065
21
34.907770
31
0.0
0
LINE
8
0
6
CONTINUOUS
10
4.869065
20
44.770270
30
0.0
11
4.869065
21
39.912910
31
0.0
0
LINE
8
0
6
CONTINUOUS
10
4.869065
20
49.868580
30
0.0
11
4.869065
21
44.770270
31
0.0
0
LINE
8
0
6
CONTINUOUS
10
4.869065
20
34.907770
30
0.0
11
4.869065
21
30.308870
31
0.0
0
LINE
8
0
6
CONTINUOUS
10
4.869065
20
61.091920
30
0.0
11
4.869065
21
58.336720
31
0.0
0
LINE
8
0
6
CONTINUOUS
10
5.923145
20
58.208590
30
0.0
11
7.882855
21
63.681950
31
0.0
0
LINE
8
0
6
CONTINUOUS
10
6.088745
20
61.399680
30
0.0
11
5.923145
21
58.208590
31
0.0
0
LINE
8
0
6
CONTINUOUS
10
7.882855
20
63.681950
30
0.0
11
7.018305
21
63.714430
31
0.0
0
LINE
8
0
6
CONTINUOUS
10
18.184105
20
59.325020
30
0.0
11
22.142895
21
58.064040
31
0.0
0
LINE
8
0
6
CONTINUOUS
10
7.991515
20
64.227300
30
0.0
11
10.682635
21
62.219080
31
0.0
0
LINE
8
0
6
CONTINUOUS
10
8.081035
20
74.660620
30
0.0
11
7.991515
21
64.227300
31
0.0
0
LINE
8
0
6
CONTINUOUS
10
14.373325
20
60.892580
30
0.0
11
18.184105
21
59.325020
31
0.0
0
LINE
8
0
6
CONTINUOUS
10
10.682635
20
62.219080
30
0.0
11
14.373325
21
60.892580
31
0.0
0
LINE
8
0
6
CONTINUOUS
10
10.651145
20
74.658220
30
0.0
11
10.682635
21
62.219080
31
0.0
0
LINE
8
0
6
CONTINUOUS
10
26.401315
20
58.900750
30
0.0
11
30.312795
21
60.716180
31
0.0
0
LINE
8
0
6
CONTINUOUS
10
33.502575
20
63.682520
30
0.0
11
36.058175
21
67.334640
31
0.0
0
LINE
8
0
6
CONTINUOUS
10
39.273945
20
73.928150
30
0.0
11
38.888985
21
74.737580
31
0.0
0
LINE
8
0
6
CONTINUOUS
10
5.894485
20
74.657580
30
0.0
11
5.852435
21
63.974360
31
0.0
0
LINE
8
0
6
CONTINUOUS
10
22.142895
20
58.064040
30
0.0
11
26.401315
21
58.900750
31
0.0
0
LINE
8
0
6
CONTINUOUS
10
188.287025
20
63.095120
30
0.0
11
187.649345
21
61.399680
31
0.0
0
LINE
8
0
6
CONTINUOUS
10
188.869025
20
61.134430
30
0.0
11
188.869025
21
62.602850
31
0.0
0
LINE
8
0
6
CONTINUOUS
10
188.869025
20
62.602850
30
0.0
11
188.490445
21
62.955310
31
0.0
0
LINE
8
0
6
CONTINUOUS
10
188.287025
20
63.095120
30
0.0
11
188.869025
21
62.602850
31
0.0
0
LINE
8
0
6
CONTINUOUS
10
188.490445
20
62.955310
30
0.0
11
188.287025
21
63.095120
31
0.0
0
LINE
8
0
6
CONTINUOUS
10
188.869025
20
54.549630
30
0.0
11
188.869025
21
58.373240
31
0.0
0
LINE
8
0
6
CONTINUOUS
10
188.869025
20
34.893270
30
0.0
11
188.869025
21
39.909310
31
0.0
0
LINE
8
0
6
CONTINUOUS
10
188.869025
20
23.192160
30
0.0
11
188.869025
21
26.315540
31
0.0
0
LINE
8
0
6
CONTINUOUS
10
188.869025
20
39.909310
30
0.0
11
188.869025
21
44.777250
31
0.0
0
LINE
8
0
6
CONTINUOUS
10
188.869025
20
26.315540
30
0.0
11
188.869025
21
30.284370
31
0.0
0
LINE
8
0
6
CONTINUOUS
10
187.829285
20
20.524910
30
0.0
11
188.869025
21
20.524650
31
0.0
0
LINE
8
0
6
CONTINUOUS
10
188.869025
20
20.524650
30
0.0
11
188.869025
21
21.246160
31
0.0
0
LINE
8
0
6
CONTINUOUS
10
188.869025
20
30.284370
30
0.0
11
188.869025
21
34.893270
31
0.0
0
LINE
8
0
6
CONTINUOUS
10
188.869025
20
21.246160
30
0.0
11
188.869025
21
23.192160
31
0.0
0
LINE
8
0
6
CONTINUOUS
10
187.649345
20
61.399680
30
0.0
11
187.815345
21
58.229950
31
0.0
0
LINE
8
0
6
CONTINUOUS
10
188.869025
20
58.373240
30
0.0
11
188.869025
21
61.134430
31
0.0
0
LINE
8
0
6
CONTINUOUS
10
5.247645
20
62.955310
30
0.0
11
4.869065
21
62.557150
31
0.0
0
LINE
8
0
6
CONTINUOUS
10
5.451065
20
63.095120
30
0.0
11
5.247645
21
62.955310
31
0.0
0
LINE
8
0
6
CONTINUOUS
10
4.869065
20
62.557150
30
0.0
11
5.451065
21
63.095120
31
0.0
0
LINE
8
0
6
CONTINUOUS
10
4.869065
20
58.336720
30
0.0
11
4.869065
21
54.521420
31
0.0
0
LINE
8
0
6
CONTINUOUS
10
4.869065
20
54.521420
30
0.0
11
4.869065
21
49.868580
31
0.0
0
LINE
8
0
6
CONTINUOUS
10
4.869065
20
26.348660
30
0.0
11
4.869065
21
23.232060
31
0.0
0
LINE
8
0
6
CONTINUOUS
10
4.869065
20
30.308870
30
0.0
11
4.869065
21
26.348660
31
0.0
0
LINE
8
0
6
CONTINUOUS
10
4.869065
20
21.290280
30
0.0
11
4.869065
21
20.570350
31
0.0
0
LINE
8
0
6
CONTINUOUS
10
4.869065
20
20.570350
30
0.0
11
5.909405
21
20.570100
31
0.0
0
LINE
8
0
6
CONTINUOUS
10
4.869065
20
23.232060
30
0.0
11
4.869065
21
21.290280
31
0.0
0
LINE
8
0
6
CONTINUOUS
10
184.687795
20
79.750040
30
0.0
11
186.071825
21
79.750040
31
0.0
0
LINE
8
0
6
CONTINUOUS
10
182.552415
20
80.571990
30
0.0
11
177.735645
21
80.494820
31
0.0
0
LINE
8
0
6
CONTINUOUS
10
177.341805
20
80.422800
30
0.0
11
177.735645
21
80.494820
31
0.0
0
LINE
8
0
6
CONTINUOUS
10
177.735645
20
80.494820
30
0.0
11
177.735645
21
80.856570
31
0.0
0
LINE
8
0
6
CONTINUOUS
10
182.552415
20
80.926110
30
0.0
11
182.552415
21
80.571990
31
0.0
0
LINE
8
0
6
CONTINUOUS
10
182.552415
20
80.571990
30
0.0
11
182.758835
21
80.492530
31
0.0
0
LINE
8
0
6
CONTINUOUS
10
173.661325
20
79.750050
30
0.0
11
184.687795
21
79.750040
31
0.0
0
LINE
8
0
6
CONTINUOUS
10
177.341805
20
80.422800
30
0.0
11
173.661325
21
79.750050
31
0.0
0
LINE
8
0
6
CONTINUOUS
10
184.687795
20
79.750040
30
0.0
11
182.758835
21
80.492530
31
0.0
0
LINE
8
0
6
CONTINUOUS
10
182.552415
20
80.926110
30
0.0
11
182.552415
21
87.289640
31
0.0
0
LINE
8
0
6
CONTINUOUS
10
177.735645
20
87.289640
30
0.0
11
177.735645
21
80.856570
31
0.0
0
LINE
8
0
6
CONTINUOUS
10
166.617515
20
80.572000
30
0.0
11
161.898965
21
80.494830
31
0.0
0
LINE
8
0
6
CONTINUOUS
10
161.702045
20
80.422810
30
0.0
11
161.898965
21
80.494830
31
0.0
0
LINE
8
0
6
CONTINUOUS
10
161.898965
20
80.494830
30
0.0
11
161.898965
21
80.856580
31
0.0
0
LINE
8
0
6
CONTINUOUS
10
166.617515
20
80.926120
30
0.0
11
166.617515
21
80.572000
31
0.0
0
LINE
8
0
6
CONTINUOUS
10
166.617515
20
80.572000
30
0.0
11
167.030355
21
80.492540
31
0.0
0
LINE
8
0
6
CONTINUOUS
10
159.861795
20
79.750050
30
0.0
11
170.888275
21
79.750050
31
0.0
0
LINE
8
0
6
CONTINUOUS
10
161.702045
20
80.422810
30
0.0
11
159.861795
21
79.750050
31
0.0
0
LINE
8
0
6
CONTINUOUS
10
170.888275
20
79.750050
30
0.0
11
167.030355
21
80.492540
31
0.0
0
LINE
8
0
6
CONTINUOUS
10
166.617515
20
80.926120
30
0.0
11
166.617515
21
87.289640
31
0.0
0
LINE
8
0
6
CONTINUOUS
10
161.898965
20
87.289640
30
0.0
11
161.898965
21
80.856580
31
0.0
0
LINE
8
0
6
CONTINUOUS
10
156.435635
20
80.494830
30
0.0
11
156.632555
21
80.422810
31
0.0
0
LINE
8
0
6
CONTINUOUS
10
156.337415
20
80.572000
30
0.0
11
156.435635
21
80.494830
31
0.0
0
LINE
8
0
6
CONTINUOUS
10
156.337415
20
80.926120
30
0.0
11
156.337415
21
80.572000
31
0.0
0
LINE
8
0
6
CONTINUOUS
10
156.337415
20
80.572000
30
0.0
11
156.543825
21
80.492540
31
0.0
0
LINE
8
0
6
CONTINUOUS
10
156.337405
20
87.289640
30
0.0
11
156.337415
21
80.926120
31
0.0
0
LINE
8
0
6
CONTINUOUS
10
156.632555
20
80.422810
30
0.0
11
158.472785
21
79.750050
31
0.0
0
LINE
8
0
6
CONTINUOUS
10
158.472785
20
79.750050
30
0.0
11
156.543825
21
80.492540
31
0.0
0
LINE
8
0
6
CONTINUOUS
10
188.207205
20
80.571990
30
0.0
11
188.207205
21
80.926110
31
0.0
0
LINE
8
0
6
CONTINUOUS
10
188.108995
20
80.494820
30
0.0
11
188.207205
21
80.571990
31
0.0
0
LINE
8
0
6
CONTINUOUS
10
187.912055
20
80.422800
30
0.0
11
188.108995
21
80.494820
31
0.0
0
LINE
8
0
6
CONTINUOUS
10
188.108995
20
80.494820
30
0.0
11
188.108995
21
80.856570
31
0.0
0
LINE
8
0
6
CONTINUOUS
10
188.207205
20
80.926110
30
0.0
11
188.207205
21
87.289640
31
0.0
0
LINE
8
0
6
CONTINUOUS
10
188.108995
20
87.289640
30
0.0
11
188.108995
21
80.856570
31
0.0
0
LINE
8
0
6
CONTINUOUS
10
170.888275
20
79.750050
30
0.0
11
173.661325
21
79.750050
31
0.0
0
LINE
8
0
6
CONTINUOUS
10
158.472785
20
79.750050
30
0.0
11
159.861795
21
79.750050
31
0.0
0
LINE
8
0
6
CONTINUOUS
10
186.071825
20
79.750040
30
0.0
11
187.912055
21
80.422800
31
0.0
0
LINE
8
0
6
CONTINUOUS
10
186.071825
20
94.829240
30
0.0
11
184.687795
21
94.829240
31
0.0
0
LINE
8
0
6
CONTINUOUS
10
177.735645
20
94.084460
30
0.0
11
182.552415
21
94.007290
31
0.0
0
LINE
8
0
6
CONTINUOUS
10
177.735645
20
93.722710
30
0.0
11
177.735645
21
94.084460
31
0.0
0
LINE
8
0
6
CONTINUOUS
10
177.735645
20
94.084460
30
0.0
11
177.341805
21
94.156480
31
0.0
0
LINE
8
0
6
CONTINUOUS
10
182.758835
20
94.086750
30
0.0
11
182.552415
21
94.007290
31
0.0
0
LINE
8
0
6
CONTINUOUS
10
182.552415
20
94.007290
30
0.0
11
182.552415
21
93.653170
31
0.0
0
LINE
8
0
6
CONTINUOUS
10
182.758835
20
94.086750
30
0.0
11
184.687795
21
94.829240
31
0.0
0
LINE
8
0
6
CONTINUOUS
10
173.661325
20
94.829240
30
0.0
11
177.341805
21
94.156480
31
0.0
0
LINE
8
0
6
CONTINUOUS
10
184.687795
20
94.829240
30
0.0
11
173.661325
21
94.829240
31
0.0
0
LINE
8
0
6
CONTINUOUS
10
177.735645
20
93.722710
30
0.0
11
177.735645
21
87.289640
31
0.0
0
LINE
8
0
6
CONTINUOUS
10
182.552415
20
87.289640
30
0.0
11
182.552415
21
93.653170
31
0.0
0
LINE
8
0
6
CONTINUOUS
10
161.898965
20
94.084460
30
0.0
11
166.617515
21
94.007290
31
0.0
0
LINE
8
0
6
CONTINUOUS
10
161.898965
20
93.722710
30
0.0
11
161.898965
21
94.084460
31
0.0
0
LINE
8
0
6
CONTINUOUS
10
161.898965
20
94.084460
30
0.0
11
161.702045
21
94.156480
31
0.0
0
LINE
8
0
6
CONTINUOUS
10
167.030355
20
94.086750
30
0.0
11
166.617515
21
94.007290
31
0.0
0
LINE
8
0
6
CONTINUOUS
10
166.617515
20
94.007290
30
0.0
11
166.617515
21
93.653170
31
0.0
0
LINE
8
0
6
CONTINUOUS
10
167.030355
20
94.086750
30
0.0
11
170.888275
21
94.829240
31
0.0
0
LINE
8
0
6
CONTINUOUS
10
159.861795
20
94.829240
30
0.0
11
161.702045
21
94.156480
31
0.0
0
LINE
8
0
6
CONTINUOUS
10
170.888275
20
94.829240
30
0.0
11
159.861795
21
94.829240
31
0.0
0
LINE
8
0
6
CONTINUOUS
10
161.898965
20
93.722710
30
0.0
11
161.898965
21
87.289640
31
0.0
0
LINE
8
0
6
CONTINUOUS
10
166.617515
20
87.289640
30
0.0
11
166.617515
21
93.653170
31
0.0
0
LINE
8
0
6
CONTINUOUS
10
156.435635
20
94.084460
30
0.0
11
156.337415
21
94.007290
31
0.0
0
LINE
8
0
6
CONTINUOUS
10
156.632555
20
94.156480
30
0.0
11
156.435635
21
94.084460
31
0.0
0
LINE
8
0
6
CONTINUOUS
10
156.543825
20
94.086750
30
0.0
11
156.337415
21
94.007290
31
0.0
0
LINE
8
0
6
CONTINUOUS
10
156.337415
20
94.007290
30
0.0
11
156.337415
21
93.653170
31
0.0
0
LINE
8
0
6
CONTINUOUS
10
156.337415
20
93.653170
30
0.0
11
156.337405
21
87.289640
31
0.0
0
LINE
8
0
6
CONTINUOUS
10
158.472785
20
94.829240
30
0.0
11
156.632555
21
94.156480
31
0.0
0
LINE
8
0
6
CONTINUOUS
10
156.543825
20
94.086750
30
0.0
11
158.472785
21
94.829240
31
0.0
0
LINE
8
0
6
CONTINUOUS
10
188.207205
20
94.007280
30
0.0
11
188.108995
21
94.084450
31
0.0
0
LINE
8
0
6
CONTINUOUS
10
188.207205
20
93.653160
30
0.0
11
188.207205
21
94.007280
31
0.0
0
LINE
8
0
6
CONTINUOUS
10
188.108995
20
93.722710
30
0.0
11
188.108995
21
94.084450
31
0.0
0
LINE
8
0
6
CONTINUOUS
10
188.108995
20
94.084450
30
0.0
11
187.912055
21
94.156470
31
0.0
0
LINE
8
0
6
CONTINUOUS
10
188.108995
20
93.722710
30
0.0
11
188.108995
21
87.289640
31
0.0
0
LINE
8
0
6
CONTINUOUS
10
188.207205
20
87.289640
30
0.0
11
188.207205
21
93.653160
31
0.0
0
LINE
8
0
6
CONTINUOUS
10
173.661325
20
94.829240
30
0.0
11
170.888275
21
94.829240
31
0.0
0
LINE
8
0
6
CONTINUOUS
10
159.861795
20
94.829240
30
0.0
11
158.472785
21
94.829240
31
0.0
0
LINE
8
0
6
CONTINUOUS
10
187.912055
20
94.156470
30
0.0
11
186.071825
21
94.829240
31
0.0
0
LINE
8
0
6
CONTINUOUS
10
138.113285
20
100.411710
30
0.0
11
138.113285
21
99.769770
31
0.0
0
LINE
8
0
6
CONTINUOUS
10
206.040885
20
99.769760
30
0.0
11
206.040885
21
100.411700
31
0.0
0
LINE
8
0
6
CONTINUOUS
10
172.104715
20
99.769730
30
0.0
11
165.463975
21
99.769730
31
0.0
0
LINE
8
0
6
CONTINUOUS
10
165.463975
20
99.769730
30
0.0
11
159.061995
21
99.769730
31
0.0
0
LINE
8
0
6
CONTINUOUS
10
159.061995
20
99.769730
30
0.0
11
153.123525
21
99.769730
31
0.0
0
LINE
8
0
6
CONTINUOUS
10
153.123525
20
99.769730
30
0.0
11
147.992575
21
99.769770
31
0.0
0
LINE
8
0
6
CONTINUOUS
10
147.992575
20
99.769770
30
0.0
11
143.762215
21
99.769770
31
0.0
0
LINE
8
0
6
CONTINUOUS
10
143.762215
20
99.769770
30
0.0
11
140.604605
21
99.769770
31
0.0
0
LINE
8
0
6
CONTINUOUS
10
140.604605
20
99.769770
30
0.0
11
138.740965
21
99.769770
31
0.0
0
LINE
8
0
6
CONTINUOUS
10
138.113285
20
99.769770
30
0.0
11
138.606785
21
98.644320
31
0.0
0
LINE
8
0
6
CONTINUOUS
10
138.740965
20
99.769770
30
0.0
11
138.113285
21
99.769770
31
0.0
0
LINE
8
0
6
CONTINUOUS
10
205.653825
20
98.723120
30
0.0
11
206.040885
21
99.769760
31
0.0
0
LINE
8
0
6
CONTINUOUS
10
200.431025
20
99.769760
30
0.0
11
196.201395
21
99.769760
31
0.0
0
LINE
8
0
6
CONTINUOUS
10
196.201395
20
99.769760
30
0.0
11
191.049565
21
99.769730
31
0.0
0
LINE
8
0
6
CONTINUOUS
10
191.049565
20
99.769730
30
0.0
11
185.191805
21
99.769730
31
0.0
0
LINE
8
0
6
CONTINUOUS
10
185.191805
20
99.769730
30
0.0
11
178.761915
21
99.769730
31
0.0
0
LINE
8
0
6
CONTINUOUS
10
178.761915
20
99.769730
30
0.0
11
172.104715
21
99.769730
31
0.0
0
LINE
8
0
6
CONTINUOUS
10
185.197455
20
75.254500
30
0.0
11
185.286509
21
79.750040
31
0.0
0
LINE
8
0
6
CONTINUOUS
10
185.585219
20
94.829240
30
0.0
11
185.630005
21
97.090122
31
0.0
0
LINE
8
0
6
CONTINUOUS
10
184.201995
20
75.254500
30
0.0
11
185.197455
21
75.254500
31
0.0
0
LINE
8
0
6
CONTINUOUS
10
167.115555
20
75.254460
30
0.0
11
172.120065
21
75.254460
31
0.0
0
LINE
8
0
6
CONTINUOUS
10
160.038105
20
75.254460
30
0.0
11
162.872935
21
75.254460
31
0.0
0
LINE
8
0
6
CONTINUOUS
10
172.120065
20
75.254460
30
0.0
11
177.124545
21
75.254500
31
0.0
0
LINE
8
0
6
CONTINUOUS
10
172.078369
20
97.037110
30
0.0
11
172.082596
21
94.829240
31
0.0
0
LINE
8
0
6
CONTINUOUS
10
172.111460
20
79.750050
30
0.0
11
172.120065
21
75.254460
31
0.0
0
LINE
8
0
6
CONTINUOUS
10
181.367155
20
75.254500
30
0.0
11
184.201995
21
75.254500
31
0.0
0
LINE
8
0
6
CONTINUOUS
10
160.038105
20
75.254460
30
0.0
11
159.928632
21
79.750050
31
0.0
0
LINE
8
0
6
CONTINUOUS
10
159.561435
20
94.829240
30
0.0
11
159.507530
21
97.042885
31
0.0
0
LINE
8
0
6
CONTINUOUS
10
159.042655
20
75.254460
30
0.0
11
160.038105
21
75.254460
31
0.0
0
LINE
8
0
6
CONTINUOUS
10
158.543796
20
97.086146
30
0.0
11
158.595367
21
94.829240
31
0.0
0
LINE
8
0
6
CONTINUOUS
10
158.939930
20
79.750050
30
0.0
11
159.042655
21
75.254460
31
0.0
0
LINE
8
0
6
CONTINUOUS
10
167.115555
20
75.254460
30
0.0
11
167.063080
21
79.750050
31
0.0
0
LINE
8
0
6
CONTINUOUS
10
166.887066
20
94.829240
30
0.0
11
166.861294
21
97.037181
31
0.0
0
LINE
8
0
6
CONTINUOUS
10
162.872935
20
75.254460
30
0.0
11
167.115555
21
75.254460
31
0.0
0
LINE
8
0
6
CONTINUOUS
10
162.450666
20
97.039074
30
0.0
11
162.493501
21
94.829240
31
0.0
0
LINE
8
0
6
CONTINUOUS
10
162.785793
20
79.750050
30
0.0
11
162.872935
21
75.254460
31
0.0
0
LINE
8
0
6
CONTINUOUS
10
172.121835
20
98.593240
30
0.0
11
165.577315
21
98.593160
31
0.0
0
LINE
8
0
6
CONTINUOUS
10
165.577315
20
98.593160
30
0.0
11
159.282795
21
98.582290
31
0.0
0
LINE
8
0
6
CONTINUOUS
10
159.282795
20
98.582290
30
0.0
11
153.492205
21
98.592360
31
0.0
0
LINE
8
0
6
CONTINUOUS
10
153.492205
20
98.592360
30
0.0
11
148.411855
21
98.604380
31
0.0
0
LINE
8
0
6
CONTINUOUS
10
148.411855
20
98.604380
30
0.0
11
144.241135
21
98.605260
31
0.0
0
LINE
8
0
6
CONTINUOUS
10
144.241135
20
98.605260
30
0.0
11
141.148095
21
98.613080
31
0.0
0
LINE
8
0
6
CONTINUOUS
10
141.148095
20
98.613080
30
0.0
11
139.247375
21
98.635050
31
0.0
0
LINE
8
0
6
CONTINUOUS
10
138.606785
20
98.644320
30
0.0
11
140.191185
21
98.520500
31
0.0
0
LINE
8
0
6
CONTINUOUS
10
139.247375
20
98.635050
30
0.0
11
138.606785
21
98.644320
31
0.0
0
LINE
8
0
6
CONTINUOUS
10
205.653825
20
98.723120
30
0.0
11
205.032025
21
98.703400
31
0.0
0
LINE
8
0
6
CONTINUOUS
10
204.067805
20
98.593770
30
0.0
11
205.653825
21
98.723120
31
0.0
0
LINE
8
0
6
CONTINUOUS
10
205.032025
20
98.703400
30
0.0
11
203.131185
21
98.694860
31
0.0
0
LINE
8
0
6
CONTINUOUS
10
203.131185
20
98.694860
30
0.0
11
199.987435
21
98.634810
31
0.0
0
LINE
8
0
6
CONTINUOUS
10
199.987435
20
98.634810
30
0.0
11
195.827345
21
98.616200
31
0.0
0
LINE
8
0
6
CONTINUOUS
10
195.827345
20
98.616200
30
0.0
11
190.745735
21
98.616390
31
0.0
0
LINE
8
0
6
CONTINUOUS
10
190.745735
20
98.616390
30
0.0
11
184.949415
21
98.604640
31
0.0
0
LINE
8
0
6
CONTINUOUS
10
184.949415
20
98.604640
30
0.0
11
178.667135
21
98.582790
31
0.0
0
LINE
8
0
6
CONTINUOUS
10
178.667135
20
98.582790
30
0.0
11
172.121835
21
98.593240
31
0.0
0
LINE
8
0
6
CONTINUOUS
10
177.124545
20
75.254500
30
0.0
11
181.367155
21
75.254500
31
0.0
0
LINE
8
0
6
CONTINUOUS
10
138.113275
20
120.683290
30
0.0
11
138.113285
21
100.411710
31
0.0
0
LINE
8
0
6
CONTINUOUS
10
206.040885
20
100.411700
30
0.0
11
206.040865
21
120.683280
31
0.0
0
LINE
8
0
6
CONTINUOUS
10
140.191185
20
98.520500
30
0.0
11
158.543796
21
97.086146
31
0.0
0
LINE
8
0
6
CONTINUOUS
10
185.630005
20
97.090122
30
0.0
11
204.067805
21
98.593770
31
0.0
0
LINE
8
0
6
CONTINUOUS
10
172.104715
20
121.750170
30
0.0
11
165.463965
21
121.750210
31
0.0
0
LINE
8
0
6
CONTINUOUS
10
165.463965
20
121.750210
30
0.0
11
159.062015
21
121.750170
31
0.0
0
LINE
8
0
6
CONTINUOUS
10
159.062015
20
121.750170
30
0.0
11
153.123545
21
121.750170
31
0.0
0
LINE
8
0
6
CONTINUOUS
10
147.992595
20
121.750210
30
0.0
11
143.762215
21
121.750210
31
0.0
0
LINE
8
0
6
CONTINUOUS
10
143.762215
20
121.750210
30
0.0
11
140.604615
21
121.750210
31
0.0
0
LINE
8
0
6
CONTINUOUS
10
140.604615
20
121.750210
30
0.0
11
138.740965
21
121.750210
31
0.0
0
LINE
8
0
6
CONTINUOUS
10
138.113275
20
121.750210
30
0.0
11
138.113275
21
120.683290
31
0.0
0
LINE
8
0
6
CONTINUOUS
10
138.740965
20
121.750210
30
0.0
11
138.113275
21
121.750210
31
0.0
0
LINE
8
0
6
CONTINUOUS
10
206.040865
20
120.683280
30
0.0
11
206.040865
21
121.750200
31
0.0
0
LINE
8
0
6
CONTINUOUS
10
206.040865
20
121.750200
30
0.0
11
205.420855
21
121.750200
31
0.0
0
LINE
8
0
6
CONTINUOUS
10
205.420855
20
121.750200
30
0.0
11
203.506195
21
121.750200
31
0.0
0
LINE
8
0
6
CONTINUOUS
10
203.506195
20
121.750200
30
0.0
11
200.430995
21
121.750200
31
0.0
0
LINE
8
0
6
CONTINUOUS
10
200.430995
20
121.750200
30
0.0
11
196.201355
21
121.750200
31
0.0
0
LINE
8
0
6
CONTINUOUS
10
191.049545
20
121.750160
30
0.0
11
185.191745
21
121.750200
31
0.0
0
LINE
8
0
6
CONTINUOUS
10
178.761905
20
121.750170
30
0.0
11
172.104715
21
121.750170
31
0.0
0
LINE
8
0
6
CONTINUOUS
10
153.123545
20
121.750170
30
0.0
11
153.696945
21
121.750170
31
0.0
0
LINE
8
0
6
CONTINUOUS
10
147.992595
20
121.750210
30
0.0
11
153.123545
21
121.750170
31
0.0
0
LINE
8
0
6
CONTINUOUS
10
138.782995
20
121.750250
30
0.0
11
138.113275
21
121.750210
31
0.0
0
LINE
8
0
6
CONTINUOUS
10
139.786455
20
121.750250
30
0.0
11
138.782995
21
121.750250
31
0.0
0
LINE
8
0
6
CONTINUOUS
10
139.137205
20
121.750210
30
0.0
11
139.786455
21
121.750250
31
0.0
0
LINE
8
0
6
CONTINUOUS
10
143.938695
20
121.750250
30
0.0
11
140.792065
21
121.750210
31
0.0
0
LINE
8
0
6
CONTINUOUS
10
144.788965
20
121.750250
30
0.0
11
143.938695
21
121.750250
31
0.0
0
LINE
8
0
6
CONTINUOUS
10
195.988515
20
121.750240
30
0.0
11
195.268475
21
121.750240
31
0.0
0
LINE
8
0
6
CONTINUOUS
10
200.219565
20
121.750200
30
0.0
11
195.988515
21
121.750240
31
0.0
0
LINE
8
0
6
CONTINUOUS
10
199.371205
20
121.750200
30
0.0
11
200.219565
21
121.750200
31
0.0
0
LINE
8
0
6
CONTINUOUS
10
196.201355
20
121.750200
30
0.0
11
195.474315
21
121.750200
31
0.0
0
LINE
8
0
6
CONTINUOUS
10
191.049545
20
121.750160
30
0.0
11
196.201355
21
121.750200
31
0.0
0
LINE
8
0
6
CONTINUOUS
10
185.191745
20
121.750200
30
0.0
11
184.792735
21
121.750200
31
0.0
0
LINE
8
0
6
CONTINUOUS
10
178.761905
20
121.750170
30
0.0
11
185.191745
21
121.750200
31
0.0
0
LINE
8
0
6
CONTINUOUS
10
178.559895
20
121.750170
30
0.0
11
178.761905
21
121.750170
31
0.0
0
LINE
8
0
6
CONTINUOUS
10
153.696945
20
121.750170
30
0.0
11
159.453515
21
121.750170
31
0.0
0
LINE
8
0
6
CONTINUOUS
10
141.734095
20
121.750210
30
0.0
11
172.081905
21
121.750210
31
0.0
0
LINE
8
0
6
CONTINUOUS
10
148.881245
20
121.750240
30
0.0
11
144.788965
21
121.750250
31
0.0
0
LINE
8
0
6
CONTINUOUS
10
172.081905
20
121.750210
30
0.0
11
148.881245
21
121.750240
31
0.0
0
LINE
8
0
6
CONTINUOUS
10
195.268475
20
121.750240
30
0.0
11
172.081905
21
121.750210
31
0.0
0
LINE
8
0
6
CONTINUOUS
10
202.449185
20
121.750200
30
0.0
11
199.371205
21
121.750200
31
0.0
0
LINE
8
0
6
CONTINUOUS
10
172.081905
20
121.750210
30
0.0
11
202.449185
21
121.750200
31
0.0
0
LINE
8
0
6
CONTINUOUS
10
195.474315
20
121.750200
30
0.0
11
172.081905
21
121.750210
31
0.0
0
LINE
8
0
6
CONTINUOUS
10
172.107765
20
121.750170
30
0.0
11
178.559895
21
121.750170
31
0.0
0
LINE
8
0
6
CONTINUOUS
10
7.666265
20
79.750040
30
0.0
11
9.050295
21
79.750040
31
0.0
0
LINE
8
0
6
CONTINUOUS
10
16.002445
20
80.494820
30
0.0
11
11.185675
21
80.571990
31
0.0
0
LINE
8
0
6
CONTINUOUS
10
16.002445
20
80.856570
30
0.0
11
16.002445
21
80.494820
31
0.0
0
LINE
8
0
6
CONTINUOUS
10
16.002445
20
80.494820
30
0.0
11
16.396285
21
80.422800
31
0.0
0
LINE
8
0
6
CONTINUOUS
10
10.979255
20
80.492530
30
0.0
11
11.185675
21
80.571990
31
0.0
0
LINE
8
0
6
CONTINUOUS
10
11.185675
20
80.571990
30
0.0
11
11.185675
21
80.926110
31
0.0
0
LINE
8
0
6
CONTINUOUS
10
10.979255
20
80.492530
30
0.0
11
9.050295
21
79.750040
31
0.0
0
LINE
8
0
6
CONTINUOUS
10
20.076765
20
79.750050
30
0.0
11
16.396285
21
80.422800
31
0.0
0
LINE
8
0
6
CONTINUOUS
10
9.050295
20
79.750040
30
0.0
11
20.076765
21
79.750050
31
0.0
0
LINE
8
0
6
CONTINUOUS
10
16.002445
20
80.856570
30
0.0
11
16.002445
21
87.289640
31
0.0
0
LINE
8
0
6
CONTINUOUS
10
11.185675
20
87.289640
30
0.0
11
11.185675
21
80.926110
31
0.0
0
LINE
8
0
6
CONTINUOUS
10
31.839125
20
80.494830
30
0.0
11
27.120575
21
80.572000
31
0.0
0
LINE
8
0
6
CONTINUOUS
10
31.839125
20
80.856580
30
0.0
11
31.839125
21
80.494830
31
0.0
0
LINE
8
0
6
CONTINUOUS
10
31.839125
20
80.494830
30
0.0
11
32.036045
21
80.422810
31
0.0
0
LINE
8
0
6
CONTINUOUS
10
26.707735
20
80.492540
30
0.0
11
27.120575
21
80.572000
31
0.0
0
LINE
8
0
6
CONTINUOUS
10
27.120575
20
80.572000
30
0.0
11
27.120575
21
80.926120
31
0.0
0
LINE
8
0
6
CONTINUOUS
10
26.707735
20
80.492540
30
0.0
11
22.849815
21
79.750050
31
0.0
0
LINE
8
0
6
CONTINUOUS
10
33.876295
20
79.750050
30
0.0
11
32.036045
21
80.422810
31
0.0
0
LINE
8
0
6
CONTINUOUS
10
22.849815
20
79.750050
30
0.0
11
33.876295
21
79.750050
31
0.0
0
LINE
8
0
6
CONTINUOUS
10
31.839125
20
80.856580
30
0.0
11
31.839125
21
87.289640
31
0.0
0
LINE
8
0
6
CONTINUOUS
10
27.120575
20
87.289640
30
0.0
11
27.120575
21
80.926120
31
0.0
0
LINE
8
0
6
CONTINUOUS
10
37.302455
20
80.494830
30
0.0
11
37.400675
21
80.572000
31
0.0
0
LINE
8
0
6
CONTINUOUS
10
37.105535
20
80.422810
30
0.0
11
37.302455
21
80.494830
31
0.0
0
LINE
8
0
6
CONTINUOUS
10
37.194265
20
80.492540
30
0.0
11
37.400675
21
80.572000
31
0.0
0
LINE
8
0
6
CONTINUOUS
10
37.400675
20
80.572000
30
0.0
11
37.400675
21
80.926120
31
0.0
0
LINE
8
0
6
CONTINUOUS
10
37.400675
20
80.926120
30
0.0
11
37.400685
21
87.289640
31
0.0
0
LINE
8
0
6
CONTINUOUS
10
35.265305
20
79.750050
30
0.0
11
37.105535
21
80.422810
31
0.0
0
LINE
8
0
6
CONTINUOUS
10
37.194265
20
80.492540
30
0.0
11
35.265305
21
79.750050
31
0.0
0
LINE
8
0
6
CONTINUOUS
10
5.530885
20
80.571990
30
0.0
11
5.629095
21
80.494820
31
0.0
0
LINE
8
0
6
CONTINUOUS
10
5.530885
20
80.926110
30
0.0
11
5.530885
21
80.571990
31
0.0
0
LINE
8
0
6
CONTINUOUS
10
5.629095
20
80.856570
30
0.0
11
5.629095
21
80.494820
31
0.0
0
LINE
8
0
6
CONTINUOUS
10
5.629095
20
80.494820
30
0.0
11
5.826035
21
80.422800
31
0.0
0
LINE
8
0
6
CONTINUOUS
10
5.629095
20
80.856570
30
0.0
11
5.629095
21
87.289640
31
0.0
0
LINE
8
0
6
CONTINUOUS
10
5.530885
20
87.289640
30
0.0
11
5.530885
21
80.926110
31
0.0
0
LINE
8
0
6
CONTINUOUS
10
20.076765
20
79.750050
30
0.0
11
22.849815
21
79.750050
31
0.0
0
LINE
8
0
6
CONTINUOUS
10
33.876295
20
79.750050
30
0.0
11
35.265305
21
79.750050
31
0.0
0
LINE
8
0
6
CONTINUOUS
10
5.826035
20
80.422800
30
0.0
11
7.666265
21
79.750040
31
0.0
0
LINE
8
0
6
CONTINUOUS
10
9.050295
20
94.829240
30
0.0
11
7.666265
21
94.829240
31
0.0
0
LINE
8
0
6
CONTINUOUS
10
11.185675
20
94.007290
30
0.0
11
16.002445
21
94.084460
31
0.0
0
LINE
8
0
6
CONTINUOUS
10
16.396285
20
94.156480
30
0.0
11
16.002445
21
94.084460
31
0.0
0
LINE
8
0
6
CONTINUOUS
10
16.002445
20
94.084460
30
0.0
11
16.002445
21
93.722710
31
0.0
0
LINE
8
0
6
CONTINUOUS
10
11.185675
20
93.653170
30
0.0
11
11.185675
21
94.007290
31
0.0
0
LINE
8
0
6
CONTINUOUS
10
11.185675
20
94.007290
30
0.0
11
10.979255
21
94.086750
31
0.0
0
LINE
8
0
6
CONTINUOUS
10
20.076765
20
94.829240
30
0.0
11
9.050295
21
94.829240
31
0.0
0
LINE
8
0
6
CONTINUOUS
10
16.396285
20
94.156480
30
0.0
11
20.076765
21
94.829240
31
0.0
0
LINE
8
0
6
CONTINUOUS
10
9.050295
20
94.829240
30
0.0
11
10.979255
21
94.086750
31
0.0
0
LINE
8
0
6
CONTINUOUS
10
11.185675
20
93.653170
30
0.0
11
11.185675
21
87.289640
31
0.0
0
LINE
8
0
6
CONTINUOUS
10
16.002445
20
87.289640
30
0.0
11
16.002445
21
93.722710
31
0.0
0
LINE
8
0
6
CONTINUOUS
10
27.120575
20
94.007290
30
0.0
11
31.839125
21
94.084460
31
0.0
0
LINE
8
0
6
CONTINUOUS
10
32.036045
20
94.156480
30
0.0
11
31.839125
21
94.084460
31
0.0
0
LINE
8
0
6
CONTINUOUS
10
31.839125
20
94.084460
30
0.0
11
31.839125
21
93.722710
31
0.0
0
LINE
8
0
6
CONTINUOUS
10
27.120575
20
93.653170
30
0.0
11
27.120575
21
94.007290
31
0.0
0
LINE
8
0
6
CONTINUOUS
10
27.120575
20
94.007290
30
0.0
11
26.707735
21
94.086750
31
0.0
0
LINE
8
0
6
CONTINUOUS
10
33.876295
20
94.829240
30
0.0
11
22.849815
21
94.829240
31
0.0
0
LINE
8
0
6
CONTINUOUS
10
32.036045
20
94.156480
30
0.0
11
33.876295
21
94.829240
31
0.0
0
LINE
8
0
6
CONTINUOUS
10
22.849815
20
94.829240
30
0.0
11
26.707735
21
94.086750
31
0.0
0
LINE
8
0
6
CONTINUOUS
10
27.120575
20
93.653170
30
0.0
11
27.120575
21
87.289640
31
0.0
0
LINE
8
0
6
CONTINUOUS
10
31.839125
20
87.289640
30
0.0
11
31.839125
21
93.722710
31
0.0
0
LINE
8
0
6
CONTINUOUS
10
37.302455
20
94.084460
30
0.0
11
37.105535
21
94.156480
31
0.0
0
LINE
8
0
6
CONTINUOUS
10
37.400675
20
94.007290
30
0.0
11
37.302455
21
94.084460
31
0.0
0
LINE
8
0
6
CONTINUOUS
10
37.400675
20
93.653170
30
0.0
11
37.400675
21
94.007290
31
0.0
0
LINE
8
0
6
CONTINUOUS
10
37.400675
20
94.007290
30
0.0
11
37.194265
21
94.086750
31
0.0
0
LINE
8
0
6
CONTINUOUS
10
37.400685
20
87.289640
30
0.0
11
37.400675
21
93.653170
31
0.0
0
LINE
8
0
6
CONTINUOUS
10
37.105535
20
94.156480
30
0.0
11
35.265305
21
94.829240
31
0.0
0
LINE
8
0
6
CONTINUOUS
10
35.265305
20
94.829240
30
0.0
11
37.194265
21
94.086750
31
0.0
0
LINE
8
0
6
CONTINUOUS
10
5.530885
20
94.007280
30
0.0
11
5.530885
21
93.653160
31
0.0
0
LINE
8
0
6
CONTINUOUS
10
5.629095
20
94.084450
30
0.0
11
5.530885
21
94.007280
31
0.0
0
LINE
8
0
6
CONTINUOUS
10
5.826035
20
94.156470
30
0.0
11
5.629095
21
94.084450
31
0.0
0
LINE
8
0
6
CONTINUOUS
10
5.629095
20
94.084450
30
0.0
11
5.629095
21
93.722710
31
0.0
0
LINE
8
0
6
CONTINUOUS
10
5.530885
20
93.653160
30
0.0
11
5.530885
21
87.289640
31
0.0
0
LINE
8
0
6
CONTINUOUS
10
5.629095
20
87.289640
30
0.0
11
5.629095
21
93.722710
31
0.0
0
LINE
8
0
6
CONTINUOUS
10
22.849815
20
94.829240
30
0.0
11
20.076765
21
94.829240
31
0.0
0
LINE
8
0
6
CONTINUOUS
10
35.265305
20
94.829240
30
0.0
11
33.876295
21
94.829240
31
0.0
0
LINE
8
0
6
CONTINUOUS
10
7.666265
20
94.829240
30
0.0
11
5.826035
21
94.156470
31
0.0
0
LINE
8
0
6
CONTINUOUS
10
55.624805
20
99.769770
30
0.0
11
55.624805
21
100.411710
31
0.0
0
LINE
8
0
6
CONTINUOUS
10
-12.302795
20
100.411700
30
0.0
11
-12.302795
21
99.769760
31
0.0
0
LINE
8
0
6
CONTINUOUS
10
28.274115
20
99.769730
30
0.0
11
21.633375
21
99.769730
31
0.0
0
LINE
8
0
6
CONTINUOUS
10
34.676095
20
99.769730
30
0.0
11
28.274115
21
99.769730
31
0.0
0
LINE
8
0
6
CONTINUOUS
10
40.614565
20
99.769730
30
0.0
11
34.676095
21
99.769730
31
0.0
0
LINE
8
0
6
CONTINUOUS
10
45.745515
20
99.769770
30
0.0
11
40.614565
21
99.769730
31
0.0
0
LINE
8
0
6
CONTINUOUS
10
49.975875
20
99.769770
30
0.0
11
45.745515
21
99.769770
31
0.0
0
LINE
8
0
6
CONTINUOUS
10
53.133485
20
99.769770
30
0.0
11
49.975875
21
99.769770
31
0.0
0
LINE
8
0
6
CONTINUOUS
10
54.997125
20
99.769770
30
0.0
11
53.133485
21
99.769770
31
0.0
0
LINE
8
0
6
CONTINUOUS
10
55.624805
20
99.769770
30
0.0
11
54.997125
21
99.769770
31
0.0
0
LINE
8
0
6
CONTINUOUS
10
55.131305
20
98.644320
30
0.0
11
55.624805
21
99.769770
31
0.0
0
LINE
8
0
6
CONTINUOUS
10
-12.302795
20
99.769760
30
0.0
11
-11.915735
21
98.723120
31
0.0
0
LINE
8
0
6
CONTINUOUS
10
-2.463305
20
99.769760
30
0.0
11
-6.692935
21
99.769760
31
0.0
0
LINE
8
0
6
CONTINUOUS
10
2.688525
20
99.769730
30
0.0
11
-2.463305
21
99.769760
31
0.0
0
LINE
8
0
6
CONTINUOUS
10
8.546285
20
99.769730
30
0.0
11
2.688525
21
99.769730
31
0.0
0
LINE
8
0
6
CONTINUOUS
10
14.976175
20
99.769730
30
0.0
11
8.546285
21
99.769730
31
0.0
0
LINE
8
0
6
CONTINUOUS
10
21.633375
20
99.769730
30
0.0
11
14.976175
21
99.769730
31
0.0
0
LINE
8
0
6
CONTINUOUS
10
8.540635
20
75.254500
30
0.0
11
9.536095
21
75.254500
31
0.0
0
LINE
8
0
6
CONTINUOUS
10
8.108085
20
97.090122
30
0.0
11
8.152871
21
94.829240
31
0.0
0
LINE
8
0
6
CONTINUOUS
10
8.451581
20
79.750040
30
0.0
11
8.540635
21
75.254500
31
0.0
0
LINE
8
0
6
CONTINUOUS
10
21.618025
20
75.254460
30
0.0
11
26.622535
21
75.254460
31
0.0
0
LINE
8
0
6
CONTINUOUS
10
30.865155
20
75.254460
30
0.0
11
33.699985
21
75.254460
31
0.0
0
LINE
8
0
6
CONTINUOUS
10
21.618025
20
75.254460
30
0.0
11
21.626630
21
79.750050
31
0.0
0
LINE
8
0
6
CONTINUOUS
10
21.655494
20
94.829240
30
0.0
11
21.659721
21
97.037110
31
0.0
0
LINE
8
0
6
CONTINUOUS
10
16.613545
20
75.254500
30
0.0
11
21.618025
21
75.254460
31
0.0
0
LINE
8
0
6
CONTINUOUS
10
9.536095
20
75.254500
30
0.0
11
12.370935
21
75.254500
31
0.0
0
LINE
8
0
6
CONTINUOUS
10
34.695435
20
75.254460
30
0.0
11
34.798160
21
79.750050
31
0.0
0
LINE
8
0
6
CONTINUOUS
10
35.142723
20
94.829240
30
0.0
11
35.194294
21
97.086146
31
0.0
0
LINE
8
0
6
CONTINUOUS
10
33.699985
20
75.254460
30
0.0
11
34.695435
21
75.254460
31
0.0
0
LINE
8
0
6
CONTINUOUS
10
34.230560
20
97.042885
30
0.0
11
34.176655
21
94.829240
31
0.0
0
LINE
8
0
6
CONTINUOUS
10
33.809458
20
79.750050
30
0.0
11
33.699985
21
75.254460
31
0.0
0
LINE
8
0
6
CONTINUOUS
10
30.865155
20
75.254460
30
0.0
11
30.952297
21
79.750050
31
0.0
0
LINE
8
0
6
CONTINUOUS
10
31.244589
20
94.829240
30
0.0
11
31.287424
21
97.039074
31
0.0
0
LINE
8
0
6
CONTINUOUS
10
26.622535
20
75.254460
30
0.0
11
30.865155
21
75.254460
31
0.0
0
LINE
8
0
6
CONTINUOUS
10
26.876796
20
97.037181
30
0.0
11
26.851024
21
94.829240
31
0.0
0
LINE
8
0
6
CONTINUOUS
10
26.675010
20
79.750050
30
0.0
11
26.622535
21
75.254460
31
0.0
0
LINE
8
0
6
CONTINUOUS
10
28.160775
20
98.593160
30
0.0
11
21.616255
21
98.593240
31
0.0
0
LINE
8
0
6
CONTINUOUS
10
34.455295
20
98.582290
30
0.0
11
28.160775
21
98.593160
31
0.0
0
LINE
8
0
6
CONTINUOUS
10
40.245885
20
98.592360
30
0.0
11
34.455295
21
98.582290
31
0.0
0
LINE
8
0
6
CONTINUOUS
10
45.326235
20
98.604380
30
0.0
11
40.245885
21
98.592360
31
0.0
0
LINE
8
0
6
CONTINUOUS
10
49.496955
20
98.605260
30
0.0
11
45.326235
21
98.604380
31
0.0
0
LINE
8
0
6
CONTINUOUS
10
52.589995
20
98.613080
30
0.0
11
49.496955
21
98.605260
31
0.0
0
LINE
8
0
6
CONTINUOUS
10
54.490715
20
98.635050
30
0.0
11
52.589995
21
98.613080
31
0.0
0
LINE
8
0
6
CONTINUOUS
10
55.131305
20
98.644320
30
0.0
11
54.490715
21
98.635050
31
0.0
0
LINE
8
0
6
CONTINUOUS
10
53.546905
20
98.520500
30
0.0
11
55.131305
21
98.644320
31
0.0
0
LINE
8
0
6
CONTINUOUS
10
-11.915735
20
98.723120
30
0.0
11
-10.329715
21
98.593770
31
0.0
0
LINE
8
0
6
CONTINUOUS
10
-11.293935
20
98.703400
30
0.0
11
-11.915735
21
98.723120
31
0.0
0
LINE
8
0
6
CONTINUOUS
10
-9.393095
20
98.694860
30
0.0
11
-11.293935
21
98.703400
31
0.0
0
LINE
8
0
6
CONTINUOUS
10
-6.249345
20
98.634810
30
0.0
11
-9.393095
21
98.694860
31
0.0
0
LINE
8
0
6
CONTINUOUS
10
-2.089255
20
98.616200
30
0.0
11
-6.249345
21
98.634810
31
0.0
0
LINE
8
0
6
CONTINUOUS
10
2.992355
20
98.616390
30
0.0
11
-2.089255
21
98.616200
31
0.0
0
LINE
8
0
6
CONTINUOUS
10
8.788675
20
98.604640
30
0.0
11
2.992355
21
98.616390
31
0.0
0
LINE
8
0
6
CONTINUOUS
10
15.070955
20
98.582790
30
0.0
11
8.788675
21
98.604640
31
0.0
0
LINE
8
0
6
CONTINUOUS
10
21.616255
20
98.593240
30
0.0
11
15.070955
21
98.582790
31
0.0
0
LINE
8
0
6
CONTINUOUS
10
12.370935
20
75.254500
30
0.0
11
16.613545
21
75.254500
31
0.0
0
LINE
8
0
6
CONTINUOUS
10
55.624805
20
100.411710
30
0.0
11
55.624815
21
120.683290
31
0.0
0
LINE
8
0
6
CONTINUOUS
10
-12.302775
20
120.683280
30
0.0
11
-12.302795
21
100.411700
31
0.0
0
LINE
8
0
6
CONTINUOUS
10
35.194294
20
97.086146
30
0.0
11
53.546905
21
98.520500
31
0.0
0
LINE
8
0
6
CONTINUOUS
10
-10.329715
20
98.593770
30
0.0
11
8.108085
21
97.090122
31
0.0
0
LINE
8
0
6
CONTINUOUS
10
28.274125
20
121.750210
30
0.0
11
21.633375
21
121.750170
31
0.0
0
LINE
8
0
6
CONTINUOUS
10
34.676075
20
121.750170
30
0.0
11
28.274125
21
121.750210
31
0.0
0
LINE
8
0
6
CONTINUOUS
10
40.614545
20
121.750170
30
0.0
11
34.676075
21
121.750170
31
0.0
0
LINE
8
0
6
CONTINUOUS
10
49.975875
20
121.750210
30
0.0
11
45.745495
21
121.750210
31
0.0
0
LINE
8
0
6
CONTINUOUS
10
53.133475
20
121.750210
30
0.0
11
49.975875
21
121.750210
31
0.0
0
LINE
8
0
6
CONTINUOUS
10
54.997125
20
121.750210
30
0.0
11
53.133475
21
121.750210
31
0.0
0
LINE
8
0
6
CONTINUOUS
10
55.624815
20
121.750210
30
0.0
11
54.997125
21
121.750210
31
0.0
0
LINE
8
0
6
CONTINUOUS
10
55.624815
20
120.683290
30
0.0
11
55.624815
21
121.750210
31
0.0
0
LINE
8
0
6
CONTINUOUS
10
-11.682765
20
121.750200
30
0.0
11
-12.302775
21
121.750200
31
0.0
0
LINE
8
0
6
CONTINUOUS
10
-12.302775
20
121.750200
30
0.0
11
-12.302775
21
120.683280
31
0.0
0
LINE
8
0
6
CONTINUOUS
10
-9.768105
20
121.750200
30
0.0
11
-11.682765
21
121.750200
31
0.0
0
LINE
8
0
6
CONTINUOUS
10
-6.692905
20
121.750200
30
0.0
11
-9.768105
21
121.750200
31
0.0
0
LINE
8
0
6
CONTINUOUS
10
-2.463265
20
121.750200
30
0.0
11
-6.692905
21
121.750200
31
0.0
0
LINE
8
0
6
CONTINUOUS
10
8.546345
20
121.750200
30
0.0
11
2.688545
21
121.750160
31
0.0
0
LINE
8
0
6
CONTINUOUS
10
21.633375
20
121.750170
30
0.0
11
14.976185
21
121.750170
31
0.0
0
LINE
8
0
6
CONTINUOUS
10
40.614545
20
121.750170
30
0.0
11
45.745495
21
121.750210
31
0.0
0
LINE
8
0
6
CONTINUOUS
10
40.041145
20
121.750170
30
0.0
11
40.614545
21
121.750170
31
0.0
0
LINE
8
0
6
CONTINUOUS
10
53.951635
20
121.750250
30
0.0
11
54.600885
21
121.750210
31
0.0
0
LINE
8
0
6
CONTINUOUS
10
54.955095
20
121.750250
30
0.0
11
53.951635
21
121.750250
31
0.0
0
LINE
8
0
6
CONTINUOUS
10
55.624815
20
121.750210
30
0.0
11
54.955095
21
121.750250
31
0.0
0
LINE
8
0
6
CONTINUOUS
10
49.799395
20
121.750250
30
0.0
11
48.949125
21
121.750250
31
0.0
0
LINE
8
0
6
CONTINUOUS
10
52.946025
20
121.750210
30
0.0
11
49.799395
21
121.750250
31
0.0
0
LINE
8
0
6
CONTINUOUS
10
-6.481475
20
121.750200
30
0.0
11
-5.633115
21
121.750200
31
0.0
0
LINE
8
0
6
CONTINUOUS
10
-2.250425
20
121.750240
30
0.0
11
-6.481475
21
121.750200
31
0.0
0
LINE
8
0
6
CONTINUOUS
10
-1.530385
20
121.750240
30
0.0
11
-2.250425
21
121.750240
31
0.0
0
LINE
8
0
6
CONTINUOUS
10
-2.463265
20
121.750200
30
0.0
11
2.688545
21
121.750160
31
0.0
0
LINE
8
0
6
CONTINUOUS
10
-1.736225
20
121.750200
30
0.0
11
-2.463265
21
121.750200
31
0.0
0
LINE
8
0
6
CONTINUOUS
10
14.976185
20
121.750170
30
0.0
11
15.178195
21
121.750170
31
0.0
0
LINE
8
0
6
CONTINUOUS
10
8.546345
20
121.750200
30
0.0
11
14.976185
21
121.750170
31
0.0
0
LINE
8
0
6
CONTINUOUS
10
8.945355
20
121.750200
30
0.0
11
8.546345
21
121.750200
31
0.0
0
LINE
8
0
6
CONTINUOUS
10
34.284575
20
121.750170
30
0.0
11
40.041145
21
121.750170
31
0.0
0
LINE
8
0
6
CONTINUOUS
10
44.856845
20
121.750240
30
0.0
11
21.656185
21
121.750210
31
0.0
0
LINE
8
0
6
CONTINUOUS
10
48.949125
20
121.750250
30
0.0
11
44.856845
21
121.750240
31
0.0
0
LINE
8
0
6
CONTINUOUS
10
21.656185
20
121.750210
30
0.0
11
52.003995
21
121.750210
31
0.0
0
LINE
8
0
6
CONTINUOUS
10
-8.711095
20
121.750200
30
0.0
11
21.656185
21
121.750210
31
0.0
0
LINE
8
0
6
CONTINUOUS
10
-5.633115
20
121.750200
30
0.0
11
-8.711095
21
121.750200
31
0.0
0
LINE
8
0
6
CONTINUOUS
10
21.656185
20
121.750210
30
0.0
11
-1.530385
21
121.750240
31
0.0
0
LINE
8
0
6
CONTINUOUS
10
21.656185
20
121.750210
30
0.0
11
-1.736225
21
121.750200
31
0.0
0
LINE
8
0
6
CONTINUOUS
10
15.178195
20
121.750170
30
0.0
11
21.630325
21
121.750170
31
0.0
0
LINE
8
0
6
CONTINUOUS
10
244.436595
20
33.906410
30
0.0
11
245.354445
21
33.907330
31
0.0
0
LINE
8
0
6
CONTINUOUS
10
245.354445
20
33.907330
30
0.0
11
245.354445
21
36.155440
31
0.0
0
LINE
8
0
6
CONTINUOUS
10
245.354445
20
33.907330
30
0.0
11
244.436595
21
33.906410
31
0.0
0
LINE
8
0
6
CONTINUOUS
10
245.354495
20
30.260810
30
0.0
11
245.354445
21
33.907330
31
0.0
0
LINE
8
0
6
CONTINUOUS
10
224.132035
20
24.994090
30
0.0
11
224.140835
21
24.618060
31
0.0
0
LINE
8
0
6
CONTINUOUS
10
244.482085
20
29.188840
30
0.0
11
224.363795
21
29.191430
31
0.0
0
LINE
8
0
6
CONTINUOUS
10
224.372235
20
26.140380
30
0.0
11
244.490515
21
26.139540
31
0.0
0
LINE
8
0
6
CONTINUOUS
10
244.488345
20
27.710330
30
0.0
11
224.370085
21
27.712320
31
0.0
0
LINE
8
0
6
CONTINUOUS
10
224.363175
20
24.618080
30
0.0
11
244.481465
21
24.617210
31
0.0
0
LINE
8
0
6
CONTINUOUS
10
244.487995
20
25.037030
30
0.0
11
224.369715
21
25.037330
31
0.0
0
LINE
8
0
6
CONTINUOUS
10
245.354495
20
24.617380
30
0.0
11
245.354495
21
25.036920
31
0.0
0
LINE
8
0
6
CONTINUOUS
10
244.481465
20
24.617210
30
0.0
11
245.354446
21
24.617380
31
0.0
0
LINE
8
0
6
CONTINUOUS
10
245.354495
20
25.036920
30
0.0
11
245.354495
21
26.139700
31
0.0
0
LINE
8
0
6
CONTINUOUS
10
244.487995
20
25.037030
30
0.0
11
245.354446
21
25.036920
31
0.0
0
LINE
8
0
6
CONTINUOUS
10
245.354495
20
27.711060
30
0.0
11
245.354495
21
29.189860
31
0.0
0
LINE
8
0
6
CONTINUOUS
10
245.354495
20
29.189860
30
0.0
11
245.354495
21
30.260810
31
0.0
0
LINE
8
0
6
CONTINUOUS
10
244.482085
20
29.188840
30
0.0
11
245.354446
21
29.189860
31
0.0
0
LINE
8
0
6
CONTINUOUS
10
245.354495
20
27.711060
30
0.0
11
244.488345
21
27.710330
31
0.0
0
LINE
8
0
6
CONTINUOUS
10
245.354495
20
26.139700
30
0.0
11
245.354495
21
27.711060
31
0.0
0
LINE
8
0
6
CONTINUOUS
10
244.490515
20
26.139540
30
0.0
11
245.354447
21
26.139700
31
0.0
0
LINE
8
0
6
CONTINUOUS
10
224.140835
20
24.618060
30
0.0
11
224.363175
21
24.618080
31
0.0
0
LINE
8
0
6
CONTINUOUS
10
224.147335
20
25.037590
30
0.0
11
224.140835
21
24.618060
31
0.0
0
LINE
8
0
6
CONTINUOUS
10
224.147335
20
25.037590
30
0.0
11
224.369715
21
25.037330
31
0.0
0
LINE
8
0
6
CONTINUOUS
10
224.149855
20
26.140380
30
0.0
11
224.147335
21
25.037590
31
0.0
0
LINE
8
0
6
CONTINUOUS
10
224.141435
20
29.190550
30
0.0
11
224.147705
21
27.711730
31
0.0
0
LINE
8
0
6
CONTINUOUS
10
224.141435
20
29.190550
30
0.0
11
224.363795
21
29.191430
31
0.0
0
LINE
8
0
6
CONTINUOUS
10
224.132745
20
30.261490
30
0.0
11
224.141435
21
29.190550
31
0.0
0
LINE
8
0
6
CONTINUOUS
10
224.149855
20
26.140380
30
0.0
11
224.372235
21
26.140380
31
0.0
0
LINE
8
0
6
CONTINUOUS
10
224.147705
20
27.711730
30
0.0
11
224.149855
21
26.140380
31
0.0
0
LINE
8
0
6
CONTINUOUS
10
224.370085
20
27.712320
30
0.0
11
224.147705
21
27.711730
31
0.0
0
LINE
8
0
6
CONTINUOUS
10
224.132745
20
30.261490
30
0.0
11
224.096695
21
33.834670
31
0.0
0
LINE
8
0
6
CONTINUOUS
10
190.733675
20
20.214210
30
0.0
11
243.297565
21
20.785120
31
0.0
0
LINE
8
0
6
CONTINUOUS
10
243.297345
20
62.503130
30
0.0
11
190.729515
21
62.895310
31
0.0
0
LINE
8
0
6
CONTINUOUS
10
190.370845
20
20.212300
30
0.0
11
190.733675
21
20.214210
31
0.0
0
LINE
8
0
6
CONTINUOUS
10
190.370795
20
20.867570
30
0.0
11
190.370845
21
20.212300
31
0.0
0
LINE
8
0
6
CONTINUOUS
10
190.370695
20
23.008840
30
0.0
11
190.370795
21
20.867570
31
0.0
0
LINE
8
0
6
CONTINUOUS
10
190.370465
20
26.435200
30
0.0
11
190.370695
21
23.008840
31
0.0
0
LINE
8
0
6
CONTINUOUS
10
190.370815
20
36.056750
30
0.0
11
190.375905
21
30.874700
31
0.0
0
LINE
8
0
6
CONTINUOUS
10
190.369045
20
41.642800
30
0.0
11
190.370815
21
36.056750
31
0.0
0
LINE
8
0
6
CONTINUOUS
10
190.368335
20
47.193990
30
0.0
11
190.369045
21
41.642800
31
0.0
0
LINE
8
0
6
CONTINUOUS
10
190.367755
20
52.354840
30
0.0
11
190.368335
21
47.193990
31
0.0
0
LINE
8
0
6
CONTINUOUS
10
190.367695
20
56.757270
30
0.0
11
190.367755
21
52.354840
31
0.0
0
LINE
8
0
6
CONTINUOUS
10
190.367695
20
60.080560
30
0.0
11
190.367695
21
56.757270
31
0.0
0
LINE
8
0
6
CONTINUOUS
10
190.367705
20
62.154070
30
0.0
11
190.367695
21
60.080560
31
0.0
0
LINE
8
0
6
CONTINUOUS
10
190.367725
20
62.896680
30
0.0
11
190.367705
21
62.154070
31
0.0
0
LINE
8
0
6
CONTINUOUS
10
190.729515
20
62.895310
30
0.0
11
190.367725
21
62.896680
31
0.0
0
LINE
8
0
6
CONTINUOUS
10
245.354445
20
62.487210
30
0.0
11
244.436055
21
62.494550
31
0.0
0
LINE
8
0
6
CONTINUOUS
10
245.354455
20
61.768620
30
0.0
11
245.354445
21
62.487210
31
0.0
0
LINE
8
0
6
CONTINUOUS
10
245.354455
20
56.439430
30
0.0
11
245.354445
21
59.706370
31
0.0
0
LINE
8
0
6
CONTINUOUS
10
245.354445
20
47.074570
30
0.0
11
245.354445
21
52.123290
31
0.0
0
LINE
8
0
6
CONTINUOUS
10
245.354445
20
41.650240
30
0.0
11
245.354445
21
47.074570
31
0.0
0
LINE
8
0
6
CONTINUOUS
10
245.354445
20
36.155440
30
0.0
11
245.354445
21
41.650240
31
0.0
0
LINE
8
0
6
CONTINUOUS
10
245.354445
20
21.470270
30
0.0
11
245.354455
21
23.529410
31
0.0
0
LINE
8
0
6
CONTINUOUS
10
244.436185
20
20.797600
30
0.0
11
245.354455
21
20.808290
31
0.0
0
LINE
8
0
6
CONTINUOUS
10
245.354445
20
21.470270
30
0.0
11
245.354455
21
20.808290
31
0.0
0
LINE
8
0
6
CONTINUOUS
10
245.354455
20
56.439430
30
0.0
11
245.354445
21
52.123290
31
0.0
0
LINE
8
0
6
CONTINUOUS
10
245.354455
20
61.768620
30
0.0
11
245.354445
21
59.706370
31
0.0
0
LINE
8
0
6
CONTINUOUS
10
224.094935
20
28.671530
30
0.0
11
224.132035
21
24.994090
31
0.0
0
LINE
8
0
6
CONTINUOUS
10
244.436055
20
62.494550
30
0.0
11
243.297345
21
62.503130
31
0.0
0
LINE
8
0
6
CONTINUOUS
10
243.297565
20
20.785120
30
0.0
11
244.436185
21
20.797600
31
0.0
0
LINE
8
0
6
CONTINUOUS
10
190.370465
20
26.435200
30
0.0
11
190.375905
21
30.874700
31
0.0
0
LINE
8
0
6
CONTINUOUS
10
188.870165
20
21.507920
30
0.0
11
190.371955
21
21.507920
31
0.0
0
LINE
8
0
6
CONTINUOUS
10
190.369995
20
61.613990
30
0.0
11
188.868205
21
61.613990
31
0.0
0
LINE
8
0
6
CONTINUOUS
10
-51.616375
20
36.155440
30
0.0
11
-51.616375
21
33.907330
31
0.0
0
LINE
8
0
6
CONTINUOUS
10
-51.616375
20
33.907330
30
0.0
11
-50.698525
21
33.906410
31
0.0
0
LINE
8
0
6
CONTINUOUS
10
-51.616375
20
33.907330
30
0.0
11
-51.616425
21
30.260810
31
0.0
0
LINE
8
0
6
CONTINUOUS
10
-50.698525
20
33.906410
30
0.0
11
-51.616375
21
33.907330
31
0.0
0
LINE
8
0
6
CONTINUOUS
10
-30.402755
20
24.618060
30
0.0
11
-30.393965
21
24.994090
31
0.0
0
LINE
8
0
6
CONTINUOUS
10
-30.625725
20
29.191430
30
0.0
11
-50.744015
21
29.188840
31
0.0
0
LINE
8
0
6
CONTINUOUS
10
-30.632015
20
27.712320
30
0.0
11
-50.750275
21
27.710330
31
0.0
0
LINE
8
0
6
CONTINUOUS
10
-50.752445
20
26.139540
30
0.0
11
-30.634165
21
26.140380
31
0.0
0
LINE
8
0
6
CONTINUOUS
10
-30.631645
20
25.037330
30
0.0
11
-50.749925
21
25.037030
31
0.0
0
LINE
8
0
6
CONTINUOUS
10
-50.743395
20
24.617210
30
0.0
11
-30.625105
21
24.618080
31
0.0
0
LINE
8
0
6
CONTINUOUS
10
-51.616425
20
24.617380
30
0.0
11
-50.743395
21
24.617210
31
0.0
0
LINE
8
0
6
CONTINUOUS
10
-51.616425
20
25.036920
30
0.0
11
-51.616425
21
24.617380
31
0.0
0
LINE
8
0
6
CONTINUOUS
10
-51.616425
20
25.036920
30
0.0
11
-50.749925
21
25.037030
31
0.0
0
LINE
8
0
6
CONTINUOUS
10
-51.616425
20
26.139700
30
0.0
11
-51.616425
21
25.036920
31
0.0
0
LINE
8
0
6
CONTINUOUS
10
-51.616425
20
29.189860
30
0.0
11
-51.616425
21
27.711060
31
0.0
0
LINE
8
0
6
CONTINUOUS
10
-51.616425
20
29.189860
30
0.0
11
-50.744015
21
29.188840
31
0.0
0
LINE
8
0
6
CONTINUOUS
10
-51.616425
20
30.260810
30
0.0
11
-51.616425
21
29.189860
31
0.0
0
LINE
8
0
6
CONTINUOUS
10
-51.616425
20
26.139700
30
0.0
11
-50.752445
21
26.139540
31
0.0
0
LINE
8
0
6
CONTINUOUS
10
-51.616425
20
27.711060
30
0.0
11
-51.616425
21
26.139700
31
0.0
0
LINE
8
0
6
CONTINUOUS
10
-50.750275
20
27.710330
30
0.0
11
-51.616375
21
27.711060
31
0.0
0
LINE
8
0
6
CONTINUOUS
10
-30.402755
20
24.618060
30
0.0
11
-30.409265
21
25.037590
31
0.0
0
LINE
8
0
6
CONTINUOUS
10
-30.625105
20
24.618080
30
0.0
11
-30.402755
21
24.618060
31
0.0
0
LINE
8
0
6
CONTINUOUS
10
-30.409265
20
25.037590
30
0.0
11
-30.411785
21
26.140380
31
0.0
0
LINE
8
0
6
CONTINUOUS
10
-30.631645
20
25.037330
30
0.0
11
-30.409265
21
25.037590
31
0.0
0
LINE
8
0
6
CONTINUOUS
10
-30.409635
20
27.711730
30
0.0
11
-30.403365
21
29.190550
31
0.0
0
LINE
8
0
6
CONTINUOUS
10
-30.403365
20
29.190550
30
0.0
11
-30.394675
21
30.261490
31
0.0
0
LINE
8
0
6
CONTINUOUS
10
-30.625725
20
29.191430
30
0.0
11
-30.403365
21
29.190550
31
0.0
0
LINE
8
0
6
CONTINUOUS
10
-30.409635
20
27.711730
30
0.0
11
-30.632015
21
27.712320
31
0.0
0
LINE
8
0
6
CONTINUOUS
10
-30.411785
20
26.140380
30
0.0
11
-30.409635
21
27.711730
31
0.0
0
LINE
8
0
6
CONTINUOUS
10
-30.634165
20
26.140380
30
0.0
11
-30.411785
21
26.140380
31
0.0
0
LINE
8
0
6
CONTINUOUS
10
-30.358625
20
33.834670
30
0.0
11
-30.394675
21
30.261490
31
0.0
0
LINE
8
0
6
CONTINUOUS
10
-49.559495
20
20.785120
30
0.0
11
3.004395
21
20.214210
31
0.0
0
LINE
8
0
6
CONTINUOUS
10
3.008555
20
62.895310
30
0.0
11
-49.559275
21
62.503130
31
0.0
0
LINE
8
0
6
CONTINUOUS
10
3.367225
20
20.212300
30
0.0
11
3.367275
21
20.867570
31
0.0
0
LINE
8
0
6
CONTINUOUS
10
3.004395
20
20.214210
30
0.0
11
3.367225
21
20.212300
31
0.0
0
LINE
8
0
6
CONTINUOUS
10
3.367275
20
20.867570
30
0.0
11
3.367375
21
23.008840
31
0.0
0
LINE
8
0
6
CONTINUOUS
10
3.367375
20
23.008840
30
0.0
11
3.367615
21
26.435200
31
0.0
0
LINE
8
0
6
CONTINUOUS
10
3.362165
20
30.874700
30
0.0
11
3.367255
21
36.056750
31
0.0
0
LINE
8
0
6
CONTINUOUS
10
3.367255
20
36.056750
30
0.0
11
3.369025
21
41.642800
31
0.0
0
LINE
8
0
6
CONTINUOUS
10
3.369025
20
41.642800
30
0.0
11
3.369735
21
47.193990
31
0.0
0
LINE
8
0
6
CONTINUOUS
10
3.369735
20
47.193990
30
0.0
11
3.370315
21
52.354840
31
0.0
0
LINE
8
0
6
CONTINUOUS
10
3.370315
20
52.354840
30
0.0
11
3.370375
21
56.757270
31
0.0
0
LINE
8
0
6
CONTINUOUS
10
3.370375
20
56.757270
30
0.0
11
3.370375
21
60.080560
31
0.0
0
LINE
8
0
6
CONTINUOUS
10
3.370375
20
60.080560
30
0.0
11
3.370365
21
62.154070
31
0.0
0
LINE
8
0
6
CONTINUOUS
10
3.370345
20
62.896680
30
0.0
11
3.008555
21
62.895310
31
0.0
0
LINE
8
0
6
CONTINUOUS
10
3.370365
20
62.154070
30
0.0
11
3.370345
21
62.896680
31
0.0
0
LINE
8
0
6
CONTINUOUS
10
-51.616375
20
62.487210
30
0.0
11
-51.616385
21
61.768620
31
0.0
0
LINE
8
0
6
CONTINUOUS
10
-50.697975
20
62.494550
30
0.0
11
-51.616375
21
62.487210
31
0.0
0
LINE
8
0
6
CONTINUOUS
10
-51.616375
20
59.706370
30
0.0
11
-51.616385
21
56.439430
31
0.0
0
LINE
8
0
6
CONTINUOUS
10
-51.616375
20
52.123290
30
0.0
11
-51.616375
21
47.074570
31
0.0
0
LINE
8
0
6
CONTINUOUS
10
-51.616375
20
47.074570
30
0.0
11
-51.616375
21
41.650240
31
0.0
0
LINE
8
0
6
CONTINUOUS
10
-51.616375
20
41.650240
30
0.0
11
-51.616375
21
36.155440
31
0.0
0
LINE
8
0
6
CONTINUOUS
10
-51.616385
20
23.529410
30
0.0
11
-51.616375
21
21.470270
31
0.0
0
LINE
8
0
6
CONTINUOUS
10
-51.616385
20
20.808290
30
0.0
11
-50.698115
21
20.797600
31
0.0
0
LINE
8
0
6
CONTINUOUS
10
-51.616385
20
20.808290
30
0.0
11
-51.616375
21
21.470270
31
0.0
0
LINE
8
0
6
CONTINUOUS
10
-51.616375
20
52.123290
30
0.0
11
-51.616385
21
56.439430
31
0.0
0
LINE
8
0
6
CONTINUOUS
10
-51.616375
20
59.706370
30
0.0
11
-51.616385
21
61.768620
31
0.0
0
LINE
8
0
6
CONTINUOUS
10
-30.393965
20
24.994090
30
0.0
11
-30.356855
21
28.671530
31
0.0
0
LINE
8
0
6
CONTINUOUS
10
-49.559275
20
62.503130
30
0.0
11
-50.697975
21
62.494550
31
0.0
0
LINE
8
0
6
CONTINUOUS
10
-50.698115
20
20.797600
30
0.0
11
-49.559495
21
20.785120
31
0.0
0
LINE
8
0
6
CONTINUOUS
10
3.362165
20
30.874700
30
0.0
11
3.367615
21
26.435200
31
0.0
0
LINE
8
0
6
CONTINUOUS
10
3.366115
20
21.507920
30
0.0
11
4.867905
21
21.507920
31
0.0
0
LINE
8
0
6
CONTINUOUS
10
4.869865
20
61.613990
30
0.0
11
3.368075
21
61.613990
31
0.0
0
LINE
8
0
6
CONTINUOUS
10
-162.343255
20
55.352330
30
0.0
11
-166.591495
21
56.476850
31
0.0
0
LINE
8
0
6
CONTINUOUS
10
-160.294594
20
-30.450130
30
0.0
11
-160.555405
21
-19.845520
31
0.0
0
LINE
8
0
6
CONTINUOUS
10
-158.069794
20
-31.082740
30
0.0
11
-158.098375
21
-26.049300
31
0.0
0
LINE
8
0
6
CONTINUOUS
10
-166.591495
20
56.476850
30
0.0
11
-170.991535
21
56.905140
31
0.0
0
LINE
8
0
6
CONTINUOUS
10
-160.292245
20
-19.382680
30
0.0
11
-158.403625
21
-21.620970
31
0.0
0
LINE
8
0
6
CONTINUOUS
10
-156.505285
20
-24.758790
30
0.0
11
-156.504555
21
-24.518330
31
0.0
0
LINE
8
0
6
CONTINUOUS
10
-159.128515
20
-17.174460
30
0.0
11
-159.130655
21
-17.427570
31
0.0
0
LINE
8
0
6
CONTINUOUS
10
-158.531995
20
53.390070
30
0.0
11
-162.343255
21
55.352330
31
0.0
0
LINE
8
0
6
CONTINUOUS
10
-156.847725
20
50.163750
30
0.0
11
-158.531995
21
53.390070
31
0.0
0
LINE
8
0
6
CONTINUOUS
10
-158.531995
20
53.390070
30
0.0
11
-158.536195
21
52.900930
31
0.0
0
LINE
8
0
6
CONTINUOUS
10
-156.298645
20
42.493830
30
0.0
11
-156.347255
21
43.172860
31
0.0
0
LINE
8
0
6
CONTINUOUS
10
-156.300095
20
42.027540
30
0.0
11
-156.298645
21
42.493830
31
0.0
0
LINE
8
0
6
CONTINUOUS
10
-171.160225
20
-16.658760
30
0.0
11
-167.039075
21
-16.843830
31
0.0
0
LINE
8
0
6
CONTINUOUS
10
-167.039075
20
-16.843830
30
0.0
11
-162.995305
21
-17.336590
31
0.0
0
LINE
8
0
6
CONTINUOUS
10
-162.995305
20
-17.336590
30
0.0
11
-159.137155
21
-18.197450
31
0.0
0
LINE
8
0
6
CONTINUOUS
10
-159.137155
20
-18.197450
30
0.0
11
-160.082825
21
-19.167800
31
0.0
0
LINE
8
0
6
CONTINUOUS
10
-159.137155
20
-18.197450
30
0.0
11
-156.883225
21
-20.796460
31
0.0
0
LINE
8
0
6
CONTINUOUS
10
-159.130655
20
-17.427570
30
0.0
11
-159.137155
21
-18.197450
31
0.0
0
LINE
8
0
6
CONTINUOUS
10
-156.883225
20
-20.796460
30
0.0
11
-156.851255
21
-21.198040
31
0.0
0
LINE
8
0
6
CONTINUOUS
10
-156.882845
20
-20.026160
30
0.0
11
-156.883225
21
-20.796460
31
0.0
0
LINE
8
0
6
CONTINUOUS
10
-157.908275
20
-27.306300
30
0.0
11
-156.507615
21
-25.514290
31
0.0
0
LINE
8
0
6
CONTINUOUS
10
-158.090907
20
-27.364564
30
0.0
11
-157.908275
21
-27.306300
31
0.0
0
LINE
8
0
6
CONTINUOUS
10
-158.403625
20
-21.620970
30
0.0
11
-160.563075
21
-19.533910
31
0.0
0
LINE
8
0
6
CONTINUOUS
10
-160.563075
20
-19.533910
30
0.0
11
-163.515625
21
-18.831260
31
0.0
0
LINE
8
0
6
CONTINUOUS
10
-160.555405
20
-19.845520
30
0.0
11
-160.563075
21
-19.533910
31
0.0
0
LINE
8
0
6
CONTINUOUS
10
-158.098375
20
-26.049300
30
0.0
11
-158.100095
21
-25.745340
31
0.0
0
LINE
8
0
6
CONTINUOUS
10
-163.515625
20
-18.831260
30
0.0
11
-167.239155
21
-18.364270
31
0.0
0
LINE
8
0
6
CONTINUOUS
10
-167.239155
20
-18.364270
30
0.0
11
-171.154755
21
-18.139560
31
0.0
0
LINE
8
0
6
CONTINUOUS
10
-158.126965
20
-25.380200
30
0.0
11
-158.100095
21
-25.745340
31
0.0
0
LINE
8
0
6
CONTINUOUS
10
-156.347255
20
43.172860
30
0.0
11
-156.800995
21
49.510930
31
0.0
0
LINE
8
0
6
CONTINUOUS
10
-156.540875
20
-25.096620
30
0.0
11
-156.507615
21
-25.514290
31
0.0
0
LINE
8
0
6
CONTINUOUS
10
-156.507615
20
-25.514290
30
0.0
11
-156.505285
21
-24.758790
31
0.0
0
LINE
8
0
6
CONTINUOUS
10
-158.377785
20
-21.972020
30
0.0
11
-158.126965
21
-25.380200
31
0.0
0
LINE
8
0
6
CONTINUOUS
10
-156.851255
20
-21.198040
30
0.0
11
-156.540875
21
-25.096620
31
0.0
0
LINE
8
0
6
CONTINUOUS
10
-158.404145
20
-21.928320
30
0.0
11
-158.419495
21
-30.983305
31
0.0
0
LINE
8
0
6
CONTINUOUS
10
-156.882705
20
-19.775170
30
0.0
11
-156.882845
21
-20.026160
31
0.0
0
LINE
8
0
6
CONTINUOUS
10
-156.800995
20
49.510930
30
0.0
11
-156.847725
21
50.163750
31
0.0
0
LINE
8
0
6
CONTINUOUS
10
-158.377785
20
-21.972020
30
0.0
11
-158.403625
21
-21.620970
31
0.0
0
LINE
8
0
6
CONTINUOUS
10
-158.403625
20
-21.620970
30
0.0
11
-158.404145
21
-21.928320
31
0.0
0
LINE
8
0
6
CONTINUOUS
10
-156.504555
20
-24.518330
30
0.0
11
-156.300095
21
42.027540
31
0.0
0
LINE
8
0
6
CONTINUOUS
10
-158.536195
20
52.900930
30
0.0
11
-159.128515
21
-17.174460
31
0.0
0
LINE
8
0
6
CONTINUOUS
10
-171.155385
20
-18.053200
30
0.0
11
-167.211685
21
-18.229060
31
0.0
0
LINE
8
0
6
CONTINUOUS
10
-167.211685
20
-18.229060
30
0.0
11
-163.436345
21
-18.685730
31
0.0
0
LINE
8
0
6
CONTINUOUS
10
-163.436345
20
-18.685730
30
0.0
11
-160.292245
21
-19.382680
31
0.0
0
LINE
8
0
6
CONTINUOUS
10
-160.082825
20
-19.167800
30
0.0
11
-160.292245
21
-19.382680
31
0.0
0
LINE
8
0
6
CONTINUOUS
10
-175.387765
20
56.457200
30
0.0
11
-179.626245
21
55.313750
31
0.0
0
LINE
8
0
6
CONTINUOUS
10
-181.734645
20
-19.892820
30
0.0
11
-182.028662
21
-30.490207
31
0.0
0
LINE
8
0
6
CONTINUOUS
10
-184.101355
20
-26.107360
30
0.0
11
-184.147623
21
-31.102101
31
0.0
0
LINE
8
0
6
CONTINUOUS
10
-170.991535
20
56.905140
30
0.0
11
-175.387765
21
56.457200
31
0.0
0
LINE
8
0
6
CONTINUOUS
10
-181.999015
20
-19.431140
30
0.0
11
-183.855045
21
-21.677810
31
0.0
0
LINE
8
0
6
CONTINUOUS
10
-185.682205
20
-24.583480
30
0.0
11
-185.682645
21
-24.823940
31
0.0
0
LINE
8
0
6
CONTINUOUS
10
-183.163605
20
-17.481240
30
0.0
11
-183.164525
21
-17.228160
31
0.0
0
LINE
8
0
6
CONTINUOUS
10
-179.626245
20
55.313750
30
0.0
11
-183.420605
21
53.334490
31
0.0
0
LINE
8
0
6
CONTINUOUS
10
-183.418735
20
52.845360
30
0.0
11
-183.420605
21
53.334490
31
0.0
0
LINE
8
0
6
CONTINUOUS
10
-183.420605
20
53.334490
30
0.0
11
-185.077195
21
50.100720
31
0.0
0
LINE
8
0
6
CONTINUOUS
10
-185.560665
20
42.428480
30
0.0
11
-185.561525
21
41.962190
31
0.0
0
LINE
8
0
6
CONTINUOUS
10
-185.517865
20
43.107720
30
0.0
11
-185.560665
21
42.428480
31
0.0
0
LINE
8
0
6
CONTINUOUS
10
-175.278645
20
-16.862230
30
0.0
11
-171.160225
21
-16.658760
31
0.0
0
LINE
8
0
6
CONTINUOUS
10
-179.315205
20
-17.373040
30
0.0
11
-175.278645
21
-16.862230
31
0.0
0
LINE
8
0
6
CONTINUOUS
10
-183.160805
20
-18.251110
30
0.0
11
-179.315205
21
-17.373040
31
0.0
0
LINE
8
0
6
CONTINUOUS
10
-182.209645
20
-19.217200
30
0.0
11
-183.160805
21
-18.251110
31
0.0
0
LINE
8
0
6
CONTINUOUS
10
-183.160805
20
-18.251110
30
0.0
11
-183.163605
21
-17.481240
31
0.0
0
LINE
8
0
6
CONTINUOUS
10
-185.376955
20
-20.860090
30
0.0
11
-183.160805
21
-18.251110
31
0.0
0
LINE
8
0
6
CONTINUOUS
10
-185.376955
20
-20.860090
30
0.0
11
-185.373695
21
-20.089810
31
0.0
0
LINE
8
0
6
CONTINUOUS
10
-185.403085
20
-21.261780
30
0.0
11
-185.376955
21
-20.860090
31
0.0
0
LINE
8
0
6
CONTINUOUS
10
-185.684015
20
-25.579440
30
0.0
11
-184.257375
21
-27.365160
31
0.0
0
LINE
8
0
6
CONTINUOUS
10
-184.257375
20
-27.365160
30
0.0
11
-184.113424
21
-27.410231
31
0.0
0
LINE
8
0
6
CONTINUOUS
10
-181.725985
20
-19.581190
30
0.0
11
-183.855045
21
-21.677810
31
0.0
0
LINE
8
0
6
CONTINUOUS
10
-181.725985
20
-19.581190
30
0.0
11
-181.734645
21
-19.892820
31
0.0
0
LINE
8
0
6
CONTINUOUS
10
-178.783685
20
-18.865350
30
0.0
11
-181.725985
21
-19.581190
31
0.0
0
LINE
8
0
6
CONTINUOUS
10
-184.098555
20
-25.803390
30
0.0
11
-184.101355
21
-26.107360
31
0.0
0
LINE
8
0
6
CONTINUOUS
10
-175.067025
20
-18.381760
30
0.0
11
-178.783685
21
-18.865350
31
0.0
0
LINE
8
0
6
CONTINUOUS
10
-171.154755
20
-18.139560
30
0.0
11
-175.067025
21
-18.381760
31
0.0
0
LINE
8
0
6
CONTINUOUS
10
-184.098555
20
-25.803390
30
0.0
11
-184.076985
21
-25.438150
31
0.0
0
LINE
8
0
6
CONTINUOUS
10
-185.118355
20
49.447690
30
0.0
11
-185.517865
21
43.107720
31
0.0
0
LINE
8
0
6
CONTINUOUS
10
-185.682645
20
-24.823940
30
0.0
11
-185.684015
21
-25.579440
31
0.0
0
LINE
8
0
6
CONTINUOUS
10
-185.684015
20
-25.579440
30
0.0
11
-185.656815
21
-25.161640
31
0.0
0
LINE
8
0
6
CONTINUOUS
10
-184.076985
20
-25.438150
30
0.0
11
-183.875775
21
-22.028970
31
0.0
0
LINE
8
0
6
CONTINUOUS
10
-185.656815
20
-25.161640
30
0.0
11
-185.403085
21
-21.261780
31
0.0
0
LINE
8
0
6
CONTINUOUS
10
-183.870894
20
-31.022190
30
0.0
11
-183.855575
21
-21.985160
31
0.0
0
LINE
8
0
6
CONTINUOUS
10
-185.373695
20
-20.089810
30
0.0
11
-185.372625
21
-19.838800
31
0.0
0
LINE
8
0
6
CONTINUOUS
10
-185.077195
20
50.100720
30
0.0
11
-185.118355
21
49.447690
31
0.0
0
LINE
8
0
6
CONTINUOUS
10
-183.855575
20
-21.985160
30
0.0
11
-183.855045
21
-21.677810
31
0.0
0
LINE
8
0
6
CONTINUOUS
10
-183.855045
20
-21.677810
30
0.0
11
-183.875775
21
-22.028970
31
0.0
0
LINE
8
0
6
CONTINUOUS
10
-185.561525
20
41.962190
30
0.0
11
-185.682205
21
-24.583480
31
0.0
0
LINE
8
0
6
CONTINUOUS
10
-183.164525
20
-17.228160
30
0.0
11
-183.418735
21
52.845360
31
0.0
0
LINE
8
0
6
CONTINUOUS
10
-175.096455
20
-18.246660
30
0.0
11
-171.155385
21
-18.053200
31
0.0
0
LINE
8
0
6
CONTINUOUS
10
-178.865115
20
-18.720180
30
0.0
11
-175.096455
21
-18.246660
31
0.0
0
LINE
8
0
6
CONTINUOUS
10
-181.999015
20
-19.431140
30
0.0
11
-178.865115
21
-18.720180
31
0.0
0
LINE
8
0
6
CONTINUOUS
10
-181.999015
20
-19.431140
30
0.0
11
-182.209645
21
-19.217200
31
0.0
0
LINE
8
0
6
CONTINUOUS
10
-220.897985
20
-74.881600
30
0.0
11
-221.124725
21
-78.791930
31
0.0
0
LINE
8
0
6
CONTINUOUS
10
-219.226075
20
-64.007460
30
0.0
11
-219.648155
21
-65.810350
31
0.0
0
LINE
8
0
6
CONTINUOUS
10
-219.648155
20
-65.810350
30
0.0
11
-220.897985
21
-74.881600
31
0.0
0
LINE
8
0
6
CONTINUOUS
10
-214.283145
20
-52.243360
30
0.0
11
-215.021135
21
-53.806280
31
0.0
0
LINE
8
0
6
CONTINUOUS
10
-215.021135
20
-53.806280
30
0.0
11
-218.623815
21
-62.241280
31
0.0
0
LINE
8
0
6
CONTINUOUS
10
-200.408325
20
-37.824390
30
0.0
11
-207.833105
21
-43.920160
31
0.0
0
LINE
8
0
6
CONTINUOUS
10
-191.518215
20
-33.230510
30
0.0
11
-200.408325
21
-37.824390
31
0.0
0
LINE
8
0
6
CONTINUOUS
10
-181.608475
20
-30.368870
30
0.0
11
-191.518215
21
-33.230510
31
0.0
0
LINE
8
0
6
CONTINUOUS
10
-171.176155
20
-29.383000
30
0.0
11
-181.608475
21
-30.368870
31
0.0
0
LINE
8
0
6
CONTINUOUS
10
-160.744155
20
-30.322300
30
0.0
11
-171.176155
21
-29.383000
31
0.0
0
LINE
8
0
6
CONTINUOUS
10
-150.835825
20
-33.139680
30
0.0
11
-160.744155
21
-30.322300
31
0.0
0
LINE
8
0
6
CONTINUOUS
10
-141.947845
20
-37.693890
30
0.0
11
-150.835825
21
-33.139680
31
0.0
0
LINE
8
0
6
CONTINUOUS
10
-134.525975
20
-43.756510
30
0.0
11
-141.947845
21
-37.693890
31
0.0
0
LINE
8
0
6
CONTINUOUS
10
-127.294125
20
-53.610430
30
0.0
11
-128.059235
21
-52.050870
31
0.0
0
LINE
8
0
6
CONTINUOUS
10
-123.695455
20
-62.029370
30
0.0
11
-127.294125
21
-53.610430
31
0.0
0
LINE
8
0
6
CONTINUOUS
10
-122.616395
20
-65.593750
30
0.0
11
-123.065855
21
-63.792790
31
0.0
0
LINE
8
0
6
CONTINUOUS
10
-121.370855
20
-74.659320
30
0.0
11
-122.616395
21
-65.593750
31
0.0
0
LINE
8
0
6
CONTINUOUS
10
-121.087345
20
-78.568530
30
0.0
11
-121.370855
21
-74.659320
31
0.0
0
LINE
8
0
6
CONTINUOUS
10
-218.623815
20
-62.241280
30
0.0
11
-219.226075
21
-64.007460
31
0.0
0
LINE
8
0
6
CONTINUOUS
10
-123.065855
20
-63.792790
30
0.0
11
-123.695455
21
-62.029370
31
0.0
0
LINE
8
0
6
CONTINUOUS
10
-132.004835
20
-104.272680
30
0.0
11
-126.043935
21
-96.492720
31
0.0
0
LINE
8
0
6
CONTINUOUS
10
-171.114695
20
-119.782630
30
0.0
11
-159.984235
21
-118.730770
31
0.0
0
LINE
8
0
6
CONTINUOUS
10
-210.217235
20
-104.447340
30
0.0
11
-202.298705
21
-110.915650
31
0.0
0
LINE
8
0
6
CONTINUOUS
10
-202.298705
20
-110.915650
30
0.0
11
-192.815995
21
-115.774570
31
0.0
0
LINE
8
0
6
CONTINUOUS
10
-126.043935
20
-96.492720
30
0.0
11
-122.342555
21
-87.826620
31
0.0
0
LINE
8
0
6
CONTINUOUS
10
-121.086315
20
-78.708950
30
0.0
11
-121.087345
21
-78.568530
31
0.0
0
LINE
8
0
6
CONTINUOUS
10
-122.342555
20
-87.826620
30
0.0
11
-121.086315
21
-78.708950
31
0.0
0
LINE
8
0
6
CONTINUOUS
10
-221.123695
20
-78.932330
30
0.0
11
-219.871775
21
-88.044410
31
0.0
0
LINE
8
0
6
CONTINUOUS
10
-221.124725
20
-78.791930
30
0.0
11
-221.123695
21
-78.932330
31
0.0
0
LINE
8
0
6
CONTINUOUS
10
-159.984235
20
-118.730770
30
0.0
11
-149.411415
21
-115.677630
31
0.0
0
LINE
8
0
6
CONTINUOUS
10
-219.871775
20
-88.044410
30
0.0
11
-216.174495
21
-96.694000
31
0.0
0
LINE
8
0
6
CONTINUOUS
10
-149.411415
20
-115.677630
30
0.0
11
-139.926415
21
-110.776380
31
0.0
0
LINE
8
0
6
CONTINUOUS
10
-192.815995
20
-115.774570
30
0.0
11
-182.244625
21
-118.780470
31
0.0
0
LINE
8
0
6
CONTINUOUS
10
-182.244625
20
-118.780470
30
0.0
11
-171.114695
21
-119.782630
31
0.0
0
LINE
8
0
6
CONTINUOUS
10
-216.174495
20
-96.694000
30
0.0
11
-210.217235
21
-104.447340
31
0.0
0
LINE
8
0
6
CONTINUOUS
10
-139.926415
20
-110.776380
30
0.0
11
-132.004835
21
-104.272680
31
0.0
0
LINE
8
0
6
CONTINUOUS
10
-121.080785
20
-79.473300
30
0.0
11
-121.084885
21
-78.906680
31
0.0
0
LINE
8
0
6
CONTINUOUS
10
-122.337005
20
-88.590980
30
0.0
11
-121.080785
21
-79.473300
31
0.0
0
LINE
8
0
6
CONTINUOUS
10
-221.118145
20
-79.696700
30
0.0
11
-219.866225
21
-88.808780
31
0.0
0
LINE
8
0
6
CONTINUOUS
10
-221.122265
20
-79.130090
30
0.0
11
-221.118145
21
-79.696700
31
0.0
0
LINE
8
0
6
CONTINUOUS
10
-133.204825
20
-106.725650
30
0.0
11
-132.355505
21
-105.978560
31
0.0
0
LINE
8
0
6
CONTINUOUS
10
-140.878505
20
-113.025810
30
0.0
11
-133.204825
21
-106.725650
31
0.0
0
LINE
8
0
6
CONTINUOUS
10
-215.739925
20
-98.470560
30
0.0
11
-209.838245
21
-106.151590
31
0.0
0
LINE
8
0
6
CONTINUOUS
10
-181.872445
20
-120.779450
30
0.0
11
-171.090795
21
-121.750250
31
0.0
0
LINE
8
0
6
CONTINUOUS
10
-192.113025
20
-117.867610
30
0.0
11
-181.872445
21
-120.779450
31
0.0
0
LINE
8
0
6
CONTINUOUS
10
-150.066685
20
-117.773710
30
0.0
11
-140.878505
21
-113.025810
31
0.0
0
LINE
8
0
6
CONTINUOUS
10
-219.402735
20
-89.901690
30
0.0
11
-215.739925
21
-98.470560
31
0.0
0
LINE
8
0
6
CONTINUOUS
10
-219.866225
20
-88.808780
30
0.0
11
-219.402735
21
-89.901690
31
0.0
0
LINE
8
0
6
CONTINUOUS
10
-201.298965
20
-113.160750
30
0.0
11
-192.113025
21
-117.867610
31
0.0
0
LINE
8
0
6
CONTINUOUS
10
-160.308635
20
-120.731290
30
0.0
11
-150.066685
21
-117.773710
31
0.0
0
LINE
8
0
6
CONTINUOUS
10
-122.783325
20
-89.685930
30
0.0
11
-122.337005
21
-88.590980
31
0.0
0
LINE
8
0
6
CONTINUOUS
10
-126.450165
20
-98.271190
30
0.0
11
-122.783325
21
-89.685930
31
0.0
0
LINE
8
0
6
CONTINUOUS
10
-208.969695
20
-106.894850
30
0.0
11
-201.298965
21
-113.160750
31
0.0
0
LINE
8
0
6
CONTINUOUS
10
-209.838245
20
-106.151590
30
0.0
11
-208.969695
21
-106.894850
31
0.0
0
LINE
8
0
6
CONTINUOUS
10
-171.090795
20
-121.750250
30
0.0
11
-160.308635
21
-120.731290
31
0.0
0
LINE
8
0
6
CONTINUOUS
10
-132.355505
20
-105.978560
30
0.0
11
-126.450165
21
-98.271190
31
0.0
0
LINE
8
0
6
CONTINUOUS
10
-122.341635
20
-87.952720
30
0.0
11
-121.085395
21
-78.835040
31
0.0
0
LINE
8
0
6
CONTINUOUS
10
-126.043015
20
-96.618830
30
0.0
11
-122.341635
21
-87.952720
31
0.0
0
LINE
8
0
6
CONTINUOUS
10
-132.003925
20
-104.398790
30
0.0
11
-126.043015
21
-96.618830
31
0.0
0
LINE
8
0
6
CONTINUOUS
10
-139.925505
20
-110.902470
30
0.0
11
-132.003925
21
-104.398790
31
0.0
0
LINE
8
0
6
CONTINUOUS
10
-149.410495
20
-115.803750
30
0.0
11
-139.925505
21
-110.902470
31
0.0
0
LINE
8
0
6
CONTINUOUS
10
-159.983315
20
-118.856880
30
0.0
11
-149.410495
21
-115.803750
31
0.0
0
LINE
8
0
6
CONTINUOUS
10
-171.113785
20
-119.908720
30
0.0
11
-159.983315
21
-118.856880
31
0.0
0
LINE
8
0
6
CONTINUOUS
10
-182.243715
20
-118.906580
30
0.0
11
-171.113785
21
-119.908720
31
0.0
0
LINE
8
0
6
CONTINUOUS
10
-192.815075
20
-115.900680
30
0.0
11
-182.243715
21
-118.906580
31
0.0
0
LINE
8
0
6
CONTINUOUS
10
-202.297805
20
-111.041750
30
0.0
11
-192.815075
21
-115.900680
31
0.0
0
LINE
8
0
6
CONTINUOUS
10
-210.216315
20
-104.573430
30
0.0
11
-202.297805
21
-111.041750
31
0.0
0
LINE
8
0
6
CONTINUOUS
10
-216.173575
20
-96.820120
30
0.0
11
-210.216315
21
-104.573430
31
0.0
0
LINE
8
0
6
CONTINUOUS
10
-219.870855
20
-88.170520
30
0.0
11
-216.173575
21
-96.820120
31
0.0
0
LINE
8
0
6
CONTINUOUS
10
-221.122785
20
-79.058450
30
0.0
11
-219.870855
21
-88.170520
31
0.0
0
LINE
8
0
6
CONTINUOUS
10
-221.114565
20
-78.998786
30
0.0
11
-221.122785
21
-79.058450
31
0.0
0
LINE
8
0
6
CONTINUOUS
10
-121.085395
20
-78.835040
30
0.0
11
-121.094528
21
-78.768563
31
0.0
0
LINE
8
0
6
CONTINUOUS
10
-126.563625
20
-75.498860
30
0.0
11
-125.413975
21
-67.154760
31
0.0
0
LINE
8
0
6
CONTINUOUS
10
-129.950965
20
-83.429730
30
0.0
11
-126.563625
21
-75.498860
31
0.0
0
LINE
8
0
6
CONTINUOUS
10
-135.406155
20
-90.549610
30
0.0
11
-129.950965
21
-83.429730
31
0.0
0
LINE
8
0
6
CONTINUOUS
10
-142.655665
20
-96.501510
30
0.0
11
-135.406155
21
-90.549610
31
0.0
0
LINE
8
0
6
CONTINUOUS
10
-151.335915
20
-100.986930
30
0.0
11
-142.655665
21
-96.501510
31
0.0
0
LINE
8
0
6
CONTINUOUS
10
-161.011695
20
-103.781020
30
0.0
11
-151.335915
21
-100.986930
31
0.0
0
LINE
8
0
6
CONTINUOUS
10
-171.197835
20
-104.743640
30
0.0
11
-161.011695
21
-103.781020
31
0.0
0
LINE
8
0
6
CONTINUOUS
10
-181.383485
20
-103.826530
30
0.0
11
-171.197835
21
-104.743640
31
0.0
0
LINE
8
0
6
CONTINUOUS
10
-191.057975
20
-101.075640
30
0.0
11
-181.383485
21
-103.826530
31
0.0
0
LINE
8
0
6
CONTINUOUS
10
-199.736145
20
-96.628960
30
0.0
11
-191.057975
21
-101.075640
31
0.0
0
LINE
8
0
6
CONTINUOUS
10
-206.982825
20
-90.709450
30
0.0
11
-199.736145
21
-96.628960
31
0.0
0
LINE
8
0
6
CONTINUOUS
10
-212.434635
20
-83.613920
30
0.0
11
-206.982825
21
-90.709450
31
0.0
0
LINE
8
0
6
CONTINUOUS
10
-215.818255
20
-75.698180
30
0.0
11
-212.434635
21
-83.613920
31
0.0
0
LINE
8
0
6
CONTINUOUS
10
-216.963985
20
-67.359190
30
0.0
11
-215.818255
21
-75.698180
31
0.0
0
LINE
8
0
6
CONTINUOUS
10
-215.814305
20
-59.015020
30
0.0
11
-216.963985
21
-67.359190
31
0.0
0
LINE
8
0
6
CONTINUOUS
10
-212.426955
20
-51.084170
30
0.0
11
-215.814305
21
-59.015020
31
0.0
0
LINE
8
0
6
CONTINUOUS
10
-206.971765
20
-43.964280
30
0.0
11
-212.426955
21
-51.084170
31
0.0
0
LINE
8
0
6
CONTINUOUS
10
-199.722275
20
-38.012380
30
0.0
11
-206.971765
21
-43.964280
31
0.0
0
LINE
8
0
6
CONTINUOUS
10
-191.041985
20
-33.526950
30
0.0
11
-199.722275
21
-38.012380
31
0.0
0
LINE
8
0
6
CONTINUOUS
10
-181.366215
20
-30.732850
30
0.0
11
-191.041985
21
-33.526950
31
0.0
0
LINE
8
0
6
CONTINUOUS
10
-171.180155
20
-29.770250
30
0.0
11
-181.366215
21
-30.732850
31
0.0
0
LINE
8
0
6
CONTINUOUS
10
-160.994415
20
-30.687380
30
0.0
11
-171.180155
21
-29.770250
31
0.0
0
LINE
8
0
6
CONTINUOUS
10
-151.319925
20
-33.438270
30
0.0
11
-160.994415
21
-30.687380
31
0.0
0
LINE
8
0
6
CONTINUOUS
10
-142.641775
20
-37.884970
30
0.0
11
-151.319925
21
-33.438270
31
0.0
0
LINE
8
0
6
CONTINUOUS
10
-135.395095
20
-43.804480
30
0.0
11
-142.641775
21
-37.884970
31
0.0
0
LINE
8
0
6
CONTINUOUS
10
-129.943245
20
-50.900050
30
0.0
11
-135.395095
21
-43.804480
31
0.0
0
LINE
8
0
6
CONTINUOUS
10
-126.559665
20
-58.815780
30
0.0
11
-129.943245
21
-50.900050
31
0.0
0
LINE
8
0
6
CONTINUOUS
10
-125.413975
20
-67.154760
30
0.0
11
-126.559665
21
-58.815780
31
0.0
0
LINE
8
0
6
CONTINUOUS
10
-207.833105
20
-43.920160
30
0.0
11
-208.207635
21
-44.252160
31
0.0
0
LINE
8
0
6
CONTINUOUS
10
-208.207635
20
-44.252160
30
0.0
11
-213.852445
21
-51.619520
31
0.0
0
LINE
8
0
6
CONTINUOUS
10
-134.142915
20
-44.086790
30
0.0
11
-134.525975
21
-43.756510
31
0.0
0
LINE
8
0
6
CONTINUOUS
10
-128.501575
20
-51.428980
30
0.0
11
-134.142915
21
-44.086790
31
0.0
0
LINE
8
0
6
CONTINUOUS
10
-213.852445
20
-51.619520
30
0.0
11
-214.283145
21
-52.243360
31
0.0
0
LINE
8
0
6
CONTINUOUS
10
-128.059235
20
-52.050870
30
0.0
11
-128.501575
21
-51.428980
31
0.0
0
LINE
8
0
6
CONTINUOUS
10
-159.991294
20
54.141403
30
0.0
11
-160.743435
21
61.092750
31
0.0
0
LINE
8
0
6
CONTINUOUS
10
-160.743435
20
61.092750
30
0.0
11
-160.770035
21
61.338620
31
0.0
0
LINE
8
0
6
CONTINUOUS
10
-160.770035
20
61.338620
30
0.0
11
-161.134415
21
63.614640
31
0.0
0
LINE
8
0
6
CONTINUOUS
10
-161.134415
20
63.614640
30
0.0
11
-162.167325
21
65.731550
31
0.0
0
LINE
8
0
6
CONTINUOUS
10
-162.167325
20
65.731550
30
0.0
11
-162.701265
21
66.325199
31
0.0
0
LINE
8
0
6
CONTINUOUS
10
-167.620455
20
85.649320
30
0.0
11
-167.620471
21
78.442824
31
0.0
0
LINE
8
0
6
CONTINUOUS
10
-164.692255
20
82.955280
30
0.0
11
-164.692255
21
78.442830
31
0.0
0
LINE
8
0
6
CONTINUOUS
10
-163.620455
20
78.442830
30
0.0
11
-163.620455
21
79.275160
31
0.0
0
LINE
8
0
6
CONTINUOUS
10
-179.620465
20
79.275140
30
0.0
11
-179.620465
21
78.442779
31
0.0
0
LINE
8
0
6
CONTINUOUS
10
-178.548665
20
82.955270
30
0.0
11
-178.548665
21
78.442784
31
0.0
0
LINE
8
0
6
CONTINUOUS
10
-175.620465
20
85.649310
30
0.0
11
-175.620465
21
78.442800
31
0.0
0
LINE
8
0
6
CONTINUOUS
10
-171.620465
20
78.442808
30
0.0
11
-171.620465
21
86.635410
31
0.0
0
LINE
8
0
6
CONTINUOUS
10
-167.620455
20
92.516510
30
0.0
11
-167.620455
21
85.649320
31
0.0
0
LINE
8
0
6
CONTINUOUS
10
-164.692255
20
89.746250
30
0.0
11
-164.692255
21
82.955280
31
0.0
0
LINE
8
0
6
CONTINUOUS
10
-163.620455
20
79.275160
30
0.0
11
-163.620455
21
85.962010
31
0.0
0
LINE
8
0
6
CONTINUOUS
10
-179.620465
20
85.961990
30
0.0
11
-179.620465
21
79.275140
31
0.0
0
LINE
8
0
6
CONTINUOUS
10
-178.548665
20
89.746240
30
0.0
11
-178.548665
21
82.955270
31
0.0
0
LINE
8
0
6
CONTINUOUS
10
-175.620465
20
92.516490
30
0.0
11
-175.620465
21
85.649310
31
0.0
0
LINE
8
0
6
CONTINUOUS
10
-171.620465
20
86.635410
30
0.0
11
-171.620465
21
93.530480
31
0.0
0
LINE
8
0
6
CONTINUOUS
10
-167.620475
20
97.611050
30
0.0
11
-167.620455
21
92.516510
31
0.0
0
LINE
8
0
6
CONTINUOUS
10
-164.692275
20
94.775190
30
0.0
11
-164.692255
21
89.746250
31
0.0
0
LINE
8
0
6
CONTINUOUS
10
-163.620455
20
85.962010
30
0.0
11
-163.620475
21
90.901350
31
0.0
0
LINE
8
0
6
CONTINUOUS
10
-179.620475
20
90.901330
30
0.0
11
-179.620465
21
85.961990
31
0.0
0
LINE
8
0
6
CONTINUOUS
10
-178.548685
20
94.775180
30
0.0
11
-178.548665
21
89.746240
31
0.0
0
LINE
8
0
6
CONTINUOUS
10
-175.620485
20
97.611050
30
0.0
11
-175.620465
21
92.516490
31
0.0
0
LINE
8
0
6
CONTINUOUS
10
-171.620465
20
93.530480
30
0.0
11
-171.620485
21
98.649040
31
0.0
0
LINE
8
0
6
CONTINUOUS
10
-167.620475
20
101.171540
30
0.0
11
-167.620475
21
97.611050
31
0.0
0
LINE
8
0
6
CONTINUOUS
10
-164.692275
20
98.287950
30
0.0
11
-164.692275
21
94.775190
31
0.0
0
LINE
8
0
6
CONTINUOUS
10
-163.620475
20
90.901350
30
0.0
11
-163.620455
21
94.348910
31
0.0
0
LINE
8
0
6
CONTINUOUS
10
-179.620465
20
94.348890
30
0.0
11
-179.620475
21
90.901330
31
0.0
0
LINE
8
0
6
CONTINUOUS
10
-178.548685
20
98.287940
30
0.0
11
-178.548685
21
94.775180
31
0.0
0
LINE
8
0
6
CONTINUOUS
10
-175.620485
20
101.171530
30
0.0
11
-175.620485
21
97.611050
31
0.0
0
LINE
8
0
6
CONTINUOUS
10
-171.620485
20
98.649040
30
0.0
11
-171.620465
21
102.227000
31
0.0
0
LINE
8
0
6
CONTINUOUS
10
-167.620475
20
103.449550
30
0.0
11
-167.620475
21
101.171540
31
0.0
0
LINE
8
0
6
CONTINUOUS
10
-164.692255
20
100.537880
30
0.0
11
-164.692275
21
98.287950
31
0.0
0
LINE
8
0
6
CONTINUOUS
10
-163.620455
20
94.348910
30
0.0
11
-163.620455
21
96.560460
31
0.0
0
LINE
8
0
6
CONTINUOUS
10
-179.620465
20
96.560440
30
0.0
11
-179.620465
21
94.348890
31
0.0
0
LINE
8
0
6
CONTINUOUS
10
-178.548665
20
100.537860
30
0.0
11
-178.548685
21
98.287940
31
0.0
0
LINE
8
0
6
CONTINUOUS
10
-175.620465
20
103.449540
30
0.0
11
-175.620485
21
101.171530
31
0.0
0
LINE
8
0
6
CONTINUOUS
10
-171.620465
20
102.227000
30
0.0
11
-171.620465
21
104.515300
31
0.0
0
LINE
8
0
6
CONTINUOUS
10
-167.620455
20
104.710470
30
0.0
11
-167.620475
21
103.449550
31
0.0
0
LINE
8
0
6
CONTINUOUS
10
-164.692255
20
101.786280
30
0.0
11
-164.692255
21
100.537880
31
0.0
0
LINE
8
0
6
CONTINUOUS
10
-163.620455
20
96.560460
30
0.0
11
-163.620455
21
97.791750
31
0.0
0
LINE
8
0
6
CONTINUOUS
10
-179.620465
20
97.791730
30
0.0
11
-179.620465
21
96.560440
31
0.0
0
LINE
8
0
6
CONTINUOUS
10
-178.548665
20
101.786260
30
0.0
11
-178.548665
21
100.537860
31
0.0
0
LINE
8
0
6
CONTINUOUS
10
-175.620465
20
104.710470
30
0.0
11
-175.620465
21
103.449540
31
0.0
0
LINE
8
0
6
CONTINUOUS
10
-171.620465
20
104.515300
30
0.0
11
-171.620465
21
105.780800
31
0.0
0
LINE
8
0
6
CONTINUOUS
10
-167.620455
20
105.225860
30
0.0
11
-171.620465
21
106.297520
31
0.0
0
LINE
8
0
6
CONTINUOUS
10
-167.620455
20
105.225860
30
0.0
11
-167.620455
21
104.710470
31
0.0
0
LINE
8
0
6
CONTINUOUS
10
-164.692255
20
102.298020
30
0.0
11
-167.620455
21
105.225860
31
0.0
0
LINE
8
0
6
CONTINUOUS
10
-164.692255
20
102.298020
30
0.0
11
-164.692255
21
101.786280
31
0.0
0
LINE
8
0
6
CONTINUOUS
10
-163.620455
20
98.298520
30
0.0
11
-164.692255
21
102.298020
31
0.0
0
LINE
8
0
6
CONTINUOUS
10
-163.620455
20
97.791750
30
0.0
11
-163.620455
21
98.298520
31
0.0
0
LINE
8
0
6
CONTINUOUS
10
-179.620465
20
98.298500
30
0.0
11
-179.620465
21
97.791730
31
0.0
0
LINE
8
0
6
CONTINUOUS
10
-178.548665
20
102.298000
30
0.0
11
-179.620465
21
98.298500
31
0.0
0
LINE
8
0
6
CONTINUOUS
10
-178.548665
20
102.298000
30
0.0
11
-178.548665
21
101.786260
31
0.0
0
LINE
8
0
6
CONTINUOUS
10
-175.620465
20
105.225850
30
0.0
11
-178.548665
21
102.298000
31
0.0
0
LINE
8
0
6
CONTINUOUS
10
-175.620465
20
105.225850
30
0.0
11
-175.620465
21
104.710470
31
0.0
0
LINE
8
0
6
CONTINUOUS
10
-171.620465
20
106.297520
30
0.0
11
-175.620465
21
105.225850
31
0.0
0
LINE
8
0
6
CONTINUOUS
10
-171.620465
20
105.780800
30
0.0
11
-171.620465
21
106.297520
31
0.0
0
LINE
8
0
6
CONTINUOUS
10
-244.641465
20
47.383660
30
0.0
11
-229.000245
21
47.364090
31
0.0
0
LINE
8
0
6
CONTINUOUS
10
-228.887795
20
55.792100
30
0.0
11
-229.000215
21
55.788980
31
0.0
0
LINE
8
0
6
CONTINUOUS
10
-228.887795
20
53.168750
30
0.0
11
-228.887795
21
55.792100
31
0.0
0
LINE
8
0
6
CONTINUOUS
10
-229.000245
20
47.364090
30
0.0
11
-228.887825
21
47.367400
31
0.0
0
LINE
8
0
6
CONTINUOUS
10
-228.887825
20
47.394800
30
0.0
11
-228.887825
21
47.624020
31
0.0
0
LINE
8
0
6
CONTINUOUS
10
-228.887825
20
47.624020
30
0.0
11
-228.887825
21
48.039440
31
0.0
0
LINE
8
0
6
CONTINUOUS
10
-228.887825
20
48.039440
30
0.0
11
-228.887825
21
48.612730
31
0.0
0
LINE
8
0
6
CONTINUOUS
10
-228.887825
20
48.612730
30
0.0
11
-228.887825
21
49.304830
31
0.0
0
LINE
8
0
6
CONTINUOUS
10
-228.887825
20
49.304830
30
0.0
11
-228.887825
21
50.068610
31
0.0
0
LINE
8
0
6
CONTINUOUS
10
-228.887825
20
50.068610
30
0.0
11
-228.887825
21
50.851960
31
0.0
0
LINE
8
0
6
CONTINUOUS
10
-228.887825
20
50.851960
30
0.0
11
-228.887825
21
51.601540
31
0.0
0
LINE
8
0
6
CONTINUOUS
10
-228.887825
20
51.601540
30
0.0
11
-228.887825
21
52.266250
31
0.0
0
LINE
8
0
6
CONTINUOUS
10
-228.887795
20
52.800790
30
0.0
11
-228.887795
21
53.168750
31
0.0
0
LINE
8
0
6
CONTINUOUS
10
-228.887795
20
52.800790
30
0.0
11
-228.887825
21
52.266250
31
0.0
0
LINE
8
0
6
CONTINUOUS
10
-245.354125
20
78.248530
30
0.0
11
-245.354125
21
77.138840
31
0.0
0
LINE
8
0
6
CONTINUOUS
10
-244.641495
20
78.248530
30
0.0
11
-245.354125
21
78.248530
31
0.0
0
LINE
8
0
6
CONTINUOUS
10
-245.354125
20
77.138840
30
0.0
11
-245.354125
21
74.824610
31
0.0
0
LINE
8
0
6
CONTINUOUS
10
-245.354125
20
74.824610
30
0.0
11
-245.354165
21
71.463580
31
0.0
0
LINE
8
0
6
CONTINUOUS
10
-245.354165
20
71.463580
30
0.0
11
-245.354195
21
67.284750
31
0.0
0
LINE
8
0
6
CONTINUOUS
10
-245.354195
20
67.284750
30
0.0
11
-245.354235
21
62.572970
31
0.0
0
LINE
8
0
6
CONTINUOUS
10
-245.354235
20
62.572970
30
0.0
11
-245.354275
21
57.649210
31
0.0
0
LINE
8
0
6
CONTINUOUS
10
-245.354425
20
44.897710
30
0.0
11
-245.354465
21
42.288200
31
0.0
0
LINE
8
0
6
CONTINUOUS
10
-245.354465
20
42.288200
30
0.0
11
-245.354465
21
40.849150
31
0.0
0
LINE
8
0
6
CONTINUOUS
10
-245.354505
20
40.678680
30
0.0
11
-244.641845
21
40.678670
31
0.0
0
LINE
8
0
6
CONTINUOUS
10
-244.641845
20
40.678670
30
0.0
11
-224.381105
21
40.678510
31
0.0
0
LINE
8
0
6
CONTINUOUS
10
-224.380725
20
78.248380
30
0.0
11
-244.641495
21
78.248530
31
0.0
0
LINE
8
0
6
CONTINUOUS
10
-224.381105
20
40.678510
30
0.0
11
-224.090505
21
40.678510
31
0.0
0
LINE
8
0
6
CONTINUOUS
10
-224.090505
20
40.678510
30
0.0
11
-224.090465
21
40.849010
31
0.0
0
LINE
8
0
6
CONTINUOUS
10
-224.090465
20
40.849010
30
0.0
11
-224.090425
21
42.288030
31
0.0
0
LINE
8
0
6
CONTINUOUS
10
-224.090425
20
42.288030
30
0.0
11
-224.090385
21
44.897590
31
0.0
0
LINE
8
0
6
CONTINUOUS
10
-224.090385
20
44.897590
30
0.0
11
-224.090355
21
48.499770
31
0.0
0
LINE
8
0
6
CONTINUOUS
10
-224.090355
20
48.499770
30
0.0
11
-224.090315
21
52.849030
31
0.0
0
LINE
8
0
6
CONTINUOUS
10
-224.090315
20
52.849030
30
0.0
11
-224.090235
21
57.649070
31
0.0
0
LINE
8
0
6
CONTINUOUS
10
-224.090235
20
57.649070
30
0.0
11
-224.090195
21
62.572870
31
0.0
0
LINE
8
0
6
CONTINUOUS
10
-224.090165
20
67.284650
30
0.0
11
-224.090125
21
71.463440
31
0.0
0
LINE
8
0
6
CONTINUOUS
10
-224.090125
20
71.463440
30
0.0
11
-224.090125
21
74.824480
31
0.0
0
LINE
8
0
6
CONTINUOUS
10
-224.090125
20
74.824480
30
0.0
11
-224.090125
21
77.138720
31
0.0
0
LINE
8
0
6
CONTINUOUS
10
-224.090125
20
78.248380
30
0.0
11
-224.380725
21
78.248380
31
0.0
0
LINE
8
0
6
CONTINUOUS
10
-224.090125
20
77.138720
30
0.0
11
-224.090125
21
78.248380
31
0.0
0
LINE
8
0
6
CONTINUOUS
10
-224.090165
20
67.284650
30
0.0
11
-224.090195
21
62.572870
31
0.0
0
LINE
8
0
6
CONTINUOUS
10
-245.354235
20
53.191970
30
0.0
11
-245.354235
21
52.825420
31
0.0
0
LINE
8
0
6
CONTINUOUS
10
-245.354275
20
47.388090
30
0.0
11
-244.641465
21
47.383660
31
0.0
0
LINE
8
0
6
CONTINUOUS
10
-245.354275
20
47.647790
30
0.0
11
-245.354275
21
47.417070
31
0.0
0
LINE
8
0
6
CONTINUOUS
10
-245.354275
20
48.064540
30
0.0
11
-245.354275
21
47.647790
31
0.0
0
LINE
8
0
6
CONTINUOUS
10
-245.354275
20
48.638890
30
0.0
11
-245.354275
21
48.064540
31
0.0
0
LINE
8
0
6
CONTINUOUS
10
-245.354275
20
49.331720
30
0.0
11
-245.354275
21
48.638890
31
0.0
0
LINE
8
0
6
CONTINUOUS
10
-245.354275
20
50.095820
30
0.0
11
-245.354275
21
49.331720
31
0.0
0
LINE
8
0
6
CONTINUOUS
10
-245.354275
20
50.879110
30
0.0
11
-245.354275
21
50.095820
31
0.0
0
LINE
8
0
6
CONTINUOUS
10
-245.354235
20
51.628200
30
0.0
11
-245.354275
21
50.879110
31
0.0
0
LINE
8
0
6
CONTINUOUS
10
-245.354235
20
52.292060
30
0.0
11
-245.354235
21
51.628200
31
0.0
0
LINE
8
0
6
CONTINUOUS
10
-245.354235
20
52.825420
30
0.0
11
-245.354235
21
52.292060
31
0.0
0
LINE
8
0
6
CONTINUOUS
10
-245.354195
20
55.802440
30
0.0
11
-245.354235
21
53.191970
31
0.0
0
LINE
8
0
6
CONTINUOUS
10
-244.641385
20
55.803270
30
0.0
11
-245.354195
21
55.802440
31
0.0
0
LINE
8
0
6
CONTINUOUS
10
-229.000215
20
55.788980
30
0.0
11
-244.641385
21
55.803270
31
0.0
0
LINE
8
0
6
CONTINUOUS
10
-245.354505
20
40.678680
30
0.0
11
-245.354465
21
40.849150
31
0.0
0
LINE
8
0
6
CONTINUOUS
10
-245.354425
20
44.897710
30
0.0
11
-245.354355
21
48.499870
31
0.0
0
LINE
8
0
6
CONTINUOUS
10
-245.354195
20
55.802440
30
0.0
11
-244.641385
21
55.803270
31
0.0
0
LINE
8
0
6
CONTINUOUS
10
-245.354195
20
55.802440
30
0.0
11
-245.354275
21
57.649210
31
0.0
0
LINE
8
0
6
CONTINUOUS
10
-214.704865
20
77.121280
30
0.0
11
-214.704865
21
77.206780
31
0.0
0
LINE
8
0
6
CONTINUOUS
10
-214.704865
20
77.121280
30
0.0
11
-214.954875
21
77.121280
31
0.0
0
LINE
8
0
6
CONTINUOUS
10
-214.704865
20
76.886360
30
0.0
11
-214.704865
21
77.121280
31
0.0
0
LINE
8
0
6
CONTINUOUS
10
-220.703735
20
77.121250
30
0.0
11
-220.703735
21
76.886330
31
0.0
0
LINE
8
0
6
CONTINUOUS
10
-220.703735
20
77.121250
30
0.0
11
-220.453745
21
77.121260
31
0.0
0
LINE
8
0
6
CONTINUOUS
10
-220.703735
20
77.206750
30
0.0
11
-220.703735
21
77.121250
31
0.0
0
LINE
8
0
6
CONTINUOUS
10
-214.704885
20
77.962040
30
0.0
11
-214.954875
21
77.962040
31
0.0
0
LINE
8
0
6
CONTINUOUS
10
-214.704885
20
77.876530
30
0.0
11
-214.704885
21
77.962040
31
0.0
0
LINE
8
0
6
CONTINUOUS
10
-220.703735
20
77.962010
30
0.0
11
-220.703735
21
77.876510
31
0.0
0
LINE
8
0
6
CONTINUOUS
10
-220.453745
20
77.962010
30
0.0
11
-220.703735
21
77.962010
31
0.0
0
LINE
8
0
6
CONTINUOUS
10
-214.704885
20
77.876530
30
0.0
11
-214.704865
21
77.206780
31
0.0
0
LINE
8
0
6
CONTINUOUS
10
-214.954875
20
77.121280
30
0.0
11
-220.453745
21
77.121260
31
0.0
0
LINE
8
0
6
CONTINUOUS
10
-220.703735
20
77.876510
30
0.0
11
-220.703735
21
77.206750
31
0.0
0
LINE
8
0
6
CONTINUOUS
10
-214.954875
20
77.962040
30
0.0
11
-220.453745
21
77.962010
31
0.0
0
LINE
8
0
6
CONTINUOUS
10
-223.509065
20
40.547250
30
0.0
11
-223.189355
21
40.547250
31
0.0
0
LINE
8
0
6
CONTINUOUS
10
-223.509065
20
40.924500
30
0.0
11
-223.509065
21
40.547250
31
0.0
0
LINE
8
0
6
CONTINUOUS
10
-223.509105
20
42.015420
30
0.0
11
-223.509065
21
40.924500
31
0.0
0
LINE
8
0
6
CONTINUOUS
10
-223.509105
20
46.144680
30
0.0
11
-223.509105
21
43.778060
31
0.0
0
LINE
8
0
6
CONTINUOUS
10
-223.509105
20
43.778060
30
0.0
11
-223.509105
21
42.015420
31
0.0
0
LINE
8
0
6
CONTINUOUS
10
-223.189355
20
40.547250
30
0.0
11
-185.564091
21
40.547344
31
0.0
0
LINE
8
0
6
CONTINUOUS
10
-223.509105
20
49.024380
30
0.0
11
-223.509105
21
46.144680
31
0.0
0
LINE
8
0
6
CONTINUOUS
10
-223.509185
20
75.286970
30
0.0
11
-223.509185
21
72.940820
31
0.0
0
LINE
8
0
6
CONTINUOUS
10
-223.509185
20
72.940820
30
0.0
11
-223.509185
21
70.077950
31
0.0
0
LINE
8
0
6
CONTINUOUS
10
-223.509145
20
66.808390
30
0.0
11
-223.509145
21
63.257770
31
0.0
0
LINE
8
0
6
CONTINUOUS
10
-223.509145
20
63.257770
30
0.0
11
-223.509145
21
59.562550
31
0.0
0
LINE
8
0
6
CONTINUOUS
10
-223.509145
20
55.864730
30
0.0
11
-223.509105
21
52.306420
31
0.0
0
LINE
8
0
6
CONTINUOUS
10
-223.509145
20
59.562550
30
0.0
11
-223.509145
21
55.864730
31
0.0
0
LINE
8
0
6
CONTINUOUS
10
-162.701225
20
56.964960
30
0.0
11
-162.701225
21
57.181100
31
0.0
0
LINE
8
0
6
CONTINUOUS
10
-162.701225
20
63.257940
30
0.0
11
-162.701245
21
66.808560
31
0.0
0
LINE
8
0
6
CONTINUOUS
10
-162.701245
20
66.808560
30
0.0
11
-162.701265
21
70.078140
31
0.0
0
LINE
8
0
6
CONTINUOUS
10
-162.701265
20
72.940990
30
0.0
11
-162.701265
21
75.287140
31
0.0
0
LINE
8
0
6
CONTINUOUS
10
-162.701265
20
70.078140
30
0.0
11
-162.701265
21
72.940990
31
0.0
0
LINE
8
0
6
CONTINUOUS
10
-162.701225
20
59.562720
30
0.0
11
-162.701225
21
63.257940
31
0.0
0
LINE
8
0
6
CONTINUOUS
10
-162.701225
20
57.181100
30
0.0
11
-162.701225
21
59.562720
31
0.0
0
LINE
8
0
6
CONTINUOUS
10
-163.805537
20
57.350378
30
0.0
11
-162.701225
21
57.181100
31
0.0
0
LINE
8
0
6
CONTINUOUS
10
-223.509105
20
52.306420
30
0.0
11
-223.509105
21
49.024380
31
0.0
0
LINE
8
0
6
CONTINUOUS
10
-223.509185
20
77.026250
30
0.0
11
-223.509185
21
75.286970
31
0.0
0
LINE
8
0
6
CONTINUOUS
10
-223.509185
20
78.091780
30
0.0
11
-223.509185
21
77.026250
31
0.0
0
LINE
8
0
6
CONTINUOUS
10
-223.509185
20
78.442660
30
0.0
11
-223.509185
21
78.091780
31
0.0
0
LINE
8
0
6
CONTINUOUS
10
-223.189475
20
78.442660
30
0.0
11
-223.509185
21
78.442660
31
0.0
0
LINE
8
0
6
CONTINUOUS
10
-166.206895
20
78.442830
30
0.0
11
-170.776865
21
78.442810
31
0.0
0
LINE
8
0
6
CONTINUOUS
10
-170.776865
20
78.442810
30
0.0
11
-175.789205
21
78.442800
31
0.0
0
LINE
8
0
6
CONTINUOUS
10
-175.789205
20
78.442800
30
0.0
11
-179.349525
21
78.442780
31
0.0
0
LINE
8
0
6
CONTINUOUS
10
-163.101845
20
78.442830
30
0.0
11
-166.206895
21
78.442830
31
0.0
0
LINE
8
0
6
CONTINUOUS
10
-162.701285
20
78.442830
30
0.0
11
-163.101845
21
78.442830
31
0.0
0
LINE
8
0
6
CONTINUOUS
10
-162.701305
20
78.091970
30
0.0
11
-162.701285
21
78.442830
31
0.0
0
LINE
8
0
6
CONTINUOUS
10
-162.701265
20
75.287140
30
0.0
11
-162.701265
21
77.026420
31
0.0
0
LINE
8
0
6
CONTINUOUS
10
-162.701265
20
77.026420
30
0.0
11
-162.701305
21
78.091970
31
0.0
0
LINE
8
0
6
CONTINUOUS
10
-179.349525
20
78.442780
30
0.0
11
-192.130955
21
78.442745
31
0.0
0
LINE
8
0
6
CONTINUOUS
10
-214.130935
20
78.442685
30
0.0
11
-223.189475
21
78.442660
31
0.0
0
LINE
8
0
6
CONTINUOUS
10
-223.509145
20
66.808390
30
0.0
11
-223.509185
21
70.077950
31
0.0
0
LINE
8
0
6
CONTINUOUS
10
-192.530945
20
56.924810
30
0.0
11
-192.130955
21
59.724950
31
0.0
0
LINE
8
0
6
CONTINUOUS
10
-193.630945
20
54.224680
30
0.0
11
-192.530945
21
56.924810
31
0.0
0
LINE
8
0
6
CONTINUOUS
10
-195.330945
20
51.924550
30
0.0
11
-193.630945
21
54.224680
31
0.0
0
LINE
8
0
6
CONTINUOUS
10
-197.630945
20
50.224470
30
0.0
11
-195.330945
21
51.924550
31
0.0
0
LINE
8
0
6
CONTINUOUS
10
-200.330945
20
49.124420
30
0.0
11
-197.630945
21
50.224470
31
0.0
0
LINE
8
0
6
CONTINUOUS
10
-203.130935
20
48.724390
30
0.0
11
-200.330945
21
49.124420
31
0.0
0
LINE
8
0
6
CONTINUOUS
10
-203.130935
20
121.750230
30
0.0
11
-213.630925
21
121.750230
31
0.0
0
LINE
8
0
6
CONTINUOUS
10
-214.130935
20
59.724950
30
0.0
11
-213.730945
21
56.924810
31
0.0
0
LINE
8
0
6
CONTINUOUS
10
-213.730945
20
56.924810
30
0.0
11
-212.630945
21
54.224680
31
0.0
0
LINE
8
0
6
CONTINUOUS
10
-212.630945
20
54.224680
30
0.0
11
-210.930945
21
51.924550
31
0.0
0
LINE
8
0
6
CONTINUOUS
10
-210.930945
20
51.924550
30
0.0
11
-208.630945
21
50.224470
31
0.0
0
LINE
8
0
6
CONTINUOUS
10
-208.630945
20
50.224470
30
0.0
11
-205.930945
21
49.124420
31
0.0
0
LINE
8
0
6
CONTINUOUS
10
-205.930945
20
49.124420
30
0.0
11
-203.130935
21
48.724390
31
0.0
0
LINE
8
0
6
CONTINUOUS
10
-192.130955
20
121.750230
30
0.0
11
-192.630945
21
121.750230
31
0.0
0
LINE
8
0
6
CONTINUOUS
10
-192.130955
20
121.250220
30
0.0
11
-192.130955
21
121.750230
31
0.0
0
LINE
8
0
6
CONTINUOUS
10
-192.130955
20
59.724950
30
0.0
11
-192.130955
21
121.250220
31
0.0
0
LINE
8
0
6
CONTINUOUS
10
-214.130935
20
121.250220
30
0.0
11
-214.130935
21
59.725090
31
0.0
0
LINE
8
0
6
CONTINUOUS
10
-214.130935
20
121.750230
30
0.0
11
-214.130935
21
121.250220
31
0.0
0
LINE
8
0
6
CONTINUOUS
10
-213.630925
20
121.750230
30
0.0
11
-214.130935
21
121.750230
31
0.0
0
LINE
8
0
6
CONTINUOUS
10
-192.630945
20
121.750230
30
0.0
11
-203.130935
21
121.750230
31
0.0
0
LINE
8
0
6
CONTINUOUS
10
-192.130955
20
121.750230
30
0.0
11
-192.645515
21
121.750230
31
0.0
0
LINE
8
0
6
CONTINUOUS
10
-192.645515
20
121.750230
30
0.0
11
-203.130955
21
121.750230
31
0.0
0
LINE
8
0
6
CONTINUOUS
10
-213.616375
20
121.750230
30
0.0
11
-214.130935
21
121.750230
31
0.0
0
LINE
8
0
6
CONTINUOUS
10
-203.130955
20
121.750230
30
0.0
11
-213.616375
21
121.750230
31
0.0
0
LINE
8
0
6
CONTINUOUS
10
-165.451856
20
58.623023
30
0.0
11
-165.313348
21
58.562952
31
0.0
0
LINE
8
0
6
CONTINUOUS
10
-179.555709
20
55.864860
30
0.0
11
-179.454836
21
56.005171
31
0.0
0
LINE
8
0
6
CONTINUOUS
10
-180.348430
20
54.854552
30
0.0
11
-179.555709
21
55.864860
31
0.0
0
LINE
8
0
6
CONTINUOUS
10
-179.454836
20
56.005171
30
0.0
11
-179.089402
21
56.513460
31
0.0
0
LINE
8
0
6
CONTINUOUS
10
-174.954127
20
59.271417
30
0.0
11
-173.960764
21
59.718859
31
0.0
0
LINE
8
0
6
CONTINUOUS
10
-170.370035
20
60.067244
30
0.0
11
-168.076135
21
59.761126
31
0.0
0
LINE
8
0
6
CONTINUOUS
10
-168.076135
20
59.761126
30
0.0
11
-167.158457
21
59.363156
31
0.0
0
LINE
8
0
6
CONTINUOUS
10
-170.729255
20
60.118749
30
0.0
11
-170.370035
21
60.067244
31
0.0
0
LINE
8
0
6
CONTINUOUS
10
-163.805537
20
57.350378
30
0.0
11
-163.403375
21
57.153795
31
0.0
0
ENDSEC
0
EOF
