999
Erzeugt mit innoplus bad 
0
SECTION
2
HEADER
9
$ACADVER
1
AC1009
9
$DWGCODEPAGE
3
ISO8859-1
0
ENDSEC
0
SECTION
2
TABLES
0
TABLE
2
LAYER
70
1
0
LAYER
2
0
70
0
62
7
6
CONTINUOUS
0
ENDTAB
0
ENDSEC
0
SECTION
2
ENTITIES
0
LINE
8
0
6
CONTINUOUS
10
58.456330
20
-408.094465
30
0.0
11
56.588940
21
-406.235845
31
0.0
0
LINE
8
0
6
CONTINUOUS
10
55.438180
20
-405.208915
30
0.0
11
54.560360
21
-404.490865
31
0.0
0
LINE
8
0
6
CONTINUOUS
10
75.150260
20
-420.186615
30
0.0
11
75.150260
21
-418.167875
31
0.0
0
LINE
8
0
6
CONTINUOUS
10
58.880710
20
-408.489655
30
0.0
11
56.142680
21
-405.876705
31
0.0
0
LINE
8
0
6
CONTINUOUS
10
59.289280
20
-442.755995
30
0.0
11
60.345410
21
-442.745575
31
0.0
0
LINE
8
0
6
CONTINUOUS
10
58.236920
20
-442.754755
30
0.0
11
59.289280
21
-442.755995
31
0.0
0
LINE
8
0
6
CONTINUOUS
10
45.347390
20
-442.078185
30
0.0
11
48.072730
21
-442.590505
31
0.0
0
LINE
8
0
6
CONTINUOUS
10
45.347020
20
-442.076145
30
0.0
11
48.004420
21
-442.629155
31
0.0
0
LINE
8
0
6
CONTINUOUS
10
48.004420
20
-442.629155
30
0.0
11
48.201929
21
-442.632336
31
0.0
0
LINE
8
0
6
CONTINUOUS
10
60.345410
20
-442.745575
30
0.0
11
61.055130
21
-442.740465
31
0.0
0
LINE
8
0
6
CONTINUOUS
10
61.493620
20
-429.005295
30
0.0
11
61.805334
21
-427.500025
31
0.0
0
LINE
8
0
6
CONTINUOUS
10
75.150260
20
-412.200115
30
0.0
11
75.150260
21
-410.583795
31
0.0
0
LINE
8
0
6
CONTINUOUS
10
75.150260
20
-409.981555
30
0.0
11
74.655890
21
-409.905915
31
0.0
0
LINE
8
0
6
CONTINUOUS
10
75.150260
20
-410.583795
30
0.0
11
75.150260
21
-409.981555
31
0.0
0
LINE
8
0
6
CONTINUOUS
10
75.150260
20
-414.777795
30
0.0
11
75.150260
21
-412.200115
31
0.0
0
LINE
8
0
6
CONTINUOUS
10
61.720430
20
-412.008555
30
0.0
11
64.209430
21
-415.287205
31
0.0
0
LINE
8
0
6
CONTINUOUS
10
75.150260
20
-418.167875
30
0.0
11
75.150260
21
-414.777795
31
0.0
0
LINE
8
0
6
CONTINUOUS
10
75.150260
20
-422.205345
30
0.0
11
75.150260
21
-420.186615
31
0.0
0
LINE
8
0
6
CONTINUOUS
10
75.150260
20
-426.421405
30
0.0
11
75.150260
21
-422.205345
31
0.0
0
LINE
8
0
6
CONTINUOUS
10
75.150260
20
-430.634725
30
0.0
11
75.150260
21
-426.421405
31
0.0
0
LINE
8
0
6
CONTINUOUS
10
75.150260
20
-434.540845
30
0.0
11
75.150260
21
-430.634725
31
0.0
0
LINE
8
0
6
CONTINUOUS
10
75.150260
20
-437.885035
30
0.0
11
75.150260
21
-434.540845
31
0.0
0
LINE
8
0
6
CONTINUOUS
10
75.150250
20
-440.453985
30
0.0
11
75.150250
21
-441.400825
31
0.0
0
LINE
8
0
6
CONTINUOUS
10
75.150250
20
-441.400825
30
0.0
11
75.150250
21
-442.063615
31
0.0
0
LINE
8
0
6
CONTINUOUS
10
74.655820
20
-442.646435
30
0.0
11
75.150260
21
-442.642975
31
0.0
0
LINE
8
0
6
CONTINUOUS
10
75.150250
20
-442.063615
30
0.0
11
75.150260
21
-442.642975
31
0.0
0
LINE
8
0
6
CONTINUOUS
10
63.279430
20
-424.062895
30
0.0
11
63.722690
21
-420.327525
31
0.0
0
LINE
8
0
6
CONTINUOUS
10
59.585140
20
-434.068925
30
0.0
11
61.866530
21
-429.430085
31
0.0
0
LINE
8
0
6
CONTINUOUS
10
63.279430
20
-424.062895
30
0.0
11
61.866530
21
-429.430085
31
0.0
0
LINE
8
0
6
CONTINUOUS
10
63.722690
20
-420.327525
30
0.0
11
63.714430
21
-417.486945
31
0.0
0
LINE
8
0
6
CONTINUOUS
10
75.150250
20
-440.453985
30
0.0
11
75.150260
21
-439.165505
31
0.0
0
LINE
8
0
6
CONTINUOUS
10
45.347550
20
-442.079075
30
0.0
11
47.806506
21
-441.974862
31
0.0
0
LINE
8
0
6
CONTINUOUS
10
45.347740
20
-442.080095
30
0.0
11
47.553835
21
-441.554745
31
0.0
0
LINE
8
0
6
CONTINUOUS
10
61.720430
20
-412.008555
30
0.0
11
58.229950
21
-408.313365
31
0.0
0
LINE
8
0
6
CONTINUOUS
10
63.523170
20
-415.106235
30
0.0
11
61.720430
21
-412.008555
31
0.0
0
LINE
8
0
6
CONTINUOUS
10
56.652146
20
-437.376469
30
0.0
11
57.866080
21
-437.080775
31
0.0
0
LINE
8
0
6
CONTINUOUS
10
63.714430
20
-417.486945
30
0.0
11
63.523170
21
-415.106235
31
0.0
0
LINE
8
0
6
CONTINUOUS
10
75.150260
20
-439.165505
30
0.0
11
75.150260
21
-437.885035
31
0.0
0
LINE
8
0
6
CONTINUOUS
10
60.291110
20
-434.090455
30
0.0
11
59.585140
21
-434.068925
31
0.0
0
LINE
8
0
6
CONTINUOUS
10
58.064040
20
-407.690675
30
0.0
11
59.323540
21
-408.875625
31
0.0
0
LINE
8
0
6
CONTINUOUS
10
74.655890
20
-409.905915
30
0.0
11
58.064040
21
-407.690675
31
0.0
0
LINE
8
0
6
CONTINUOUS
10
64.209430
20
-415.287205
30
0.0
11
74.660620
21
-418.043335
31
0.0
0
LINE
8
0
6
CONTINUOUS
10
62.219260
20
-412.386905
30
0.0
11
64.209430
21
-415.287205
31
0.0
0
LINE
8
0
6
CONTINUOUS
10
59.323540
20
-408.875625
30
0.0
11
60.892580
21
-410.422225
31
0.0
0
LINE
8
0
6
CONTINUOUS
10
62.219260
20
-412.386905
30
0.0
11
74.658220
21
-414.671145
31
0.0
0
LINE
8
0
6
CONTINUOUS
10
60.892580
20
-410.422225
30
0.0
11
62.219260
21
-412.386905
31
0.0
0
LINE
8
0
6
CONTINUOUS
10
61.055130
20
-442.740465
30
0.0
11
74.655820
21
-442.646435
31
0.0
0
LINE
8
0
6
CONTINUOUS
10
60.291110
20
-434.090455
30
0.0
11
74.657710
21
-434.528615
31
0.0
0
LINE
8
0
6
CONTINUOUS
10
58.236920
20
-442.754825
30
0.0
11
59.289280
21
-442.756075
31
0.0
0
LINE
8
0
6
CONTINUOUS
10
60.345410
20
-442.745575
30
0.0
11
61.055130
21
-442.740465
31
0.0
0
LINE
8
0
6
CONTINUOUS
10
63.095120
20
-419.398535
30
0.0
11
62.602850
21
-418.302085
31
0.0
0
LINE
8
0
6
CONTINUOUS
10
61.362340
20
-428.963585
30
0.0
11
61.704335
21
-427.500025
31
0.0
0
LINE
8
0
6
CONTINUOUS
10
45.348160
20
-442.082415
30
0.0
11
45.438521
21
-442.054365
31
0.0
0
LINE
8
0
6
CONTINUOUS
10
56.161629
20
-436.560885
30
0.0
11
58.919510
21
-433.759825
31
0.0
0
LINE
8
0
6
CONTINUOUS
10
58.766990
20
-433.701535
30
0.0
11
56.138860
21
-436.523028
31
0.0
0
LINE
8
0
6
CONTINUOUS
10
80.856570
20
-411.110765
30
0.0
11
80.494820
21
-411.110765
31
0.0
0
LINE
8
0
6
CONTINUOUS
10
79.750040
20
-417.476875
30
0.0
11
79.750040
21
-419.874105
31
0.0
0
LINE
8
0
6
CONTINUOUS
10
80.494820
20
-411.110765
30
0.0
11
80.422800
21
-411.110765
31
0.0
0
LINE
8
0
6
CONTINUOUS
10
80.571990
20
-413.778295
30
0.0
11
80.494820
21
-411.110765
31
0.0
0
LINE
8
0
6
CONTINUOUS
10
80.926110
20
-413.778295
30
0.0
11
80.571990
21
-413.778295
31
0.0
0
LINE
8
0
6
CONTINUOUS
10
80.571990
20
-413.778295
30
0.0
11
80.492530
21
-414.135815
31
0.0
0
LINE
8
0
6
CONTINUOUS
10
79.750050
20
-411.110765
30
0.0
11
79.750040
21
-417.476875
31
0.0
0
LINE
8
0
6
CONTINUOUS
10
80.422800
20
-411.110765
30
0.0
11
79.750050
21
-411.110765
31
0.0
0
LINE
8
0
6
CONTINUOUS
10
79.750040
20
-417.476875
30
0.0
11
80.492530
21
-414.135815
31
0.0
0
LINE
8
0
6
CONTINUOUS
10
80.926110
20
-413.778295
30
0.0
11
87.289640
21
-413.778295
31
0.0
0
LINE
8
0
6
CONTINUOUS
10
87.289640
20
-411.110765
30
0.0
11
80.856570
21
-411.110765
31
0.0
0
LINE
8
0
6
CONTINUOUS
10
80.571990
20
-441.378325
30
0.0
11
80.926110
21
-441.378325
31
0.0
0
LINE
8
0
6
CONTINUOUS
10
80.571990
20
-441.378325
30
0.0
11
80.494820
21
-438.540645
31
0.0
0
LINE
8
0
6
CONTINUOUS
10
80.492540
20
-441.378325
30
0.0
11
80.571990
21
-441.378325
31
0.0
0
LINE
8
0
6
CONTINUOUS
10
80.422800
20
-438.199535
30
0.0
11
80.494820
21
-438.540645
31
0.0
0
LINE
8
0
6
CONTINUOUS
10
80.494820
20
-438.540645
30
0.0
11
80.856570
21
-438.540645
31
0.0
0
LINE
8
0
6
CONTINUOUS
10
79.750040
20
-435.012125
30
0.0
11
79.750050
21
-441.378325
31
0.0
0
LINE
8
0
6
CONTINUOUS
10
80.422800
20
-438.199535
30
0.0
11
79.750040
21
-435.012125
31
0.0
0
LINE
8
0
6
CONTINUOUS
10
79.750050
20
-441.378325
30
0.0
11
80.492540
21
-441.378325
31
0.0
0
LINE
8
0
6
CONTINUOUS
10
80.926110
20
-441.378325
30
0.0
11
87.289640
21
-441.378325
31
0.0
0
LINE
8
0
6
CONTINUOUS
10
87.289640
20
-438.540645
30
0.0
11
80.856570
21
-438.540645
31
0.0
0
LINE
8
0
6
CONTINUOUS
10
80.571990
20
-428.913485
30
0.0
11
80.494820
21
-423.408265
31
0.0
0
LINE
8
0
6
CONTINUOUS
10
80.422800
20
-423.067155
30
0.0
11
80.494820
21
-423.408265
31
0.0
0
LINE
8
0
6
CONTINUOUS
10
80.494820
20
-423.408265
30
0.0
11
80.856570
21
-423.408265
31
0.0
0
LINE
8
0
6
CONTINUOUS
10
80.926110
20
-428.913485
30
0.0
11
80.571990
21
-428.913485
31
0.0
0
LINE
8
0
6
CONTINUOUS
10
80.571990
20
-428.913485
30
0.0
11
80.492530
21
-429.270995
31
0.0
0
LINE
8
0
6
CONTINUOUS
10
80.926110
20
-428.913485
30
0.0
11
87.289640
21
-428.913485
31
0.0
0
LINE
8
0
6
CONTINUOUS
10
87.289640
20
-423.408265
30
0.0
11
80.856570
21
-423.408265
31
0.0
0
LINE
8
0
6
CONTINUOUS
10
80.185460
20
-411.107905
30
0.0
11
79.750050
21
-411.107905
31
0.0
0
LINE
8
0
6
CONTINUOUS
10
87.289640
20
-411.107905
30
0.0
11
80.185460
21
-411.107905
31
0.0
0
LINE
8
0
6
CONTINUOUS
10
79.750040
20
-432.612065
30
0.0
11
79.750040
21
-435.012125
31
0.0
0
LINE
8
0
6
CONTINUOUS
10
79.750040
20
-419.874105
30
0.0
11
79.750040
21
-432.612065
31
0.0
0
LINE
8
0
6
CONTINUOUS
10
80.422800
20
-423.067155
30
0.0
11
79.750040
21
-419.874105
31
0.0
0
LINE
8
0
6
CONTINUOUS
10
79.750040
20
-432.612065
30
0.0
11
80.492530
21
-429.270995
31
0.0
0
LINE
8
0
6
CONTINUOUS
10
94.084460
20
-411.110765
30
0.0
11
93.722710
21
-411.110765
31
0.0
0
LINE
8
0
6
CONTINUOUS
10
94.829240
20
-419.874105
30
0.0
11
94.829240
21
-417.476875
31
0.0
0
LINE
8
0
6
CONTINUOUS
10
94.084460
20
-411.110765
30
0.0
11
94.007290
21
-413.778295
31
0.0
0
LINE
8
0
6
CONTINUOUS
10
94.156480
20
-411.110765
30
0.0
11
94.084460
21
-411.110765
31
0.0
0
LINE
8
0
6
CONTINUOUS
10
94.086750
20
-414.135815
30
0.0
11
94.007290
21
-413.778295
31
0.0
0
LINE
8
0
6
CONTINUOUS
10
94.007290
20
-413.778295
30
0.0
11
93.653170
21
-413.778295
31
0.0
0
LINE
8
0
6
CONTINUOUS
10
94.086750
20
-414.135815
30
0.0
11
94.829240
21
-417.476875
31
0.0
0
LINE
8
0
6
CONTINUOUS
10
94.829240
20
-411.110765
30
0.0
11
94.156480
21
-411.110765
31
0.0
0
LINE
8
0
6
CONTINUOUS
10
94.829240
20
-417.476875
30
0.0
11
94.829240
21
-411.110765
31
0.0
0
LINE
8
0
6
CONTINUOUS
10
93.722710
20
-411.110765
30
0.0
11
87.289640
21
-411.110765
31
0.0
0
LINE
8
0
6
CONTINUOUS
10
87.289640
20
-413.778295
30
0.0
11
93.653170
21
-413.778295
31
0.0
0
LINE
8
0
6
CONTINUOUS
10
93.653170
20
-441.378325
30
0.0
11
94.007290
21
-441.378325
31
0.0
0
LINE
8
0
6
CONTINUOUS
10
94.007290
20
-441.378325
30
0.0
11
94.086750
21
-441.378325
31
0.0
0
LINE
8
0
6
CONTINUOUS
10
94.084460
20
-438.540645
30
0.0
11
94.007369
21
-441.375435
31
0.0
0
LINE
8
0
6
CONTINUOUS
10
93.722710
20
-438.540645
30
0.0
11
94.084460
21
-438.540645
31
0.0
0
LINE
8
0
6
CONTINUOUS
10
94.084460
20
-438.540645
30
0.0
11
94.156480
21
-438.199535
31
0.0
0
LINE
8
0
6
CONTINUOUS
10
94.086750
20
-441.378325
30
0.0
11
94.829240
21
-441.378325
31
0.0
0
LINE
8
0
6
CONTINUOUS
10
94.829240
20
-435.012125
30
0.0
11
94.156480
21
-438.199535
31
0.0
0
LINE
8
0
6
CONTINUOUS
10
94.829240
20
-441.378325
30
0.0
11
94.829240
21
-435.012125
31
0.0
0
LINE
8
0
6
CONTINUOUS
10
93.722710
20
-438.540645
30
0.0
11
87.289640
21
-438.540645
31
0.0
0
LINE
8
0
6
CONTINUOUS
10
87.289640
20
-441.378325
30
0.0
11
93.653170
21
-441.378325
31
0.0
0
LINE
8
0
6
CONTINUOUS
10
94.084450
20
-423.408265
30
0.0
11
94.007280
21
-428.913485
31
0.0
0
LINE
8
0
6
CONTINUOUS
10
93.722710
20
-423.408265
30
0.0
11
94.084450
21
-423.408265
31
0.0
0
LINE
8
0
6
CONTINUOUS
10
94.084450
20
-423.408265
30
0.0
11
94.156470
21
-423.067155
31
0.0
0
LINE
8
0
6
CONTINUOUS
10
94.086740
20
-429.270995
30
0.0
11
94.007280
21
-428.913485
31
0.0
0
LINE
8
0
6
CONTINUOUS
10
94.007280
20
-428.913485
30
0.0
11
93.653160
21
-428.913485
31
0.0
0
LINE
8
0
6
CONTINUOUS
10
93.722710
20
-423.408265
30
0.0
11
87.289640
21
-423.408265
31
0.0
0
LINE
8
0
6
CONTINUOUS
10
87.289640
20
-428.913485
30
0.0
11
93.653160
21
-428.913485
31
0.0
0
LINE
8
0
6
CONTINUOUS
10
94.829240
20
-411.107905
30
0.0
11
94.393830
21
-411.107905
31
0.0
0
LINE
8
0
6
CONTINUOUS
10
94.393830
20
-411.107905
30
0.0
11
87.289640
21
-411.107905
31
0.0
0
LINE
8
0
6
CONTINUOUS
10
94.829240
20
-435.012125
30
0.0
11
94.829240
21
-432.612065
31
0.0
0
LINE
8
0
6
CONTINUOUS
10
94.086740
20
-429.270995
30
0.0
11
94.829240
21
-432.612065
31
0.0
0
LINE
8
0
6
CONTINUOUS
10
94.829240
20
-419.874105
30
0.0
11
94.156470
21
-423.067155
31
0.0
0
LINE
8
0
6
CONTINUOUS
10
94.829240
20
-432.612065
30
0.0
11
94.829240
21
-419.874105
31
0.0
0
LINE
8
0
6
CONTINUOUS
10
99.769810
20
-460.164495
30
0.0
11
100.411740
21
-460.164495
31
0.0
0
LINE
8
0
6
CONTINUOUS
10
100.411670
20
-392.259825
30
0.0
11
99.769730
21
-392.259825
31
0.0
0
LINE
8
0
6
CONTINUOUS
10
98.810940
20
-459.854815
30
0.0
11
99.769810
21
-460.164495
31
0.0
0
LINE
8
0
6
CONTINUOUS
10
99.769760
20
-407.527825
30
0.0
11
99.769760
21
-402.284295
31
0.0
0
LINE
8
0
6
CONTINUOUS
10
99.769760
20
-402.284295
30
0.0
11
99.769730
21
-398.067765
31
0.0
0
LINE
8
0
6
CONTINUOUS
10
99.769730
20
-398.067765
30
0.0
11
99.769730
21
-394.896995
31
0.0
0
LINE
8
0
6
CONTINUOUS
10
99.769730
20
-394.896995
30
0.0
11
99.769730
21
-392.875825
31
0.0
0
LINE
8
0
6
CONTINUOUS
10
99.769730
20
-392.259825
30
0.0
11
98.593240
21
-392.887195
31
0.0
0
LINE
8
0
6
CONTINUOUS
10
99.769730
20
-392.875825
30
0.0
11
99.769730
21
-392.259825
31
0.0
0
LINE
8
0
6
CONTINUOUS
10
75.254500
20
-421.414715
30
0.0
11
75.254500
21
-426.419215
31
0.0
0
LINE
8
0
6
CONTINUOUS
10
75.254500
20
-431.423715
30
0.0
11
75.254500
21
-435.666345
31
0.0
0
LINE
8
0
6
CONTINUOUS
10
75.254460
20
-439.496615
30
0.0
11
79.750047
21
-439.553370
31
0.0
0
LINE
8
0
6
CONTINUOUS
10
94.829240
20
-439.743737
30
0.0
11
97.088378
21
-439.772257
31
0.0
0
LINE
8
0
6
CONTINUOUS
10
75.254460
20
-438.501125
30
0.0
11
75.254460
21
-439.496615
31
0.0
0
LINE
8
0
6
CONTINUOUS
10
75.254460
20
-413.341865
30
0.0
11
75.254500
21
-414.337235
31
0.0
0
LINE
8
0
6
CONTINUOUS
10
97.088266
20
-412.686112
30
0.0
11
94.829240
21
-412.753959
31
0.0
0
LINE
8
0
6
CONTINUOUS
10
79.750050
20
-413.206845
30
0.0
11
75.254460
21
-413.341865
31
0.0
0
LINE
8
0
6
CONTINUOUS
10
75.254500
20
-417.172085
30
0.0
11
75.254500
21
-421.414715
31
0.0
0
LINE
8
0
6
CONTINUOUS
10
75.254500
20
-426.419215
30
0.0
11
75.254500
21
-431.423715
31
0.0
0
LINE
8
0
6
CONTINUOUS
10
75.254500
20
-435.666345
30
0.0
11
75.254460
21
-438.501125
31
0.0
0
LINE
8
0
6
CONTINUOUS
10
98.810940
20
-459.854815
30
0.0
11
98.818080
21
-459.204705
31
0.0
0
LINE
8
0
6
CONTINUOUS
10
98.675560
20
-458.276295
30
0.0
11
98.810940
21
-459.854815
31
0.0
0
LINE
8
0
6
CONTINUOUS
10
98.818080
20
-459.204705
30
0.0
11
98.797130
21
-457.324205
31
0.0
0
LINE
8
0
6
CONTINUOUS
10
98.797130
20
-457.324205
30
0.0
11
98.806060
21
-454.224225
31
0.0
0
LINE
8
0
6
CONTINUOUS
10
98.806060
20
-454.224225
30
0.0
11
98.802890
21
-450.068265
31
0.0
0
LINE
8
0
6
CONTINUOUS
10
98.802890
20
-450.068265
30
0.0
11
98.773020
21
-445.018135
31
0.0
0
LINE
8
0
6
CONTINUOUS
10
98.773020
20
-445.018135
30
0.0
11
98.766120
21
-439.234745
31
0.0
0
LINE
8
0
6
CONTINUOUS
10
98.766120
20
-439.234745
30
0.0
11
98.756770
21
-432.954305
31
0.0
0
LINE
8
0
6
CONTINUOUS
10
98.756770
20
-432.954305
30
0.0
11
98.723120
21
-426.416905
31
0.0
0
LINE
8
0
6
CONTINUOUS
10
98.723120
20
-426.416905
30
0.0
11
98.703400
21
-419.877365
31
0.0
0
LINE
8
0
6
CONTINUOUS
10
98.703400
20
-419.877365
30
0.0
11
98.694860
21
-413.575265
31
0.0
0
LINE
8
0
6
CONTINUOUS
10
98.694860
20
-413.575265
30
0.0
11
98.634810
21
-407.797145
31
0.0
0
LINE
8
0
6
CONTINUOUS
10
98.634810
20
-407.797145
30
0.0
11
98.616200
21
-402.716965
31
0.0
0
LINE
8
0
6
CONTINUOUS
10
98.616200
20
-402.716965
30
0.0
11
98.616390
21
-398.546055
31
0.0
0
LINE
8
0
6
CONTINUOUS
10
98.616390
20
-398.546055
30
0.0
11
98.604640
21
-395.443025
31
0.0
0
LINE
8
0
6
CONTINUOUS
10
98.604640
20
-395.443025
30
0.0
11
98.582790
21
-393.528745
31
0.0
0
LINE
8
0
6
CONTINUOUS
10
98.593240
20
-392.887195
30
0.0
11
98.472730
21
-394.472355
31
0.0
0
LINE
8
0
6
CONTINUOUS
10
98.582790
20
-393.528745
30
0.0
11
98.593240
21
-392.887195
31
0.0
0
LINE
8
0
6
CONTINUOUS
10
75.254500
20
-414.337235
30
0.0
11
75.254500
21
-417.172085
31
0.0
0
LINE
8
0
6
CONTINUOUS
10
100.411740
20
-460.164495
30
0.0
11
120.683320
21
-460.164565
31
0.0
0
LINE
8
0
6
CONTINUOUS
10
120.683240
20
-392.259825
30
0.0
11
100.411670
21
-392.259825
31
0.0
0
LINE
8
0
6
CONTINUOUS
10
97.088378
20
-439.772257
30
0.0
11
98.675560
21
-458.276295
31
0.0
0
LINE
8
0
6
CONTINUOUS
10
98.472730
20
-394.472355
30
0.0
11
97.088266
21
-412.686112
31
0.0
0
LINE
8
0
6
CONTINUOUS
10
120.683320
20
-460.164565
30
0.0
11
121.750230
21
-460.164565
31
0.0
0
LINE
8
0
6
CONTINUOUS
10
121.750240
20
-460.164565
30
0.0
11
121.750240
21
-459.505005
31
0.0
0
LINE
8
0
6
CONTINUOUS
10
121.750240
20
-459.505005
30
0.0
11
121.750240
21
-457.643495
31
0.0
0
LINE
8
0
6
CONTINUOUS
10
121.750240
20
-457.643495
30
0.0
11
121.750240
21
-454.468595
31
0.0
0
LINE
8
0
6
CONTINUOUS
10
121.750240
20
-454.468595
30
0.0
11
121.750240
21
-450.295695
31
0.0
0
LINE
8
0
6
CONTINUOUS
10
121.750200
20
-445.244275
30
0.0
11
121.750200
21
-439.333085
31
0.0
0
LINE
8
0
6
CONTINUOUS
10
121.750200
20
-439.333085
30
0.0
11
121.750200
21
-433.021675
31
0.0
0
LINE
8
0
6
CONTINUOUS
10
121.750200
20
-433.021675
30
0.0
11
121.750200
21
-426.449705
31
0.0
0
LINE
8
0
6
CONTINUOUS
10
121.750200
20
-426.449705
30
0.0
11
121.750200
21
-419.755835
31
0.0
0
LINE
8
0
6
CONTINUOUS
10
121.750200
20
-419.755835
30
0.0
11
121.750200
21
-413.410235
31
0.0
0
LINE
8
0
6
CONTINUOUS
10
121.750200
20
-413.410235
30
0.0
11
121.750200
21
-407.527825
31
0.0
0
LINE
8
0
6
CONTINUOUS
10
121.750200
20
-407.527825
30
0.0
11
121.750200
21
-402.284295
31
0.0
0
LINE
8
0
6
CONTINUOUS
10
121.750200
20
-402.284295
30
0.0
11
121.750160
21
-398.067685
31
0.0
0
LINE
8
0
6
CONTINUOUS
10
121.750170
20
-392.259825
30
0.0
11
120.683240
21
-392.259825
31
0.0
0
LINE
8
0
6
CONTINUOUS
10
121.750170
20
-392.875825
30
0.0
11
121.750170
21
-392.259825
31
0.0
0
LINE
8
0
6
CONTINUOUS
10
121.750200
20
-394.896995
30
0.0
11
121.750170
21
-392.875825
31
0.0
0
LINE
8
0
6
CONTINUOUS
10
121.750200
20
-445.244275
30
0.0
11
121.750240
21
-450.295695
31
0.0
0
LINE
8
0
6
CONTINUOUS
10
121.750200
20
-394.896995
30
0.0
11
121.750160
21
-398.067685
31
0.0
0
LINE
8
0
6
CONTINUOUS
10
100.411670
20
-392.259825
30
0.0
11
99.769730
21
-392.259825
31
0.0
0
LINE
8
0
6
CONTINUOUS
10
98.810940
20
-459.854815
30
0.0
11
99.769810
21
-460.164495
31
0.0
0
LINE
8
0
6
CONTINUOUS
10
98.593240
20
-392.887195
30
0.0
11
98.472730
21
-394.472355
31
0.0
0
LINE
8
0
6
CONTINUOUS
10
120.683240
20
-392.259825
30
0.0
11
100.411670
21
-392.259825
31
0.0
0
LINE
8
0
6
CONTINUOUS
10
98.472730
20
-394.472355
30
0.0
11
97.088266
21
-412.686112
31
0.0
0
LINE
8
0
6
CONTINUOUS
10
97.088378
20
-439.772257
30
0.0
11
98.675560
21
-458.276295
31
0.0
0
LINE
8
0
6
CONTINUOUS
10
121.750170
20
-392.259825
30
0.0
11
120.683240
21
-392.259825
31
0.0
0
LINE
8
0
6
CONTINUOUS
10
47.515632
20
-441.491225
30
0.0
11
50.626360
21
-446.663455
31
0.0
0
LINE
8
0
6
CONTINUOUS
10
59.153290
20
-441.535125
30
0.0
11
56.134183
21
-436.515251
31
0.0
0
LINE
8
0
6
CONTINUOUS
10
58.828740
20
-441.730315
30
0.0
11
55.844541
21
-436.768465
31
0.0
0
LINE
8
0
6
CONTINUOUS
10
57.904540
20
-442.286155
30
0.0
11
54.982240
21
-437.427224
31
0.0
0
LINE
8
0
6
CONTINUOUS
10
51.875100
20
-445.912435
30
0.0
11
48.883028
21
-440.937495
31
0.0
0
LINE
8
0
6
CONTINUOUS
10
47.846654
20
-441.306839
30
0.0
11
50.950890
21
-446.468275
31
0.0
0
LINE
8
0
6
CONTINUOUS
10
59.410990
20
-441.963595
30
0.0
11
59.153290
21
-441.535125
31
0.0
0
LINE
8
0
6
CONTINUOUS
10
59.086440
20
-442.158785
30
0.0
11
59.410990
21
-441.963595
31
0.0
0
LINE
8
0
6
CONTINUOUS
10
59.086440
20
-442.158785
30
0.0
11
58.828740
21
-441.730315
31
0.0
0
LINE
8
0
6
CONTINUOUS
10
59.086440
20
-442.158785
30
0.0
11
58.162240
21
-442.714625
31
0.0
0
LINE
8
0
6
CONTINUOUS
10
58.162240
20
-442.714625
30
0.0
11
57.904540
21
-442.286155
31
0.0
0
LINE
8
0
6
CONTINUOUS
10
58.162240
20
-442.714625
30
0.0
11
56.779070
21
-443.546505
31
0.0
0
LINE
8
0
6
CONTINUOUS
10
55.147520
20
-444.527765
30
0.0
11
56.779070
21
-443.546505
31
0.0
0
LINE
8
0
6
CONTINUOUS
10
55.147520
20
-444.527765
30
0.0
11
53.515960
21
-445.509035
31
0.0
0
LINE
8
0
6
CONTINUOUS
10
52.132800
20
-446.340905
30
0.0
11
53.515960
21
-445.509035
31
0.0
0
LINE
8
0
6
CONTINUOUS
10
52.132800
20
-446.340905
30
0.0
11
51.875100
21
-445.912435
31
0.0
0
LINE
8
0
6
CONTINUOUS
10
51.208600
20
-446.896745
30
0.0
11
52.132800
21
-446.340905
31
0.0
0
LINE
8
0
6
CONTINUOUS
10
51.208600
20
-446.896745
30
0.0
11
50.950890
21
-446.468275
31
0.0
0
LINE
8
0
6
CONTINUOUS
10
50.884060
20
-447.091935
30
0.0
11
51.208600
21
-446.896745
31
0.0
0
LINE
8
0
6
CONTINUOUS
10
50.626360
20
-446.663455
30
0.0
11
50.884060
21
-447.091935
31
0.0
0
LINE
8
0
6
CONTINUOUS
10
29.448700
20
-405.455975
30
0.0
11
31.460000
21
-403.778045
31
0.0
0
LINE
8
0
6
CONTINUOUS
10
33.907330
20
-402.004895
30
0.0
11
33.891310
21
-402.807895
31
0.0
0
LINE
8
0
6
CONTINUOUS
10
33.891310
20
-402.807895
30
0.0
11
33.907330
21
-402.004895
31
0.0
0
LINE
8
0
6
CONTINUOUS
10
33.907330
20
-402.004895
30
0.0
11
30.260810
21
-395.791405
31
0.0
0
LINE
8
0
6
CONTINUOUS
10
33.907330
20
-402.004895
30
0.0
11
36.155440
21
-401.113025
31
0.0
0
LINE
8
0
6
CONTINUOUS
10
28.736630
20
-405.090915
30
0.0
11
29.448700
21
-405.455975
31
0.0
0
LINE
8
0
6
CONTINUOUS
10
31.460000
20
-403.778045
30
0.0
11
33.891310
21
-402.807895
31
0.0
0
LINE
8
0
6
CONTINUOUS
10
28.736630
20
-405.090915
30
0.0
11
24.993410
21
-398.712885
31
0.0
0
LINE
8
0
6
CONTINUOUS
10
28.736630
20
-405.090915
30
0.0
11
26.842150
21
-406.673285
31
0.0
0
LINE
8
0
6
CONTINUOUS
10
29.448700
20
-405.455975
30
0.0
11
28.736630
21
-405.090915
31
0.0
0
LINE
8
0
6
CONTINUOUS
10
30.260810
20
-395.791405
30
0.0
11
29.189860
21
-394.689795
31
0.0
0
LINE
8
0
6
CONTINUOUS
10
24.993410
20
-398.712885
30
0.0
11
24.617380
21
-397.225885
31
0.0
0
LINE
8
0
6
CONTINUOUS
10
24.617380
20
-397.225885
30
0.0
11
25.036920
21
-395.751955
31
0.0
0
LINE
8
0
6
CONTINUOUS
10
25.036920
20
-395.751955
30
0.0
11
26.139700
21
-394.685905
31
0.0
0
LINE
8
0
6
CONTINUOUS
10
27.711060
20
-394.268725
30
0.0
11
29.189860
21
-394.689795
31
0.0
0
LINE
8
0
6
CONTINUOUS
10
26.139700
20
-394.685905
30
0.0
11
27.711060
21
-394.268725
31
0.0
0
LINE
8
0
6
CONTINUOUS
10
56.134183
20
-436.515251
30
0.0
11
56.735390
21
-436.039285
31
0.0
0
LINE
8
0
6
CONTINUOUS
10
47.427640
20
-441.626025
30
0.0
11
47.561745
21
-441.567897
31
0.0
0
LINE
8
0
6
CONTINUOUS
10
41.921930
20
-442.649695
30
0.0
11
47.427640
21
-441.626025
31
0.0
0
LINE
8
0
6
CONTINUOUS
10
36.561810
20
-442.095725
30
0.0
11
41.921930
21
-442.649695
31
0.0
0
LINE
8
0
6
CONTINUOUS
10
31.366010
20
-440.105865
30
0.0
11
36.561810
21
-442.095725
31
0.0
0
LINE
8
0
6
CONTINUOUS
10
26.833520
20
-436.782425
30
0.0
11
31.366010
21
-440.105865
31
0.0
0
LINE
8
0
6
CONTINUOUS
10
20.212300
20
-421.602755
30
0.0
11
21.051610
21
-427.202425
31
0.0
0
LINE
8
0
6
CONTINUOUS
10
23.008840
20
-410.776295
30
0.0
11
20.867570
21
-416.034175
31
0.0
0
LINE
8
0
6
CONTINUOUS
10
26.435200
20
-406.264965
30
0.0
11
23.008840
21
-410.776295
31
0.0
0
LINE
8
0
6
CONTINUOUS
10
28.476833
20
-404.648536
30
0.0
11
26.435200
21
-406.264965
31
0.0
0
LINE
8
0
6
CONTINUOUS
10
36.056750
20
-400.635385
30
0.0
11
33.674199
21
-401.607651
31
0.0
0
LINE
8
0
6
CONTINUOUS
10
41.642800
20
-399.942865
30
0.0
11
36.056750
21
-400.635385
31
0.0
0
LINE
8
0
6
CONTINUOUS
10
47.193990
20
-400.712705
30
0.0
11
41.642800
21
-399.942865
31
0.0
0
LINE
8
0
6
CONTINUOUS
10
52.354840
20
-402.838295
30
0.0
11
47.193990
21
-400.712705
31
0.0
0
LINE
8
0
6
CONTINUOUS
10
56.757270
20
-406.230175
30
0.0
11
52.354840
21
-402.838295
31
0.0
0
LINE
8
0
6
CONTINUOUS
10
60.080560
20
-410.624135
30
0.0
11
56.757270
21
-406.230175
31
0.0
0
LINE
8
0
6
CONTINUOUS
10
62.154070
20
-415.660715
30
0.0
11
60.080560
21
-410.624135
31
0.0
0
LINE
8
0
6
CONTINUOUS
10
62.073200
20
-426.470805
30
0.0
11
62.896680
21
-421.107715
31
0.0
0
LINE
8
0
6
CONTINUOUS
10
56.602090
20
-435.853885
30
0.0
11
59.816600
21
-431.523675
31
0.0
0
LINE
8
0
6
CONTINUOUS
10
52.382650
20
-439.228335
30
0.0
11
56.602090
21
-435.853885
31
0.0
0
LINE
8
0
6
CONTINUOUS
10
47.428460
20
-441.421215
30
0.0
11
52.382650
21
-439.228335
31
0.0
0
LINE
8
0
6
CONTINUOUS
10
42.100500
20
-442.252285
30
0.0
11
47.428460
21
-441.421215
31
0.0
0
LINE
8
0
6
CONTINUOUS
10
36.679710
20
-441.634835
30
0.0
11
42.100500
21
-442.252285
31
0.0
0
LINE
8
0
6
CONTINUOUS
10
31.595400
20
-439.632425
30
0.0
11
36.679710
21
-441.634835
31
0.0
0
LINE
8
0
6
CONTINUOUS
10
27.195400
20
-436.377185
30
0.0
11
31.595400
21
-439.632425
31
0.0
0
LINE
8
0
6
CONTINUOUS
10
23.783400
20
-432.085885
30
0.0
11
27.195400
21
-436.377185
31
0.0
0
LINE
8
0
6
CONTINUOUS
10
21.597650
20
-427.048425
30
0.0
11
23.783400
21
-432.085885
31
0.0
0
LINE
8
0
6
CONTINUOUS
10
20.808290
20
-421.624455
30
0.0
11
21.597650
21
-427.048425
31
0.0
0
LINE
8
0
6
CONTINUOUS
10
21.470270
20
-416.162495
30
0.0
11
20.808290
21
-421.624455
31
0.0
0
LINE
8
0
6
CONTINUOUS
10
23.529410
20
-411.061825
30
0.0
11
21.470270
21
-416.162495
31
0.0
0
LINE
8
0
6
CONTINUOUS
10
26.842150
20
-406.673285
30
0.0
11
23.529410
21
-411.061825
31
0.0
0
LINE
8
0
6
CONTINUOUS
10
41.650240
20
-400.452735
30
0.0
11
36.155440
21
-401.113025
31
0.0
0
LINE
8
0
6
CONTINUOUS
10
47.074570
20
-401.159145
30
0.0
11
41.650240
21
-400.452735
31
0.0
0
LINE
8
0
6
CONTINUOUS
10
52.123290
20
-403.232045
30
0.0
11
47.074570
21
-401.159145
31
0.0
0
LINE
8
0
6
CONTINUOUS
10
56.439430
20
-406.554685
30
0.0
11
52.123290
21
-403.232045
31
0.0
0
LINE
8
0
6
CONTINUOUS
10
59.706370
20
-410.823485
30
0.0
11
56.439430
21
-406.554685
31
0.0
0
LINE
8
0
6
CONTINUOUS
10
61.768620
20
-415.824215
30
0.0
11
59.706370
21
-410.823485
31
0.0
0
LINE
8
0
6
CONTINUOUS
10
62.487210
20
-421.173065
30
0.0
11
61.768620
21
-415.824215
31
0.0
0
LINE
8
0
6
CONTINUOUS
10
61.821220
20
-426.521765
30
0.0
11
62.487210
21
-421.173065
31
0.0
0
LINE
8
0
6
CONTINUOUS
10
59.816600
20
-431.523675
30
0.0
11
61.821220
21
-426.521765
31
0.0
0
LINE
8
0
6
CONTINUOUS
10
31.460000
20
-403.778045
30
0.0
11
29.448700
21
-405.455975
31
0.0
0
LINE
8
0
6
CONTINUOUS
10
33.891310
20
-402.807895
30
0.0
11
31.460000
21
-403.778045
31
0.0
0
LINE
8
0
6
CONTINUOUS
10
28.476833
20
-404.648536
30
0.0
11
26.435200
21
-406.264965
31
0.0
0
LINE
8
0
6
CONTINUOUS
10
34.318360
20
-443.330145
30
0.0
11
34.318360
21
-441.236540
31
0.0
0
LINE
8
0
6
CONTINUOUS
10
47.454160
20
-443.330145
30
0.0
11
47.454160
21
-442.514645
31
0.0
0
LINE
8
0
6
CONTINUOUS
10
43.233840
20
-443.330140
30
0.0
11
43.233840
21
-442.405773
31
0.0
0
LINE
8
0
6
CONTINUOUS
10
36.044380
20
-441.897562
30
0.0
11
36.044380
21
-443.330142
31
0.0
0
LINE
8
0
6
CONTINUOUS
10
39.197970
20
-443.330145
30
0.0
11
39.197970
21
-442.368173
31
0.0
0
LINE
8
0
6
CONTINUOUS
10
47.860760
20
-443.330135
30
0.0
11
43.096280
21
-443.330135
31
0.0
0
LINE
8
0
6
CONTINUOUS
10
38.540060
20
-443.330135
30
0.0
11
34.979870
21
-443.330145
31
0.0
0
LINE
8
0
6
CONTINUOUS
10
47.860760
20
-443.330135
30
0.0
11
47.860760
21
-444.710605
31
0.0
0
LINE
8
0
6
CONTINUOUS
10
48.621607
20
-443.330137
30
0.0
11
47.860760
21
-443.330135
31
0.0
0
LINE
8
0
6
CONTINUOUS
10
38.540060
20
-443.330135
30
0.0
11
38.540060
21
-444.710605
31
0.0
0
LINE
8
0
6
CONTINUOUS
10
43.096280
20
-443.330135
30
0.0
11
38.540060
21
-443.330135
31
0.0
0
LINE
8
0
6
CONTINUOUS
10
43.096280
20
-444.710605
30
0.0
11
43.096280
21
-443.330135
31
0.0
0
LINE
8
0
6
CONTINUOUS
10
33.031300
20
-443.330145
30
0.0
11
33.031300
21
-444.710605
31
0.0
0
LINE
8
0
6
CONTINUOUS
10
34.979870
20
-443.330145
30
0.0
11
33.031300
21
-443.330145
31
0.0
0
LINE
8
0
6
CONTINUOUS
10
34.979870
20
-444.710605
30
0.0
11
34.979870
21
-443.330145
31
0.0
0
LINE
8
0
6
CONTINUOUS
10
34.212950
20
-465.978085
30
0.0
11
35.957190
21
-465.978075
31
0.0
0
LINE
8
0
6
CONTINUOUS
10
34.171690
20
-465.235355
30
0.0
11
34.212950
21
-465.978085
31
0.0
0
LINE
8
0
6
CONTINUOUS
10
35.957190
20
-465.978075
30
0.0
11
39.144080
21
-465.978075
31
0.0
0
LINE
8
0
6
CONTINUOUS
10
35.923060
20
-465.235355
30
0.0
11
35.957190
21
-465.978075
31
0.0
0
LINE
8
0
6
CONTINUOUS
10
39.144080
20
-465.978075
30
0.0
11
43.222570
21
-465.978075
31
0.0
0
LINE
8
0
6
CONTINUOUS
10
39.122980
20
-465.235355
30
0.0
11
39.144080
21
-465.978075
31
0.0
0
LINE
8
0
6
CONTINUOUS
10
43.222570
20
-465.978075
30
0.0
11
47.487460
21
-465.978075
31
0.0
0
LINE
8
0
6
CONTINUOUS
10
43.218150
20
-465.235355
30
0.0
11
43.222570
21
-465.978075
31
0.0
0
LINE
8
0
6
CONTINUOUS
10
47.487460
20
-465.978075
30
0.0
11
51.201300
21
-465.978075
31
0.0
0
LINE
8
0
6
CONTINUOUS
10
47.500500
20
-465.235355
30
0.0
11
47.487460
21
-465.978075
31
0.0
0
LINE
8
0
6
CONTINUOUS
10
51.201300
20
-465.978075
30
0.0
11
53.721940
21
-465.978075
31
0.0
0
LINE
8
0
6
CONTINUOUS
10
51.229520
20
-465.235355
30
0.0
11
51.201300
21
-465.978075
31
0.0
0
LINE
8
0
6
CONTINUOUS
10
53.721940
20
-465.978075
30
0.0
11
54.613550
21
-465.978085
31
0.0
0
LINE
8
0
6
CONTINUOUS
10
53.760480
20
-465.235355
30
0.0
11
53.721940
21
-465.978075
31
0.0
0
LINE
8
0
6
CONTINUOUS
10
54.613550
20
-465.978085
30
0.0
11
54.655740
21
-465.235365
31
0.0
0
LINE
8
0
6
CONTINUOUS
10
33.031300
20
-444.710605
30
0.0
11
34.171690
21
-465.235355
31
0.0
0
LINE
8
0
6
CONTINUOUS
10
34.979870
20
-444.710605
30
0.0
11
35.923060
21
-465.235355
31
0.0
0
LINE
8
0
6
CONTINUOUS
10
38.540060
20
-444.710605
30
0.0
11
39.122980
21
-465.235355
31
0.0
0
LINE
8
0
6
CONTINUOUS
10
43.096280
20
-444.710605
30
0.0
11
43.218150
21
-465.235355
31
0.0
0
LINE
8
0
6
CONTINUOUS
10
47.860760
20
-444.710605
30
0.0
11
47.500500
21
-465.235355
31
0.0
0
LINE
8
0
6
CONTINUOUS
10
51.943344
20
-446.454848
30
0.0
11
51.229520
21
-465.235355
31
0.0
0
LINE
8
0
6
CONTINUOUS
10
54.825540
20
-444.710605
30
0.0
11
53.760480
21
-465.235355
31
0.0
0
LINE
8
0
6
CONTINUOUS
10
54.655740
20
-465.235365
30
0.0
11
55.821600
21
-444.710615
31
0.0
0
LINE
8
0
6
CONTINUOUS
10
-88.370560
20
361.522185
30
0.0
11
-87.108150
21
360.637635
31
0.0
0
LINE
8
0
6
CONTINUOUS
10
-88.994780
20
361.952785
30
0.0
11
-88.370560
21
361.522185
31
0.0
0
LINE
8
0
6
CONTINUOUS
10
-87.108150
20
360.637635
30
0.0
11
-86.469950
21
360.183605
31
0.0
0
LINE
8
0
6
CONTINUOUS
10
-86.469950
20
360.183605
30
0.0
11
-87.108150
21
360.637635
31
0.0
0
LINE
8
0
6
CONTINUOUS
10
-88.356560
20
361.498835
30
0.0
11
-87.094150
21
360.614205
31
0.0
0
LINE
8
0
6
CONTINUOUS
10
-88.370560
20
361.522185
30
0.0
11
-88.994780
21
361.952785
31
0.0
0
LINE
8
0
6
CONTINUOUS
10
-87.108150
20
360.637635
30
0.0
11
-88.370560
21
361.522185
31
0.0
0
LINE
8
0
6
CONTINUOUS
10
-86.606570
20
360.909545
30
0.0
11
-85.523580
21
360.150645
31
0.0
0
LINE
8
0
6
CONTINUOUS
10
-87.142060
20
361.278885
30
0.0
11
-86.606570
21
360.909545
31
0.0
0
LINE
8
0
6
CONTINUOUS
10
-86.547919
20
362.114707
30
0.0
11
-87.142060
21
361.278885
31
0.0
0
LINE
8
0
6
CONTINUOUS
10
-85.523580
20
360.150645
30
0.0
11
-84.976090
21
359.761165
31
0.0
0
LINE
8
0
6
CONTINUOUS
10
-84.895474
20
361.034233
30
0.0
11
-85.523580
21
360.150645
31
0.0
0
LINE
8
0
6
CONTINUOUS
10
-84.976090
20
359.761165
30
0.0
11
-85.523580
21
360.150645
31
0.0
0
LINE
8
0
6
CONTINUOUS
10
-86.594550
20
360.889475
30
0.0
11
-85.511580
21
360.130585
31
0.0
0
LINE
8
0
6
CONTINUOUS
10
-86.606570
20
360.909545
30
0.0
11
-87.142060
21
361.278885
31
0.0
0
LINE
8
0
6
CONTINUOUS
10
-85.523580
20
360.150645
30
0.0
11
-86.606570
21
360.909545
31
0.0
0
LINE
8
0
6
CONTINUOUS
10
-84.088600
20
359.731485
30
0.0
11
-83.005610
21
358.972595
31
0.0
0
LINE
8
0
6
CONTINUOUS
10
-84.088600
20
359.731485
30
0.0
11
-82.885763
21
361.423581
31
0.0
0
LINE
8
0
6
CONTINUOUS
10
-84.624090
20
360.100905
30
0.0
11
-84.088600
21
359.731485
31
0.0
0
LINE
8
0
6
CONTINUOUS
10
-84.042923
20
360.918480
30
0.0
11
-84.624090
21
360.100905
31
0.0
0
LINE
8
0
6
CONTINUOUS
10
-83.005610
20
358.972595
30
0.0
11
-82.458110
21
358.583115
31
0.0
0
LINE
8
0
6
CONTINUOUS
10
-82.356821
20
359.885276
30
0.0
11
-83.005610
21
358.972595
31
0.0
0
LINE
8
0
6
CONTINUOUS
10
-82.458110
20
358.583115
30
0.0
11
-83.005610
21
358.972595
31
0.0
0
LINE
8
0
6
CONTINUOUS
10
-84.076590
20
359.711425
30
0.0
11
-82.993610
21
358.952525
31
0.0
0
LINE
8
0
6
CONTINUOUS
10
-84.088600
20
359.731485
30
0.0
11
-84.624090
21
360.100905
31
0.0
0
LINE
8
0
6
CONTINUOUS
10
-83.005610
20
358.972595
30
0.0
11
-84.088600
21
359.731485
31
0.0
0
LINE
8
0
6
CONTINUOUS
10
-88.097620
20
360.054825
30
0.0
11
-86.245410
21
358.761945
31
0.0
0
LINE
8
0
6
CONTINUOUS
10
-86.245410
20
358.761945
30
0.0
11
-84.607540
21
357.606775
31
0.0
0
LINE
8
0
6
CONTINUOUS
10
-88.311910
20
360.192455
30
0.0
11
-88.097620
21
360.054825
31
0.0
0
LINE
8
0
6
CONTINUOUS
10
-84.607540
20
357.606775
30
0.0
11
-86.245410
21
358.761945
31
0.0
0
LINE
8
0
6
CONTINUOUS
10
-86.674050
20
359.037295
30
0.0
11
-84.821830
21
357.744415
31
0.0
0
LINE
8
0
6
CONTINUOUS
10
-88.311910
20
360.192455
30
0.0
11
-86.674050
21
359.037295
31
0.0
0
LINE
8
0
6
CONTINUOUS
10
-88.097620
20
360.054825
30
0.0
11
-88.311910
21
360.192455
31
0.0
0
LINE
8
0
6
CONTINUOUS
10
-86.245410
20
358.761945
30
0.0
11
-88.097620
21
360.054825
31
0.0
0
LINE
8
0
6
CONTINUOUS
10
-95.079090
20
366.218685
30
0.0
11
-93.816670
21
365.334055
31
0.0
0
LINE
8
0
6
CONTINUOUS
10
-95.079090
20
366.218685
30
0.0
11
-94.941597
21
366.411652
31
0.0
0
LINE
8
0
6
CONTINUOUS
10
-95.703290
20
366.649285
30
0.0
11
-95.079090
21
366.218685
31
0.0
0
LINE
8
0
6
CONTINUOUS
10
-95.548015
20
366.867208
30
0.0
11
-95.703290
21
366.649285
31
0.0
0
LINE
8
0
6
CONTINUOUS
10
-93.178450
20
364.880035
30
0.0
11
-93.082335
21
365.014930
31
0.0
0
LINE
8
0
6
CONTINUOUS
10
-93.816670
20
365.334055
30
0.0
11
-93.178450
21
364.880035
31
0.0
0
LINE
8
0
6
CONTINUOUS
10
-93.708753
20
365.485510
30
0.0
11
-93.816670
21
365.334055
31
0.0
0
LINE
8
0
6
CONTINUOUS
10
-93.178450
20
364.880035
30
0.0
11
-93.816670
21
365.334055
31
0.0
0
LINE
8
0
6
CONTINUOUS
10
-95.065090
20
366.195265
30
0.0
11
-93.802670
21
365.310635
31
0.0
0
LINE
8
0
6
CONTINUOUS
10
-95.079090
20
366.218685
30
0.0
11
-95.703290
21
366.649285
31
0.0
0
LINE
8
0
6
CONTINUOUS
10
-93.816670
20
365.334055
30
0.0
11
-95.079090
21
366.218685
31
0.0
0
LINE
8
0
6
CONTINUOUS
10
-93.503490
20
365.746045
30
0.0
11
-92.420490
21
364.987145
31
0.0
0
LINE
8
0
6
CONTINUOUS
10
-94.038970
20
366.115465
30
0.0
11
-93.503490
21
365.746045
31
0.0
0
LINE
8
0
6
CONTINUOUS
10
-93.434239
20
366.966194
30
0.0
11
-94.038970
21
366.115465
31
0.0
0
LINE
8
0
6
CONTINUOUS
10
-92.420490
20
364.987145
30
0.0
11
-91.873010
21
364.597745
31
0.0
0
LINE
8
0
6
CONTINUOUS
10
-91.799529
20
365.860702
30
0.0
11
-92.420490
21
364.987145
31
0.0
0
LINE
8
0
6
CONTINUOUS
10
-91.873010
20
364.597745
30
0.0
11
-92.420490
21
364.987145
31
0.0
0
LINE
8
0
6
CONTINUOUS
10
-93.491470
20
365.725985
30
0.0
11
-92.408500
21
364.967165
31
0.0
0
LINE
8
0
6
CONTINUOUS
10
-93.503490
20
365.746045
30
0.0
11
-94.038970
21
366.115465
31
0.0
0
LINE
8
0
6
CONTINUOUS
10
-92.420490
20
364.987145
30
0.0
11
-93.503490
21
365.746045
31
0.0
0
LINE
8
0
6
CONTINUOUS
10
-99.768440
20
370.110445
30
0.0
11
-98.685450
21
369.351545
31
0.0
0
LINE
8
0
6
CONTINUOUS
10
-100.303930
20
370.479855
30
0.0
11
-99.768440
21
370.110445
31
0.0
0
LINE
8
0
6
CONTINUOUS
10
-98.685450
20
369.351545
30
0.0
11
-98.137940
21
368.962065
31
0.0
0
LINE
8
0
6
CONTINUOUS
10
-98.137940
20
368.962065
30
0.0
11
-98.685450
21
369.351545
31
0.0
0
LINE
8
0
6
CONTINUOUS
10
-99.756420
20
370.090375
30
0.0
11
-98.673450
21
369.331555
31
0.0
0
LINE
8
0
6
CONTINUOUS
10
-99.768440
20
370.110445
30
0.0
11
-100.303930
21
370.479855
31
0.0
0
LINE
8
0
6
CONTINUOUS
10
-98.685450
20
369.351545
30
0.0
11
-99.768440
21
370.110445
31
0.0
0
LINE
8
0
6
CONTINUOUS
10
-109.229000
20
377.284435
30
0.0
11
-108.162340
21
376.538055
31
0.0
0
LINE
8
0
6
CONTINUOUS
10
-109.229000
20
377.284435
30
0.0
11
-108.991517
21
377.618809
31
0.0
0
LINE
8
0
6
CONTINUOUS
10
-109.599910
20
377.538035
30
0.0
11
-109.229000
21
377.284435
31
0.0
0
LINE
8
0
6
CONTINUOUS
10
-109.343214
20
377.899460
30
0.0
11
-109.599910
21
377.538035
31
0.0
0
LINE
8
0
6
CONTINUOUS
10
-107.466590
20
376.045345
30
0.0
11
-107.304946
21
376.272939
31
0.0
0
LINE
8
0
6
CONTINUOUS
10
-108.162340
20
376.538055
30
0.0
11
-107.466590
21
376.045345
31
0.0
0
LINE
8
0
6
CONTINUOUS
10
-107.542554
20
377.410727
30
0.0
11
-108.162340
21
376.538055
31
0.0
0
LINE
8
0
6
CONTINUOUS
10
-107.466590
20
376.045345
30
0.0
11
-108.162340
21
376.538055
31
0.0
0
LINE
8
0
6
CONTINUOUS
10
-108.904140
20
377.045255
30
0.0
11
-107.837500
21
376.298945
31
0.0
0
LINE
8
0
6
CONTINUOUS
10
-109.229000
20
377.284435
30
0.0
11
-109.599910
21
377.538035
31
0.0
0
LINE
8
0
6
CONTINUOUS
10
-108.162340
20
376.538055
30
0.0
11
-109.229000
21
377.284435
31
0.0
0
LINE
8
0
6
CONTINUOUS
10
-104.068080
20
373.691295
30
0.0
11
-103.001410
21
372.944985
31
0.0
0
LINE
8
0
6
CONTINUOUS
10
-104.068080
20
373.691295
30
0.0
11
-102.835878
21
375.426222
31
0.0
0
LINE
8
0
6
CONTINUOUS
10
-104.438960
20
373.944895
30
0.0
11
-104.068080
21
373.691295
31
0.0
0
LINE
8
0
6
CONTINUOUS
10
-103.818814
20
374.818056
30
0.0
11
-104.438960
21
373.944895
31
0.0
0
LINE
8
0
6
CONTINUOUS
10
-103.001410
20
372.944985
30
0.0
11
-102.305650
21
372.452285
31
0.0
0
LINE
8
0
6
CONTINUOUS
10
-102.374643
20
373.827471
30
0.0
11
-103.001410
21
372.944985
31
0.0
0
LINE
8
0
6
CONTINUOUS
10
-102.305650
20
372.452285
30
0.0
11
-103.001410
21
372.944985
31
0.0
0
LINE
8
0
6
CONTINUOUS
10
-103.743180
20
373.452195
30
0.0
11
-102.676540
21
372.705885
31
0.0
0
LINE
8
0
6
CONTINUOUS
10
-104.068080
20
373.691295
30
0.0
11
-104.438960
21
373.944895
31
0.0
0
LINE
8
0
6
CONTINUOUS
10
-103.001410
20
372.944985
30
0.0
11
-104.068080
21
373.691295
31
0.0
0
LINE
8
0
6
CONTINUOUS
10
-97.999130
20
369.465075
30
0.0
11
-96.932460
21
368.718685
31
0.0
0
LINE
8
0
6
CONTINUOUS
10
-97.999130
20
369.465075
30
0.0
11
-96.770497
21
371.194976
31
0.0
0
LINE
8
0
6
CONTINUOUS
10
-98.370010
20
369.718595
30
0.0
11
-97.999130
21
369.465075
31
0.0
0
LINE
8
0
6
CONTINUOUS
10
-97.771361
20
370.561502
30
0.0
11
-98.370010
21
369.718595
31
0.0
0
LINE
8
0
6
CONTINUOUS
10
-96.932460
20
368.718685
30
0.0
11
-96.236700
21
368.225985
31
0.0
0
LINE
8
0
6
CONTINUOUS
10
-96.296019
20
369.614787
30
0.0
11
-96.932460
21
368.718685
31
0.0
0
LINE
8
0
6
CONTINUOUS
10
-96.236700
20
368.225985
30
0.0
11
-96.932460
21
368.718685
31
0.0
0
LINE
8
0
6
CONTINUOUS
10
-97.674250
20
369.225885
30
0.0
11
-96.607620
21
368.479585
31
0.0
0
LINE
8
0
6
CONTINUOUS
10
-97.999130
20
369.465075
30
0.0
11
-98.370010
21
369.718595
31
0.0
0
LINE
8
0
6
CONTINUOUS
10
-96.932460
20
368.718685
30
0.0
11
-97.999130
21
369.465075
31
0.0
0
LINE
8
0
6
CONTINUOUS
10
-91.200800
20
364.722865
30
0.0
11
-90.134150
21
363.976565
31
0.0
0
LINE
8
0
6
CONTINUOUS
10
-91.200800
20
364.722865
30
0.0
11
-89.985147
21
366.434491
31
0.0
0
LINE
8
0
6
CONTINUOUS
10
-91.571680
20
364.976465
30
0.0
11
-91.200800
21
364.722865
31
0.0
0
LINE
8
0
6
CONTINUOUS
10
-90.987832
20
365.798519
30
0.0
11
-91.571680
21
364.976465
31
0.0
0
LINE
8
0
6
CONTINUOUS
10
-90.134150
20
363.976565
30
0.0
11
-89.438370
21
363.483775
31
0.0
0
LINE
8
0
6
CONTINUOUS
10
-89.487334
20
364.887272
30
0.0
11
-90.134150
21
363.976565
31
0.0
0
LINE
8
0
6
CONTINUOUS
10
-89.438370
20
363.483775
30
0.0
11
-90.134150
21
363.976565
31
0.0
0
LINE
8
0
6
CONTINUOUS
10
-90.875920
20
364.483685
30
0.0
11
-89.809280
21
363.737375
31
0.0
0
LINE
8
0
6
CONTINUOUS
10
-91.200800
20
364.722865
30
0.0
11
-91.571680
21
364.976465
31
0.0
0
LINE
8
0
6
CONTINUOUS
10
-90.134150
20
363.976565
30
0.0
11
-91.200800
21
364.722865
31
0.0
0
LINE
8
0
6
CONTINUOUS
10
-72.790120
20
349.870195
30
0.0
11
-72.213045
21
350.684367
31
0.0
0
LINE
8
0
6
CONTINUOUS
10
-73.318780
20
350.247995
30
0.0
11
-72.790120
21
349.870195
31
0.0
0
LINE
8
0
6
CONTINUOUS
10
-73.318780
20
350.247995
30
0.0
11
-72.757585
21
351.039759
31
0.0
0
LINE
8
0
6
CONTINUOUS
10
-74.614860
20
351.157115
30
0.0
11
-73.318780
21
350.247995
31
0.0
0
LINE
8
0
6
CONTINUOUS
10
-74.614860
20
351.157115
30
0.0
11
-74.084321
21
351.905651
31
0.0
0
LINE
8
0
6
CONTINUOUS
10
-75.382320
20
351.688425
30
0.0
11
-74.614860
21
351.157115
31
0.0
0
LINE
8
0
6
CONTINUOUS
10
-74.866519
20
352.416150
30
0.0
11
-75.382320
21
351.688425
31
0.0
0
LINE
8
0
6
CONTINUOUS
10
-74.853700
20
351.310625
30
0.0
11
-73.557580
21
350.401425
31
0.0
0
LINE
8
0
6
CONTINUOUS
10
-74.614860
20
351.157115
30
0.0
11
-75.382320
21
351.688425
31
0.0
0
LINE
8
0
6
CONTINUOUS
10
-73.318780
20
350.247995
30
0.0
11
-74.614860
21
351.157115
31
0.0
0
LINE
8
0
6
CONTINUOUS
10
-72.790120
20
349.870195
30
0.0
11
-73.318780
21
350.247995
31
0.0
0
LINE
8
0
6
CONTINUOUS
10
-53.992780
20
338.504605
30
0.0
11
-53.372566
21
339.381333
31
0.0
0
LINE
8
0
6
CONTINUOUS
10
-54.432040
20
338.818635
30
0.0
11
-53.992780
21
338.504605
31
0.0
0
LINE
8
0
6
CONTINUOUS
10
-54.432040
20
338.818635
30
0.0
11
-53.843362
21
339.650767
31
0.0
0
LINE
8
0
6
CONTINUOUS
10
-55.509010
20
339.574015
30
0.0
11
-54.432040
21
338.818635
31
0.0
0
LINE
8
0
6
CONTINUOUS
10
-55.509010
20
339.574015
30
0.0
11
-54.986373
21
340.312807
31
0.0
0
LINE
8
0
6
CONTINUOUS
10
-56.146690
20
340.015455
30
0.0
11
-55.509010
21
339.574015
31
0.0
0
LINE
8
0
6
CONTINUOUS
10
-55.707450
20
339.701505
30
0.0
11
-54.630460
21
338.946115
31
0.0
0
LINE
8
0
6
CONTINUOUS
10
-55.509010
20
339.574015
30
0.0
11
-56.146690
21
340.015455
31
0.0
0
LINE
8
0
6
CONTINUOUS
10
-54.432040
20
338.818635
30
0.0
11
-55.509010
21
339.574015
31
0.0
0
LINE
8
0
6
CONTINUOUS
10
-53.992780
20
338.504605
30
0.0
11
-54.432040
21
338.818635
31
0.0
0
LINE
8
0
6
CONTINUOUS
10
-60.542440
20
342.534835
30
0.0
11
-60.103160
21
342.220805
31
0.0
0
LINE
8
0
6
CONTINUOUS
10
-61.619390
20
343.290215
30
0.0
11
-60.542440
21
342.534835
31
0.0
0
LINE
8
0
6
CONTINUOUS
10
-61.619390
20
343.290215
30
0.0
11
-61.086031
21
344.044151
31
0.0
0
LINE
8
0
6
CONTINUOUS
10
-62.257070
20
343.731655
30
0.0
11
-61.619390
21
343.290215
31
0.0
0
LINE
8
0
6
CONTINUOUS
10
-61.817830
20
343.417705
30
0.0
11
-60.740860
21
342.662245
31
0.0
0
LINE
8
0
6
CONTINUOUS
10
-61.619390
20
343.290215
30
0.0
11
-62.257070
21
343.731655
31
0.0
0
LINE
8
0
6
CONTINUOUS
10
-60.542440
20
342.534835
30
0.0
11
-61.619390
21
343.290215
31
0.0
0
LINE
8
0
6
CONTINUOUS
10
-60.103160
20
342.220805
30
0.0
11
-60.542440
21
342.534835
31
0.0
0
LINE
8
0
6
CONTINUOUS
10
-66.118940
20
345.802275
30
0.0
11
-65.492308
21
346.686667
31
0.0
0
LINE
8
0
6
CONTINUOUS
10
-66.630980
20
346.168255
30
0.0
11
-66.118940
21
345.802275
31
0.0
0
LINE
8
0
6
CONTINUOUS
10
-66.630980
20
346.168255
30
0.0
11
-66.036072
21
347.007877
31
0.0
0
LINE
8
0
6
CONTINUOUS
10
-67.886360
20
347.048845
30
0.0
11
-66.630980
21
346.168255
31
0.0
0
LINE
8
0
6
CONTINUOUS
10
-67.886360
20
347.048845
30
0.0
11
-67.360887
21
347.790469
31
0.0
0
LINE
8
0
6
CONTINUOUS
10
-68.629690
20
347.563365
30
0.0
11
-67.886360
21
347.048845
31
0.0
0
LINE
8
0
6
CONTINUOUS
10
-68.141896
20
348.251825
30
0.0
11
-68.629690
21
347.563365
31
0.0
0
LINE
8
0
6
CONTINUOUS
10
-68.117690
20
347.197385
30
0.0
11
-66.862270
21
346.316805
31
0.0
0
LINE
8
0
6
CONTINUOUS
10
-67.886360
20
347.048845
30
0.0
11
-68.629690
21
347.563365
31
0.0
0
LINE
8
0
6
CONTINUOUS
10
-66.630980
20
346.168255
30
0.0
11
-67.886360
21
347.048845
31
0.0
0
LINE
8
0
6
CONTINUOUS
10
-66.118940
20
345.802275
30
0.0
11
-66.630980
21
346.168255
31
0.0
0
LINE
8
0
6
CONTINUOUS
10
-55.900910
20
339.851045
30
0.0
11
-55.396689
21
340.563810
31
0.0
0
LINE
8
0
6
CONTINUOUS
10
-56.340210
20
340.165065
30
0.0
11
-55.900910
21
339.851045
31
0.0
0
LINE
8
0
6
CONTINUOUS
10
-56.340210
20
340.165065
30
0.0
11
-55.858341
21
340.846216
31
0.0
0
LINE
8
0
6
CONTINUOUS
10
-57.417160
20
340.920455
30
0.0
11
-56.340210
21
340.165065
31
0.0
0
LINE
8
0
6
CONTINUOUS
10
-57.417160
20
340.920455
30
0.0
11
-56.982981
21
341.534192
31
0.0
0
LINE
8
0
6
CONTINUOUS
10
-58.054860
20
341.361895
30
0.0
11
-57.417160
21
340.920455
31
0.0
0
LINE
8
0
6
CONTINUOUS
10
-57.646027
20
341.939797
30
0.0
11
-58.054860
21
341.361895
31
0.0
0
LINE
8
0
6
CONTINUOUS
10
-57.615580
20
341.047945
30
0.0
11
-56.538630
21
340.292555
31
0.0
0
LINE
8
0
6
CONTINUOUS
10
-57.417160
20
340.920455
30
0.0
11
-58.054860
21
341.361895
31
0.0
0
LINE
8
0
6
CONTINUOUS
10
-56.340210
20
340.165065
30
0.0
11
-57.417160
21
340.920455
31
0.0
0
LINE
8
0
6
CONTINUOUS
10
-55.900910
20
339.851045
30
0.0
11
-56.340210
21
340.165065
31
0.0
0
LINE
8
0
6
CONTINUOUS
10
-62.208510
20
343.722345
30
0.0
11
-61.710577
21
344.426204
31
0.0
0
LINE
8
0
6
CONTINUOUS
10
-62.647770
20
344.036295
30
0.0
11
-62.208510
21
343.722345
31
0.0
0
LINE
8
0
6
CONTINUOUS
10
-62.647770
20
344.036295
30
0.0
11
-62.172181
21
344.708582
31
0.0
0
LINE
8
0
6
CONTINUOUS
10
-63.724740
20
344.791765
30
0.0
11
-62.647770
21
344.036295
31
0.0
0
LINE
8
0
6
CONTINUOUS
10
-63.724740
20
344.791765
30
0.0
11
-63.300263
21
345.391787
31
0.0
0
LINE
8
0
6
CONTINUOUS
10
-64.362420
20
345.233195
30
0.0
11
-63.724740
21
344.791765
31
0.0
0
LINE
8
0
6
CONTINUOUS
10
-63.970246
20
345.787558
30
0.0
11
-64.362420
21
345.233195
31
0.0
0
LINE
8
0
6
CONTINUOUS
10
-63.923180
20
344.919245
30
0.0
11
-62.846210
21
344.163785
31
0.0
0
LINE
8
0
6
CONTINUOUS
10
-63.724740
20
344.791765
30
0.0
11
-64.362420
21
345.233195
31
0.0
0
LINE
8
0
6
CONTINUOUS
10
-62.647770
20
344.036295
30
0.0
11
-63.724740
21
344.791765
31
0.0
0
LINE
8
0
6
CONTINUOUS
10
-62.208510
20
343.722345
30
0.0
11
-62.647770
21
344.036295
31
0.0
0
LINE
8
0
6
CONTINUOUS
10
-68.625000
20
347.596935
30
0.0
11
-68.155360
21
348.259778
31
0.0
0
LINE
8
0
6
CONTINUOUS
10
-69.137070
20
347.962995
30
0.0
11
-68.625000
21
347.596935
31
0.0
0
LINE
8
0
6
CONTINUOUS
10
-69.137070
20
347.962995
30
0.0
11
-68.699175
21
348.581019
31
0.0
0
LINE
8
0
6
CONTINUOUS
10
-70.392430
20
348.843505
30
0.0
11
-69.137070
21
347.962995
31
0.0
0
LINE
8
0
6
CONTINUOUS
10
-70.392430
20
348.843505
30
0.0
11
-70.023944
21
349.363583
31
0.0
0
LINE
8
0
6
CONTINUOUS
10
-71.135780
20
349.358105
30
0.0
11
-70.392430
21
348.843505
31
0.0
0
LINE
8
0
6
CONTINUOUS
10
-70.804991
20
349.824961
30
0.0
11
-71.135780
21
349.358105
31
0.0
0
LINE
8
0
6
CONTINUOUS
10
-70.623750
20
348.992125
30
0.0
11
-69.368370
21
348.111535
31
0.0
0
LINE
8
0
6
CONTINUOUS
10
-70.392430
20
348.843505
30
0.0
11
-71.135780
21
349.358105
31
0.0
0
LINE
8
0
6
CONTINUOUS
10
-69.137070
20
347.962995
30
0.0
11
-70.392430
21
348.843505
31
0.0
0
LINE
8
0
6
CONTINUOUS
10
-68.625000
20
347.596935
30
0.0
11
-69.137070
21
347.962995
31
0.0
0
LINE
8
0
6
CONTINUOUS
10
-76.959240
20
352.825815
30
0.0
11
-76.495882
21
353.479550
31
0.0
0
LINE
8
0
6
CONTINUOUS
10
-77.487900
20
353.203705
30
0.0
11
-76.959240
21
352.825815
31
0.0
0
LINE
8
0
6
CONTINUOUS
10
-77.487900
20
353.203705
30
0.0
11
-77.040466
21
353.834972
31
0.0
0
LINE
8
0
6
CONTINUOUS
10
-78.783980
20
354.112825
30
0.0
11
-77.487900
21
353.203705
31
0.0
0
LINE
8
0
6
CONTINUOUS
10
-78.783980
20
354.112825
30
0.0
11
-78.367189
21
354.700855
31
0.0
0
LINE
8
0
6
CONTINUOUS
10
-79.551440
20
354.644135
30
0.0
11
-78.783980
21
354.112825
31
0.0
0
LINE
8
0
6
CONTINUOUS
10
-79.149395
20
355.211360
30
0.0
11
-79.551440
21
354.644135
31
0.0
0
LINE
8
0
6
CONTINUOUS
10
-79.022800
20
354.266245
30
0.0
11
-77.726700
21
353.357125
31
0.0
0
LINE
8
0
6
CONTINUOUS
10
-78.783980
20
354.112825
30
0.0
11
-79.551440
21
354.644135
31
0.0
0
LINE
8
0
6
CONTINUOUS
10
-77.487900
20
353.203705
30
0.0
11
-78.783980
21
354.112825
31
0.0
0
LINE
8
0
6
CONTINUOUS
10
-76.959240
20
352.825815
30
0.0
11
-77.487900
21
353.203705
31
0.0
0
LINE
8
0
6
CONTINUOUS
10
-83.237470
20
357.245225
30
0.0
11
-82.920848
21
357.691932
31
0.0
0
LINE
8
0
6
CONTINUOUS
10
-83.766130
20
357.623105
30
0.0
11
-83.237470
21
357.245225
31
0.0
0
LINE
8
0
6
CONTINUOUS
10
-83.766130
20
357.623105
30
0.0
11
-83.463449
21
358.050144
31
0.0
0
LINE
8
0
6
CONTINUOUS
10
-85.062230
20
358.532225
30
0.0
11
-83.766130
21
357.623105
31
0.0
0
LINE
8
0
6
CONTINUOUS
10
-85.829670
20
359.063455
30
0.0
11
-85.062230
21
358.532225
31
0.0
0
LINE
8
0
6
CONTINUOUS
10
-85.301050
20
358.685655
30
0.0
11
-84.004930
21
357.776455
31
0.0
0
LINE
8
0
6
CONTINUOUS
10
-85.062230
20
358.532225
30
0.0
11
-85.829670
21
359.063455
31
0.0
0
LINE
8
0
6
CONTINUOUS
10
-83.766130
20
357.623105
30
0.0
11
-85.062230
21
358.532225
31
0.0
0
LINE
8
0
6
CONTINUOUS
10
-83.237470
20
357.245225
30
0.0
11
-83.766130
21
357.623105
31
0.0
0
LINE
8
0
6
CONTINUOUS
10
-73.216980
20
350.854845
30
0.0
11
-72.982129
21
351.186307
31
0.0
0
LINE
8
0
6
CONTINUOUS
10
-73.729030
20
351.220825
30
0.0
11
-73.216980
21
350.854845
31
0.0
0
LINE
8
0
6
CONTINUOUS
10
-73.729030
20
351.220825
30
0.0
11
-73.509581
21
351.530548
31
0.0
0
LINE
8
0
6
CONTINUOUS
10
-74.984410
20
352.101405
30
0.0
11
-73.729030
21
351.220825
31
0.0
0
LINE
8
0
6
CONTINUOUS
10
-74.984410
20
352.101405
30
0.0
11
-74.794642
21
352.369240
31
0.0
0
LINE
8
0
6
CONTINUOUS
10
-75.727760
20
352.616015
30
0.0
11
-74.984410
21
352.101405
31
0.0
0
LINE
8
0
6
CONTINUOUS
10
-75.552264
20
352.863700
30
0.0
11
-75.727760
21
352.616015
31
0.0
0
LINE
8
0
6
CONTINUOUS
10
-75.215730
20
352.250025
30
0.0
11
-73.960330
21
351.369445
31
0.0
0
LINE
8
0
6
CONTINUOUS
10
-74.984410
20
352.101405
30
0.0
11
-75.727760
21
352.616015
31
0.0
0
LINE
8
0
6
CONTINUOUS
10
-73.729030
20
351.220825
30
0.0
11
-74.984410
21
352.101405
31
0.0
0
LINE
8
0
6
CONTINUOUS
10
-73.216980
20
350.854845
30
0.0
11
-73.729030
21
351.220825
31
0.0
0
LINE
8
0
6
CONTINUOUS
10
-79.297970
20
355.134095
30
0.0
11
-79.213555
21
355.253233
31
0.0
0
LINE
8
0
6
CONTINUOUS
10
-79.810020
20
355.500075
30
0.0
11
-79.297970
21
355.134095
31
0.0
0
LINE
8
0
6
CONTINUOUS
10
-79.810020
20
355.500075
30
0.0
11
-79.741009
21
355.597475
31
0.0
0
LINE
8
0
6
CONTINUOUS
10
-81.065380
20
356.380655
30
0.0
11
-79.810020
21
355.500075
31
0.0
0
LINE
8
0
6
CONTINUOUS
10
-81.065380
20
356.380655
30
0.0
11
-81.023699
21
356.439482
31
0.0
0
LINE
8
0
6
CONTINUOUS
10
-81.808730
20
356.895185
30
0.0
11
-81.065380
21
356.380655
31
0.0
0
LINE
8
0
6
CONTINUOUS
10
-81.778533
20
356.937804
30
0.0
11
-81.808730
21
356.895185
31
0.0
0
LINE
8
0
6
CONTINUOUS
10
-81.296720
20
356.529275
30
0.0
11
-80.041320
21
355.648695
31
0.0
0
LINE
8
0
6
CONTINUOUS
10
-81.065380
20
356.380655
30
0.0
11
-81.808730
21
356.895185
31
0.0
0
LINE
8
0
6
CONTINUOUS
10
-79.810020
20
355.500075
30
0.0
11
-81.065380
21
356.380655
31
0.0
0
LINE
8
0
6
CONTINUOUS
10
-79.297970
20
355.134095
30
0.0
11
-79.810020
21
355.500075
31
0.0
0
LINE
8
0
6
CONTINUOUS
10
-66.233630
20
346.576045
30
0.0
11
-65.959948
21
346.962910
31
0.0
0
LINE
8
0
6
CONTINUOUS
10
-66.672890
20
346.889995
30
0.0
11
-66.233630
21
346.576045
31
0.0
0
LINE
8
0
6
CONTINUOUS
10
-66.672890
20
346.889995
30
0.0
11
-66.426390
21
347.238445
31
0.0
0
LINE
8
0
6
CONTINUOUS
10
-67.749850
20
347.645455
30
0.0
11
-66.672890
21
346.889995
31
0.0
0
LINE
8
0
6
CONTINUOUS
10
-67.749850
20
347.645455
30
0.0
11
-67.562860
21
347.909777
31
0.0
0
LINE
8
0
6
CONTINUOUS
10
-68.387540
20
348.086895
30
0.0
11
-67.749850
21
347.645455
31
0.0
0
LINE
8
0
6
CONTINUOUS
10
-68.232852
20
348.305554
30
0.0
11
-68.387540
21
348.086895
31
0.0
0
LINE
8
0
6
CONTINUOUS
10
-67.948290
20
347.772945
30
0.0
11
-66.871310
21
347.017485
31
0.0
0
LINE
8
0
6
CONTINUOUS
10
-67.749850
20
347.645455
30
0.0
11
-68.387540
21
348.086895
31
0.0
0
LINE
8
0
6
CONTINUOUS
10
-66.672890
20
346.889995
30
0.0
11
-67.749850
21
347.645455
31
0.0
0
LINE
8
0
6
CONTINUOUS
10
-66.233630
20
346.576045
30
0.0
11
-66.672890
21
346.889995
31
0.0
0
LINE
8
0
6
CONTINUOUS
10
-72.000760
20
350.659525
30
0.0
11
-71.561480
21
350.345505
31
0.0
0
LINE
8
0
6
CONTINUOUS
10
-73.077730
20
351.414915
30
0.0
11
-72.000760
21
350.659525
31
0.0
0
LINE
8
0
6
CONTINUOUS
10
-73.715410
20
351.856355
30
0.0
11
-73.077730
21
351.414915
31
0.0
0
LINE
8
0
6
CONTINUOUS
10
-73.276150
20
351.542405
30
0.0
11
-72.199180
21
350.787015
31
0.0
0
LINE
8
0
6
CONTINUOUS
10
-73.077730
20
351.414915
30
0.0
11
-73.715410
21
351.856355
31
0.0
0
LINE
8
0
6
CONTINUOUS
10
-72.000760
20
350.659525
30
0.0
11
-73.077730
21
351.414915
31
0.0
0
LINE
8
0
6
CONTINUOUS
10
-71.561480
20
350.345505
30
0.0
11
-72.000760
21
350.659525
31
0.0
0
LINE
8
0
6
CONTINUOUS
10
-78.390530
20
355.152935
30
0.0
11
-77.951290
21
354.838985
31
0.0
0
LINE
8
0
6
CONTINUOUS
10
-79.467500
20
355.908325
30
0.0
11
-78.390530
21
355.152935
31
0.0
0
LINE
8
0
6
CONTINUOUS
10
-80.105200
20
356.349755
30
0.0
11
-79.467500
21
355.908325
31
0.0
0
LINE
8
0
6
CONTINUOUS
10
-79.528381
20
357.165112
30
0.0
11
-80.105200
21
356.349755
31
0.0
0
LINE
8
0
6
CONTINUOUS
10
-79.665940
20
356.035805
30
0.0
11
-78.588970
21
355.280425
31
0.0
0
LINE
8
0
6
CONTINUOUS
10
-79.467500
20
355.908325
30
0.0
11
-80.105200
21
356.349755
31
0.0
0
LINE
8
0
6
CONTINUOUS
10
-78.390530
20
355.152935
30
0.0
11
-79.467500
21
355.908325
31
0.0
0
LINE
8
0
6
CONTINUOUS
10
-77.951290
20
354.838985
30
0.0
11
-78.390530
21
355.152935
31
0.0
0
LINE
8
0
6
CONTINUOUS
10
-75.476260
20
353.695725
30
0.0
11
-74.251556
21
355.423840
31
0.0
0
LINE
8
0
6
CONTINUOUS
10
-76.074550
20
354.120605
30
0.0
11
-75.476260
21
353.695725
31
0.0
0
LINE
8
0
6
CONTINUOUS
10
-76.074550
20
354.120605
30
0.0
11
-74.851929
21
355.845787
31
0.0
0
LINE
8
0
6
CONTINUOUS
10
-77.155510
20
354.877665
30
0.0
11
-76.074550
21
354.120605
31
0.0
0
LINE
8
0
6
CONTINUOUS
10
-77.155510
20
354.877665
30
0.0
11
-75.931838
21
356.604340
31
0.0
0
LINE
8
0
6
CONTINUOUS
10
-77.638200
20
355.209925
30
0.0
11
-77.155510
21
354.877665
31
0.0
0
LINE
8
0
6
CONTINUOUS
10
-77.075080
20
356.004516
30
0.0
11
-77.638200
21
355.209925
31
0.0
0
LINE
8
0
6
CONTINUOUS
10
-77.039920
20
354.785045
30
0.0
11
-75.958930
21
354.027905
31
0.0
0
LINE
8
0
6
CONTINUOUS
10
-77.155510
20
354.877665
30
0.0
11
-77.638200
21
355.209925
31
0.0
0
LINE
8
0
6
CONTINUOUS
10
-76.074550
20
354.120605
30
0.0
11
-77.155510
21
354.877665
31
0.0
0
LINE
8
0
6
CONTINUOUS
10
-75.476260
20
353.695725
30
0.0
11
-76.074550
21
354.120605
31
0.0
0
LINE
8
0
6
CONTINUOUS
10
-69.049030
20
349.167375
30
0.0
11
-67.817705
21
350.904833
31
0.0
0
LINE
8
0
6
CONTINUOUS
10
-69.647340
20
349.592255
30
0.0
11
-69.049030
21
349.167375
31
0.0
0
LINE
8
0
6
CONTINUOUS
10
-69.647340
20
349.592255
30
0.0
11
-68.419394
21
351.324951
31
0.0
0
LINE
8
0
6
CONTINUOUS
10
-70.728290
20
350.349395
30
0.0
11
-69.647340
21
349.592255
31
0.0
0
LINE
8
0
6
CONTINUOUS
10
-71.210970
20
350.681575
30
0.0
11
-70.728290
21
350.349395
31
0.0
0
LINE
8
0
6
CONTINUOUS
10
-70.612690
20
350.256695
30
0.0
11
-69.531700
21
349.499635
31
0.0
0
LINE
8
0
6
CONTINUOUS
10
-70.728290
20
350.349395
30
0.0
11
-71.210970
21
350.681575
31
0.0
0
LINE
8
0
6
CONTINUOUS
10
-69.647340
20
349.592255
30
0.0
11
-70.728290
21
350.349395
31
0.0
0
LINE
8
0
6
CONTINUOUS
10
-69.049030
20
349.167375
30
0.0
11
-69.647340
21
349.592255
31
0.0
0
LINE
8
0
6
CONTINUOUS
10
-63.396140
20
345.185205
30
0.0
11
-63.264648
21
345.370749
31
0.0
0
LINE
8
0
6
CONTINUOUS
10
-63.994460
20
345.610085
30
0.0
11
-63.396140
21
345.185205
31
0.0
0
LINE
8
0
6
CONTINUOUS
10
-63.994460
20
345.610085
30
0.0
11
-63.898657
21
345.745269
31
0.0
0
LINE
8
0
6
CONTINUOUS
10
-65.075410
20
346.367155
30
0.0
11
-63.994460
21
345.610085
31
0.0
0
LINE
8
0
6
CONTINUOUS
10
-65.075410
20
346.367155
30
0.0
11
-65.038821
21
346.418784
31
0.0
0
LINE
8
0
6
CONTINUOUS
10
-65.558080
20
346.699415
30
0.0
11
-65.075410
21
346.367155
31
0.0
0
LINE
8
0
6
CONTINUOUS
10
-64.959800
20
346.274535
30
0.0
11
-63.878810
21
345.517395
31
0.0
0
LINE
8
0
6
CONTINUOUS
10
-65.075410
20
346.367155
30
0.0
11
-65.558080
21
346.699415
31
0.0
0
LINE
8
0
6
CONTINUOUS
10
-63.994460
20
345.610085
30
0.0
11
-65.075410
21
346.367155
31
0.0
0
LINE
8
0
6
CONTINUOUS
10
-63.396140
20
345.185205
30
0.0
11
-63.994460
21
345.610085
31
0.0
0
LINE
8
0
6
CONTINUOUS
10
-59.007010
20
342.067535
30
0.0
11
-58.658572
21
342.559201
31
0.0
0
LINE
8
0
6
CONTINUOUS
10
-59.605320
20
342.492415
30
0.0
11
-59.007010
21
342.067535
31
0.0
0
LINE
8
0
6
CONTINUOUS
10
-59.605320
20
342.492415
30
0.0
11
-59.285989
21
342.943011
31
0.0
0
LINE
8
0
6
CONTINUOUS
10
-60.686270
20
343.249475
30
0.0
11
-59.605320
21
342.492415
31
0.0
0
LINE
8
0
6
CONTINUOUS
10
-60.686270
20
343.249475
30
0.0
11
-60.414305
21
343.633236
31
0.0
0
LINE
8
0
6
CONTINUOUS
10
-61.168950
20
343.581735
30
0.0
11
-60.686270
21
343.249475
31
0.0
0
LINE
8
0
6
CONTINUOUS
10
-60.915271
20
343.939692
30
0.0
11
-61.168950
21
343.581735
31
0.0
0
LINE
8
0
6
CONTINUOUS
10
-60.570670
20
343.156855
30
0.0
11
-59.489680
21
342.399715
31
0.0
0
LINE
8
0
6
CONTINUOUS
10
-60.686270
20
343.249475
30
0.0
11
-61.168950
21
343.581735
31
0.0
0
LINE
8
0
6
CONTINUOUS
10
-59.605320
20
342.492415
30
0.0
11
-60.686270
21
343.249475
31
0.0
0
LINE
8
0
6
CONTINUOUS
10
-59.007010
20
342.067535
30
0.0
11
-59.605320
21
342.492415
31
0.0
0
LINE
8
0
6
CONTINUOUS
10
-83.338980
20
356.904185
30
0.0
11
-82.823287
21
357.627525
31
0.0
0
LINE
8
0
6
CONTINUOUS
10
-83.987820
20
357.365915
30
0.0
11
-83.338980
21
356.904185
31
0.0
0
LINE
8
0
6
CONTINUOUS
10
-83.338980
20
356.904185
30
0.0
11
-83.987820
21
357.365915
31
0.0
0
LINE
8
0
6
CONTINUOUS
10
-92.033800
20
363.074075
30
0.0
11
-90.980540
21
362.340745
31
0.0
0
LINE
8
0
6
CONTINUOUS
10
-90.980540
20
362.340745
30
0.0
11
-89.789000
21
361.502505
31
0.0
0
LINE
8
0
6
CONTINUOUS
10
-89.650700
20
361.397515
30
0.0
11
-89.171408
21
362.092990
31
0.0
0
LINE
8
0
6
CONTINUOUS
10
-89.789000
20
361.502505
30
0.0
11
-89.650700
21
361.397515
31
0.0
0
LINE
8
0
6
CONTINUOUS
10
-89.310722
20
362.196503
30
0.0
11
-89.789000
21
361.502505
31
0.0
0
LINE
8
0
6
CONTINUOUS
10
-90.980540
20
362.340745
30
0.0
11
-92.033800
21
363.074075
31
0.0
0
LINE
8
0
6
CONTINUOUS
10
-89.789000
20
361.502505
30
0.0
11
-90.980540
21
362.340745
31
0.0
0
LINE
8
0
6
CONTINUOUS
10
-89.650700
20
361.397515
30
0.0
11
-89.789000
21
361.502505
31
0.0
0
LINE
8
0
6
CONTINUOUS
10
-90.703940
20
362.130855
30
0.0
11
-89.650700
21
361.397515
31
0.0
0
LINE
8
0
6
CONTINUOUS
10
-91.895500
20
362.969095
30
0.0
11
-90.703940
21
362.130855
31
0.0
0
LINE
8
0
6
CONTINUOUS
10
-92.224320
20
363.143655
30
0.0
11
-91.355280
21
362.540635
31
0.0
0
LINE
8
0
6
CONTINUOUS
10
-89.672710
20
361.352205
30
0.0
11
-89.159367
21
362.084044
31
0.0
0
LINE
8
0
6
CONTINUOUS
10
-90.079470
20
361.644945
30
0.0
11
-89.672710
21
361.352205
31
0.0
0
LINE
8
0
6
CONTINUOUS
10
-91.355280
20
362.540635
30
0.0
11
-90.079470
21
361.644945
31
0.0
0
LINE
8
0
6
CONTINUOUS
10
-91.355280
20
362.540635
30
0.0
11
-92.224320
21
363.143655
31
0.0
0
LINE
8
0
6
CONTINUOUS
10
-90.079470
20
361.644945
30
0.0
11
-91.355280
21
362.540635
31
0.0
0
LINE
8
0
6
CONTINUOUS
10
-89.672710
20
361.352205
30
0.0
11
-90.079470
21
361.644945
31
0.0
0
LINE
8
0
6
CONTINUOUS
10
-90.541770
20
361.955155
30
0.0
11
-89.672710
21
361.352205
31
0.0
0
LINE
8
0
6
CONTINUOUS
10
-91.817600
20
362.850915
30
0.0
11
-90.541770
21
361.955155
31
0.0
0
LINE
8
0
6
CONTINUOUS
10
-85.622950
20
358.597225
30
0.0
11
-84.431580
21
357.765625
31
0.0
0
LINE
8
0
6
CONTINUOUS
10
-85.760790
20
358.685805
30
0.0
11
-85.622950
21
358.597225
31
0.0
0
LINE
8
0
6
CONTINUOUS
10
-83.378040
20
357.022595
30
0.0
11
-82.916286
21
357.688920
31
0.0
0
LINE
8
0
6
CONTINUOUS
10
-84.431580
20
357.765625
30
0.0
11
-83.378040
21
357.022595
31
0.0
0
LINE
8
0
6
CONTINUOUS
10
-83.378040
20
357.022595
30
0.0
11
-84.431580
21
357.765625
31
0.0
0
LINE
8
0
6
CONTINUOUS
10
-84.707270
20
357.942705
30
0.0
11
-83.515880
21
357.111095
31
0.0
0
LINE
8
0
6
CONTINUOUS
10
-85.760790
20
358.685805
30
0.0
11
-84.707270
21
357.942705
31
0.0
0
LINE
8
0
6
CONTINUOUS
10
-85.622950
20
358.597225
30
0.0
11
-85.760790
21
358.685805
31
0.0
0
LINE
8
0
6
CONTINUOUS
10
-84.431580
20
357.765625
30
0.0
11
-85.622950
21
358.597225
31
0.0
0
LINE
8
0
6
CONTINUOUS
10
-79.299690
20
354.101525
30
0.0
11
-78.428360
21
353.484925
31
0.0
0
LINE
8
0
6
CONTINUOUS
10
-80.574870
20
354.993485
30
0.0
11
-79.299690
21
354.101525
31
0.0
0
LINE
8
0
6
CONTINUOUS
10
-80.978670
20
355.268755
30
0.0
11
-80.574870
21
354.993485
31
0.0
0
LINE
8
0
6
CONTINUOUS
10
-80.428315
20
356.046424
30
0.0
11
-80.978670
21
355.268755
31
0.0
0
LINE
8
0
6
CONTINUOUS
10
-80.107320
20
354.652065
30
0.0
11
-78.832180
21
353.760195
31
0.0
0
LINE
8
0
6
CONTINUOUS
10
-80.978670
20
355.268755
30
0.0
11
-80.107320
21
354.652065
31
0.0
0
LINE
8
0
6
CONTINUOUS
10
-80.574870
20
354.993485
30
0.0
11
-80.978670
21
355.268755
31
0.0
0
LINE
8
0
6
CONTINUOUS
10
-79.299690
20
354.101525
30
0.0
11
-80.574870
21
354.993485
31
0.0
0
LINE
8
0
6
CONTINUOUS
10
-78.428360
20
353.484925
30
0.0
11
-79.299690
21
354.101525
31
0.0
0
LINE
8
0
6
CONTINUOUS
10
-80.605540
20
355.057495
30
0.0
11
-79.414150
21
354.225885
31
0.0
0
LINE
8
0
6
CONTINUOUS
10
-80.605540
20
355.057495
30
0.0
11
-80.078640
21
355.817829
31
0.0
0
LINE
8
0
6
CONTINUOUS
10
-80.743380
20
355.146065
30
0.0
11
-80.605540
21
355.057495
31
0.0
0
LINE
8
0
6
CONTINUOUS
10
-80.215816
20
355.907356
30
0.0
11
-80.743380
21
355.146065
31
0.0
0
LINE
8
0
6
CONTINUOUS
10
-79.414150
20
354.225885
30
0.0
11
-78.360630
21
353.482865
31
0.0
0
LINE
8
0
6
CONTINUOUS
10
-78.360630
20
353.482865
30
0.0
11
-79.414150
21
354.225885
31
0.0
0
LINE
8
0
6
CONTINUOUS
10
-79.689860
20
354.403045
30
0.0
11
-78.498450
21
353.571365
31
0.0
0
LINE
8
0
6
CONTINUOUS
10
-80.743380
20
355.146065
30
0.0
11
-79.689860
21
354.403045
31
0.0
0
LINE
8
0
6
CONTINUOUS
10
-80.605540
20
355.057495
30
0.0
11
-80.743380
21
355.146065
31
0.0
0
LINE
8
0
6
CONTINUOUS
10
-79.414150
20
354.225885
30
0.0
11
-80.605540
21
355.057495
31
0.0
0
LINE
8
0
6
CONTINUOUS
10
-94.747530
20
364.947785
30
0.0
11
-93.556150
21
364.116175
31
0.0
0
LINE
8
0
6
CONTINUOUS
10
-94.747530
20
364.947785
30
0.0
11
-94.146834
21
365.814607
31
0.0
0
LINE
8
0
6
CONTINUOUS
10
-94.885360
20
365.036285
30
0.0
11
-94.747530
21
364.947785
31
0.0
0
LINE
8
0
6
CONTINUOUS
10
-94.277812
20
365.913001
30
0.0
11
-94.885360
21
365.036285
31
0.0
0
LINE
8
0
6
CONTINUOUS
10
-93.556150
20
364.116175
30
0.0
11
-92.502620
21
363.373075
31
0.0
0
LINE
8
0
6
CONTINUOUS
10
-92.984341
20
364.941314
30
0.0
11
-93.556150
21
364.116175
31
0.0
0
LINE
8
0
6
CONTINUOUS
10
-92.502620
20
363.373075
30
0.0
11
-93.556150
21
364.116175
31
0.0
0
LINE
8
0
6
CONTINUOUS
10
-93.831840
20
364.293255
30
0.0
11
-92.640470
21
363.461655
31
0.0
0
LINE
8
0
6
CONTINUOUS
10
-94.885360
20
365.036285
30
0.0
11
-93.831840
21
364.293255
31
0.0
0
LINE
8
0
6
CONTINUOUS
10
-94.747530
20
364.947785
30
0.0
11
-94.885360
21
365.036285
31
0.0
0
LINE
8
0
6
CONTINUOUS
10
-93.556150
20
364.116175
30
0.0
11
-94.747530
21
364.947785
31
0.0
0
LINE
8
0
6
CONTINUOUS
10
-88.386370
20
360.701415
30
0.0
11
-88.009663
21
361.229791
31
0.0
0
LINE
8
0
6
CONTINUOUS
10
-89.040940
20
361.153075
30
0.0
11
-88.386370
21
360.701415
31
0.0
0
LINE
8
0
6
CONTINUOUS
10
-88.648068
20
361.704138
30
0.0
11
-89.040940
21
361.153075
31
0.0
0
LINE
8
0
6
CONTINUOUS
10
-88.386370
20
360.701415
30
0.0
11
-89.040940
21
361.153075
31
0.0
0
LINE
8
0
6
CONTINUOUS
10
-88.810751
20
361.825015
30
0.0
11
-88.925580
21
361.663865
31
0.0
0
LINE
8
0
6
CONTINUOUS
10
-88.810751
20
361.825015
30
0.0
11
-88.925580
21
361.663865
31
0.0
0
LINE
8
0
6
CONTINUOUS
10
-88.386370
20
360.701415
30
0.0
11
-88.009663
21
361.229791
31
0.0
0
LINE
8
0
6
CONTINUOUS
10
-89.040940
20
361.153075
30
0.0
11
-88.386370
21
360.701415
31
0.0
0
LINE
8
0
6
CONTINUOUS
10
-88.648068
20
361.704138
30
0.0
11
-89.040940
21
361.153075
31
0.0
0
LINE
8
0
6
CONTINUOUS
10
-88.386370
20
360.701415
30
0.0
11
-89.040940
21
361.153075
31
0.0
0
LINE
8
0
6
CONTINUOUS
10
-95.425310
20
365.638775
30
0.0
11
-94.770750
21
365.187115
31
0.0
0
LINE
8
0
6
CONTINUOUS
10
-94.897763
20
366.378723
30
0.0
11
-95.425310
21
365.638775
31
0.0
0
LINE
8
0
6
CONTINUOUS
10
-94.770750
20
365.187115
30
0.0
11
-95.425310
21
365.638775
31
0.0
0
LINE
8
0
6
CONTINUOUS
10
-101.145370
20
370.263255
30
0.0
11
-100.511390
21
369.825785
31
0.0
0
LINE
8
0
6
CONTINUOUS
10
-100.723838
20
370.854836
30
0.0
11
-101.145370
21
370.263255
31
0.0
0
LINE
8
0
6
CONTINUOUS
10
-100.511390
20
369.825785
30
0.0
11
-101.145370
21
370.263255
31
0.0
0
LINE
8
0
6
CONTINUOUS
10
-74.474610
20
351.009415
30
0.0
11
-73.950590
21
350.649615
31
0.0
0
LINE
8
0
6
CONTINUOUS
10
-71.883500
20
349.195445
30
0.0
11
-71.250748
21
350.088277
31
0.0
0
LINE
8
0
6
CONTINUOUS
10
-72.655000
20
349.742625
30
0.0
11
-71.883500
21
349.195445
31
0.0
0
LINE
8
0
6
CONTINUOUS
10
-73.950590
20
350.649615
30
0.0
11
-72.655000
21
349.742625
31
0.0
0
LINE
8
0
6
CONTINUOUS
10
-73.703070
20
350.462235
30
0.0
11
-72.407520
21
349.555245
31
0.0
0
LINE
8
0
6
CONTINUOUS
10
-73.950590
20
350.649615
30
0.0
11
-74.474610
21
351.009415
31
0.0
0
LINE
8
0
6
CONTINUOUS
10
-72.655000
20
349.742625
30
0.0
11
-73.950590
21
350.649615
31
0.0
0
LINE
8
0
6
CONTINUOUS
10
-71.883500
20
349.195445
30
0.0
11
-72.655000
21
349.742625
31
0.0
0
LINE
8
0
6
CONTINUOUS
10
-56.129940
20
339.961055
30
0.0
11
-55.694530
21
339.662065
31
0.0
0
LINE
8
0
6
CONTINUOUS
10
-53.976930
20
338.453715
30
0.0
11
-53.335705
21
339.360238
31
0.0
0
LINE
8
0
6
CONTINUOUS
10
-54.618010
20
338.908425
30
0.0
11
-53.976930
21
338.453715
31
0.0
0
LINE
8
0
6
CONTINUOUS
10
-55.694530
20
339.662065
30
0.0
11
-54.618010
21
338.908425
31
0.0
0
LINE
8
0
6
CONTINUOUS
10
-55.488900
20
339.506425
30
0.0
11
-54.412390
21
338.752785
31
0.0
0
LINE
8
0
6
CONTINUOUS
10
-55.694530
20
339.662065
30
0.0
11
-56.129940
21
339.961055
31
0.0
0
LINE
8
0
6
CONTINUOUS
10
-54.618010
20
338.908425
30
0.0
11
-55.694530
21
339.662065
31
0.0
0
LINE
8
0
6
CONTINUOUS
10
-53.976930
20
338.453715
30
0.0
11
-54.618010
21
338.908425
31
0.0
0
LINE
8
0
6
CONTINUOUS
10
-62.251670
20
343.674815
30
0.0
11
-61.816260
21
343.375895
31
0.0
0
LINE
8
0
6
CONTINUOUS
10
-60.739760
20
342.622185
30
0.0
11
-60.098660
21
342.167555
31
0.0
0
LINE
8
0
6
CONTINUOUS
10
-61.816260
20
343.375895
30
0.0
11
-60.739760
21
342.622185
31
0.0
0
LINE
8
0
6
CONTINUOUS
10
-61.610610
20
343.220185
30
0.0
11
-60.534110
21
342.466475
31
0.0
0
LINE
8
0
6
CONTINUOUS
10
-61.816260
20
343.375895
30
0.0
11
-62.251670
21
343.674815
31
0.0
0
LINE
8
0
6
CONTINUOUS
10
-60.739760
20
342.622185
30
0.0
11
-61.816260
21
343.375895
31
0.0
0
LINE
8
0
6
CONTINUOUS
10
-60.098660
20
342.167555
30
0.0
11
-60.739760
21
342.622185
31
0.0
0
LINE
8
0
6
CONTINUOUS
10
-68.613160
20
347.512785
30
0.0
11
-68.105610
21
347.164275
31
0.0
0
LINE
8
0
6
CONTINUOUS
10
-66.103450
20
345.755735
30
0.0
11
-65.458213
21
346.666526
31
0.0
0
LINE
8
0
6
CONTINUOUS
10
-66.850750
20
346.285745
30
0.0
11
-66.103450
21
345.755735
31
0.0
0
LINE
8
0
6
CONTINUOUS
10
-68.105610
20
347.164275
30
0.0
11
-66.850750
21
346.285745
31
0.0
0
LINE
8
0
6
CONTINUOUS
10
-67.865880
20
346.982775
30
0.0
11
-66.611030
21
346.104245
31
0.0
0
LINE
8
0
6
CONTINUOUS
10
-68.105610
20
347.164275
30
0.0
11
-68.613160
21
347.512785
31
0.0
0
LINE
8
0
6
CONTINUOUS
10
-66.850750
20
346.285745
30
0.0
11
-68.105610
21
347.164275
31
0.0
0
LINE
8
0
6
CONTINUOUS
10
-66.103450
20
345.755735
30
0.0
11
-66.850750
21
346.285745
31
0.0
0
LINE
8
0
6
CONTINUOUS
10
-58.008590
20
341.207245
30
0.0
11
-57.573140
21
340.908245
31
0.0
0
LINE
8
0
6
CONTINUOUS
10
-56.496630
20
340.154615
30
0.0
11
-55.855570
21
339.699975
31
0.0
0
LINE
8
0
6
CONTINUOUS
10
-57.573140
20
340.908245
30
0.0
11
-56.496630
21
340.154615
31
0.0
0
LINE
8
0
6
CONTINUOUS
10
-57.367510
20
340.752605
30
0.0
11
-56.291000
21
339.998975
31
0.0
0
LINE
8
0
6
CONTINUOUS
10
-57.573140
20
340.908245
30
0.0
11
-58.008590
21
341.207245
31
0.0
0
LINE
8
0
6
CONTINUOUS
10
-56.496630
20
340.154615
30
0.0
11
-57.573140
21
340.908245
31
0.0
0
LINE
8
0
6
CONTINUOUS
10
-55.855570
20
339.699975
30
0.0
11
-56.496630
21
340.154615
31
0.0
0
LINE
8
0
6
CONTINUOUS
10
-64.119670
20
344.936105
30
0.0
11
-63.684260
21
344.637185
31
0.0
0
LINE
8
0
6
CONTINUOUS
10
-62.607740
20
343.883485
30
0.0
11
-61.966660
21
343.428845
31
0.0
0
LINE
8
0
6
CONTINUOUS
10
-63.684260
20
344.637185
30
0.0
11
-62.607740
21
343.883485
31
0.0
0
LINE
8
0
6
CONTINUOUS
10
-63.478590
20
344.481475
30
0.0
11
-62.402110
21
343.727845
31
0.0
0
LINE
8
0
6
CONTINUOUS
10
-63.684260
20
344.637185
30
0.0
11
-64.119670
21
344.936105
31
0.0
0
LINE
8
0
6
CONTINUOUS
10
-62.607740
20
343.883485
30
0.0
11
-63.684260
21
344.637185
31
0.0
0
LINE
8
0
6
CONTINUOUS
10
-61.966660
20
343.428845
30
0.0
11
-62.607740
21
343.883485
31
0.0
0
LINE
8
0
6
CONTINUOUS
10
-71.089950
20
349.215435
30
0.0
11
-70.582380
21
348.866925
31
0.0
0
LINE
8
0
6
CONTINUOUS
10
-69.327520
20
347.988405
30
0.0
11
-68.580220
21
347.458385
31
0.0
0
LINE
8
0
6
CONTINUOUS
10
-70.582380
20
348.866925
30
0.0
11
-69.327520
21
347.988405
31
0.0
0
LINE
8
0
6
CONTINUOUS
10
-70.342670
20
348.685425
30
0.0
11
-69.087800
21
347.806975
31
0.0
0
LINE
8
0
6
CONTINUOUS
10
-70.582380
20
348.866925
30
0.0
11
-71.089950
21
349.215435
31
0.0
0
LINE
8
0
6
CONTINUOUS
10
-69.327520
20
347.988405
30
0.0
11
-70.582380
21
348.866925
31
0.0
0
LINE
8
0
6
CONTINUOUS
10
-68.580220
20
347.458385
30
0.0
11
-69.327520
21
347.988405
31
0.0
0
LINE
8
0
6
CONTINUOUS
10
-76.953750
20
352.708785
30
0.0
11
-76.429720
21
352.348985
31
0.0
0
LINE
8
0
6
CONTINUOUS
10
-76.435457
20
353.440114
30
0.0
11
-76.953750
21
352.708785
31
0.0
0
LINE
8
0
6
CONTINUOUS
10
-75.134170
20
351.441925
30
0.0
11
-74.362630
21
350.894745
31
0.0
0
LINE
8
0
6
CONTINUOUS
10
-76.429720
20
352.348985
30
0.0
11
-75.134170
21
351.441925
31
0.0
0
LINE
8
0
6
CONTINUOUS
10
-75.902808
20
353.092482
30
0.0
11
-76.429720
21
352.348985
31
0.0
0
LINE
8
0
6
CONTINUOUS
10
-76.182240
20
352.161605
30
0.0
11
-74.886690
21
351.254625
31
0.0
0
LINE
8
0
6
CONTINUOUS
10
-76.429720
20
352.348985
30
0.0
11
-76.953750
21
352.708785
31
0.0
0
LINE
8
0
6
CONTINUOUS
10
-75.134170
20
351.441925
30
0.0
11
-76.429720
21
352.348985
31
0.0
0
LINE
8
0
6
CONTINUOUS
10
-74.362630
20
350.894745
30
0.0
11
-75.134170
21
351.441925
31
0.0
0
LINE
8
0
6
CONTINUOUS
10
-82.457530
20
356.534925
30
0.0
11
-81.933510
21
356.175125
31
0.0
0
LINE
8
0
6
CONTINUOUS
10
-82.046593
20
357.114771
30
0.0
11
-82.457530
21
356.534925
31
0.0
0
LINE
8
0
6
CONTINUOUS
10
-81.933510
20
356.175125
30
0.0
11
-80.637940
21
355.268065
31
0.0
0
LINE
8
0
6
CONTINUOUS
10
-81.515884
20
356.764410
30
0.0
11
-81.933510
21
356.175125
31
0.0
0
LINE
8
0
6
CONTINUOUS
10
-81.686030
20
355.987745
30
0.0
11
-80.390460
21
355.080765
31
0.0
0
LINE
8
0
6
CONTINUOUS
10
-81.933510
20
356.175125
30
0.0
11
-82.457530
21
356.534925
31
0.0
0
LINE
8
0
6
CONTINUOUS
10
-80.637940
20
355.268065
30
0.0
11
-81.933510
21
356.175125
31
0.0
0
LINE
8
0
6
CONTINUOUS
10
-65.630470
20
345.950285
30
0.0
11
-65.222375
21
346.527213
31
0.0
0
LINE
8
0
6
CONTINUOUS
10
-71.411960
20
349.989135
30
0.0
11
-70.770870
21
349.534495
31
0.0
0
LINE
8
0
6
CONTINUOUS
10
-70.770870
20
349.534495
30
0.0
11
-71.411960
21
349.989135
31
0.0
0
LINE
8
0
6
CONTINUOUS
10
-65.107110
20
346.118365
30
0.0
11
-64.025890
21
345.360225
31
0.0
0
LINE
8
0
6
CONTINUOUS
10
-64.936894
20
346.358574
30
0.0
11
-65.107110
21
346.118365
31
0.0
0
LINE
8
0
6
CONTINUOUS
10
-65.215480
20
346.182675
30
0.0
11
-64.134280
21
345.424615
31
0.0
0
LINE
8
0
6
CONTINUOUS
10
-64.025890
20
345.360225
30
0.0
11
-65.107110
21
346.118365
31
0.0
0
LINE
8
0
6
CONTINUOUS
10
-58.928350
20
341.830025
30
0.0
11
-58.486307
21
342.453822
31
0.0
0
LINE
8
0
6
CONTINUOUS
10
-59.414760
20
342.176865
30
0.0
11
-58.928350
21
341.830025
31
0.0
0
LINE
8
0
6
CONTINUOUS
10
-58.928350
20
341.830025
30
0.0
11
-59.414760
21
342.176865
31
0.0
0
LINE
8
0
6
CONTINUOUS
10
-99.619820
20
368.621035
30
0.0
11
-98.617370
21
367.923705
31
0.0
0
LINE
8
0
6
CONTINUOUS
10
-97.394670
20
367.064025
30
0.0
11
-97.174410
21
366.901745
31
0.0
0
LINE
8
0
6
CONTINUOUS
10
-98.617370
20
367.923705
30
0.0
11
-97.394670
21
367.064025
31
0.0
0
LINE
8
0
6
CONTINUOUS
10
-98.617370
20
367.923705
30
0.0
11
-99.619820
21
368.621035
31
0.0
0
LINE
8
0
6
CONTINUOUS
10
-97.394670
20
367.064025
30
0.0
11
-98.617370
21
367.923705
31
0.0
0
LINE
8
0
6
CONTINUOUS
10
-97.174410
20
366.901745
30
0.0
11
-97.394670
21
367.064025
31
0.0
0
LINE
8
0
6
CONTINUOUS
10
-98.176850
20
367.599075
30
0.0
11
-97.174410
21
366.901745
31
0.0
0
LINE
8
0
6
CONTINUOUS
10
-99.399560
20
368.458675
30
0.0
11
-98.176850
21
367.599075
31
0.0
0
LINE
8
0
6
CONTINUOUS
10
-113.566030
20
380.123795
30
0.0
11
-112.733090
21
379.544335
31
0.0
0
LINE
8
0
6
CONTINUOUS
10
-113.051679
20
380.858786
30
0.0
11
-113.566030
21
380.123795
31
0.0
0
LINE
8
0
6
CONTINUOUS
10
-111.717120
20
378.830075
30
0.0
11
-111.534110
21
378.695185
31
0.0
0
LINE
8
0
6
CONTINUOUS
10
-112.733090
20
379.544335
30
0.0
11
-111.717120
21
378.830075
31
0.0
0
LINE
8
0
6
CONTINUOUS
10
-112.733090
20
379.544335
30
0.0
11
-113.566030
21
380.123795
31
0.0
0
LINE
8
0
6
CONTINUOUS
10
-111.717120
20
378.830075
30
0.0
11
-112.733090
21
379.544335
31
0.0
0
LINE
8
0
6
CONTINUOUS
10
-111.534110
20
378.695185
30
0.0
11
-111.717120
21
378.830075
31
0.0
0
LINE
8
0
6
CONTINUOUS
10
-112.367070
20
379.274645
30
0.0
11
-111.534110
21
378.695185
31
0.0
0
LINE
8
0
6
CONTINUOUS
10
-113.383020
20
379.988905
30
0.0
11
-112.367070
21
379.274645
31
0.0
0
LINE
8
0
6
CONTINUOUS
10
-108.925520
20
376.339155
30
0.0
11
-108.092590
21
375.759705
31
0.0
0
LINE
8
0
6
CONTINUOUS
10
-106.893610
20
374.910555
30
0.0
11
-106.438361
21
375.561102
31
0.0
0
LINE
8
0
6
CONTINUOUS
10
-107.076620
20
375.045435
30
0.0
11
-106.893610
21
374.910555
31
0.0
0
LINE
8
0
6
CONTINUOUS
10
-107.076620
20
375.045435
30
0.0
11
-106.614339
21
375.706032
31
0.0
0
LINE
8
0
6
CONTINUOUS
10
-108.092590
20
375.759705
30
0.0
11
-107.076620
21
375.045435
31
0.0
0
LINE
8
0
6
CONTINUOUS
10
-108.092590
20
375.759705
30
0.0
11
-108.925520
21
376.339155
31
0.0
0
LINE
8
0
6
CONTINUOUS
10
-107.076620
20
375.045435
30
0.0
11
-108.092590
21
375.759705
31
0.0
0
LINE
8
0
6
CONTINUOUS
10
-106.893610
20
374.910555
30
0.0
11
-107.076620
21
375.045435
31
0.0
0
LINE
8
0
6
CONTINUOUS
10
-107.726570
20
375.490005
30
0.0
11
-106.893610
21
374.910555
31
0.0
0
LINE
8
0
6
CONTINUOUS
10
-108.742550
20
376.204265
30
0.0
11
-107.726570
21
375.490005
31
0.0
0
LINE
8
0
6
CONTINUOUS
10
-104.649130
20
372.756545
30
0.0
11
-103.678180
21
372.081115
31
0.0
0
LINE
8
0
6
CONTINUOUS
10
-102.280550
20
371.091275
30
0.0
11
-101.816431
21
371.754654
31
0.0
0
LINE
8
0
6
CONTINUOUS
10
-102.493910
20
371.248515
30
0.0
11
-102.280550
21
371.091275
31
0.0
0
LINE
8
0
6
CONTINUOUS
10
-103.678180
20
372.081115
30
0.0
11
-102.493910
21
371.248515
31
0.0
0
LINE
8
0
6
CONTINUOUS
10
-103.678180
20
372.081115
30
0.0
11
-104.649130
21
372.756545
31
0.0
0
LINE
8
0
6
CONTINUOUS
10
-102.493910
20
371.248515
30
0.0
11
-103.678180
21
372.081115
31
0.0
0
LINE
8
0
6
CONTINUOUS
10
-102.280550
20
371.091275
30
0.0
11
-102.493910
21
371.248515
31
0.0
0
LINE
8
0
6
CONTINUOUS
10
-103.251510
20
371.766705
30
0.0
11
-102.280550
21
371.091275
31
0.0
0
LINE
8
0
6
CONTINUOUS
10
-104.435800
20
372.599375
30
0.0
11
-103.251510
21
371.766705
31
0.0
0
LINE
8
0
6
CONTINUOUS
10
-115.822730
20
381.726655
30
0.0
11
-114.989770
21
381.147195
31
0.0
0
LINE
8
0
6
CONTINUOUS
10
-113.790770
20
380.297975
30
0.0
11
-113.274107
21
381.036282
31
0.0
0
LINE
8
0
6
CONTINUOUS
10
-113.973780
20
380.432855
30
0.0
11
-113.790770
21
380.297975
31
0.0
0
LINE
8
0
6
CONTINUOUS
10
-114.989770
20
381.147195
30
0.0
11
-113.973780
21
380.432855
31
0.0
0
LINE
8
0
6
CONTINUOUS
10
-114.989770
20
381.147195
30
0.0
11
-115.822730
21
381.726655
31
0.0
0
LINE
8
0
6
CONTINUOUS
10
-113.973780
20
380.432855
30
0.0
11
-114.989770
21
381.147195
31
0.0
0
LINE
8
0
6
CONTINUOUS
10
-113.790770
20
380.297975
30
0.0
11
-113.973780
21
380.432855
31
0.0
0
LINE
8
0
6
CONTINUOUS
10
-114.623730
20
380.877425
30
0.0
11
-113.790770
21
380.297975
31
0.0
0
LINE
8
0
6
CONTINUOUS
10
-115.639700
20
381.591765
30
0.0
11
-114.623730
21
380.877425
31
0.0
0
LINE
8
0
6
CONTINUOUS
10
-110.819270
20
377.701685
30
0.0
11
-109.986320
21
377.122315
31
0.0
0
LINE
8
0
6
CONTINUOUS
10
-108.970350
20
376.408045
30
0.0
11
-108.787360
21
376.273165
31
0.0
0
LINE
8
0
6
CONTINUOUS
10
-109.986320
20
377.122315
30
0.0
11
-108.970350
21
376.408045
31
0.0
0
LINE
8
0
6
CONTINUOUS
10
-109.986320
20
377.122315
30
0.0
11
-110.819270
21
377.701685
31
0.0
0
LINE
8
0
6
CONTINUOUS
10
-108.970350
20
376.408045
30
0.0
11
-109.986320
21
377.122315
31
0.0
0
LINE
8
0
6
CONTINUOUS
10
-108.787360
20
376.273165
30
0.0
11
-108.970350
21
376.408045
31
0.0
0
LINE
8
0
6
CONTINUOUS
10
-109.620310
20
376.852535
30
0.0
11
-108.787360
21
376.273165
31
0.0
0
LINE
8
0
6
CONTINUOUS
10
-110.636280
20
377.566875
30
0.0
11
-109.620310
21
376.852535
31
0.0
0
LINE
8
0
6
CONTINUOUS
10
-105.886130
20
373.650635
30
0.0
11
-104.915170
21
372.975205
31
0.0
0
LINE
8
0
6
CONTINUOUS
10
-105.239985
20
374.574165
30
0.0
11
-105.886130
21
373.650635
31
0.0
0
LINE
8
0
6
CONTINUOUS
10
-103.730880
20
372.142525
30
0.0
11
-103.517540
21
371.985365
31
0.0
0
LINE
8
0
6
CONTINUOUS
10
-104.915170
20
372.975205
30
0.0
11
-103.730880
21
372.142525
31
0.0
0
LINE
8
0
6
CONTINUOUS
10
-104.324162
20
373.819928
30
0.0
11
-104.915170
21
372.975205
31
0.0
0
LINE
8
0
6
CONTINUOUS
10
-104.915170
20
372.975205
30
0.0
11
-105.886130
21
373.650635
31
0.0
0
LINE
8
0
6
CONTINUOUS
10
-103.730880
20
372.142525
30
0.0
11
-104.915170
21
372.975205
31
0.0
0
LINE
8
0
6
CONTINUOUS
10
-103.517540
20
371.985365
30
0.0
11
-103.730880
21
372.142525
31
0.0
0
LINE
8
0
6
CONTINUOUS
10
-104.488500
20
372.660715
30
0.0
11
-103.517540
21
371.985365
31
0.0
0
LINE
8
0
6
CONTINUOUS
10
-105.672810
20
373.493395
30
0.0
11
-104.488500
21
372.660715
31
0.0
0
LINE
8
0
6
CONTINUOUS
10
-100.304650
20
369.131815
30
0.0
11
-99.302230
21
368.434495
31
0.0
0
LINE
8
0
6
CONTINUOUS
10
-99.693107
20
370.005965
30
0.0
11
-100.304650
21
369.131815
31
0.0
0
LINE
8
0
6
CONTINUOUS
10
-98.079540
20
367.574885
30
0.0
11
-97.859260
21
367.412535
31
0.0
0
LINE
8
0
6
CONTINUOUS
10
-98.079540
20
367.574885
30
0.0
11
-97.531953
21
368.357590
31
0.0
0
LINE
8
0
6
CONTINUOUS
10
-99.302230
20
368.434495
30
0.0
11
-98.079540
21
367.574885
31
0.0
0
LINE
8
0
6
CONTINUOUS
10
-98.727638
20
369.255817
30
0.0
11
-99.302230
21
368.434495
31
0.0
0
LINE
8
0
6
CONTINUOUS
10
-99.302230
20
368.434495
30
0.0
11
-100.304650
21
369.131815
31
0.0
0
LINE
8
0
6
CONTINUOUS
10
-98.079540
20
367.574885
30
0.0
11
-99.302230
21
368.434495
31
0.0
0
LINE
8
0
6
CONTINUOUS
10
-97.859260
20
367.412535
30
0.0
11
-98.079540
21
367.574885
31
0.0
0
LINE
8
0
6
CONTINUOUS
10
-98.861720
20
368.109865
30
0.0
11
-97.859260
21
367.412535
31
0.0
0
LINE
8
0
6
CONTINUOUS
10
-100.084430
20
368.969545
30
0.0
11
-98.861720
21
368.109865
31
0.0
0
LINE
8
0
6
CONTINUOUS
10
-97.860160
20
367.464565
30
0.0
11
-96.857730
21
366.767245
31
0.0
0
LINE
8
0
6
CONTINUOUS
10
-97.337560
20
368.211557
30
0.0
11
-97.860160
21
367.464565
31
0.0
0
LINE
8
0
6
CONTINUOUS
10
-95.414760
20
365.745285
30
0.0
11
-94.946166
21
366.415084
31
0.0
0
LINE
8
0
6
CONTINUOUS
10
-95.635020
20
365.907635
30
0.0
11
-95.414760
21
365.745285
31
0.0
0
LINE
8
0
6
CONTINUOUS
10
-95.635020
20
365.907635
30
0.0
11
-95.164997
21
366.579476
31
0.0
0
LINE
8
0
6
CONTINUOUS
10
-96.857730
20
366.767245
30
0.0
11
-95.635020
21
365.907635
31
0.0
0
LINE
8
0
6
CONTINUOUS
10
-96.360691
20
367.477710
30
0.0
11
-96.857730
21
366.767245
31
0.0
0
LINE
8
0
6
CONTINUOUS
10
-96.857730
20
366.767245
30
0.0
11
-97.860160
21
367.464565
31
0.0
0
LINE
8
0
6
CONTINUOUS
10
-95.635020
20
365.907635
30
0.0
11
-96.857730
21
366.767245
31
0.0
0
LINE
8
0
6
CONTINUOUS
10
-95.414760
20
365.745285
30
0.0
11
-95.635020
21
365.907635
31
0.0
0
LINE
8
0
6
CONTINUOUS
10
-96.417210
20
366.442605
30
0.0
11
-95.414760
21
365.745285
31
0.0
0
LINE
8
0
6
CONTINUOUS
10
-97.639930
20
367.302285
30
0.0
11
-96.417210
21
366.442605
31
0.0
0
LINE
8
0
6
CONTINUOUS
10
-104.673000
20
372.862595
30
0.0
11
-103.702040
21
372.187165
31
0.0
0
LINE
8
0
6
CONTINUOUS
10
-104.120535
20
373.652228
30
0.0
11
-104.673000
21
372.862595
31
0.0
0
LINE
8
0
6
CONTINUOUS
10
-102.304410
20
371.197325
30
0.0
11
-101.878637
21
371.805885
31
0.0
0
LINE
8
0
6
CONTINUOUS
10
-102.517750
20
371.354485
30
0.0
11
-102.304410
21
371.197325
31
0.0
0
LINE
8
0
6
CONTINUOUS
10
-102.517750
20
371.354485
30
0.0
11
-102.083753
21
371.974811
31
0.0
0
LINE
8
0
6
CONTINUOUS
10
-103.702040
20
372.187165
30
0.0
11
-102.517750
21
371.354485
31
0.0
0
LINE
8
0
6
CONTINUOUS
10
-103.204721
20
372.897998
30
0.0
11
-103.702040
21
372.187165
31
0.0
0
LINE
8
0
6
CONTINUOUS
10
-103.702040
20
372.187165
30
0.0
11
-104.673000
21
372.862595
31
0.0
0
LINE
8
0
6
CONTINUOUS
10
-102.517750
20
371.354485
30
0.0
11
-103.702040
21
372.187165
31
0.0
0
LINE
8
0
6
CONTINUOUS
10
-102.304410
20
371.197325
30
0.0
11
-102.517750
21
371.354485
31
0.0
0
LINE
8
0
6
CONTINUOUS
10
-103.275390
20
371.872755
30
0.0
11
-102.304410
21
371.197325
31
0.0
0
LINE
8
0
6
CONTINUOUS
10
-104.459680
20
372.705355
30
0.0
11
-103.275390
21
371.872755
31
0.0
0
LINE
8
0
6
CONTINUOUS
10
-100.960760
20
370.298425
30
0.0
11
-99.989810
21
369.622995
31
0.0
0
LINE
8
0
6
CONTINUOUS
10
-100.627170
20
370.775224
30
0.0
11
-100.960760
21
370.298425
31
0.0
0
LINE
8
0
6
CONTINUOUS
10
-98.592200
20
368.633165
30
0.0
11
-98.353307
21
368.974611
31
0.0
0
LINE
8
0
6
CONTINUOUS
10
-98.805530
20
368.790405
30
0.0
11
-98.592200
21
368.633165
31
0.0
0
LINE
8
0
6
CONTINUOUS
10
-98.805530
20
368.790405
30
0.0
11
-98.565253
21
369.133830
31
0.0
0
LINE
8
0
6
CONTINUOUS
10
-99.989810
20
369.622995
30
0.0
11
-98.805530
21
368.790405
31
0.0
0
LINE
8
0
6
CONTINUOUS
10
-99.711358
20
370.020996
30
0.0
11
-99.989810
21
369.622995
31
0.0
0
LINE
8
0
6
CONTINUOUS
10
-99.989810
20
369.622995
30
0.0
11
-100.960760
21
370.298425
31
0.0
0
LINE
8
0
6
CONTINUOUS
10
-98.805530
20
368.790405
30
0.0
11
-99.989810
21
369.622995
31
0.0
0
LINE
8
0
6
CONTINUOUS
10
-98.592200
20
368.633165
30
0.0
11
-98.805530
21
368.790405
31
0.0
0
LINE
8
0
6
CONTINUOUS
10
-99.563130
20
369.308595
30
0.0
11
-98.592200
21
368.633165
31
0.0
0
LINE
8
0
6
CONTINUOUS
10
-100.747420
20
370.141185
30
0.0
11
-99.563130
21
369.308595
31
0.0
0
LINE
8
0
6
CONTINUOUS
10
-110.975470
20
377.860155
30
0.0
11
-110.142510
21
377.280775
31
0.0
0
LINE
8
0
6
CONTINUOUS
10
-110.372934
20
378.721169
30
0.0
11
-110.975470
21
377.860155
31
0.0
0
LINE
8
0
6
CONTINUOUS
10
-109.126540
20
376.566435
30
0.0
11
-108.943530
21
376.431545
31
0.0
0
LINE
8
0
6
CONTINUOUS
10
-110.142510
20
377.280775
30
0.0
11
-109.126540
21
376.566435
31
0.0
0
LINE
8
0
6
CONTINUOUS
10
-109.578285
20
378.087045
30
0.0
11
-110.142510
21
377.280775
31
0.0
0
LINE
8
0
6
CONTINUOUS
10
-110.142510
20
377.280775
30
0.0
11
-110.975470
21
377.860155
31
0.0
0
LINE
8
0
6
CONTINUOUS
10
-109.126540
20
376.566435
30
0.0
11
-110.142510
21
377.280775
31
0.0
0
LINE
8
0
6
CONTINUOUS
10
-108.943530
20
376.431545
30
0.0
11
-109.126540
21
376.566435
31
0.0
0
LINE
8
0
6
CONTINUOUS
10
-109.776490
20
377.010995
30
0.0
11
-108.943530
21
376.431545
31
0.0
0
LINE
8
0
6
CONTINUOUS
10
-110.792460
20
377.725335
30
0.0
11
-109.776490
21
377.010995
31
0.0
0
LINE
8
0
6
CONTINUOUS
10
-109.259900
20
376.710245
30
0.0
11
-108.426940
21
376.130875
31
0.0
0
LINE
8
0
6
CONTINUOUS
10
-108.755751
20
377.430669
30
0.0
11
-109.259900
21
376.710245
31
0.0
0
LINE
8
0
6
CONTINUOUS
10
-107.227970
20
375.281725
30
0.0
11
-106.815246
21
375.871491
31
0.0
0
LINE
8
0
6
CONTINUOUS
10
-107.410980
20
375.416535
30
0.0
11
-107.227970
21
375.281725
31
0.0
0
LINE
8
0
6
CONTINUOUS
10
-107.410980
20
375.416535
30
0.0
11
-106.991197
21
376.016397
31
0.0
0
LINE
8
0
6
CONTINUOUS
10
-108.426940
20
376.130875
30
0.0
11
-107.410980
21
375.416535
31
0.0
0
LINE
8
0
6
CONTINUOUS
10
-107.961099
20
376.796544
30
0.0
11
-108.426940
21
376.130875
31
0.0
0
LINE
8
0
6
CONTINUOUS
10
-108.426940
20
376.130875
30
0.0
11
-109.259900
21
376.710245
31
0.0
0
LINE
8
0
6
CONTINUOUS
10
-107.410980
20
375.416535
30
0.0
11
-108.426940
21
376.130875
31
0.0
0
LINE
8
0
6
CONTINUOUS
10
-107.227970
20
375.281725
30
0.0
11
-107.410980
21
375.416535
31
0.0
0
LINE
8
0
6
CONTINUOUS
10
-108.060920
20
375.861095
30
0.0
11
-107.227970
21
375.281725
31
0.0
0
LINE
8
0
6
CONTINUOUS
10
-109.076870
20
376.575365
30
0.0
11
-108.060920
21
375.861095
31
0.0
0
LINE
8
0
6
CONTINUOUS
10
-105.467540
20
374.077035
30
0.0
11
-104.634600
21
373.497665
31
0.0
0
LINE
8
0
6
CONTINUOUS
10
-105.163647
20
374.511296
30
0.0
11
-105.467540
21
374.077035
31
0.0
0
LINE
8
0
6
CONTINUOUS
10
-103.435600
20
372.648435
30
0.0
11
-103.240397
21
372.927380
31
0.0
0
LINE
8
0
6
CONTINUOUS
10
-103.618630
20
372.783325
30
0.0
11
-103.435600
21
372.648435
31
0.0
0
LINE
8
0
6
CONTINUOUS
10
-103.618630
20
372.783325
30
0.0
11
-103.416392
21
373.072322
31
0.0
0
LINE
8
0
6
CONTINUOUS
10
-104.634600
20
373.497665
30
0.0
11
-103.618630
21
372.783325
31
0.0
0
LINE
8
0
6
CONTINUOUS
10
-104.378031
20
373.864292
30
0.0
11
-104.634600
21
373.497665
31
0.0
0
LINE
8
0
6
CONTINUOUS
10
-104.634600
20
373.497665
30
0.0
11
-105.467540
21
374.077035
31
0.0
0
LINE
8
0
6
CONTINUOUS
10
-103.618630
20
372.783325
30
0.0
11
-104.634600
21
373.497665
31
0.0
0
LINE
8
0
6
CONTINUOUS
10
-103.435600
20
372.648435
30
0.0
11
-103.618630
21
372.783325
31
0.0
0
LINE
8
0
6
CONTINUOUS
10
-104.268560
20
373.227885
30
0.0
11
-103.435600
21
372.648435
31
0.0
0
LINE
8
0
6
CONTINUOUS
10
-105.284530
20
373.942155
30
0.0
11
-104.268560
21
373.227885
31
0.0
0
LINE
8
0
6
CONTINUOUS
10
-113.242850
20
380.051085
30
0.0
11
-112.306050
21
379.397935
31
0.0
0
LINE
8
0
6
CONTINUOUS
10
-112.812333
20
380.667790
30
0.0
11
-113.242850
21
380.051085
31
0.0
0
LINE
8
0
6
CONTINUOUS
10
-111.366950
20
378.736535
30
0.0
11
-111.018213
21
379.236096
31
0.0
0
LINE
8
0
6
CONTINUOUS
10
-112.306050
20
379.397935
30
0.0
11
-111.366950
21
378.736535
31
0.0
0
LINE
8
0
6
CONTINUOUS
10
-111.917862
20
379.954010
30
0.0
11
-112.306050
21
379.397935
31
0.0
0
LINE
8
0
6
CONTINUOUS
10
-112.306050
20
379.397935
30
0.0
11
-113.242850
21
380.051085
31
0.0
0
LINE
8
0
6
CONTINUOUS
10
-111.366950
20
378.736535
30
0.0
11
-112.306050
21
379.397935
31
0.0
0
LINE
8
0
6
CONTINUOUS
10
-112.301440
20
379.381295
30
0.0
11
-111.364640
21
378.728145
31
0.0
0
LINE
8
0
6
CONTINUOUS
10
-113.240540
20
380.042765
30
0.0
11
-112.301440
21
379.381295
31
0.0
0
LINE
8
0
6
CONTINUOUS
10
-115.712160
20
381.736795
30
0.0
11
-114.775380
21
381.083725
31
0.0
0
LINE
8
0
6
CONTINUOUS
10
-115.144949
20
382.549317
30
0.0
11
-115.712160
21
381.736795
31
0.0
0
LINE
8
0
6
CONTINUOUS
10
-113.836280
20
380.422255
30
0.0
11
-113.359864
21
381.104715
31
0.0
0
LINE
8
0
6
CONTINUOUS
10
-114.775380
20
381.083725
30
0.0
11
-113.836280
21
380.422255
31
0.0
0
LINE
8
0
6
CONTINUOUS
10
-114.259545
20
381.822654
30
0.0
11
-114.775380
21
381.083725
31
0.0
0
LINE
8
0
6
CONTINUOUS
10
-114.775380
20
381.083725
30
0.0
11
-115.712160
21
381.736795
31
0.0
0
LINE
8
0
6
CONTINUOUS
10
-113.836280
20
380.422255
30
0.0
11
-114.775380
21
381.083725
31
0.0
0
LINE
8
0
6
CONTINUOUS
10
-114.770750
20
381.067015
30
0.0
11
-113.833950
21
380.413935
31
0.0
0
LINE
8
0
6
CONTINUOUS
10
-115.709850
20
381.728485
30
0.0
11
-114.770750
21
381.067015
31
0.0
0
LINE
8
0
6
CONTINUOUS
10
-116.643170
20
382.358215
30
0.0
11
-115.706380
21
381.705135
31
0.0
0
LINE
8
0
6
CONTINUOUS
10
-116.002646
20
383.275761
30
0.0
11
-116.643170
21
382.358215
31
0.0
0
LINE
8
0
6
CONTINUOUS
10
-115.706380
20
381.705135
30
0.0
11
-114.767290
21
381.043665
31
0.0
0
LINE
8
0
6
CONTINUOUS
10
-115.706380
20
381.705135
30
0.0
11
-116.643170
21
382.358215
31
0.0
0
LINE
8
0
6
CONTINUOUS
10
-114.767290
20
381.043665
30
0.0
11
-115.706380
21
381.705135
31
0.0
0
LINE
8
0
6
CONTINUOUS
10
-115.701760
20
381.688425
30
0.0
11
-114.764970
21
381.035275
31
0.0
0
LINE
8
0
6
CONTINUOUS
10
-116.640860
20
382.349825
30
0.0
11
-115.701760
21
381.688425
31
0.0
0
LINE
8
0
6
CONTINUOUS
10
-91.980260
20
363.374295
30
0.0
11
-90.676870
21
362.460985
31
0.0
0
LINE
8
0
6
CONTINUOUS
10
-91.980260
20
363.374295
30
0.0
11
-91.602933
21
363.903568
31
0.0
0
LINE
8
0
6
CONTINUOUS
10
-92.624690
20
363.818865
30
0.0
11
-91.980260
21
363.374295
31
0.0
0
LINE
8
0
6
CONTINUOUS
10
-92.229007
20
364.373889
30
0.0
11
-92.624690
21
363.818865
31
0.0
0
LINE
8
0
6
CONTINUOUS
10
-90.017960
20
361.992235
30
0.0
11
-89.677860
21
362.469294
31
0.0
0
LINE
8
0
6
CONTINUOUS
10
-90.676870
20
362.460985
30
0.0
11
-90.017960
21
361.992235
31
0.0
0
LINE
8
0
6
CONTINUOUS
10
-90.327062
20
362.951664
30
0.0
11
-90.676870
21
362.460985
31
0.0
0
LINE
8
0
6
CONTINUOUS
10
-90.017960
20
361.992235
30
0.0
11
-90.676870
21
362.460985
31
0.0
0
LINE
8
0
6
CONTINUOUS
10
-91.965780
20
363.350115
30
0.0
11
-90.662430
21
362.436875
31
0.0
0
LINE
8
0
6
CONTINUOUS
10
-91.980260
20
363.374295
30
0.0
11
-92.624690
21
363.818865
31
0.0
0
LINE
8
0
6
CONTINUOUS
10
-90.676870
20
362.460985
30
0.0
11
-91.980260
21
363.374295
31
0.0
0
LINE
8
0
6
CONTINUOUS
10
-113.354638
20
381.100545
30
0.0
11
-112.812333
21
380.667790
31
0.0
0
LINE
8
0
6
CONTINUOUS
10
-111.012969
20
379.231912
30
0.0
11
-110.372934
21
378.721169
31
0.0
0
LINE
8
0
6
CONTINUOUS
10
-58.658572
20
342.559201
30
0.0
11
-57.646027
21
341.939797
31
0.0
0
LINE
8
0
6
CONTINUOUS
10
-106.815246
20
375.871491
30
0.0
11
-105.239985
21
374.574165
31
0.0
0
LINE
8
0
6
CONTINUOUS
10
-101.878637
20
371.805885
30
0.0
11
-100.627170
21
370.775224
31
0.0
0
LINE
8
0
6
CONTINUOUS
10
-71.734630
20
350.374115
30
0.0
11
-70.804991
21
349.824961
31
0.0
0
LINE
8
0
6
CONTINUOUS
10
-76.495882
20
353.479550
30
0.0
11
-75.552264
21
352.863700
31
0.0
0
LINE
8
0
6
CONTINUOUS
10
-89.171408
20
362.092990
30
0.0
11
-88.990602
21
361.958648
31
0.0
0
LINE
8
0
6
CONTINUOUS
10
-88.648068
20
361.704138
30
0.0
11
-87.887720
21
361.139185
31
0.0
0
LINE
8
0
6
CONTINUOUS
10
-82.920848
20
357.691932
30
0.0
11
-81.778533
21
356.937804
31
0.0
0
LINE
8
0
6
CONTINUOUS
10
-87.887720
20
361.139185
30
0.0
11
-87.731830
21
361.027185
31
0.0
0
LINE
8
0
6
CONTINUOUS
10
-92.134870
20
367.957195
30
0.0
11
-99.857590
21
373.351175
31
0.0
0
LINE
8
0
6
CONTINUOUS
10
-112.580500
20
382.139245
30
0.0
11
-116.943160
21
385.153695
31
0.0
0
LINE
8
0
6
CONTINUOUS
10
-116.943160
20
385.153695
30
0.0
11
-119.659800
21
387.009625
31
0.0
0
LINE
8
0
6
CONTINUOUS
10
-120.616750
20
387.697415
30
0.0
11
-119.551250
21
386.281325
31
0.0
0
LINE
8
0
6
CONTINUOUS
10
-119.659800
20
387.009625
30
0.0
11
-120.616750
21
387.697415
31
0.0
0
LINE
8
0
6
CONTINUOUS
10
-47.612490
20
336.536525
30
0.0
11
-48.500780
21
337.212115
31
0.0
0
LINE
8
0
6
CONTINUOUS
10
-49.306880
20
337.054565
30
0.0
11
-47.612490
21
336.536525
31
0.0
0
LINE
8
0
6
CONTINUOUS
10
-48.500780
20
337.212115
30
0.0
11
-51.174520
21
339.136395
31
0.0
0
LINE
8
0
6
CONTINUOUS
10
-84.046910
20
362.228285
30
0.0
11
-92.134870
21
367.957195
31
0.0
0
LINE
8
0
6
CONTINUOUS
10
-99.857590
20
373.351175
30
0.0
11
-106.790500
21
378.181505
31
0.0
0
LINE
8
0
6
CONTINUOUS
10
-106.790500
20
378.181505
30
0.0
11
-112.580500
21
382.139245
31
0.0
0
LINE
8
0
6
CONTINUOUS
10
-51.174520
20
339.136395
30
0.0
11
-55.506140
21
342.214555
31
0.0
0
LINE
8
0
6
CONTINUOUS
10
-55.506140
20
342.214555
30
0.0
11
-61.213310
21
346.313295
31
0.0
0
LINE
8
0
6
CONTINUOUS
10
-61.213310
20
346.313295
30
0.0
11
-68.180800
21
351.157265
31
0.0
0
LINE
8
0
6
CONTINUOUS
10
-68.180800
20
351.157265
30
0.0
11
-75.889250
21
356.574825
31
0.0
0
LINE
8
0
6
CONTINUOUS
10
-75.889250
20
356.574825
30
0.0
11
-84.046910
21
362.228285
31
0.0
0
LINE
8
0
6
CONTINUOUS
10
-119.551250
20
386.281325
30
0.0
11
-116.002646
21
383.275761
31
0.0
0
LINE
8
0
6
CONTINUOUS
10
-53.372566
20
339.381333
30
0.0
11
-49.306880
21
337.054565
31
0.0
0
LINE
8
0
6
CONTINUOUS
10
-31.244446
20
356.080048
30
0.0
11
-19.845520
21
343.749355
31
0.0
0
LINE
8
0
6
CONTINUOUS
10
-26.049300
20
334.879885
30
0.0
11
-35.098244
21
345.219090
31
0.0
0
LINE
8
0
6
CONTINUOUS
10
-37.362676
20
341.715852
30
0.0
11
-28.524030
21
331.305355
31
0.0
0
LINE
8
0
6
CONTINUOUS
10
-27.215360
20
333.208205
30
0.0
11
-36.318353
21
343.331494
31
0.0
0
LINE
8
0
6
CONTINUOUS
10
56.476850
20
251.245235
30
0.0
11
56.905140
21
251.493575
31
0.0
0
LINE
8
0
6
CONTINUOUS
10
56.905140
20
251.493575
30
0.0
11
56.400000
21
252.142305
31
0.0
0
LINE
8
0
6
CONTINUOUS
10
-19.382680
20
343.629425
30
0.0
11
-21.620970
21
340.432175
31
0.0
0
LINE
8
0
6
CONTINUOUS
10
-26.907800
20
332.866175
30
0.0
11
-27.088480
21
332.608455
31
0.0
0
LINE
8
0
6
CONTINUOUS
10
-26.556620
20
329.838075
30
0.0
11
-26.320050
21
329.522365
31
0.0
0
LINE
8
0
6
CONTINUOUS
10
-24.518330
20
332.076455
30
0.0
11
-24.758790
21
332.395595
31
0.0
0
LINE
8
0
6
CONTINUOUS
10
-28.613920
20
326.896715
30
0.0
11
-28.386550
21
326.581385
31
0.0
0
LINE
8
0
6
CONTINUOUS
10
-17.174460
20
342.487535
30
0.0
11
-17.427570
21
342.821165
31
0.0
0
LINE
8
0
6
CONTINUOUS
10
-18.452810
20
345.714455
30
0.0
11
-29.539627
21
357.574897
31
0.0
0
LINE
8
0
6
CONTINUOUS
10
50.163750
20
247.584275
30
0.0
11
53.390070
21
249.455225
31
0.0
0
LINE
8
0
6
CONTINUOUS
10
53.390070
20
249.455225
30
0.0
11
52.900930
21
250.099685
31
0.0
0
LINE
8
0
6
CONTINUOUS
10
37.689960
20
240.350765
30
0.0
11
39.645150
21
241.484575
31
0.0
0
LINE
8
0
6
CONTINUOUS
10
39.645150
20
241.484575
30
0.0
11
39.186120
21
242.097825
31
0.0
0
LINE
8
0
6
CONTINUOUS
10
34.515940
20
239.374355
30
0.0
11
34.955410
21
238.764995
31
0.0
0
LINE
8
0
6
CONTINUOUS
10
-16.658760
20
345.994765
30
0.0
11
-17.800380
21
345.592085
31
0.0
0
LINE
8
0
6
CONTINUOUS
10
-16.658760
20
345.994765
30
0.0
11
-16.843830
21
345.742305
31
0.0
0
LINE
8
0
6
CONTINUOUS
10
-15.873540
20
344.985925
30
0.0
11
-16.658760
21
345.994765
31
0.0
0
LINE
8
0
6
CONTINUOUS
10
-16.843830
20
345.742305
30
0.0
11
-17.336590
21
345.051385
31
0.0
0
LINE
8
0
6
CONTINUOUS
10
-17.336590
20
345.051385
30
0.0
11
-18.197450
21
343.836105
31
0.0
0
LINE
8
0
6
CONTINUOUS
10
-18.197450
20
343.836105
30
0.0
11
-19.167800
21
343.666885
31
0.0
0
LINE
8
0
6
CONTINUOUS
10
-18.197450
20
343.836105
30
0.0
11
-20.796460
21
340.130585
31
0.0
0
LINE
8
0
6
CONTINUOUS
10
-17.427570
20
342.821165
30
0.0
11
-18.197450
21
343.836105
31
0.0
0
LINE
8
0
6
CONTINUOUS
10
-20.796460
20
340.130585
30
0.0
11
-21.198040
21
339.557535
31
0.0
0
LINE
8
0
6
CONTINUOUS
10
-20.026160
20
339.125865
30
0.0
11
-20.796460
21
340.130585
31
0.0
0
LINE
8
0
6
CONTINUOUS
10
-25.514290
20
333.398325
30
0.0
11
-27.306300
21
330.838515
31
0.0
0
LINE
8
0
6
CONTINUOUS
10
-27.306300
20
330.838515
30
0.0
11
-28.257380
21
329.476055
31
0.0
0
LINE
8
0
6
CONTINUOUS
10
-26.556620
20
329.838075
30
0.0
11
-27.306300
21
330.838515
31
0.0
0
LINE
8
0
6
CONTINUOUS
10
-28.257380
20
329.476055
30
0.0
11
-28.332930
21
329.367495
31
0.0
0
LINE
8
0
6
CONTINUOUS
10
-28.814900
20
328.675125
30
0.0
11
-29.204150
21
328.112605
31
0.0
0
LINE
8
0
6
CONTINUOUS
10
-29.342180
20
327.906385
30
0.0
11
-28.613920
21
326.896715
31
0.0
0
LINE
8
0
6
CONTINUOUS
10
-28.851500
20
330.054665
30
0.0
11
-28.940460
21
329.665185
31
0.0
0
LINE
8
0
6
CONTINUOUS
10
-28.722620
20
330.247085
30
0.0
11
-28.851500
21
330.054665
31
0.0
0
LINE
8
0
6
CONTINUOUS
10
-15.613280
20
344.651605
30
0.0
11
-15.873540
21
344.985925
31
0.0
0
LINE
8
0
6
CONTINUOUS
10
-19.845520
20
343.749355
30
0.0
11
-19.533910
21
343.412295
31
0.0
0
LINE
8
0
6
CONTINUOUS
10
-26.907800
20
332.866175
30
0.0
11
-25.745340
21
334.532595
31
0.0
0
LINE
8
0
6
CONTINUOUS
10
-25.745340
20
334.532595
30
0.0
11
-26.049300
21
334.879885
31
0.0
0
LINE
8
0
6
CONTINUOUS
10
-28.524030
20
331.305355
30
0.0
11
-28.224170
21
330.952195
31
0.0
0
LINE
8
0
6
CONTINUOUS
10
-26.907800
20
332.866175
30
0.0
11
-27.215360
21
333.208205
31
0.0
0
LINE
8
0
6
CONTINUOUS
10
-18.139560
20
345.379375
30
0.0
11
-18.452810
21
345.714455
31
0.0
0
LINE
8
0
6
CONTINUOUS
10
-25.380200
20
335.054825
30
0.0
11
-25.745340
21
334.532595
31
0.0
0
LINE
8
0
6
CONTINUOUS
10
-25.096620
20
333.994415
30
0.0
11
-25.514290
21
333.398325
31
0.0
0
LINE
8
0
6
CONTINUOUS
10
-25.514290
20
333.398325
30
0.0
11
-24.758790
21
332.395595
31
0.0
0
LINE
8
0
6
CONTINUOUS
10
-21.972020
20
339.930005
30
0.0
11
-25.380200
21
335.054825
31
0.0
0
LINE
8
0
6
CONTINUOUS
10
-21.198040
20
339.557535
30
0.0
11
-25.096620
21
333.994415
31
0.0
0
LINE
8
0
6
CONTINUOUS
10
-21.928320
20
340.775035
30
0.0
11
-33.023469
21
353.151073
31
0.0
0
LINE
8
0
6
CONTINUOUS
10
-19.775170
20
338.798495
30
0.0
11
-20.026160
21
339.125865
31
0.0
0
LINE
8
0
6
CONTINUOUS
10
49.510930
20
247.205705
30
0.0
11
50.163750
21
247.584275
31
0.0
0
LINE
8
0
6
CONTINUOUS
10
-21.972020
20
339.930005
30
0.0
11
-21.620970
21
340.432175
31
0.0
0
LINE
8
0
6
CONTINUOUS
10
-21.620970
20
340.432175
30
0.0
11
-21.928320
21
340.775035
31
0.0
0
LINE
8
0
6
CONTINUOUS
10
37.489610
20
240.234645
30
0.0
11
37.689960
21
240.350765
31
0.0
0
LINE
8
0
6
CONTINUOUS
10
-28.332930
20
329.367495
30
0.0
11
-28.814900
21
328.675125
31
0.0
0
LINE
8
0
6
CONTINUOUS
10
56.476850
20
251.245235
30
0.0
11
55.352330
21
250.593155
31
0.0
0
LINE
8
0
6
CONTINUOUS
10
55.352330
20
250.593155
30
0.0
11
53.390070
21
249.455225
31
0.0
0
LINE
8
0
6
CONTINUOUS
10
43.172860
20
243.530315
30
0.0
11
42.493830
21
243.136565
31
0.0
0
LINE
8
0
6
CONTINUOUS
10
42.493830
20
243.136565
30
0.0
11
39.645150
21
241.484575
31
0.0
0
LINE
8
0
6
CONTINUOUS
10
37.489610
20
240.234645
30
0.0
11
36.211770
21
239.493605
31
0.0
0
LINE
8
0
6
CONTINUOUS
10
35.250690
20
238.936275
30
0.0
11
34.955410
21
238.764995
31
0.0
0
LINE
8
0
6
CONTINUOUS
10
36.211770
20
239.493605
30
0.0
11
35.250690
21
238.936275
31
0.0
0
LINE
8
0
6
CONTINUOUS
10
49.510930
20
247.205705
30
0.0
11
43.172860
21
243.530315
31
0.0
0
LINE
8
0
6
CONTINUOUS
10
-26.320050
20
329.522365
30
0.0
11
39.186120
21
242.097825
31
0.0
0
LINE
8
0
6
CONTINUOUS
10
42.027540
20
243.755535
30
0.0
11
-24.518330
21
332.076455
31
0.0
0
LINE
8
0
6
CONTINUOUS
10
-28.386550
20
326.581385
30
0.0
11
34.515940
21
239.374355
31
0.0
0
LINE
8
0
6
CONTINUOUS
10
52.900930
20
250.099685
30
0.0
11
-17.174460
21
342.487535
31
0.0
0
LINE
8
0
6
CONTINUOUS
10
56.400000
20
252.142305
30
0.0
11
-15.613280
21
344.651605
31
0.0
0
LINE
8
0
6
CONTINUOUS
10
37.238150
20
240.961575
30
0.0
11
-27.282170
21
328.158005
31
0.0
0
LINE
8
0
6
CONTINUOUS
10
-18.053200
20
345.502895
30
0.0
11
-18.229060
21
345.261655
31
0.0
0
LINE
8
0
6
CONTINUOUS
10
-17.800380
20
345.592085
30
0.0
11
-18.053200
21
345.502895
31
0.0
0
LINE
8
0
6
CONTINUOUS
10
-18.229060
20
345.261655
30
0.0
11
-18.685730
21
344.617425
31
0.0
0
LINE
8
0
6
CONTINUOUS
10
-18.685730
20
344.617425
30
0.0
11
-19.382680
21
343.629425
31
0.0
0
LINE
8
0
6
CONTINUOUS
10
-19.167800
20
343.666885
30
0.0
11
-19.382680
21
343.629425
31
0.0
0
LINE
8
0
6
CONTINUOUS
10
-25.733290
20
334.393735
30
0.0
11
-27.088480
21
332.608455
31
0.0
0
LINE
8
0
6
CONTINUOUS
10
-27.088480
20
332.608455
30
0.0
11
-27.818080
21
331.558575
31
0.0
0
LINE
8
0
6
CONTINUOUS
10
-27.818080
20
331.558575
30
0.0
11
-27.890810
21
331.453445
31
0.0
0
LINE
8
0
6
CONTINUOUS
10
-28.354660
20
330.782515
30
0.0
11
-28.722620
21
330.247085
31
0.0
0
LINE
8
0
6
CONTINUOUS
10
-29.342180
20
327.906385
30
0.0
11
-29.204150
21
328.112605
31
0.0
0
LINE
8
0
6
CONTINUOUS
10
-28.940460
20
329.665185
30
0.0
11
-29.342180
21
327.906385
31
0.0
0
LINE
8
0
6
CONTINUOUS
10
-27.890810
20
331.453445
30
0.0
11
-28.354660
21
330.782515
31
0.0
0
LINE
8
0
6
CONTINUOUS
10
35.232650
20
238.907815
30
0.0
11
36.176330
21
239.437685
31
0.0
0
LINE
8
0
6
CONTINUOUS
10
-116.943160
20
385.153925
30
0.0
11
-112.580520
21
382.139555
31
0.0
0
LINE
8
0
6
CONTINUOUS
10
-120.616770
20
387.697565
30
0.0
11
-119.659820
21
387.009855
31
0.0
0
LINE
8
0
6
CONTINUOUS
10
-120.141970
20
388.699615
30
0.0
11
-120.616770
21
387.697565
31
0.0
0
LINE
8
0
6
CONTINUOUS
10
-48.500800
20
337.212265
30
0.0
11
-47.612490
21
336.536675
31
0.0
0
LINE
8
0
6
CONTINUOUS
10
-47.612490
20
336.536675
30
0.0
11
-46.832530
21
337.324945
31
0.0
0
LINE
8
0
6
CONTINUOUS
10
-51.174540
20
339.136625
30
0.0
11
-48.500800
21
337.212265
31
0.0
0
LINE
8
0
6
CONTINUOUS
10
-84.046930
20
362.228665
30
0.0
11
-75.889250
21
356.575135
31
0.0
0
LINE
8
0
6
CONTINUOUS
10
-115.523500
20
404.010205
30
0.0
11
-119.642210
21
398.577615
31
0.0
0
LINE
8
0
6
CONTINUOUS
10
-37.718210
20
341.165815
30
0.0
11
-37.362676
21
341.715852
31
0.0
0
LINE
8
0
6
CONTINUOUS
10
-113.274090
20
406.441155
30
0.0
11
-115.523500
21
404.010205
31
0.0
0
LINE
8
0
6
CONTINUOUS
10
-108.336020
20
410.933275
30
0.0
11
-110.876760
21
408.761185
31
0.0
0
LINE
8
0
6
CONTINUOUS
10
-106.044440
20
412.352945
30
0.0
11
-106.168950
21
412.337075
31
0.0
0
LINE
8
0
6
CONTINUOUS
10
-105.160690
20
412.429315
30
0.0
11
-106.044440
21
412.352945
31
0.0
0
LINE
8
0
6
CONTINUOUS
10
-104.743640
20
412.442595
30
0.0
11
-105.160690
21
412.429315
31
0.0
0
LINE
8
0
6
CONTINUOUS
10
-29.383000
20
358.526045
30
0.0
11
-29.410540
21
358.648495
31
0.0
0
LINE
8
0
6
CONTINUOUS
10
-29.410540
20
358.648495
30
0.0
11
-29.640360
21
359.505205
31
0.0
0
LINE
8
0
6
CONTINUOUS
10
-29.640360
20
359.505205
30
0.0
11
-29.770250
21
359.901775
31
0.0
0
LINE
8
0
6
CONTINUOUS
10
-110.876760
20
408.761185
30
0.0
11
-113.274090
21
406.441155
31
0.0
0
LINE
8
0
6
CONTINUOUS
10
-119.642210
20
398.577615
30
0.0
11
-119.782630
21
398.377195
31
0.0
0
LINE
8
0
6
CONTINUOUS
10
-37.858610
20
340.965465
30
0.0
11
-37.718210
21
341.165815
31
0.0
0
LINE
8
0
6
CONTINUOUS
10
-119.980380
20
398.095055
30
0.0
11
-120.546980
21
397.286495
31
0.0
0
LINE
8
0
6
CONTINUOUS
10
-92.134890
20
367.957505
30
0.0
11
-84.046930
21
362.228665
31
0.0
0
LINE
8
0
6
CONTINUOUS
10
-46.705830
20
336.621135
30
0.0
11
-46.634436
21
336.623693
31
0.0
0
LINE
8
0
6
CONTINUOUS
10
-47.612790
20
337.307935
30
0.0
11
-46.705830
21
336.621135
31
0.0
0
LINE
8
0
6
CONTINUOUS
10
-75.428840
20
356.974535
30
0.0
11
-67.600990
21
351.471825
31
0.0
0
LINE
8
0
6
CONTINUOUS
10
-120.546980
20
397.286495
30
0.0
11
-121.343810
21
395.336425
31
0.0
0
LINE
8
0
6
CONTINUOUS
10
-121.343810
20
395.336425
30
0.0
11
-121.750250
21
392.842145
31
0.0
0
LINE
8
0
6
CONTINUOUS
10
-121.750250
20
392.842145
30
0.0
11
-121.564650
21
390.800825
31
0.0
0
LINE
8
0
6
CONTINUOUS
10
-69.722990
20
363.275575
30
0.0
11
-78.835040
21
369.667635
31
0.0
0
LINE
8
0
6
CONTINUOUS
10
-96.618830
20
382.105145
30
0.0
11
-104.398790
21
387.526975
31
0.0
0
LINE
8
0
6
CONTINUOUS
10
-119.908720
20
398.197295
30
0.0
11
-119.980380
21
398.095055
31
0.0
0
LINE
8
0
6
CONTINUOUS
10
-118.856880
20
397.516755
30
0.0
11
-119.908720
21
398.197295
31
0.0
0
LINE
8
0
6
CONTINUOUS
10
-38.986880
20
341.544465
30
0.0
11
-41.992790
21
343.704725
31
0.0
0
LINE
8
0
6
CONTINUOUS
10
-61.073410
20
357.195175
30
0.0
11
-69.722990
21
363.275575
31
0.0
0
LINE
8
0
6
CONTINUOUS
10
-115.803750
20
395.430955
30
0.0
11
-118.856880
21
397.516755
31
0.0
0
LINE
8
0
6
CONTINUOUS
10
-87.952720
20
376.050835
30
0.0
11
-96.618830
21
382.105145
31
0.0
0
LINE
8
0
6
CONTINUOUS
10
-38.056360
20
340.683335
30
0.0
11
-37.984720
21
340.785485
31
0.0
0
LINE
8
0
6
CONTINUOUS
10
-37.984720
20
340.785485
30
0.0
11
-38.986880
21
341.544465
31
0.0
0
LINE
8
0
6
CONTINUOUS
10
-53.320060
20
351.731385
30
0.0
11
-61.073410
21
357.195175
31
0.0
0
LINE
8
0
6
CONTINUOUS
10
-78.835040
20
369.667635
30
0.0
11
-87.952720
21
376.050835
31
0.0
0
LINE
8
0
6
CONTINUOUS
10
-110.902470
20
392.044415
30
0.0
11
-115.803750
21
395.430955
31
0.0
0
LINE
8
0
6
CONTINUOUS
10
-46.851720
20
347.158095
30
0.0
11
-53.320060
21
351.731385
31
0.0
0
LINE
8
0
6
CONTINUOUS
10
-104.398790
20
387.526975
30
0.0
11
-110.902470
21
392.044415
31
0.0
0
LINE
8
0
6
CONTINUOUS
10
-41.992790
20
343.704725
30
0.0
11
-46.851720
21
347.158095
31
0.0
0
LINE
8
0
6
CONTINUOUS
10
-78.708950
20
369.847535
30
0.0
11
-87.826620
21
376.230815
31
0.0
0
LINE
8
0
6
CONTINUOUS
10
-87.826620
20
376.230815
30
0.0
11
-96.492720
21
382.285125
31
0.0
0
LINE
8
0
6
CONTINUOUS
10
-96.492720
20
382.285125
30
0.0
11
-104.272680
21
387.706955
31
0.0
0
LINE
8
0
6
CONTINUOUS
10
-104.272680
20
387.706955
30
0.0
11
-110.776380
21
392.224395
31
0.0
0
LINE
8
0
6
CONTINUOUS
10
-110.776380
20
392.224395
30
0.0
11
-115.677630
21
395.610855
31
0.0
0
LINE
8
0
6
CONTINUOUS
10
-115.677630
20
395.610855
30
0.0
11
-118.730770
21
397.696725
31
0.0
0
LINE
8
0
6
CONTINUOUS
10
-118.730770
20
397.696725
30
0.0
11
-119.782630
21
398.377195
31
0.0
0
LINE
8
0
6
CONTINUOUS
10
-37.858610
20
340.965465
30
0.0
11
-38.860790
21
341.724435
31
0.0
0
LINE
8
0
6
CONTINUOUS
10
-38.860790
20
341.724435
30
0.0
11
-41.866690
21
343.884705
31
0.0
0
LINE
8
0
6
CONTINUOUS
10
-41.866690
20
343.884705
30
0.0
11
-46.725630
21
347.338075
31
0.0
0
LINE
8
0
6
CONTINUOUS
10
-46.725630
20
347.338075
30
0.0
11
-53.193940
21
351.911285
31
0.0
0
LINE
8
0
6
CONTINUOUS
10
-53.193940
20
351.911285
30
0.0
11
-60.947300
21
357.375075
31
0.0
0
LINE
8
0
6
CONTINUOUS
10
-60.947300
20
357.375075
30
0.0
11
-69.596890
21
363.455545
31
0.0
0
LINE
8
0
6
CONTINUOUS
10
-69.596890
20
363.455545
30
0.0
11
-78.708950
21
369.847535
31
0.0
0
LINE
8
0
6
CONTINUOUS
10
-75.498860
20
392.175105
30
0.0
11
-67.154760
21
386.333435
31
0.0
0
LINE
8
0
6
CONTINUOUS
10
-83.429730
20
397.715725
30
0.0
11
-75.498860
21
392.175105
31
0.0
0
LINE
8
0
6
CONTINUOUS
10
-90.549610
20
402.677575
30
0.0
11
-83.429730
21
397.715725
31
0.0
0
LINE
8
0
6
CONTINUOUS
10
-96.501510
20
406.811715
30
0.0
11
-90.549610
21
402.677575
31
0.0
0
LINE
8
0
6
CONTINUOUS
10
-100.986930
20
409.910935
30
0.0
11
-96.501510
21
406.811715
31
0.0
0
LINE
8
0
6
CONTINUOUS
10
-103.781020
20
411.819805
30
0.0
11
-100.986930
21
409.910935
31
0.0
0
LINE
8
0
6
CONTINUOUS
10
-104.743640
20
412.442595
30
0.0
11
-103.781020
21
411.819805
31
0.0
0
LINE
8
0
6
CONTINUOUS
10
-104.555480
20
412.330975
30
0.0
11
-104.743640
21
412.442595
31
0.0
0
LINE
8
0
6
CONTINUOUS
10
-30.687380
20
360.596285
30
0.0
11
-29.770250
21
359.901775
31
0.0
0
LINE
8
0
6
CONTINUOUS
10
-33.438270
20
362.573285
30
0.0
11
-30.687380
21
360.596285
31
0.0
0
LINE
8
0
6
CONTINUOUS
10
-37.884970
20
365.733685
30
0.0
11
-33.438270
21
362.573285
31
0.0
0
LINE
8
0
6
CONTINUOUS
10
-43.804480
20
369.918945
30
0.0
11
-37.884970
21
365.733685
31
0.0
0
LINE
8
0
6
CONTINUOUS
10
-50.900050
20
374.919175
30
0.0
11
-43.804480
21
369.918945
31
0.0
0
LINE
8
0
6
CONTINUOUS
10
-58.815780
20
380.483675
30
0.0
11
-50.900050
21
374.919175
31
0.0
0
LINE
8
0
6
CONTINUOUS
10
-67.154760
20
386.333435
30
0.0
11
-58.815780
21
380.483675
31
0.0
0
LINE
8
0
6
CONTINUOUS
10
-37.397990
20
367.037015
30
0.0
11
-44.755280
21
373.611115
31
0.0
0
LINE
8
0
6
CONTINUOUS
10
-63.896970
20
388.591655
30
0.0
11
-65.013820
21
389.375115
31
0.0
0
LINE
8
0
6
CONTINUOUS
10
-52.291940
20
379.880185
30
0.0
11
-60.007200
21
385.835305
31
0.0
0
LINE
8
0
6
CONTINUOUS
10
-60.007200
20
385.835305
30
0.0
11
-60.130030
21
385.928315
31
0.0
0
LINE
8
0
6
CONTINUOUS
10
-60.498440
20
386.193055
30
0.0
11
-61.093950
21
386.616335
31
0.0
0
LINE
8
0
6
CONTINUOUS
10
-61.886720
20
387.176865
30
0.0
11
-62.836980
21
387.846495
31
0.0
0
LINE
8
0
6
CONTINUOUS
10
-94.967910
20
407.481885
30
0.0
11
-104.555480
21
412.330975
31
0.0
0
LINE
8
0
6
CONTINUOUS
10
-29.939380
20
360.040555
30
0.0
11
-37.397990
21
367.037015
31
0.0
0
LINE
8
0
6
CONTINUOUS
10
-106.168950
20
412.337075
30
0.0
11
-107.144210
21
411.789595
31
0.0
0
LINE
8
0
6
CONTINUOUS
10
-29.539627
20
357.574897
30
0.0
11
-29.383000
21
358.526045
31
0.0
0
LINE
8
0
6
CONTINUOUS
10
-78.414410
20
398.169595
30
0.0
11
-86.802210
21
403.073855
31
0.0
0
LINE
8
0
6
CONTINUOUS
10
-68.146870
20
391.563915
30
0.0
11
-68.943990
21
392.117585
31
0.0
0
LINE
8
0
6
CONTINUOUS
10
-70.047770
20
392.871675
30
0.0
11
-78.414410
21
398.169595
31
0.0
0
LINE
8
0
6
CONTINUOUS
10
-69.918850
20
392.788285
30
0.0
11
-70.047770
21
392.871675
31
0.0
0
LINE
8
0
6
CONTINUOUS
10
-69.544710
20
392.532625
30
0.0
11
-69.918850
21
392.788285
31
0.0
0
LINE
8
0
6
CONTINUOUS
10
-68.943990
20
392.117585
30
0.0
11
-69.544710
21
392.532625
31
0.0
0
LINE
8
0
6
CONTINUOUS
10
-67.193330
20
390.899395
30
0.0
11
-68.146870
21
391.563915
31
0.0
0
LINE
8
0
6
CONTINUOUS
10
-66.131320
20
390.157435
30
0.0
11
-67.193330
21
390.899395
31
0.0
0
LINE
8
0
6
CONTINUOUS
10
-86.802210
20
403.073855
30
0.0
11
-94.967910
21
407.481885
31
0.0
0
LINE
8
0
6
CONTINUOUS
10
-65.013820
20
389.375115
30
0.0
11
-66.131320
21
390.157435
31
0.0
0
LINE
8
0
6
CONTINUOUS
10
-107.144210
20
411.789595
30
0.0
11
-108.336020
21
410.933275
31
0.0
0
LINE
8
0
6
CONTINUOUS
10
-120.846740
20
388.578535
30
0.0
11
-119.939800
21
387.891735
31
0.0
0
LINE
8
0
6
CONTINUOUS
10
-75.889250
20
356.575135
30
0.0
11
-68.180820
21
351.157575
31
0.0
0
LINE
8
0
6
CONTINUOUS
10
-38.350380
20
341.041765
30
0.0
11
-38.224270
21
341.221735
31
0.0
0
LINE
8
0
6
CONTINUOUS
10
-119.416950
20
398.120995
30
0.0
11
-119.543070
21
397.941025
31
0.0
0
LINE
8
0
6
CONTINUOUS
10
-119.416950
20
398.120995
30
0.0
11
-118.374490
21
397.446565
31
0.0
0
LINE
8
0
6
CONTINUOUS
10
-39.217480
20
341.973845
30
0.0
11
-38.224270
21
341.221735
31
0.0
0
LINE
8
0
6
CONTINUOUS
10
-62.836980
20
387.846495
30
0.0
11
-63.896970
21
388.591655
31
0.0
0
LINE
8
0
6
CONTINUOUS
10
-61.093950
20
386.616335
30
0.0
11
-61.886720
21
387.176865
31
0.0
0
LINE
8
0
6
CONTINUOUS
10
-60.130030
20
385.928315
30
0.0
11
-60.498440
21
386.193055
31
0.0
0
LINE
8
0
6
CONTINUOUS
10
-44.755280
20
373.611115
30
0.0
11
-52.291940
21
379.880185
31
0.0
0
LINE
8
0
6
CONTINUOUS
10
-106.790510
20
378.181805
30
0.0
11
-99.857590
21
373.351485
31
0.0
0
LINE
8
0
6
CONTINUOUS
10
-112.580520
20
382.139555
30
0.0
11
-106.790510
21
378.181805
31
0.0
0
LINE
8
0
6
CONTINUOUS
10
-55.506140
20
342.214785
30
0.0
11
-51.174540
21
339.136625
31
0.0
0
LINE
8
0
6
CONTINUOUS
10
-61.213330
20
346.313595
30
0.0
11
-55.506140
21
342.214785
31
0.0
0
LINE
8
0
6
CONTINUOUS
10
-68.180820
20
351.157575
30
0.0
11
-61.213330
21
346.313595
31
0.0
0
LINE
8
0
6
CONTINUOUS
10
-54.730440
20
342.388275
30
0.0
11
-50.333130
21
339.263045
31
0.0
0
LINE
8
0
6
CONTINUOUS
10
-112.696100
20
383.010225
30
0.0
11
-106.810310
21
378.922005
31
0.0
0
LINE
8
0
6
CONTINUOUS
10
-60.584230
20
346.527065
30
0.0
11
-54.730440
21
342.388275
31
0.0
0
LINE
8
0
6
CONTINUOUS
10
-117.131760
20
386.075025
30
0.0
11
-112.696100
21
383.010225
31
0.0
0
LINE
8
0
6
CONTINUOUS
10
-91.926680
20
368.536115
30
0.0
11
-83.675220
21
362.759295
31
0.0
0
LINE
8
0
6
CONTINUOUS
10
-67.600990
20
351.471825
30
0.0
11
-60.584230
21
346.527065
31
0.0
0
LINE
8
0
6
CONTINUOUS
10
-119.894820
20
387.962685
30
0.0
11
-117.131760
21
386.075025
31
0.0
0
LINE
8
0
6
CONTINUOUS
10
-99.769490
20
374.015245
30
0.0
11
-91.926680
21
368.536115
31
0.0
0
LINE
8
0
6
CONTINUOUS
10
-50.333130
20
339.263045
30
0.0
11
-47.612790
21
337.307935
31
0.0
0
LINE
8
0
6
CONTINUOUS
10
-120.846740
20
388.578535
30
0.0
11
-119.894820
21
387.962685
31
0.0
0
LINE
8
0
6
CONTINUOUS
10
-121.564650
20
390.800825
30
0.0
11
-120.846740
21
388.578535
31
0.0
0
LINE
8
0
6
CONTINUOUS
10
-106.810310
20
378.922005
30
0.0
11
-99.769490
21
374.015245
31
0.0
0
LINE
8
0
6
CONTINUOUS
10
-47.657770
20
337.236985
30
0.0
11
-46.705830
21
336.621135
31
0.0
0
LINE
8
0
6
CONTINUOUS
10
-83.675220
20
362.759295
30
0.0
11
-75.428840
21
356.974535
31
0.0
0
LINE
8
0
6
CONTINUOUS
10
-99.857590
20
373.351485
30
0.0
11
-92.134890
21
367.957505
31
0.0
0
LINE
8
0
6
CONTINUOUS
10
-46.447970
20
334.307985
30
0.0
11
-46.556390
21
331.901595
31
0.0
0
LINE
8
0
6
CONTINUOUS
10
-47.491390
20
329.040575
30
0.0
11
-46.610350
21
328.423125
31
0.0
0
LINE
8
0
6
CONTINUOUS
10
-47.403840
20
329.305235
30
0.0
11
-46.521200
21
328.686715
31
0.0
0
LINE
8
0
6
CONTINUOUS
10
-46.272860
20
329.428445
30
0.0
11
-47.160100
21
330.050245
31
0.0
0
LINE
8
0
6
CONTINUOUS
10
-46.610350
20
328.423125
30
0.0
11
-41.108490
21
324.567455
31
0.0
0
LINE
8
0
6
CONTINUOUS
10
-46.521200
20
328.686715
30
0.0
11
-41.009260
21
324.823955
31
0.0
0
LINE
8
0
6
CONTINUOUS
10
-40.732300
20
325.545695
30
0.0
11
-46.272860
21
329.428445
31
0.0
0
LINE
8
0
6
CONTINUOUS
10
-37.635640
20
336.778915
30
0.0
11
-38.402376
21
340.689343
31
0.0
0
LINE
8
0
6
CONTINUOUS
10
-39.746580
20
324.854935
30
0.0
11
-39.254350
21
326.613435
31
0.0
0
LINE
8
0
6
CONTINUOUS
10
-39.207090
20
326.751215
30
0.0
11
-38.520820
21
328.752715
31
0.0
0
LINE
8
0
6
CONTINUOUS
10
-38.520820
20
328.752715
30
0.0
11
-37.705660
21
332.963075
31
0.0
0
LINE
8
0
6
CONTINUOUS
10
-37.705660
20
332.963075
30
0.0
11
-37.635640
21
336.778915
31
0.0
0
LINE
8
0
6
CONTINUOUS
10
-41.108490
20
324.567455
30
0.0
11
-40.129650
21
323.881495
31
0.0
0
LINE
8
0
6
CONTINUOUS
10
-40.129650
20
323.881495
30
0.0
11
-40.028660
21
324.136775
31
0.0
0
LINE
8
0
6
CONTINUOUS
10
-41.009260
20
324.823955
30
0.0
11
-40.028660
21
324.136775
31
0.0
0
LINE
8
0
6
CONTINUOUS
10
-39.746580
20
324.854935
30
0.0
11
-40.732300
21
325.545695
31
0.0
0
LINE
8
0
6
CONTINUOUS
10
-40.028660
20
324.136775
30
0.0
11
-39.746580
21
324.854935
31
0.0
0
LINE
8
0
6
CONTINUOUS
10
-46.567760
20
331.883665
30
0.0
11
-46.575210
21
331.718035
31
0.0
0
LINE
8
0
6
CONTINUOUS
10
-46.447970
20
334.307985
30
0.0
11
-46.571510
21
335.506785
31
0.0
0
LINE
8
0
6
CONTINUOUS
10
-46.582860
20
335.488935
30
0.0
11
-46.459320
21
334.290125
31
0.0
0
LINE
8
0
6
CONTINUOUS
10
-46.571510
20
335.506785
30
0.0
11
-46.629970
21
336.656695
31
0.0
0
LINE
8
0
6
CONTINUOUS
10
-46.641320
20
336.638835
30
0.0
11
-46.582860
21
335.488935
31
0.0
0
LINE
8
0
6
CONTINUOUS
10
-47.170400
20
330.033995
30
0.0
11
-47.409680
21
329.296075
31
0.0
0
LINE
8
0
6
CONTINUOUS
10
-47.409680
20
329.296075
30
0.0
11
-47.491390
21
329.040575
31
0.0
0
LINE
8
0
6
CONTINUOUS
10
-47.491390
20
329.040575
30
0.0
11
-47.403840
21
329.305235
31
0.0
0
LINE
8
0
6
CONTINUOUS
10
-47.403840
20
329.305235
30
0.0
11
-47.160100
21
330.050245
31
0.0
0
LINE
8
0
6
CONTINUOUS
10
-39.619170
20
325.195435
30
0.0
11
-39.244360
21
326.652035
31
0.0
0
LINE
8
0
6
CONTINUOUS
10
-39.746580
20
324.854935
30
0.0
11
-39.619170
21
325.195435
31
0.0
0
LINE
8
0
6
CONTINUOUS
10
-47.160100
20
330.050245
30
0.0
11
-46.563850
21
331.735885
31
0.0
0
LINE
8
0
6
CONTINUOUS
10
-46.556390
20
331.901595
30
0.0
11
-46.563850
21
331.735885
31
0.0
0
LINE
8
0
6
CONTINUOUS
10
-39.254350
20
326.613435
30
0.0
11
-39.207090
21
326.751215
31
0.0
0
LINE
8
0
6
CONTINUOUS
10
-46.459320
20
334.290125
30
0.0
11
-46.567760
21
331.883665
31
0.0
0
LINE
8
0
6
CONTINUOUS
10
-46.629970
20
336.656695
30
0.0
11
-46.652012
21
336.804518
31
0.0
0
LINE
8
0
6
CONTINUOUS
10
60.162548
20
243.225849
30
0.0
11
57.121220
21
249.193695
31
0.0
0
LINE
8
0
6
CONTINUOUS
10
36.842950
20
237.434355
30
0.0
11
41.418609
21
230.445847
31
0.0
0
LINE
8
0
6
CONTINUOUS
10
56.115530
20
250.927935
30
0.0
11
56.068740
21
251.008575
31
0.0
0
LINE
8
0
6
CONTINUOUS
10
35.790470
20
239.249235
30
0.0
11
35.837240
21
239.168595
31
0.0
0
LINE
8
0
6
CONTINUOUS
10
57.121220
20
249.193695
30
0.0
11
56.115530
21
250.927935
31
0.0
0
LINE
8
0
6
CONTINUOUS
10
35.837240
20
239.168595
30
0.0
11
36.842950
21
237.434355
31
0.0
0
LINE
8
0
6
CONTINUOUS
10
68.931570
20
223.096285
30
0.0
11
69.796590
21
223.597915
31
0.0
0
LINE
8
0
6
CONTINUOUS
10
61.338620
20
218.693205
30
0.0
11
63.614640
21
220.013085
31
0.0
0
LINE
8
0
6
CONTINUOUS
10
55.749391
20
215.451957
30
0.0
11
56.929860
21
216.136515
31
0.0
0
LINE
8
0
6
CONTINUOUS
10
63.614640
20
220.013085
30
0.0
11
65.731550
21
221.240655
31
0.0
0
LINE
8
0
6
CONTINUOUS
10
56.929860
20
216.136515
30
0.0
11
59.058560
21
217.370955
31
0.0
0
LINE
8
0
6
CONTINUOUS
10
65.731550
20
221.240655
30
0.0
11
67.545040
21
222.292295
31
0.0
0
LINE
8
0
6
CONTINUOUS
10
59.058560
20
217.370955
30
0.0
11
61.338620
21
218.693205
31
0.0
0
LINE
8
0
6
CONTINUOUS
10
67.545040
20
222.292295
30
0.0
11
68.931570
21
223.096285
31
0.0
0
LINE
8
0
6
CONTINUOUS
10
77.733090
20
207.415245
30
0.0
11
69.196438
21
223.249858
31
0.0
0
LINE
8
0
6
CONTINUOUS
10
76.775430
20
206.933985
30
0.0
11
68.269121
21
222.712082
31
0.0
0
LINE
8
0
6
CONTINUOUS
10
74.159060
20
205.619055
30
0.0
11
65.735626
21
221.242924
31
0.0
0
LINE
8
0
6
CONTINUOUS
10
70.585030
20
203.822865
30
0.0
11
62.274795
21
219.236032
31
0.0
0
LINE
8
0
6
CONTINUOUS
10
67.011000
20
202.026675
30
0.0
11
58.813995
21
217.229089
31
0.0
0
LINE
8
0
6
CONTINUOUS
10
64.394640
20
200.711755
30
0.0
11
61.803223
21
205.517705
31
0.0
0
LINE
8
0
6
CONTINUOUS
10
59.482409
20
209.821804
30
0.0
11
56.280503
21
215.759944
31
0.0
0
LINE
8
0
6
CONTINUOUS
10
60.629949
20
205.436207
30
0.0
11
63.436970
21
200.230485
31
0.0
0
LINE
8
0
6
CONTINUOUS
10
86.635410
20
188.349995
30
0.0
11
77.733090
21
207.415245
31
0.0
0
LINE
8
0
6
CONTINUOUS
10
85.649320
20
187.930075
30
0.0
11
76.775430
21
206.933985
31
0.0
0
LINE
8
0
6
CONTINUOUS
10
82.955280
20
186.782615
30
0.0
11
74.159060
21
205.619055
31
0.0
0
LINE
8
0
6
CONTINUOUS
10
79.275160
20
185.215305
30
0.0
11
70.585030
21
203.822865
31
0.0
0
LINE
8
0
6
CONTINUOUS
10
75.595030
20
183.647925
30
0.0
11
67.011000
21
202.026675
31
0.0
0
LINE
8
0
6
CONTINUOUS
10
72.900990
20
182.500535
30
0.0
11
64.394640
21
200.711755
31
0.0
0
LINE
8
0
6
CONTINUOUS
10
63.436970
20
200.230485
30
0.0
11
71.914890
21
182.080545
31
0.0
0
LINE
8
0
6
CONTINUOUS
10
93.530480
20
170.482255
30
0.0
11
86.635410
21
188.349995
31
0.0
0
LINE
8
0
6
CONTINUOUS
10
92.516510
20
170.135045
30
0.0
11
85.649320
21
187.930075
31
0.0
0
LINE
8
0
6
CONTINUOUS
10
89.746250
20
169.186335
30
0.0
11
82.955280
21
186.782615
31
0.0
0
LINE
8
0
6
CONTINUOUS
10
85.962010
20
167.890405
30
0.0
11
79.275160
21
185.215305
31
0.0
0
LINE
8
0
6
CONTINUOUS
10
82.177760
20
166.594395
30
0.0
11
75.595030
21
183.647925
31
0.0
0
LINE
8
0
6
CONTINUOUS
10
79.407510
20
165.645685
30
0.0
11
72.900990
21
182.500535
31
0.0
0
LINE
8
0
6
CONTINUOUS
10
71.914890
20
182.080545
30
0.0
11
78.393520
21
165.298465
31
0.0
0
LINE
8
0
6
CONTINUOUS
10
98.649040
20
153.424005
30
0.0
11
93.530480
21
170.482255
31
0.0
0
LINE
8
0
6
CONTINUOUS
10
97.611050
20
153.156975
30
0.0
11
92.516510
21
170.135045
31
0.0
0
LINE
8
0
6
CONTINUOUS
10
94.775190
20
152.427375
30
0.0
11
89.746250
21
169.186335
31
0.0
0
LINE
8
0
6
CONTINUOUS
10
90.901350
20
151.430745
30
0.0
11
85.962010
21
167.890405
31
0.0
0
LINE
8
0
6
CONTINUOUS
10
87.027480
20
150.434115
30
0.0
11
82.177760
21
166.594395
31
0.0
0
LINE
8
0
6
CONTINUOUS
10
84.191630
20
149.704595
30
0.0
11
79.407510
21
165.645685
31
0.0
0
LINE
8
0
6
CONTINUOUS
10
78.393520
20
165.298465
30
0.0
11
83.153620
21
149.437525
31
0.0
0
LINE
8
0
6
CONTINUOUS
10
102.227000
20
136.810305
30
0.0
11
98.649040
21
153.424005
31
0.0
0
LINE
8
0
6
CONTINUOUS
10
101.171540
20
136.623925
30
0.0
11
97.611050
21
153.156975
31
0.0
0
LINE
8
0
6
CONTINUOUS
10
98.287950
20
136.114655
30
0.0
11
94.775190
21
152.427375
31
0.0
0
LINE
8
0
6
CONTINUOUS
10
94.348910
20
135.419045
30
0.0
11
90.901350
21
151.430745
31
0.0
0
LINE
8
0
6
CONTINUOUS
10
90.409860
20
134.723435
30
0.0
11
87.027480
21
150.434115
31
0.0
0
LINE
8
0
6
CONTINUOUS
10
87.526270
20
134.214175
30
0.0
11
84.191630
21
149.704595
31
0.0
0
LINE
8
0
6
CONTINUOUS
10
83.153620
20
149.437525
30
0.0
11
86.470800
21
134.027795
31
0.0
0
LINE
8
0
6
CONTINUOUS
10
104.515300
20
120.286645
30
0.0
11
102.227000
21
136.810305
31
0.0
0
LINE
8
0
6
CONTINUOUS
10
103.449550
20
120.172925
30
0.0
11
101.171540
21
136.623925
31
0.0
0
LINE
8
0
6
CONTINUOUS
10
100.537880
20
119.862255
30
0.0
11
98.287950
21
136.114655
31
0.0
0
LINE
8
0
6
CONTINUOUS
10
96.560460
20
119.437875
30
0.0
11
94.348910
21
135.419045
31
0.0
0
LINE
8
0
6
CONTINUOUS
10
92.583040
20
119.013445
30
0.0
11
90.409860
21
134.723435
31
0.0
0
LINE
8
0
6
CONTINUOUS
10
89.671350
20
118.702775
30
0.0
11
87.526270
21
134.214175
31
0.0
0
LINE
8
0
6
CONTINUOUS
10
86.470800
20
134.027795
30
0.0
11
88.605600
21
118.589105
31
0.0
0
LINE
8
0
6
CONTINUOUS
10
105.780800
20
103.488015
30
0.0
11
104.515300
21
120.286645
31
0.0
0
LINE
8
0
6
CONTINUOUS
10
104.710470
20
103.431975
30
0.0
11
103.449550
21
120.172925
31
0.0
0
LINE
8
0
6
CONTINUOUS
10
101.786280
20
103.278895
30
0.0
11
100.537880
21
119.862255
31
0.0
0
LINE
8
0
6
CONTINUOUS
10
97.791750
20
103.069845
30
0.0
11
96.560460
21
119.437875
31
0.0
0
LINE
8
0
6
CONTINUOUS
10
93.797220
20
102.860765
30
0.0
11
92.583040
21
119.013445
31
0.0
0
LINE
8
0
6
CONTINUOUS
10
90.873010
20
102.707715
30
0.0
11
89.671350
21
118.702775
31
0.0
0
LINE
8
0
6
CONTINUOUS
10
88.605600
20
118.589105
30
0.0
11
89.802670
21
102.651675
31
0.0
0
LINE
8
0
6
CONTINUOUS
10
106.297520
20
85.897605
30
0.0
11
105.780800
21
103.488015
31
0.0
0
LINE
8
0
6
CONTINUOUS
10
105.225860
20
85.897605
30
0.0
11
104.710470
21
103.431975
31
0.0
0
LINE
8
0
6
CONTINUOUS
10
102.298020
20
85.897605
30
0.0
11
101.786280
21
103.278895
31
0.0
0
LINE
8
0
6
CONTINUOUS
10
98.298520
20
85.897605
30
0.0
11
97.791750
21
103.069845
31
0.0
0
LINE
8
0
6
CONTINUOUS
10
94.299020
20
85.897605
30
0.0
11
93.797220
21
102.860765
31
0.0
0
LINE
8
0
6
CONTINUOUS
10
91.371170
20
85.897605
30
0.0
11
90.873010
21
102.707715
31
0.0
0
LINE
8
0
6
CONTINUOUS
10
89.802670
20
102.651675
30
0.0
11
90.299500
21
85.897605
31
0.0
0
LINE
8
0
6
CONTINUOUS
10
94.299020
20
-478.428205
30
0.0
11
98.298483
21
-479.499995
31
0.0
0
LINE
8
0
6
CONTINUOUS
10
102.298020
20
-478.428205
30
0.0
11
105.225860
21
-475.500005
31
0.0
0
LINE
8
0
6
CONTINUOUS
10
90.299500
20
-471.500005
30
0.0
11
91.371170
21
-475.500005
31
0.0
0
LINE
8
0
6
CONTINUOUS
10
90.299500
20
85.897605
30
0.0
11
90.299500
21
-411.107905
31
0.0
0
LINE
8
0
6
CONTINUOUS
10
90.299500
20
-441.375435
30
0.0
11
90.299500
21
-471.500005
31
0.0
0
LINE
8
0
6
CONTINUOUS
10
106.297520
20
-471.499985
30
0.0
11
106.297520
21
-460.164515
31
0.0
0
LINE
8
0
6
CONTINUOUS
10
106.297520
20
-392.259825
30
0.0
11
106.297520
21
85.897605
31
0.0
0
LINE
8
0
6
CONTINUOUS
10
105.225860
20
-475.500005
30
0.0
11
106.297520
21
-471.499985
31
0.0
0
LINE
8
0
6
CONTINUOUS
10
105.225860
20
85.897605
30
0.0
11
105.225860
21
-392.259825
31
0.0
0
LINE
8
0
6
CONTINUOUS
10
105.225860
20
-460.164512
30
0.0
11
105.225860
21
-475.500005
31
0.0
0
LINE
8
0
6
CONTINUOUS
10
94.299020
20
-478.428205
30
0.0
11
94.299020
21
-441.378325
31
0.0
0
LINE
8
0
6
CONTINUOUS
10
94.299020
20
-411.110765
30
0.0
11
94.299020
21
85.897605
31
0.0
0
LINE
8
0
6
CONTINUOUS
10
91.371170
20
-475.500005
30
0.0
11
94.299020
21
-478.428205
31
0.0
0
LINE
8
0
6
CONTINUOUS
10
91.371170
20
85.897605
30
0.0
11
91.371170
21
-411.107905
31
0.0
0
LINE
8
0
6
CONTINUOUS
10
91.371170
20
-441.375435
30
0.0
11
91.371170
21
-475.500005
31
0.0
0
LINE
8
0
6
CONTINUOUS
10
102.298020
20
-478.428205
30
0.0
11
102.298020
21
-460.164502
31
0.0
0
LINE
8
0
6
CONTINUOUS
10
102.298020
20
-392.259825
30
0.0
11
102.298020
21
85.897605
31
0.0
0
LINE
8
0
6
CONTINUOUS
10
98.298520
20
-479.500005
30
0.0
11
102.298020
21
-478.428205
31
0.0
0
LINE
8
0
6
CONTINUOUS
10
98.298520
20
85.897605
30
0.0
11
98.298520
21
-396.764231
31
0.0
0
LINE
8
0
6
CONTINUOUS
10
98.298520
20
-453.880603
30
0.0
11
98.298520
21
-479.499995
31
0.0
0
LINE
8
0
6
CONTINUOUS
10
77.121280
20
231.947675
30
0.0
11
76.886360
21
231.862145
31
0.0
0
LINE
8
0
6
CONTINUOUS
10
77.206780
20
231.712765
30
0.0
11
77.121280
21
231.947675
31
0.0
0
LINE
8
0
6
CONTINUOUS
10
77.962040
20
229.637645
30
0.0
11
77.876530
21
229.872555
31
0.0
0
LINE
8
0
6
CONTINUOUS
10
77.727120
20
229.552195
30
0.0
11
77.962040
21
229.637645
31
0.0
0
LINE
8
0
6
CONTINUOUS
10
77.876530
20
229.872555
30
0.0
11
77.206780
21
231.712765
31
0.0
0
LINE
8
0
6
CONTINUOUS
10
76.886360
20
231.862145
30
0.0
11
76.810479
21
231.834525
31
0.0
0
LINE
8
0
6
CONTINUOUS
10
77.601384
20
229.506428
30
0.0
11
77.727120
21
229.552195
31
0.0
0
LINE
8
0
6
CONTINUOUS
10
42.015590
20
231.553085
30
0.0
11
40.924670
21
228.002665
31
0.0
0
LINE
8
0
6
CONTINUOUS
10
40.924670
20
228.002665
30
0.0
11
40.547410
21
224.307595
31
0.0
0
LINE
8
0
6
CONTINUOUS
10
40.547410
20
224.307595
30
0.0
11
40.898310
21
220.609935
31
0.0
0
LINE
8
0
6
CONTINUOUS
10
40.898310
20
220.609935
30
0.0
11
41.963840
21
217.051745
31
0.0
0
LINE
8
0
6
CONTINUOUS
10
41.963840
20
217.051745
30
0.0
11
43.703110
21
213.769725
31
0.0
0
LINE
8
0
6
CONTINUOUS
10
45.419490
20
231.031535
30
0.0
11
44.126910
21
232.981005
31
0.0
0
LINE
8
0
6
CONTINUOUS
10
43.150850
20
233.658795
30
0.0
11
43.583857
21
233.678867
31
0.0
0
LINE
8
0
6
CONTINUOUS
10
41.418609
20
230.445846
30
0.0
11
41.329670
21
230.280885
31
0.0
0
LINE
8
0
6
CONTINUOUS
10
45.419490
20
231.031535
30
0.0
11
46.994460
21
228.656125
31
0.0
0
LINE
8
0
6
CONTINUOUS
10
48.791320
20
225.946165
30
0.0
11
50.741040
21
223.005495
31
0.0
0
LINE
8
0
6
CONTINUOUS
10
46.994460
20
228.656125
30
0.0
11
48.791320
21
225.946165
31
0.0
0
LINE
8
0
6
CONTINUOUS
10
50.741040
20
223.005495
30
0.0
11
52.845850
21
219.831055
31
0.0
0
LINE
8
0
6
CONTINUOUS
10
42.015590
20
231.553085
30
0.0
11
43.150850
21
233.658795
31
0.0
0
LINE
8
0
6
CONTINUOUS
10
59.562720
20
243.186305
30
0.0
11
57.181100
21
242.960405
31
0.0
0
LINE
8
0
6
CONTINUOUS
10
56.964960
20
242.508665
30
0.0
11
57.425460
21
241.797525
31
0.0
0
LINE
8
0
6
CONTINUOUS
10
63.257940
20
242.808955
30
0.0
11
59.562720
21
243.186305
31
0.0
0
LINE
8
0
6
CONTINUOUS
10
66.808560
20
241.718035
30
0.0
11
63.257940
21
242.808955
31
0.0
0
LINE
8
0
6
CONTINUOUS
10
70.078140
20
239.955255
30
0.0
11
66.808560
21
241.718035
31
0.0
0
LINE
8
0
6
CONTINUOUS
10
72.940990
20
237.588625
30
0.0
11
70.078140
21
239.955255
31
0.0
0
LINE
8
0
6
CONTINUOUS
10
75.287140
20
234.709055
30
0.0
11
72.940990
21
237.588625
31
0.0
0
LINE
8
0
6
CONTINUOUS
10
57.181100
20
242.960405
30
0.0
11
56.964960
21
242.508665
31
0.0
0
LINE
8
0
6
CONTINUOUS
10
63.257930
20
242.808955
30
0.0
11
60.118749
21
243.231748
31
0.0
0
LINE
8
0
6
CONTINUOUS
10
60.067244
20
243.234200
30
0.0
11
59.866670
21
243.215145
31
0.0
0
LINE
8
0
6
CONTINUOUS
10
63.257940
20
242.808955
30
0.0
11
59.866670
21
243.215145
31
0.0
0
LINE
8
0
6
CONTINUOUS
10
60.293010
20
237.472655
30
0.0
11
58.718030
21
239.848065
31
0.0
0
LINE
8
0
6
CONTINUOUS
10
64.039600
20
231.822095
30
0.0
11
62.089870
21
234.762695
31
0.0
0
LINE
8
0
6
CONTINUOUS
10
62.089870
20
234.762695
30
0.0
11
60.293010
21
237.472655
31
0.0
0
LINE
8
0
6
CONTINUOUS
10
66.144400
20
228.647655
30
0.0
11
64.039600
21
231.822095
31
0.0
0
LINE
8
0
6
CONTINUOUS
10
58.718030
20
239.848065
30
0.0
11
57.425460
21
241.797525
31
0.0
0
LINE
8
0
6
CONTINUOUS
10
62.025300
20
205.970045
30
0.0
11
61.564770
21
206.681215
31
0.0
0
LINE
8
0
6
CONTINUOUS
10
52.181680
20
206.760795
30
0.0
11
55.732300
21
205.669755
31
0.0
0
LINE
8
0
6
CONTINUOUS
10
48.912120
20
208.523455
30
0.0
11
52.181680
21
206.760795
31
0.0
0
LINE
8
0
6
CONTINUOUS
10
46.049270
20
210.890055
30
0.0
11
48.912120
21
208.523455
31
0.0
0
LINE
8
0
6
CONTINUOUS
10
43.703110
20
213.769725
30
0.0
11
46.049270
21
210.890055
31
0.0
0
LINE
8
0
6
CONTINUOUS
10
54.950660
20
216.656615
30
0.0
11
52.845850
21
219.831055
31
0.0
0
LINE
8
0
6
CONTINUOUS
10
60.272230
20
208.630645
30
0.0
11
58.697260
21
211.006015
31
0.0
0
LINE
8
0
6
CONTINUOUS
10
61.564770
20
206.681215
30
0.0
11
60.272230
21
208.630645
31
0.0
0
LINE
8
0
6
CONTINUOUS
10
62.025300
20
205.970045
30
0.0
11
61.809150
21
205.518275
31
0.0
0
LINE
8
0
6
CONTINUOUS
10
55.732300
20
205.669755
30
0.0
11
58.760490
21
205.229115
31
0.0
0
LINE
8
0
6
CONTINUOUS
10
54.950660
20
216.656615
30
0.0
11
56.900380
21
213.716015
31
0.0
0
LINE
8
0
6
CONTINUOUS
10
56.900380
20
213.716015
30
0.0
11
58.697260
21
211.006015
31
0.0
0
LINE
8
0
6
CONTINUOUS
10
59.427530
20
205.292435
30
0.0
11
55.732300
21
205.669755
31
0.0
0
LINE
8
0
6
CONTINUOUS
10
61.809150
20
205.518275
30
0.0
11
59.427530
21
205.292435
31
0.0
0
LINE
8
0
6
CONTINUOUS
10
74.701408
20
213.038703
30
0.0
11
75.211970
21
213.656275
31
0.0
0
LINE
8
0
6
CONTINUOUS
10
74.863320
20
215.497785
30
0.0
11
75.339140
21
214.796725
31
0.0
0
LINE
8
0
6
CONTINUOUS
10
76.974660
20
216.925625
30
0.0
11
78.065590
21
220.476115
31
0.0
0
LINE
8
0
6
CONTINUOUS
10
78.065590
20
220.476115
30
0.0
11
78.442830
21
224.171185
31
0.0
0
LINE
8
0
6
CONTINUOUS
10
78.442830
20
224.171185
30
0.0
11
78.091970
21
227.868845
31
0.0
0
LINE
8
0
6
CONTINUOUS
10
78.091970
20
227.868845
30
0.0
11
77.026420
21
231.427045
31
0.0
0
LINE
8
0
6
CONTINUOUS
10
77.026420
20
231.427045
30
0.0
11
75.287140
21
234.709055
31
0.0
0
LINE
8
0
6
CONTINUOUS
10
75.339140
20
214.796725
30
0.0
11
75.839400
21
214.819985
31
0.0
0
LINE
8
0
6
CONTINUOUS
10
77.332370
20
217.589155
30
0.0
11
78.065590
21
220.476115
31
0.0
0
LINE
8
0
6
CONTINUOUS
10
77.271880
20
217.477005
30
0.0
11
78.065590
21
220.476115
31
0.0
0
LINE
8
0
6
CONTINUOUS
10
76.974660
20
216.925625
30
0.0
11
77.271880
21
217.477005
31
0.0
0
LINE
8
0
6
CONTINUOUS
10
73.570780
20
217.447175
30
0.0
11
71.995790
21
219.822585
31
0.0
0
LINE
8
0
6
CONTINUOUS
10
70.198930
20
222.532625
30
0.0
11
68.249190
21
225.473145
31
0.0
0
LINE
8
0
6
CONTINUOUS
10
74.471878
20
213.464458
30
0.0
11
74.953150
21
214.046595
31
0.0
0
LINE
8
0
6
CONTINUOUS
10
71.995790
20
219.822585
30
0.0
11
70.198930
21
222.532625
31
0.0
0
LINE
8
0
6
CONTINUOUS
10
68.249190
20
225.473145
30
0.0
11
66.144400
21
228.647655
31
0.0
0
LINE
8
0
6
CONTINUOUS
10
74.863320
20
215.497785
30
0.0
11
73.570780
21
217.447175
31
0.0
0
LINE
8
0
6
CONTINUOUS
10
76.974660
20
216.925625
30
0.0
11
75.839400
21
214.819985
31
0.0
0
LINE
8
0
6
CONTINUOUS
10
59.866670
20
243.215145
30
0.0
11
59.189640
21
243.150905
31
0.0
0
LINE
8
0
6
CONTINUOUS
10
121.750230
20
-479.499995
30
0.0
11
121.750230
21
-478.945875
31
0.0
0
LINE
8
0
6
CONTINUOUS
10
121.250220
20
-479.499995
30
0.0
11
121.750230
21
-479.499995
31
0.0
0
LINE
8
0
6
CONTINUOUS
10
56.924810
20
-479.499995
30
0.0
11
59.724950
21
-479.499995
31
0.0
0
LINE
8
0
6
CONTINUOUS
10
50.224470
20
-479.500005
30
0.0
11
51.924550
21
-479.500005
31
0.0
0
LINE
8
0
6
CONTINUOUS
10
49.124420
20
-479.500005
30
0.0
11
50.224470
21
-479.500005
31
0.0
0
LINE
8
0
6
CONTINUOUS
10
48.724390
20
-479.500005
30
0.0
11
49.124420
21
-479.500005
31
0.0
0
LINE
8
0
6
CONTINUOUS
10
48.724390
20
-478.945885
30
0.0
11
48.724390
21
-479.500005
31
0.0
0
LINE
8
0
6
CONTINUOUS
10
49.624430
20
479.500015
30
0.0
11
49.124420
21
479.500015
31
0.0
0
LINE
8
0
6
CONTINUOUS
10
49.124420
20
479.500015
30
0.0
11
48.724390
21
479.499935
31
0.0
0
LINE
8
0
6
CONTINUOUS
10
75.254500
20
-427.499965
30
0.0
11
75.150260
21
-427.499965
31
0.0
0
LINE
8
0
6
CONTINUOUS
10
75.150257
20
-427.500025
30
0.0
11
75.254460
21
-427.500025
31
0.0
0
LINE
8
0
6
CONTINUOUS
10
121.750230
20
-478.945875
30
0.0
11
121.750230
21
-460.164565
31
0.0
0
LINE
8
0
6
CONTINUOUS
10
48.724390
20
-465.978075
30
0.0
11
48.724390
21
-478.945885
31
0.0
0
LINE
8
0
6
CONTINUOUS
10
75.254500
20
-427.500025
30
0.0
11
75.150260
21
-427.500025
31
0.0
0
LINE
8
0
6
CONTINUOUS
10
59.724950
20
-479.499995
30
0.0
11
121.250220
21
-479.499995
31
0.0
0
LINE
8
0
6
CONTINUOUS
10
49.224420
20
427.499895
30
0.0
11
48.724390
21
426.999865
31
0.0
0
LINE
8
0
6
CONTINUOUS
10
70.725520
20
426.999865
30
0.0
11
70.225480
21
427.499895
31
0.0
0
LINE
8
0
6
CONTINUOUS
10
56.924810
20
-479.499995
30
0.0
11
54.224680
21
-479.499995
31
0.0
0
LINE
8
0
6
CONTINUOUS
10
54.224680
20
-479.499995
30
0.0
11
51.924550
21
-479.500005
31
0.0
0
LINE
8
0
6
CONTINUOUS
10
121.750230
20
479.500015
30
0.0
11
121.250220
21
479.500015
31
0.0
0
LINE
8
0
6
CONTINUOUS
10
121.750230
20
478.791695
30
0.0
11
121.750230
21
479.500015
31
0.0
0
LINE
8
0
6
CONTINUOUS
10
59.724950
20
479.500015
30
0.0
11
56.924810
21
479.500015
31
0.0
0
LINE
8
0
6
CONTINUOUS
10
56.924810
20
479.500015
30
0.0
11
54.224680
21
479.500015
31
0.0
0
LINE
8
0
6
CONTINUOUS
10
54.224680
20
479.500015
30
0.0
11
51.924550
21
479.500015
31
0.0
0
LINE
8
0
6
CONTINUOUS
10
51.924550
20
479.500015
30
0.0
11
50.224470
21
479.499935
31
0.0
0
LINE
8
0
6
CONTINUOUS
10
50.224470
20
479.499935
30
0.0
11
49.124420
21
479.499935
31
0.0
0
LINE
8
0
6
CONTINUOUS
10
48.724390
20
479.499935
30
0.0
11
48.724390
21
478.791625
31
0.0
0
LINE
8
0
6
CONTINUOUS
10
49.124420
20
479.499935
30
0.0
11
48.724390
21
479.499935
31
0.0
0
LINE
8
0
6
CONTINUOUS
10
50.624490
20
479.500015
30
0.0
11
49.624430
21
479.500015
31
0.0
0
LINE
8
0
6
CONTINUOUS
10
121.750230
20
427.499965
30
0.0
11
121.750230
21
428.207665
31
0.0
0
LINE
8
0
6
CONTINUOUS
10
121.250220
20
427.499965
30
0.0
11
121.750230
21
427.499965
31
0.0
0
LINE
8
0
6
CONTINUOUS
10
121.750230
20
428.207665
30
0.0
11
121.750230
21
478.791695
31
0.0
0
LINE
8
0
6
CONTINUOUS
10
56.924810
20
427.499965
30
0.0
11
59.724950
21
427.499965
31
0.0
0
LINE
8
0
6
CONTINUOUS
10
54.224680
20
427.499965
30
0.0
11
56.924810
21
427.499965
31
0.0
0
LINE
8
0
6
CONTINUOUS
10
51.924550
20
427.499965
30
0.0
11
54.224680
21
427.499965
31
0.0
0
LINE
8
0
6
CONTINUOUS
10
50.224470
20
427.499895
30
0.0
11
51.924550
21
427.499965
31
0.0
0
LINE
8
0
6
CONTINUOUS
10
49.124420
20
427.499895
30
0.0
11
50.224470
21
427.499895
31
0.0
0
LINE
8
0
6
CONTINUOUS
10
48.724390
20
428.207595
30
0.0
11
48.724390
21
427.499895
31
0.0
0
LINE
8
0
6
CONTINUOUS
10
48.724390
20
427.499895
30
0.0
11
49.124420
21
427.499895
31
0.0
0
LINE
8
0
6
CONTINUOUS
10
48.724390
20
478.791625
30
0.0
11
48.724390
21
428.207595
31
0.0
0
LINE
8
0
6
CONTINUOUS
10
121.250220
20
479.500015
30
0.0
11
59.724950
21
479.500015
31
0.0
0
LINE
8
0
6
CONTINUOUS
10
59.724950
20
427.499965
30
0.0
11
121.250220
21
427.499965
31
0.0
0
LINE
8
0
6
CONTINUOUS
10
59.724950
20
426.999935
30
0.0
11
56.924810
21
426.999935
31
0.0
0
LINE
8
0
6
CONTINUOUS
10
56.924810
20
426.999935
30
0.0
11
54.224680
21
426.999935
31
0.0
0
LINE
8
0
6
CONTINUOUS
10
54.224680
20
426.999935
30
0.0
11
51.924550
21
426.999935
31
0.0
0
LINE
8
0
6
CONTINUOUS
10
51.924550
20
426.999935
30
0.0
11
50.224470
21
426.999865
31
0.0
0
LINE
8
0
6
CONTINUOUS
10
50.224470
20
426.999865
30
0.0
11
49.124420
21
426.999865
31
0.0
0
LINE
8
0
6
CONTINUOUS
10
48.724390
20
426.999865
30
0.0
11
48.724390
21
426.686745
31
0.0
0
LINE
8
0
6
CONTINUOUS
10
49.124420
20
426.999865
30
0.0
11
48.724390
21
426.999865
31
0.0
0
LINE
8
0
6
CONTINUOUS
10
62.525110
20
426.999935
30
0.0
11
59.724950
21
426.999935
31
0.0
0
LINE
8
0
6
CONTINUOUS
10
65.225230
20
426.999935
30
0.0
11
62.525110
21
426.999935
31
0.0
0
LINE
8
0
6
CONTINUOUS
10
67.525360
20
426.999935
30
0.0
11
65.225230
21
426.999935
31
0.0
0
LINE
8
0
6
CONTINUOUS
10
69.225440
20
426.999865
30
0.0
11
67.525360
21
426.999935
31
0.0
0
LINE
8
0
6
CONTINUOUS
10
70.325490
20
426.999865
30
0.0
11
69.225440
21
426.999865
31
0.0
0
LINE
8
0
6
CONTINUOUS
10
70.725520
20
426.999865
30
0.0
11
70.325490
21
426.999865
31
0.0
0
LINE
8
0
6
CONTINUOUS
10
70.725520
20
426.686745
30
0.0
11
70.725520
21
426.999865
31
0.0
0
LINE
8
0
6
CONTINUOUS
10
48.724390
20
426.686745
30
0.0
11
48.724390
21
426.144915
31
0.0
0
LINE
8
0
6
CONTINUOUS
10
70.725520
20
426.144915
30
0.0
11
70.725520
21
426.686745
31
0.0
0
LINE
8
0
6
CONTINUOUS
10
48.724390
20
426.144915
30
0.0
11
48.724390
21
262.002505
31
0.0
0
LINE
8
0
6
CONTINUOUS
10
48.724390
20
208.678510
30
0.0
11
48.724390
21
-401.343028
31
0.0
0
LINE
8
0
6
CONTINUOUS
10
70.725520
20
-409.381157
30
0.0
11
70.725520
21
184.626806
31
0.0
0
LINE
8
0
6
CONTINUOUS
10
70.725520
20
239.420071
30
0.0
11
70.725520
21
426.144915
31
0.0
0
LINE
8
0
6
CONTINUOUS
10
60.118749
20
243.231748
30
0.0
11
60.067244
21
243.234200
31
0.0
0
LINE
8
0
6
CONTINUOUS
10
43.623124
20
233.623197
30
0.0
11
43.583857
21
233.678867
31
0.0
0
LINE
8
0
6
CONTINUOUS
10
44.093753
20
232.956103
30
0.0
11
43.623124
21
233.623197
31
0.0
0
LINE
8
0
6
CONTINUOUS
10
-42.618686
20
337.400256
30
0.0
11
-40.412855
21
338.633483
31
0.0
0
ENDSEC
0
EOF
