999
Erzeugt mit innoplus bad 
0
SECTION
2
HEADER
9
$ACADVER
1
AC1009
9
$DWGCODEPAGE
3
ISO8859-1
0
ENDSEC
0
SECTION
2
TABLES
0
TABLE
2
LAYER
70
1
0
LAYER
2
0
70
0
62
7
6
CONTINUOUS
0
ENDTAB
0
ENDSEC
0
SECTION
2
ENTITIES
0
LINE
8
0
6
CONTINUOUS
10
175.313425
20
-400.292325
30
0.0
11
171.596625
21
-400.293255
31
0.0
0
LINE
8
0
6
CONTINUOUS
10
163.273435
20
-442.358585
30
0.0
11
171.597445
21
-442.360655
31
0.0
0
LINE
8
0
6
CONTINUOUS
10
171.596625
20
-400.293255
30
0.0
11
163.275295
21
-400.295315
31
0.0
0
LINE
8
0
6
CONTINUOUS
10
171.597445
20
-442.360655
30
0.0
11
175.315775
21
-442.361575
31
0.0
0
LINE
8
0
6
CONTINUOUS
10
162.769055
20
-442.753515
30
0.0
11
165.707775
21
-442.754755
31
0.0
0
LINE
8
0
6
CONTINUOUS
10
168.646445
20
-442.755995
30
0.0
11
171.583185
21
-442.745575
31
0.0
0
LINE
8
0
6
CONTINUOUS
10
168.646445
20
-442.755995
30
0.0
11
172.988485
21
-442.581315
31
0.0
0
LINE
8
0
6
CONTINUOUS
10
165.707775
20
-442.754755
30
0.0
11
168.646445
21
-442.755995
31
0.0
0
LINE
8
0
6
CONTINUOUS
10
172.988485
20
-442.581315
30
0.0
11
175.803725
21
-442.209645
31
0.0
0
LINE
8
0
6
CONTINUOUS
10
172.637765
20
-442.590505
30
0.0
11
172.988485
21
-442.581315
31
0.0
0
LINE
8
0
6
CONTINUOUS
10
167.404065
20
-442.629155
30
0.0
11
172.637765
21
-442.590505
31
0.0
0
LINE
8
0
6
CONTINUOUS
10
163.275295
20
-400.295315
30
0.0
11
30.462875
21
-400.328305
31
0.0
0
LINE
8
0
6
CONTINUOUS
10
30.464735
20
-442.325595
30
0.0
11
87.779508
21
-442.339832
31
0.0
0
LINE
8
0
6
CONTINUOUS
10
105.958507
20
-442.344348
30
0.0
11
163.273435
21
-442.358585
31
0.0
0
LINE
8
0
6
CONTINUOUS
10
30.969015
20
-442.753575
30
0.0
11
86.719770
21
-442.753550
31
0.0
0
LINE
8
0
6
CONTINUOUS
10
107.018390
20
-442.753540
30
0.0
11
162.769055
21
-442.753515
31
0.0
0
LINE
8
0
6
CONTINUOUS
10
179.556485
20
-400.291275
30
0.0
11
175.313425
21
-400.292325
31
0.0
0
LINE
8
0
6
CONTINUOUS
10
175.315775
20
-442.361575
30
0.0
11
179.557295
21
-442.362625
31
0.0
0
LINE
8
0
6
CONTINUOUS
10
183.798785
20
-442.363685
30
0.0
11
187.829825
21
-442.364685
31
0.0
0
LINE
8
0
6
CONTINUOUS
10
179.557295
20
-442.362625
30
0.0
11
183.798785
21
-442.363685
31
0.0
0
LINE
8
0
6
CONTINUOUS
10
187.829975
20
-400.289225
30
0.0
11
183.797385
21
-400.290225
31
0.0
0
LINE
8
0
6
CONTINUOUS
10
183.797385
20
-400.290225
30
0.0
11
179.556485
21
-400.291275
31
0.0
0
LINE
8
0
6
CONTINUOUS
10
188.869025
20
-431.692115
30
0.0
11
188.869025
21
-426.835875
31
0.0
0
LINE
8
0
6
CONTINUOUS
10
188.869025
20
-435.907955
30
0.0
11
188.869025
21
-431.692115
31
0.0
0
LINE
8
0
6
CONTINUOUS
10
22.141555
20
-400.330375
30
0.0
11
18.422805
21
-400.331295
31
0.0
0
LINE
8
0
6
CONTINUOUS
10
22.140705
20
-442.323535
30
0.0
11
30.464735
21
-442.325595
31
0.0
0
LINE
8
0
6
CONTINUOUS
10
30.462875
20
-400.328305
30
0.0
11
22.141555
21
-400.330375
31
0.0
0
LINE
8
0
6
CONTINUOUS
10
18.422775
20
-442.322605
30
0.0
11
22.140705
21
-442.323535
31
0.0
0
LINE
8
0
6
CONTINUOUS
10
28.030315
20
-442.754825
30
0.0
11
30.969015
21
-442.753575
31
0.0
0
LINE
8
0
6
CONTINUOUS
10
22.154905
20
-442.745575
30
0.0
11
25.091655
21
-442.756075
31
0.0
0
LINE
8
0
6
CONTINUOUS
10
25.091655
20
-442.756075
30
0.0
11
28.030315
21
-442.754825
31
0.0
0
LINE
8
0
6
CONTINUOUS
10
20.749585
20
-442.581335
30
0.0
11
25.091655
21
-442.756075
31
0.0
0
LINE
8
0
6
CONTINUOUS
10
17.934375
20
-442.209615
30
0.0
11
20.749585
21
-442.581335
31
0.0
0
LINE
8
0
6
CONTINUOUS
10
20.749585
20
-442.581335
30
0.0
11
21.100315
21
-442.590515
31
0.0
0
LINE
8
0
6
CONTINUOUS
10
21.100315
20
-442.590515
30
0.0
11
26.334015
21
-442.629185
31
0.0
0
LINE
8
0
6
CONTINUOUS
10
18.422805
20
-400.331295
30
0.0
11
14.179385
21
-400.332355
31
0.0
0
LINE
8
0
6
CONTINUOUS
10
14.181315
20
-442.321555
30
0.0
11
18.422775
21
-442.322605
31
0.0
0
LINE
8
0
6
CONTINUOUS
10
5.908835
20
-442.319495
30
0.0
11
9.939815
21
-442.320495
31
0.0
0
LINE
8
0
6
CONTINUOUS
10
9.939815
20
-442.320495
30
0.0
11
14.181315
21
-442.321555
31
0.0
0
LINE
8
0
6
CONTINUOUS
10
9.939765
20
-400.333405
30
0.0
11
5.908015
21
-400.334405
31
0.0
0
LINE
8
0
6
CONTINUOUS
10
14.179385
20
-400.332355
30
0.0
11
9.939765
21
-400.333405
31
0.0
0
LINE
8
0
6
CONTINUOUS
10
4.869065
20
-400.334665
30
0.0
11
4.869065
21
-401.398345
31
0.0
0
LINE
8
0
6
CONTINUOUS
10
5.908015
20
-400.334405
30
0.0
11
4.869065
21
-400.334665
31
0.0
0
LINE
8
0
6
CONTINUOUS
10
4.869065
20
-401.398345
30
0.0
11
4.869065
21
-403.548995
31
0.0
0
LINE
8
0
6
CONTINUOUS
10
188.869025
20
-400.288965
30
0.0
11
187.829975
21
-400.289225
31
0.0
0
LINE
8
0
6
CONTINUOUS
10
188.869025
20
-401.354965
30
0.0
11
188.869025
21
-400.288965
31
0.0
0
LINE
8
0
6
CONTINUOUS
10
188.869025
20
-411.005985
30
0.0
11
188.869025
21
-406.868315
31
0.0
0
LINE
8
0
6
CONTINUOUS
10
187.829825
20
-442.364685
30
0.0
11
188.869025
21
-442.364945
31
0.0
0
LINE
8
0
6
CONTINUOUS
10
188.869025
20
-442.364945
30
0.0
11
188.869025
21
-441.326135
31
0.0
0
LINE
8
0
6
CONTINUOUS
10
188.869025
20
-426.835875
30
0.0
11
188.869025
21
-421.413815
31
0.0
0
LINE
8
0
6
CONTINUOUS
10
188.869025
20
-406.868315
30
0.0
11
188.869025
21
-403.510295
31
0.0
0
LINE
8
0
6
CONTINUOUS
10
188.869025
20
-441.326135
30
0.0
11
188.869025
21
-439.175315
31
0.0
0
LINE
8
0
6
CONTINUOUS
10
188.869025
20
-421.413815
30
0.0
11
188.869025
21
-416.070325
31
0.0
0
LINE
8
0
6
CONTINUOUS
10
188.869025
20
-403.510295
30
0.0
11
188.869025
21
-401.354965
31
0.0
0
LINE
8
0
6
CONTINUOUS
10
188.869025
20
-439.175315
30
0.0
11
188.869025
21
-435.907955
31
0.0
0
LINE
8
0
6
CONTINUOUS
10
188.869025
20
-416.070325
30
0.0
11
188.869025
21
-411.005985
31
0.0
0
LINE
8
0
6
CONTINUOUS
10
4.869065
20
-426.823905
30
0.0
11
4.869065
21
-431.669595
31
0.0
0
LINE
8
0
6
CONTINUOUS
10
4.869065
20
-406.899725
30
0.0
11
4.869065
21
-411.028405
31
0.0
0
LINE
8
0
6
CONTINUOUS
10
4.869065
20
-441.282695
30
0.0
11
4.869065
21
-442.319245
31
0.0
0
LINE
8
0
6
CONTINUOUS
10
4.869065
20
-442.319245
30
0.0
11
5.908835
21
-442.319495
31
0.0
0
LINE
8
0
6
CONTINUOUS
10
4.869065
20
-421.413625
30
0.0
11
4.869065
21
-426.823905
31
0.0
0
LINE
8
0
6
CONTINUOUS
10
4.869065
20
-403.548995
30
0.0
11
4.869065
21
-406.899725
31
0.0
0
LINE
8
0
6
CONTINUOUS
10
4.869065
20
-439.136545
30
0.0
11
4.869065
21
-441.282695
31
0.0
0
LINE
8
0
6
CONTINUOUS
10
4.869065
20
-416.081745
30
0.0
11
4.869065
21
-421.413625
31
0.0
0
LINE
8
0
6
CONTINUOUS
10
4.869065
20
-431.669595
30
0.0
11
4.869065
21
-435.876275
31
0.0
0
LINE
8
0
6
CONTINUOUS
10
4.869065
20
-435.876275
30
0.0
11
4.869065
21
-439.136545
31
0.0
0
LINE
8
0
6
CONTINUOUS
10
4.869065
20
-411.028405
30
0.0
11
4.869065
21
-416.081745
31
0.0
0
LINE
8
0
6
CONTINUOUS
10
172.104715
20
-392.259825
30
0.0
11
165.463975
21
-392.914325
31
0.0
0
LINE
8
0
6
CONTINUOUS
10
165.463975
20
-392.914325
30
0.0
11
159.061995
21
-394.815575
31
0.0
0
LINE
8
0
6
CONTINUOUS
10
159.061995
20
-394.815575
30
0.0
11
153.123525
21
-398.024885
31
0.0
0
LINE
8
0
6
CONTINUOUS
10
153.123525
20
-398.024885
30
0.0
11
150.386004
21
-400.298517
31
0.0
0
LINE
8
0
6
CONTINUOUS
10
142.604563
20
-442.753524
30
0.0
11
143.938745
21
-445.218685
31
0.0
0
LINE
8
0
6
CONTINUOUS
10
143.938745
20
-445.218685
30
0.0
11
148.160495
21
-450.384545
31
0.0
0
LINE
8
0
6
CONTINUOUS
10
148.160495
20
-450.384545
30
0.0
11
153.352955
21
-454.536075
31
0.0
0
LINE
8
0
6
CONTINUOUS
10
153.352955
20
-454.536075
30
0.0
11
159.176215
21
-457.613995
31
0.0
0
LINE
8
0
6
CONTINUOUS
10
159.176215
20
-457.613995
30
0.0
11
165.470065
21
-459.558875
31
0.0
0
LINE
8
0
6
CONTINUOUS
10
165.470065
20
-459.558875
30
0.0
11
172.145215
21
-460.164495
31
0.0
0
LINE
8
0
6
CONTINUOUS
10
172.145215
20
-460.164495
30
0.0
11
178.687195
21
-459.505005
31
0.0
0
LINE
8
0
6
CONTINUOUS
10
178.687195
20
-459.505005
30
0.0
11
184.998755
21
-457.643495
31
0.0
0
LINE
8
0
6
CONTINUOUS
10
184.998755
20
-457.643495
30
0.0
11
190.901285
21
-454.468595
31
0.0
0
LINE
8
0
6
CONTINUOUS
10
190.901285
20
-454.468595
30
0.0
11
195.988465
21
-450.295775
31
0.0
0
LINE
8
0
6
CONTINUOUS
10
195.988465
20
-450.295775
30
0.0
11
200.219535
21
-445.244345
31
0.0
0
LINE
8
0
6
CONTINUOUS
10
200.219535
20
-445.244345
30
0.0
11
201.656340
21
-442.569302
31
0.0
0
LINE
8
0
6
CONTINUOUS
10
193.372538
20
-399.969009
30
0.0
11
191.049565
21
-398.067765
31
0.0
0
LINE
8
0
6
CONTINUOUS
10
191.049565
20
-398.067765
30
0.0
11
185.191805
21
-394.896995
31
0.0
0
LINE
8
0
6
CONTINUOUS
10
185.191805
20
-394.896995
30
0.0
11
178.761915
21
-392.875825
31
0.0
0
LINE
8
0
6
CONTINUOUS
10
178.761915
20
-392.875825
30
0.0
11
172.104715
21
-392.259825
31
0.0
0
LINE
8
0
6
CONTINUOUS
10
172.121835
20
-392.887195
30
0.0
11
165.577315
21
-393.531615
31
0.0
0
LINE
8
0
6
CONTINUOUS
10
165.577315
20
-393.531615
30
0.0
11
159.282795
21
-395.437525
31
0.0
0
LINE
8
0
6
CONTINUOUS
10
159.282795
20
-395.437525
30
0.0
11
153.492205
21
-398.536895
31
0.0
0
LINE
8
0
6
CONTINUOUS
10
153.492205
20
-398.536895
30
0.0
11
151.348846
21
-400.298277
31
0.0
0
LINE
8
0
6
CONTINUOUS
10
143.028809
20
-442.753524
30
0.0
11
144.259065
21
-445.037415
31
0.0
0
LINE
8
0
6
CONTINUOUS
10
144.259065
20
-445.037415
30
0.0
11
148.423935
21
-450.120795
31
0.0
0
LINE
8
0
6
CONTINUOUS
10
148.423935
20
-450.120795
30
0.0
11
153.525755
21
-454.247685
31
0.0
0
LINE
8
0
6
CONTINUOUS
10
153.525755
20
-454.247685
30
0.0
11
159.318605
21
-457.324695
31
0.0
0
LINE
8
0
6
CONTINUOUS
10
159.318605
20
-457.324695
30
0.0
11
165.591865
21
-459.240505
31
0.0
0
LINE
8
0
6
CONTINUOUS
10
165.591865
20
-459.240505
30
0.0
11
172.120665
21
-459.854815
31
0.0
0
LINE
8
0
6
CONTINUOUS
10
172.120665
20
-459.854815
30
0.0
11
178.641065
21
-459.204705
31
0.0
0
LINE
8
0
6
CONTINUOUS
10
178.641065
20
-459.204705
30
0.0
11
184.920815
21
-457.324205
31
0.0
0
LINE
8
0
6
CONTINUOUS
10
184.920815
20
-457.324205
30
0.0
11
190.699335
21
-454.224225
31
0.0
0
LINE
8
0
6
CONTINUOUS
10
190.699335
20
-454.224225
30
0.0
11
195.768805
21
-450.068265
31
0.0
0
LINE
8
0
6
CONTINUOUS
10
195.768805
20
-450.068265
30
0.0
11
199.956365
21
-445.018135
31
0.0
0
LINE
8
0
6
CONTINUOUS
10
199.956365
20
-445.018135
30
0.0
11
201.267465
21
-442.572119
31
0.0
0
LINE
8
0
6
CONTINUOUS
10
192.469157
20
-399.960614
30
0.0
11
190.745735
21
-398.546055
31
0.0
0
LINE
8
0
6
CONTINUOUS
10
190.745735
20
-398.546055
30
0.0
11
184.949415
21
-395.443025
31
0.0
0
LINE
8
0
6
CONTINUOUS
10
184.949415
20
-395.443025
30
0.0
11
178.667135
21
-393.528745
31
0.0
0
LINE
8
0
6
CONTINUOUS
10
178.667135
20
-393.528745
30
0.0
11
172.121835
21
-392.887195
31
0.0
0
LINE
8
0
6
CONTINUOUS
10
172.145215
20
-460.164495
30
0.0
11
165.470065
21
-459.558875
31
0.0
0
LINE
8
0
6
CONTINUOUS
10
165.470045
20
-459.558875
30
0.0
11
172.145205
21
-460.164565
31
0.0
0
LINE
8
0
6
CONTINUOUS
10
28.274115
20
-392.914325
30
0.0
11
21.633375
21
-392.259825
31
0.0
0
LINE
8
0
6
CONTINUOUS
10
34.676095
20
-394.815575
30
0.0
11
28.274115
21
-392.914325
31
0.0
0
LINE
8
0
6
CONTINUOUS
10
40.614565
20
-398.024885
30
0.0
11
34.676095
21
-394.815575
31
0.0
0
LINE
8
0
6
CONTINUOUS
10
43.384087
20
-400.325095
30
0.0
11
40.614565
21
-398.024885
31
0.0
0
LINE
8
0
6
CONTINUOUS
10
49.799345
20
-445.218685
30
0.0
11
51.133504
21
-442.753566
31
0.0
0
LINE
8
0
6
CONTINUOUS
10
45.577595
20
-450.384545
30
0.0
11
49.799345
21
-445.218685
31
0.0
0
LINE
8
0
6
CONTINUOUS
10
40.385135
20
-454.536075
30
0.0
11
45.577595
21
-450.384545
31
0.0
0
LINE
8
0
6
CONTINUOUS
10
34.561875
20
-457.613995
30
0.0
11
40.385135
21
-454.536075
31
0.0
0
LINE
8
0
6
CONTINUOUS
10
28.268025
20
-459.558875
30
0.0
11
34.561875
21
-457.613995
31
0.0
0
LINE
8
0
6
CONTINUOUS
10
21.592875
20
-460.164495
30
0.0
11
28.268025
21
-459.558875
31
0.0
0
LINE
8
0
6
CONTINUOUS
10
15.050895
20
-459.505005
30
0.0
11
21.592875
21
-460.164495
31
0.0
0
LINE
8
0
6
CONTINUOUS
10
8.739335
20
-457.643495
30
0.0
11
15.050895
21
-459.505005
31
0.0
0
LINE
8
0
6
CONTINUOUS
10
2.836805
20
-454.468595
30
0.0
11
8.739335
21
-457.643495
31
0.0
0
LINE
8
0
6
CONTINUOUS
10
-2.250375
20
-450.295775
30
0.0
11
2.836805
21
-454.468595
31
0.0
0
LINE
8
0
6
CONTINUOUS
10
-6.481445
20
-445.244345
30
0.0
11
-2.250375
21
-450.295775
31
0.0
0
LINE
8
0
6
CONTINUOUS
10
-7.918250
20
-442.569303
30
0.0
11
-6.481445
21
-445.244345
31
0.0
0
LINE
8
0
6
CONTINUOUS
10
2.688525
20
-398.067765
30
0.0
11
0.365553
21
-399.969008
31
0.0
0
LINE
8
0
6
CONTINUOUS
10
8.546285
20
-394.896995
30
0.0
11
2.688525
21
-398.067765
31
0.0
0
LINE
8
0
6
CONTINUOUS
10
14.976175
20
-392.875825
30
0.0
11
8.546285
21
-394.896995
31
0.0
0
LINE
8
0
6
CONTINUOUS
10
21.633375
20
-392.259825
30
0.0
11
14.976175
21
-392.875825
31
0.0
0
LINE
8
0
6
CONTINUOUS
10
28.160775
20
-393.531615
30
0.0
11
21.616255
21
-392.887195
31
0.0
0
LINE
8
0
6
CONTINUOUS
10
34.455295
20
-395.437525
30
0.0
11
28.160775
21
-393.531615
31
0.0
0
LINE
8
0
6
CONTINUOUS
10
40.245885
20
-398.536895
30
0.0
11
34.455295
21
-395.437525
31
0.0
0
LINE
8
0
6
CONTINUOUS
10
42.422169
20
-400.325334
30
0.0
11
40.245885
21
-398.536895
31
0.0
0
LINE
8
0
6
CONTINUOUS
10
49.479025
20
-445.037415
30
0.0
11
50.709258
21
-442.753566
31
0.0
0
LINE
8
0
6
CONTINUOUS
10
45.314155
20
-450.120795
30
0.0
11
49.479025
21
-445.037415
31
0.0
0
LINE
8
0
6
CONTINUOUS
10
40.212335
20
-454.247685
30
0.0
11
45.314155
21
-450.120795
31
0.0
0
LINE
8
0
6
CONTINUOUS
10
34.419485
20
-457.324695
30
0.0
11
40.212335
21
-454.247685
31
0.0
0
LINE
8
0
6
CONTINUOUS
10
28.146225
20
-459.240505
30
0.0
11
34.419485
21
-457.324695
31
0.0
0
LINE
8
0
6
CONTINUOUS
10
21.617425
20
-459.854815
30
0.0
11
28.146225
21
-459.240505
31
0.0
0
LINE
8
0
6
CONTINUOUS
10
15.097025
20
-459.204705
30
0.0
11
21.617425
21
-459.854815
31
0.0
0
LINE
8
0
6
CONTINUOUS
10
8.817275
20
-457.324205
30
0.0
11
15.097025
21
-459.204705
31
0.0
0
LINE
8
0
6
CONTINUOUS
10
3.038755
20
-454.224225
30
0.0
11
8.817275
21
-457.324205
31
0.0
0
LINE
8
0
6
CONTINUOUS
10
-2.030715
20
-450.068265
30
0.0
11
3.038755
21
-454.224225
31
0.0
0
LINE
8
0
6
CONTINUOUS
10
-6.218275
20
-445.018135
30
0.0
11
-2.030715
21
-450.068265
31
0.0
0
LINE
8
0
6
CONTINUOUS
10
-7.529375
20
-442.572119
30
0.0
11
-6.218275
21
-445.018135
31
0.0
0
LINE
8
0
6
CONTINUOUS
10
2.992355
20
-398.546055
30
0.0
11
1.268934
21
-399.960614
31
0.0
0
LINE
8
0
6
CONTINUOUS
10
8.788675
20
-395.443025
30
0.0
11
2.992355
21
-398.546055
31
0.0
0
LINE
8
0
6
CONTINUOUS
10
15.070955
20
-393.528745
30
0.0
11
8.788675
21
-395.443025
31
0.0
0
LINE
8
0
6
CONTINUOUS
10
21.616255
20
-392.887195
30
0.0
11
15.070955
21
-393.528745
31
0.0
0
LINE
8
0
6
CONTINUOUS
10
21.592885
20
-460.164565
30
0.0
11
28.268045
21
-459.558875
31
0.0
0
LINE
8
0
6
CONTINUOUS
10
28.268025
20
-459.558875
30
0.0
11
21.592875
21
-460.164495
31
0.0
0
LINE
8
0
6
CONTINUOUS
10
208.809675
20
-442.517497
30
0.0
11
208.809675
21
-444.099295
31
0.0
0
LINE
8
0
6
CONTINUOUS
10
218.724875
20
-444.099295
30
0.0
11
218.724875
21
-442.445691
31
0.0
0
LINE
8
0
6
CONTINUOUS
10
217.272825
20
-445.912435
30
0.0
11
217.272825
21
-442.456207
31
0.0
0
LINE
8
0
6
CONTINUOUS
10
215.664455
20
-442.467855
30
0.0
11
215.664455
21
-446.468275
31
0.0
0
LINE
8
0
6
CONTINUOUS
10
211.870085
20
-446.896745
30
0.0
11
213.767265
21
-447.091935
31
0.0
0
LINE
8
0
6
CONTINUOUS
10
211.870085
20
-446.896745
30
0.0
11
211.870085
21
-446.468275
31
0.0
0
LINE
8
0
6
CONTINUOUS
10
210.261725
20
-446.340905
30
0.0
11
211.870085
21
-446.896745
31
0.0
0
LINE
8
0
6
CONTINUOUS
10
209.187055
20
-445.509035
30
0.0
11
210.261725
21
-446.340905
31
0.0
0
LINE
8
0
6
CONTINUOUS
10
208.809675
20
-444.527765
30
0.0
11
209.187055
21
-445.509035
31
0.0
0
LINE
8
0
6
CONTINUOUS
10
208.809675
20
-444.099295
30
0.0
11
208.809675
21
-444.527765
31
0.0
0
LINE
8
0
6
CONTINUOUS
10
218.724875
20
-444.527765
30
0.0
11
218.724875
21
-444.099295
31
0.0
0
LINE
8
0
6
CONTINUOUS
10
218.347475
20
-445.509035
30
0.0
11
218.724875
21
-444.527765
31
0.0
0
LINE
8
0
6
CONTINUOUS
10
217.272825
20
-446.340905
30
0.0
11
218.347475
21
-445.509035
31
0.0
0
LINE
8
0
6
CONTINUOUS
10
217.272825
20
-446.340905
30
0.0
11
217.272825
21
-445.912435
31
0.0
0
LINE
8
0
6
CONTINUOUS
10
215.664455
20
-446.896745
30
0.0
11
217.272825
21
-446.340905
31
0.0
0
LINE
8
0
6
CONTINUOUS
10
215.664455
20
-446.896745
30
0.0
11
215.664455
21
-446.468275
31
0.0
0
LINE
8
0
6
CONTINUOUS
10
213.767265
20
-447.091935
30
0.0
11
215.664455
21
-446.896745
31
0.0
0
LINE
8
0
6
CONTINUOUS
10
213.767265
20
-446.663455
30
0.0
11
213.767265
21
-447.091935
31
0.0
0
LINE
8
0
6
CONTINUOUS
10
213.767265
20
-446.663455
30
0.0
11
213.767265
21
-442.481594
31
0.0
0
LINE
8
0
6
CONTINUOUS
10
211.870085
20
-442.495334
30
0.0
11
211.870085
21
-446.468275
31
0.0
0
LINE
8
0
6
CONTINUOUS
10
244.434895
20
-405.089765
30
0.0
11
245.354445
21
-405.090915
31
0.0
0
LINE
8
0
6
CONTINUOUS
10
245.354445
20
-405.090915
30
0.0
11
245.354505
21
-398.712885
31
0.0
0
LINE
8
0
6
CONTINUOUS
10
245.354445
20
-405.090915
30
0.0
11
244.434895
21
-405.089765
31
0.0
0
LINE
8
0
6
CONTINUOUS
10
245.354445
20
-406.673285
30
0.0
11
245.354445
21
-405.090915
31
0.0
0
LINE
8
0
6
CONTINUOUS
10
224.141435
20
-394.691095
30
0.0
11
224.132745
21
-395.792705
31
0.0
0
LINE
8
0
6
CONTINUOUS
10
224.372235
20
-394.687275
30
0.0
11
244.490515
21
-394.685825
31
0.0
0
LINE
8
0
6
CONTINUOUS
10
244.488345
20
-394.268655
30
0.0
11
224.370085
21
-394.270105
31
0.0
0
LINE
8
0
6
CONTINUOUS
10
224.363175
20
-397.228205
30
0.0
11
244.481465
21
-397.224815
31
0.0
0
LINE
8
0
6
CONTINUOUS
10
244.487995
20
-395.751385
30
0.0
11
224.369715
21
-395.753795
31
0.0
0
LINE
8
0
6
CONTINUOUS
10
245.354505
20
-398.712885
30
0.0
11
245.354495
21
-397.225885
31
0.0
0
LINE
8
0
6
CONTINUOUS
10
245.354495
20
-397.225885
30
0.0
11
245.354495
21
-395.751955
31
0.0
0
LINE
8
0
6
CONTINUOUS
10
244.481465
20
-397.224815
30
0.0
11
245.354495
21
-397.225885
31
0.0
0
LINE
8
0
6
CONTINUOUS
10
245.354495
20
-395.751955
30
0.0
11
245.354495
21
-394.685905
31
0.0
0
LINE
8
0
6
CONTINUOUS
10
244.487995
20
-395.751385
30
0.0
11
245.354495
21
-395.751955
31
0.0
0
LINE
8
0
6
CONTINUOUS
10
245.354495
20
-394.268725
30
0.0
11
244.488345
21
-394.268655
31
0.0
0
LINE
8
0
6
CONTINUOUS
10
245.354495
20
-394.685905
30
0.0
11
245.354495
21
-394.268725
31
0.0
0
LINE
8
0
6
CONTINUOUS
10
244.490515
20
-394.685825
30
0.0
11
245.354495
21
-394.685905
31
0.0
0
LINE
8
0
6
CONTINUOUS
10
224.140835
20
-397.227145
30
0.0
11
224.132035
21
-398.714185
31
0.0
0
LINE
8
0
6
CONTINUOUS
10
224.140835
20
-397.227145
30
0.0
11
224.363175
21
-397.228205
31
0.0
0
LINE
8
0
6
CONTINUOUS
10
224.147335
20
-395.753215
30
0.0
11
224.140835
21
-397.227145
31
0.0
0
LINE
8
0
6
CONTINUOUS
10
224.147335
20
-395.753215
30
0.0
11
224.369715
21
-395.753795
31
0.0
0
LINE
8
0
6
CONTINUOUS
10
224.149855
20
-394.687205
30
0.0
11
224.147335
21
-395.753215
31
0.0
0
LINE
8
0
6
CONTINUOUS
10
224.149855
20
-394.687205
30
0.0
11
224.372235
21
-394.687275
31
0.0
0
LINE
8
0
6
CONTINUOUS
10
224.147705
20
-394.270025
30
0.0
11
224.149855
21
-394.687205
31
0.0
0
LINE
8
0
6
CONTINUOUS
10
224.370085
20
-394.270105
30
0.0
11
224.147705
21
-394.270025
31
0.0
0
LINE
8
0
6
CONTINUOUS
10
224.132745
20
-395.792705
30
0.0
11
224.096695
21
-401.881375
31
0.0
0
LINE
8
0
6
CONTINUOUS
10
190.729545
20
-442.648435
30
0.0
11
243.297385
21
-442.267735
31
0.0
0
LINE
8
0
6
CONTINUOUS
10
224.106327
20
-400.254602
30
0.0
11
190.731315
21
-399.944465
31
0.0
0
LINE
8
0
6
CONTINUOUS
10
190.367765
20
-442.649695
30
0.0
11
190.729545
21
-442.648435
31
0.0
0
LINE
8
0
6
CONTINUOUS
10
190.368235
20
-442.095725
30
0.0
11
190.367765
21
-442.649695
31
0.0
0
LINE
8
0
6
CONTINUOUS
10
190.368815
20
-440.105865
30
0.0
11
190.368235
21
-442.095725
31
0.0
0
LINE
8
0
6
CONTINUOUS
10
190.369385
20
-436.782425
30
0.0
11
190.368815
21
-440.105865
31
0.0
0
LINE
8
0
6
CONTINUOUS
10
190.370015
20
-432.378395
30
0.0
11
190.369385
21
-436.782425
31
0.0
0
LINE
8
0
6
CONTINUOUS
10
190.370555
20
-427.202425
30
0.0
11
190.370015
21
-432.378395
31
0.0
0
LINE
8
0
6
CONTINUOUS
10
190.370845
20
-421.602755
30
0.0
11
190.370555
21
-427.202425
31
0.0
0
LINE
8
0
6
CONTINUOUS
10
190.370795
20
-416.034175
30
0.0
11
190.370845
21
-421.602755
31
0.0
0
LINE
8
0
6
CONTINUOUS
10
190.370695
20
-410.776295
30
0.0
11
190.370795
21
-416.034175
31
0.0
0
LINE
8
0
6
CONTINUOUS
10
190.370465
20
-406.264965
30
0.0
11
190.370695
21
-410.776295
31
0.0
0
LINE
8
0
6
CONTINUOUS
10
190.375905
20
-402.750065
30
0.0
11
190.370465
21
-406.264965
31
0.0
0
LINE
8
0
6
CONTINUOUS
10
190.731315
20
-399.944465
30
0.0
11
190.369045
21
-399.942865
31
0.0
0
LINE
8
0
6
CONTINUOUS
10
245.354455
20
-411.061825
30
0.0
11
245.354445
21
-406.673285
31
0.0
0
LINE
8
0
6
CONTINUOUS
10
245.354445
20
-416.162495
30
0.0
11
245.354455
21
-411.061825
31
0.0
0
LINE
8
0
6
CONTINUOUS
10
245.354455
20
-421.624455
30
0.0
11
245.354445
21
-416.162495
31
0.0
0
LINE
8
0
6
CONTINUOUS
10
245.354445
20
-427.048425
30
0.0
11
245.354455
21
-421.624455
31
0.0
0
LINE
8
0
6
CONTINUOUS
10
245.354455
20
-432.085885
30
0.0
11
245.354445
21
-427.048425
31
0.0
0
LINE
8
0
6
CONTINUOUS
10
245.354445
20
-436.377185
30
0.0
11
245.354455
21
-432.085885
31
0.0
0
LINE
8
0
6
CONTINUOUS
10
245.354455
20
-441.634835
30
0.0
11
245.354455
21
-439.632425
31
0.0
0
LINE
8
0
6
CONTINUOUS
10
244.436085
20
-442.259415
30
0.0
11
245.354445
21
-442.252285
31
0.0
0
LINE
8
0
6
CONTINUOUS
10
245.354445
20
-442.252285
30
0.0
11
245.354455
21
-441.634835
31
0.0
0
LINE
8
0
6
CONTINUOUS
10
245.354445
20
-436.377185
30
0.0
11
245.354455
21
-439.632425
31
0.0
0
LINE
8
0
6
CONTINUOUS
10
224.094935
20
-404.980285
30
0.0
11
224.132035
21
-398.714185
31
0.0
0
LINE
8
0
6
CONTINUOUS
10
243.297385
20
-442.267735
30
0.0
11
244.436085
21
-442.259415
31
0.0
0
LINE
8
0
6
CONTINUOUS
10
190.375905
20
-402.750065
30
0.0
11
190.370815
21
-400.635385
31
0.0
0
LINE
8
0
6
CONTINUOUS
10
190.370815
20
-400.635385
30
0.0
11
190.369045
21
-399.942865
31
0.0
0
LINE
8
0
6
CONTINUOUS
10
188.868255
20
-441.360635
30
0.0
11
190.370045
21
-441.360635
31
0.0
0
LINE
8
0
6
CONTINUOUS
10
190.370825
20
-401.233605
30
0.0
11
188.869035
21
-401.233605
31
0.0
0
LINE
8
0
6
CONTINUOUS
10
-15.071605
20
-444.099295
30
0.0
11
-15.071605
21
-442.517497
31
0.0
0
LINE
8
0
6
CONTINUOUS
10
-24.986805
20
-442.445691
30
0.0
11
-24.986805
21
-444.099295
31
0.0
0
LINE
8
0
6
CONTINUOUS
10
-21.926385
20
-446.468275
30
0.0
11
-21.926385
21
-442.467855
31
0.0
0
LINE
8
0
6
CONTINUOUS
10
-23.534755
20
-442.456207
30
0.0
11
-23.534755
21
-445.912435
31
0.0
0
LINE
8
0
6
CONTINUOUS
10
-20.029195
20
-447.091935
30
0.0
11
-18.132015
21
-446.896745
31
0.0
0
LINE
8
0
6
CONTINUOUS
10
-18.132015
20
-446.896745
30
0.0
11
-16.523655
21
-446.340905
31
0.0
0
LINE
8
0
6
CONTINUOUS
10
-18.132015
20
-446.468275
30
0.0
11
-18.132015
21
-446.896745
31
0.0
0
LINE
8
0
6
CONTINUOUS
10
-16.523655
20
-446.340905
30
0.0
11
-15.448985
21
-445.509035
31
0.0
0
LINE
8
0
6
CONTINUOUS
10
-15.071605
20
-444.527765
30
0.0
11
-15.071605
21
-444.099295
31
0.0
0
LINE
8
0
6
CONTINUOUS
10
-15.448985
20
-445.509035
30
0.0
11
-15.071605
21
-444.527765
31
0.0
0
LINE
8
0
6
CONTINUOUS
10
-24.986805
20
-444.527765
30
0.0
11
-24.609405
21
-445.509035
31
0.0
0
LINE
8
0
6
CONTINUOUS
10
-24.986805
20
-444.099295
30
0.0
11
-24.986805
21
-444.527765
31
0.0
0
LINE
8
0
6
CONTINUOUS
10
-24.609405
20
-445.509035
30
0.0
11
-23.534755
21
-446.340905
31
0.0
0
LINE
8
0
6
CONTINUOUS
10
-23.534755
20
-446.340905
30
0.0
11
-21.926385
21
-446.896745
31
0.0
0
LINE
8
0
6
CONTINUOUS
10
-23.534755
20
-445.912435
30
0.0
11
-23.534755
21
-446.340905
31
0.0
0
LINE
8
0
6
CONTINUOUS
10
-20.029195
20
-447.091935
30
0.0
11
-20.029195
21
-446.663455
31
0.0
0
LINE
8
0
6
CONTINUOUS
10
-21.926385
20
-446.896745
30
0.0
11
-20.029195
21
-447.091935
31
0.0
0
LINE
8
0
6
CONTINUOUS
10
-21.926385
20
-446.468275
30
0.0
11
-21.926385
21
-446.896745
31
0.0
0
LINE
8
0
6
CONTINUOUS
10
-18.132015
20
-446.468275
30
0.0
11
-18.132015
21
-442.495334
31
0.0
0
LINE
8
0
6
CONTINUOUS
10
-20.029195
20
-442.481594
30
0.0
11
-20.029195
21
-446.663455
31
0.0
0
LINE
8
0
6
CONTINUOUS
10
-51.616435
20
-398.712885
30
0.0
11
-51.616375
21
-405.090915
31
0.0
0
LINE
8
0
6
CONTINUOUS
10
-51.616375
20
-405.090915
30
0.0
11
-50.696825
21
-405.089765
31
0.0
0
LINE
8
0
6
CONTINUOUS
10
-51.616375
20
-405.090915
30
0.0
11
-51.616375
21
-406.673285
31
0.0
0
LINE
8
0
6
CONTINUOUS
10
-50.696825
20
-405.089765
30
0.0
11
-51.616375
21
-405.090915
31
0.0
0
LINE
8
0
6
CONTINUOUS
10
-30.394675
20
-395.792705
30
0.0
11
-30.403365
21
-394.691095
31
0.0
0
LINE
8
0
6
CONTINUOUS
10
-30.632015
20
-394.270105
30
0.0
11
-50.750275
21
-394.268655
31
0.0
0
LINE
8
0
6
CONTINUOUS
10
-50.752445
20
-394.685825
30
0.0
11
-30.634165
21
-394.687275
31
0.0
0
LINE
8
0
6
CONTINUOUS
10
-30.631645
20
-395.753795
30
0.0
11
-50.749925
21
-395.751385
31
0.0
0
LINE
8
0
6
CONTINUOUS
10
-50.743395
20
-397.224815
30
0.0
11
-30.625105
21
-397.228205
31
0.0
0
LINE
8
0
6
CONTINUOUS
10
-51.616425
20
-397.225885
30
0.0
11
-51.616435
21
-398.712885
31
0.0
0
LINE
8
0
6
CONTINUOUS
10
-51.616425
20
-397.225885
30
0.0
11
-50.743395
21
-397.224815
31
0.0
0
LINE
8
0
6
CONTINUOUS
10
-51.616425
20
-395.751955
30
0.0
11
-51.616425
21
-397.225885
31
0.0
0
LINE
8
0
6
CONTINUOUS
10
-51.616425
20
-395.751955
30
0.0
11
-50.749925
21
-395.751385
31
0.0
0
LINE
8
0
6
CONTINUOUS
10
-51.616425
20
-394.685905
30
0.0
11
-51.616425
21
-395.751955
31
0.0
0
LINE
8
0
6
CONTINUOUS
10
-51.616425
20
-394.685905
30
0.0
11
-50.752445
21
-394.685825
31
0.0
0
LINE
8
0
6
CONTINUOUS
10
-51.616425
20
-394.268725
30
0.0
11
-51.616425
21
-394.685905
31
0.0
0
LINE
8
0
6
CONTINUOUS
10
-50.750275
20
-394.268655
30
0.0
11
-51.616425
21
-394.268725
31
0.0
0
LINE
8
0
6
CONTINUOUS
10
-30.393965
20
-398.714185
30
0.0
11
-30.402755
21
-397.227145
31
0.0
0
LINE
8
0
6
CONTINUOUS
10
-30.402755
20
-397.227145
30
0.0
11
-30.409265
21
-395.753215
31
0.0
0
LINE
8
0
6
CONTINUOUS
10
-30.625105
20
-397.228205
30
0.0
11
-30.402755
21
-397.227145
31
0.0
0
LINE
8
0
6
CONTINUOUS
10
-30.409265
20
-395.753215
30
0.0
11
-30.411785
21
-394.687205
31
0.0
0
LINE
8
0
6
CONTINUOUS
10
-30.631645
20
-395.753795
30
0.0
11
-30.409265
21
-395.753215
31
0.0
0
LINE
8
0
6
CONTINUOUS
10
-30.409635
20
-394.270025
30
0.0
11
-30.632015
21
-394.270105
31
0.0
0
LINE
8
0
6
CONTINUOUS
10
-30.411785
20
-394.687205
30
0.0
11
-30.409635
21
-394.270025
31
0.0
0
LINE
8
0
6
CONTINUOUS
10
-30.634165
20
-394.687275
30
0.0
11
-30.411785
21
-394.687205
31
0.0
0
LINE
8
0
6
CONTINUOUS
10
-30.358625
20
-401.881375
30
0.0
11
-30.394675
21
-395.792705
31
0.0
0
LINE
8
0
6
CONTINUOUS
10
-49.559315
20
-442.267735
30
0.0
11
3.008525
21
-442.648435
31
0.0
0
LINE
8
0
6
CONTINUOUS
10
3.006755
20
-399.944465
30
0.0
11
-30.368257
21
-400.254602
31
0.0
0
LINE
8
0
6
CONTINUOUS
10
3.370305
20
-442.649695
30
0.0
11
3.369835
21
-442.095725
31
0.0
0
LINE
8
0
6
CONTINUOUS
10
3.008525
20
-442.648435
30
0.0
11
3.370305
21
-442.649695
31
0.0
0
LINE
8
0
6
CONTINUOUS
10
3.369835
20
-442.095725
30
0.0
11
3.369255
21
-440.105865
31
0.0
0
LINE
8
0
6
CONTINUOUS
10
3.369255
20
-440.105865
30
0.0
11
3.368685
21
-436.782425
31
0.0
0
LINE
8
0
6
CONTINUOUS
10
3.368685
20
-436.782425
30
0.0
11
3.368055
21
-432.378395
31
0.0
0
LINE
8
0
6
CONTINUOUS
10
3.368055
20
-432.378395
30
0.0
11
3.367515
21
-427.202425
31
0.0
0
LINE
8
0
6
CONTINUOUS
10
3.367515
20
-427.202425
30
0.0
11
3.367225
21
-421.602755
31
0.0
0
LINE
8
0
6
CONTINUOUS
10
3.367225
20
-421.602755
30
0.0
11
3.367275
21
-416.034175
31
0.0
0
LINE
8
0
6
CONTINUOUS
10
3.367275
20
-416.034175
30
0.0
11
3.367375
21
-410.776295
31
0.0
0
LINE
8
0
6
CONTINUOUS
10
3.367375
20
-410.776295
30
0.0
11
3.367615
21
-406.264965
31
0.0
0
LINE
8
0
6
CONTINUOUS
10
3.367615
20
-406.264965
30
0.0
11
3.362165
21
-402.750065
31
0.0
0
LINE
8
0
6
CONTINUOUS
10
3.369025
20
-399.942865
30
0.0
11
3.006755
21
-399.944465
31
0.0
0
LINE
8
0
6
CONTINUOUS
10
-51.616375
20
-406.673285
30
0.0
11
-51.616385
21
-411.061825
31
0.0
0
LINE
8
0
6
CONTINUOUS
10
-51.616385
20
-411.061825
30
0.0
11
-51.616375
21
-416.162495
31
0.0
0
LINE
8
0
6
CONTINUOUS
10
-51.616375
20
-416.162495
30
0.0
11
-51.616385
21
-421.624455
31
0.0
0
LINE
8
0
6
CONTINUOUS
10
-51.616385
20
-421.624455
30
0.0
11
-51.616375
21
-427.048425
31
0.0
0
LINE
8
0
6
CONTINUOUS
10
-51.616375
20
-427.048425
30
0.0
11
-51.616385
21
-432.085885
31
0.0
0
LINE
8
0
6
CONTINUOUS
10
-51.616385
20
-432.085885
30
0.0
11
-51.616375
21
-436.377185
31
0.0
0
LINE
8
0
6
CONTINUOUS
10
-51.616385
20
-439.632425
30
0.0
11
-51.616385
21
-441.634835
31
0.0
0
LINE
8
0
6
CONTINUOUS
10
-51.616385
20
-441.634835
30
0.0
11
-51.616375
21
-442.252285
31
0.0
0
LINE
8
0
6
CONTINUOUS
10
-51.616375
20
-442.252285
30
0.0
11
-50.698015
21
-442.259415
31
0.0
0
LINE
8
0
6
CONTINUOUS
10
-51.616385
20
-439.632425
30
0.0
11
-51.616375
21
-436.377185
31
0.0
0
LINE
8
0
6
CONTINUOUS
10
-30.393965
20
-398.714185
30
0.0
11
-30.356855
21
-404.980285
31
0.0
0
LINE
8
0
6
CONTINUOUS
10
-50.698015
20
-442.259415
30
0.0
11
-49.559315
21
-442.267735
31
0.0
0
LINE
8
0
6
CONTINUOUS
10
3.367255
20
-400.635385
30
0.0
11
3.362165
21
-402.750065
31
0.0
0
LINE
8
0
6
CONTINUOUS
10
3.369025
20
-399.942865
30
0.0
11
3.367255
21
-400.635385
31
0.0
0
LINE
8
0
6
CONTINUOUS
10
3.368035
20
-441.360635
30
0.0
11
4.869815
21
-441.360635
31
0.0
0
LINE
8
0
6
CONTINUOUS
10
4.869035
20
-401.233605
30
0.0
11
3.367245
21
-401.233605
31
0.0
0
LINE
8
0
6
CONTINUOUS
10
98.990851
20
-443.330145
30
0.0
11
98.990848
21
-440.987641
31
0.0
0
LINE
8
0
6
CONTINUOUS
10
94.747271
20
-443.330155
30
0.0
11
94.747268
21
-440.986484
31
0.0
0
LINE
8
0
6
CONTINUOUS
10
107.018391
20
-443.330140
30
0.0
11
107.018390
21
-442.344611
31
0.0
0
LINE
8
0
6
CONTINUOUS
10
90.870581
20
-443.330155
30
0.0
11
90.870579
21
-441.522585
31
0.0
0
LINE
8
0
6
CONTINUOUS
10
102.867539
20
-441.525612
30
0.0
11
102.867541
21
-443.330145
31
0.0
0
LINE
8
0
6
CONTINUOUS
10
105.707051
20
-443.330145
30
0.0
11
105.707050
21
-442.183111
31
0.0
0
LINE
8
0
6
CONTINUOUS
10
88.031075
20
-443.330155
30
0.0
11
86.719775
21
-443.330155
31
0.0
0
LINE
8
0
6
CONTINUOUS
10
90.870585
20
-443.330155
30
0.0
11
88.031075
21
-443.330155
31
0.0
0
LINE
8
0
6
CONTINUOUS
10
94.747265
20
-443.330155
30
0.0
11
90.870585
21
-443.330155
31
0.0
0
LINE
8
0
6
CONTINUOUS
10
86.719770
20
-442.339569
30
0.0
11
86.719771
21
-443.330155
31
0.0
0
LINE
8
0
6
CONTINUOUS
10
88.031071
20
-443.330155
30
0.0
11
88.031070
21
-442.178651
31
0.0
0
LINE
8
0
6
CONTINUOUS
10
107.826185
20
-443.330135
30
0.0
11
108.326985
21
-443.330135
31
0.0
0
LINE
8
0
6
CONTINUOUS
10
94.473715
20
-443.330155
30
0.0
11
90.097195
21
-443.330155
31
0.0
0
LINE
8
0
6
CONTINUOUS
10
106.846575
20
-443.330135
30
0.0
11
103.640965
21
-443.330145
31
0.0
0
LINE
8
0
6
CONTINUOUS
10
86.891545
20
-443.330155
30
0.0
11
85.411145
21
-443.330155
31
0.0
0
LINE
8
0
6
CONTINUOUS
10
107.018391
20
-443.330138
30
0.0
11
107.826185
21
-443.330135
31
0.0
0
LINE
8
0
6
CONTINUOUS
10
94.473715
20
-443.330155
30
0.0
11
94.473715
21
-444.710615
31
0.0
0
LINE
8
0
6
CONTINUOUS
10
99.264405
20
-443.330145
30
0.0
11
94.473715
21
-443.330155
31
0.0
0
LINE
8
0
6
CONTINUOUS
10
85.911935
20
-443.330155
30
0.0
11
86.719771
21
-443.330155
31
0.0
0
LINE
8
0
6
CONTINUOUS
10
106.846575
20
-443.330135
30
0.0
11
106.846575
21
-444.710605
31
0.0
0
LINE
8
0
6
CONTINUOUS
10
108.326985
20
-443.330135
30
0.0
11
106.846575
21
-443.330135
31
0.0
0
LINE
8
0
6
CONTINUOUS
10
108.326985
20
-444.710605
30
0.0
11
108.326985
21
-443.330135
31
0.0
0
LINE
8
0
6
CONTINUOUS
10
86.891545
20
-443.330155
30
0.0
11
86.891545
21
-444.710625
31
0.0
0
LINE
8
0
6
CONTINUOUS
10
90.097195
20
-443.330155
30
0.0
11
86.891545
21
-443.330155
31
0.0
0
LINE
8
0
6
CONTINUOUS
10
90.097195
20
-444.710615
30
0.0
11
90.097195
21
-443.330155
31
0.0
0
LINE
8
0
6
CONTINUOUS
10
99.264405
20
-443.330145
30
0.0
11
99.264405
21
-444.710605
31
0.0
0
LINE
8
0
6
CONTINUOUS
10
103.640965
20
-443.330145
30
0.0
11
99.264405
21
-443.330145
31
0.0
0
LINE
8
0
6
CONTINUOUS
10
103.640965
20
-444.710605
30
0.0
11
103.640965
21
-443.330145
31
0.0
0
LINE
8
0
6
CONTINUOUS
10
85.411145
20
-443.330155
30
0.0
11
85.911935
21
-443.330155
31
0.0
0
LINE
8
0
6
CONTINUOUS
10
85.411145
20
-444.710625
30
0.0
11
85.411145
21
-443.330155
31
0.0
0
LINE
8
0
6
CONTINUOUS
10
86.612595
20
-465.978095
30
0.0
11
87.937745
21
-465.978095
31
0.0
0
LINE
8
0
6
CONTINUOUS
10
86.570635
20
-465.235375
30
0.0
11
86.612595
21
-465.978095
31
0.0
0
LINE
8
0
6
CONTINUOUS
10
87.937745
20
-465.978095
30
0.0
11
90.807245
21
-465.978085
31
0.0
0
LINE
8
0
6
CONTINUOUS
10
87.901245
20
-465.235365
30
0.0
11
87.937745
21
-465.978095
31
0.0
0
LINE
8
0
6
CONTINUOUS
10
90.807245
20
-465.978085
30
0.0
11
94.724855
21
-465.978085
31
0.0
0
LINE
8
0
6
CONTINUOUS
10
90.782445
20
-465.235365
30
0.0
11
90.807245
21
-465.978085
31
0.0
0
LINE
8
0
6
CONTINUOUS
10
94.724855
20
-465.978085
30
0.0
11
99.013265
21
-465.978085
31
0.0
0
LINE
8
0
6
CONTINUOUS
10
94.716085
20
-465.235365
30
0.0
11
94.724855
21
-465.978085
31
0.0
0
LINE
8
0
6
CONTINUOUS
10
99.013265
20
-465.978085
30
0.0
11
102.930885
21
-465.978075
31
0.0
0
LINE
8
0
6
CONTINUOUS
10
99.022035
20
-465.235355
30
0.0
11
99.013265
21
-465.978085
31
0.0
0
LINE
8
0
6
CONTINUOUS
10
102.930885
20
-465.978075
30
0.0
11
105.800375
21
-465.978075
31
0.0
0
LINE
8
0
6
CONTINUOUS
10
102.955675
20
-465.235355
30
0.0
11
102.930885
21
-465.978075
31
0.0
0
LINE
8
0
6
CONTINUOUS
10
105.800375
20
-465.978075
30
0.0
11
107.125565
21
-465.978075
31
0.0
0
LINE
8
0
6
CONTINUOUS
10
105.836915
20
-465.235355
30
0.0
11
105.800375
21
-465.978075
31
0.0
0
LINE
8
0
6
CONTINUOUS
10
107.167525
20
-465.235355
30
0.0
11
107.125565
21
-465.978075
31
0.0
0
LINE
8
0
6
CONTINUOUS
10
85.411145
20
-444.710625
30
0.0
11
86.570635
21
-465.235375
31
0.0
0
LINE
8
0
6
CONTINUOUS
10
86.891545
20
-444.710625
30
0.0
11
87.901245
21
-465.235365
31
0.0
0
LINE
8
0
6
CONTINUOUS
10
90.097195
20
-444.710615
30
0.0
11
90.782445
21
-465.235365
31
0.0
0
LINE
8
0
6
CONTINUOUS
10
94.473715
20
-444.710615
30
0.0
11
94.716085
21
-465.235365
31
0.0
0
LINE
8
0
6
CONTINUOUS
10
99.264405
20
-444.710605
30
0.0
11
99.022035
21
-465.235355
31
0.0
0
LINE
8
0
6
CONTINUOUS
10
103.640965
20
-444.710605
30
0.0
11
102.955675
21
-465.235355
31
0.0
0
LINE
8
0
6
CONTINUOUS
10
106.846575
20
-444.710605
30
0.0
11
105.836915
21
-465.235355
31
0.0
0
LINE
8
0
6
CONTINUOUS
10
108.326985
20
-444.710605
30
0.0
11
107.167525
21
-465.235355
31
0.0
0
LINE
8
0
6
CONTINUOUS
10
-146.722895
20
361.522185
30
0.0
11
-146.708535
21
360.637635
31
0.0
0
LINE
8
0
6
CONTINUOUS
10
-148.065075
20
361.952785
30
0.0
11
-146.722895
21
361.522185
31
0.0
0
LINE
8
0
6
CONTINUOUS
10
-149.392915
20
361.498835
30
0.0
11
-148.065075
21
361.952785
31
0.0
0
LINE
8
0
6
CONTINUOUS
10
-149.394691
20
362.247302
30
0.0
11
-149.392915
21
361.498835
31
0.0
0
LINE
8
0
6
CONTINUOUS
10
-148.036365
20
360.183605
30
0.0
11
-146.708535
21
360.637635
31
0.0
0
LINE
8
0
6
CONTINUOUS
10
-149.378575
20
360.614205
30
0.0
11
-148.036365
21
360.183605
31
0.0
0
LINE
8
0
6
CONTINUOUS
10
-149.392915
20
361.498835
30
0.0
11
-149.378575
21
360.614205
31
0.0
0
LINE
8
0
6
CONTINUOUS
10
-148.065075
20
361.952785
30
0.0
11
-149.392915
21
361.498835
31
0.0
0
LINE
8
0
6
CONTINUOUS
10
-146.722895
20
361.522185
30
0.0
11
-148.065075
21
361.952785
31
0.0
0
LINE
8
0
6
CONTINUOUS
10
-146.708535
20
360.637635
30
0.0
11
-146.722895
21
361.522185
31
0.0
0
LINE
8
0
6
CONTINUOUS
10
-139.919455
20
360.909545
30
0.0
11
-139.907135
21
360.150645
31
0.0
0
LINE
8
0
6
CONTINUOUS
10
-141.070865
20
361.278885
30
0.0
11
-139.919455
21
360.909545
31
0.0
0
LINE
8
0
6
CONTINUOUS
10
-142.209995
20
360.889475
30
0.0
11
-141.070865
21
361.278885
31
0.0
0
LINE
8
0
6
CONTINUOUS
10
-142.212134
20
361.663507
30
0.0
11
-142.209995
21
360.889475
31
0.0
0
LINE
8
0
6
CONTINUOUS
10
-141.046265
20
359.761165
30
0.0
11
-139.907135
21
360.150645
31
0.0
0
LINE
8
0
6
CONTINUOUS
10
-142.197685
20
360.130585
30
0.0
11
-141.046265
21
359.761165
31
0.0
0
LINE
8
0
6
CONTINUOUS
10
-142.209995
20
360.889475
30
0.0
11
-142.197685
21
360.130585
31
0.0
0
LINE
8
0
6
CONTINUOUS
10
-141.070865
20
361.278885
30
0.0
11
-142.209995
21
360.889475
31
0.0
0
LINE
8
0
6
CONTINUOUS
10
-139.919455
20
360.909545
30
0.0
11
-141.070865
21
361.278885
31
0.0
0
LINE
8
0
6
CONTINUOUS
10
-139.907135
20
360.150645
30
0.0
11
-139.919455
21
360.909545
31
0.0
0
LINE
8
0
6
CONTINUOUS
10
-133.023515
20
359.731485
30
0.0
11
-133.011175
21
358.972595
31
0.0
0
LINE
8
0
6
CONTINUOUS
10
-134.174925
20
360.100905
30
0.0
11
-133.023515
21
359.731485
31
0.0
0
LINE
8
0
6
CONTINUOUS
10
-135.314025
20
359.711425
30
0.0
11
-134.174925
21
360.100905
31
0.0
0
LINE
8
0
6
CONTINUOUS
10
-135.316123
20
360.468442
30
0.0
11
-135.314025
21
359.711425
31
0.0
0
LINE
8
0
6
CONTINUOUS
10
-134.150295
20
358.583115
30
0.0
11
-133.011175
21
358.972595
31
0.0
0
LINE
8
0
6
CONTINUOUS
10
-135.301725
20
358.952525
30
0.0
11
-134.150295
21
358.583115
31
0.0
0
LINE
8
0
6
CONTINUOUS
10
-135.314025
20
359.711425
30
0.0
11
-135.301725
21
358.952525
31
0.0
0
LINE
8
0
6
CONTINUOUS
10
-134.174925
20
360.100905
30
0.0
11
-135.314025
21
359.711425
31
0.0
0
LINE
8
0
6
CONTINUOUS
10
-133.023515
20
359.731485
30
0.0
11
-134.174925
21
360.100905
31
0.0
0
LINE
8
0
6
CONTINUOUS
10
-133.011175
20
358.972595
30
0.0
11
-133.023515
21
359.731485
31
0.0
0
LINE
8
0
6
CONTINUOUS
10
-173.501725
20
359.037295
30
0.0
11
-172.050785
21
360.192455
31
0.0
0
LINE
8
0
6
CONTINUOUS
10
-169.589505
20
360.054825
30
0.0
11
-168.579185
21
358.761945
31
0.0
0
LINE
8
0
6
CONTINUOUS
10
-172.050785
20
360.192455
30
0.0
11
-169.589505
21
360.054825
31
0.0
0
LINE
8
0
6
CONTINUOUS
10
-170.030155
20
357.606775
30
0.0
11
-168.579185
21
358.761945
31
0.0
0
LINE
8
0
6
CONTINUOUS
10
-172.491425
20
357.744415
30
0.0
11
-170.030155
21
357.606775
31
0.0
0
LINE
8
0
6
CONTINUOUS
10
-173.501725
20
359.037295
30
0.0
11
-172.491425
21
357.744415
31
0.0
0
LINE
8
0
6
CONTINUOUS
10
-172.050785
20
360.192455
30
0.0
11
-173.501725
21
359.037295
31
0.0
0
LINE
8
0
6
CONTINUOUS
10
-169.589505
20
360.054825
30
0.0
11
-172.050785
21
360.192455
31
0.0
0
LINE
8
0
6
CONTINUOUS
10
-168.579185
20
358.761945
30
0.0
11
-169.589505
21
360.054825
31
0.0
0
LINE
8
0
6
CONTINUOUS
10
-148.954775
20
366.218685
30
0.0
11
-148.940415
21
365.334055
31
0.0
0
LINE
8
0
6
CONTINUOUS
10
-150.296945
20
366.649285
30
0.0
11
-148.954775
21
366.218685
31
0.0
0
LINE
8
0
6
CONTINUOUS
10
-151.624775
20
366.195265
30
0.0
11
-150.296945
21
366.649285
31
0.0
0
LINE
8
0
6
CONTINUOUS
10
-151.626634
20
366.977045
30
0.0
11
-151.624775
21
366.195265
31
0.0
0
LINE
8
0
6
CONTINUOUS
10
-150.268255
20
364.880035
30
0.0
11
-148.940415
21
365.334055
31
0.0
0
LINE
8
0
6
CONTINUOUS
10
-151.610455
20
365.310635
30
0.0
11
-150.268255
21
364.880035
31
0.0
0
LINE
8
0
6
CONTINUOUS
10
-151.624775
20
366.195265
30
0.0
11
-151.610455
21
365.310635
31
0.0
0
LINE
8
0
6
CONTINUOUS
10
-150.296945
20
366.649285
30
0.0
11
-151.624775
21
366.195265
31
0.0
0
LINE
8
0
6
CONTINUOUS
10
-148.954775
20
366.218685
30
0.0
11
-150.296945
21
366.649285
31
0.0
0
LINE
8
0
6
CONTINUOUS
10
-148.940415
20
365.334055
30
0.0
11
-148.954775
21
366.218685
31
0.0
0
LINE
8
0
6
CONTINUOUS
10
-141.294345
20
365.746045
30
0.0
11
-141.282025
21
364.987145
31
0.0
0
LINE
8
0
6
CONTINUOUS
10
-142.445755
20
366.115465
30
0.0
11
-141.294345
21
365.746045
31
0.0
0
LINE
8
0
6
CONTINUOUS
10
-143.584865
20
365.725985
30
0.0
11
-142.445755
21
366.115465
31
0.0
0
LINE
8
0
6
CONTINUOUS
10
-143.587033
20
366.510392
30
0.0
11
-143.584865
21
365.725985
31
0.0
0
LINE
8
0
6
CONTINUOUS
10
-142.421155
20
364.597745
30
0.0
11
-141.282025
21
364.987145
31
0.0
0
LINE
8
0
6
CONTINUOUS
10
-143.572585
20
364.967165
30
0.0
11
-142.421155
21
364.597745
31
0.0
0
LINE
8
0
6
CONTINUOUS
10
-143.584865
20
365.725985
30
0.0
11
-143.572585
21
364.967165
31
0.0
0
LINE
8
0
6
CONTINUOUS
10
-142.445755
20
366.115465
30
0.0
11
-143.584865
21
365.725985
31
0.0
0
LINE
8
0
6
CONTINUOUS
10
-141.294345
20
365.746045
30
0.0
11
-142.445755
21
366.115465
31
0.0
0
LINE
8
0
6
CONTINUOUS
10
-141.282025
20
364.987145
30
0.0
11
-141.294345
21
365.746045
31
0.0
0
LINE
8
0
6
CONTINUOUS
10
-145.076645
20
370.110445
30
0.0
11
-145.064335
21
369.351545
31
0.0
0
LINE
8
0
6
CONTINUOUS
10
-146.228065
20
370.479855
30
0.0
11
-145.076645
21
370.110445
31
0.0
0
LINE
8
0
6
CONTINUOUS
10
-147.367195
20
370.090375
30
0.0
11
-146.228065
21
370.479855
31
0.0
0
LINE
8
0
6
CONTINUOUS
10
-147.369397
20
370.887343
30
0.0
11
-147.367195
21
370.090375
31
0.0
0
LINE
8
0
6
CONTINUOUS
10
-146.203465
20
368.962065
30
0.0
11
-145.064335
21
369.351545
31
0.0
0
LINE
8
0
6
CONTINUOUS
10
-147.354895
20
369.331555
30
0.0
11
-146.203465
21
368.962065
31
0.0
0
LINE
8
0
6
CONTINUOUS
10
-147.367195
20
370.090375
30
0.0
11
-147.354895
21
369.331555
31
0.0
0
LINE
8
0
6
CONTINUOUS
10
-146.228065
20
370.479855
30
0.0
11
-147.367195
21
370.090375
31
0.0
0
LINE
8
0
6
CONTINUOUS
10
-145.076645
20
370.110445
30
0.0
11
-146.228065
21
370.479855
31
0.0
0
LINE
8
0
6
CONTINUOUS
10
-145.064335
20
369.351545
30
0.0
11
-145.076645
21
370.110445
31
0.0
0
LINE
8
0
6
CONTINUOUS
10
-146.320485
20
377.284435
30
0.0
11
-146.087665
21
376.538055
31
0.0
0
LINE
8
0
6
CONTINUOUS
10
-147.564315
20
377.538035
30
0.0
11
-146.320485
21
377.284435
31
0.0
0
LINE
8
0
6
CONTINUOUS
10
-148.575325
20
377.045255
30
0.0
11
-147.564315
21
377.538035
31
0.0
0
LINE
8
0
6
CONTINUOUS
10
-148.576465
20
377.843116
30
0.0
11
-148.575325
21
377.045255
31
0.0
0
LINE
8
0
6
CONTINUOUS
10
-147.098695
20
376.045345
30
0.0
11
-146.087665
21
376.538055
31
0.0
0
LINE
8
0
6
CONTINUOUS
10
-148.342535
20
376.298945
30
0.0
11
-147.098695
21
376.045345
31
0.0
0
LINE
8
0
6
CONTINUOUS
10
-148.575325
20
377.045255
30
0.0
11
-148.342535
21
376.298945
31
0.0
0
LINE
8
0
6
CONTINUOUS
10
-147.564315
20
377.538035
30
0.0
11
-148.575325
21
377.045255
31
0.0
0
LINE
8
0
6
CONTINUOUS
10
-146.320485
20
377.284435
30
0.0
11
-147.564315
21
377.538035
31
0.0
0
LINE
8
0
6
CONTINUOUS
10
-146.087665
20
376.538055
30
0.0
11
-146.320485
21
377.284435
31
0.0
0
LINE
8
0
6
CONTINUOUS
10
-140.385935
20
373.691295
30
0.0
11
-140.153105
21
372.944985
31
0.0
0
LINE
8
0
6
CONTINUOUS
10
-141.629755
20
373.944895
30
0.0
11
-140.385935
21
373.691295
31
0.0
0
LINE
8
0
6
CONTINUOUS
10
-142.640785
20
373.452195
30
0.0
11
-141.629755
21
373.944895
31
0.0
0
LINE
8
0
6
CONTINUOUS
10
-142.641893
20
374.232420
30
0.0
11
-142.640785
21
373.452195
31
0.0
0
LINE
8
0
6
CONTINUOUS
10
-141.164135
20
372.452285
30
0.0
11
-140.153105
21
372.944985
31
0.0
0
LINE
8
0
6
CONTINUOUS
10
-142.407995
20
372.705885
30
0.0
11
-141.164135
21
372.452285
31
0.0
0
LINE
8
0
6
CONTINUOUS
10
-142.640785
20
373.452195
30
0.0
11
-142.407995
21
372.705885
31
0.0
0
LINE
8
0
6
CONTINUOUS
10
-141.629755
20
373.944895
30
0.0
11
-142.640785
21
373.452195
31
0.0
0
LINE
8
0
6
CONTINUOUS
10
-140.385935
20
373.691295
30
0.0
11
-141.629755
21
373.944895
31
0.0
0
LINE
8
0
6
CONTINUOUS
10
-140.153105
20
372.944985
30
0.0
11
-140.385935
21
373.691295
31
0.0
0
LINE
8
0
6
CONTINUOUS
10
-136.071705
20
369.465075
30
0.0
11
-135.838875
21
368.718685
31
0.0
0
LINE
8
0
6
CONTINUOUS
10
-137.315525
20
369.718595
30
0.0
11
-136.071705
21
369.465075
31
0.0
0
LINE
8
0
6
CONTINUOUS
10
-138.326555
20
369.225885
30
0.0
11
-137.315525
21
369.718595
31
0.0
0
LINE
8
0
6
CONTINUOUS
10
-138.327646
20
369.994525
30
0.0
11
-138.326555
21
369.225885
31
0.0
0
LINE
8
0
6
CONTINUOUS
10
-136.849905
20
368.225985
30
0.0
11
-135.838875
21
368.718685
31
0.0
0
LINE
8
0
6
CONTINUOUS
10
-138.093765
20
368.479585
30
0.0
11
-136.849905
21
368.225985
31
0.0
0
LINE
8
0
6
CONTINUOUS
10
-138.326555
20
369.225885
30
0.0
11
-138.093765
21
368.479585
31
0.0
0
LINE
8
0
6
CONTINUOUS
10
-137.315525
20
369.718595
30
0.0
11
-138.326555
21
369.225885
31
0.0
0
LINE
8
0
6
CONTINUOUS
10
-136.071705
20
369.465075
30
0.0
11
-137.315525
21
369.718595
31
0.0
0
LINE
8
0
6
CONTINUOUS
10
-135.838875
20
368.718685
30
0.0
11
-136.071705
21
369.465075
31
0.0
0
LINE
8
0
6
CONTINUOUS
10
-133.555325
20
364.722865
30
0.0
11
-133.322495
21
363.976565
31
0.0
0
LINE
8
0
6
CONTINUOUS
10
-134.799165
20
364.976465
30
0.0
11
-133.555325
21
364.722865
31
0.0
0
LINE
8
0
6
CONTINUOUS
10
-135.810165
20
364.483685
30
0.0
11
-134.799165
21
364.976465
31
0.0
0
LINE
8
0
6
CONTINUOUS
10
-135.811243
20
365.240532
30
0.0
11
-135.810165
21
364.483685
31
0.0
0
LINE
8
0
6
CONTINUOUS
10
-134.333535
20
363.483775
30
0.0
11
-133.322495
21
363.976565
31
0.0
0
LINE
8
0
6
CONTINUOUS
10
-135.577375
20
363.737375
30
0.0
11
-134.333535
21
363.483775
31
0.0
0
LINE
8
0
6
CONTINUOUS
10
-135.810165
20
364.483685
30
0.0
11
-135.577375
21
363.737375
31
0.0
0
LINE
8
0
6
CONTINUOUS
10
-134.799165
20
364.976465
30
0.0
11
-135.810165
21
364.483685
31
0.0
0
LINE
8
0
6
CONTINUOUS
10
-133.555325
20
364.722865
30
0.0
11
-134.799165
21
364.976465
31
0.0
0
LINE
8
0
6
CONTINUOUS
10
-133.322495
20
363.976565
30
0.0
11
-133.555325
21
364.722865
31
0.0
0
LINE
8
0
6
CONTINUOUS
10
-166.084885
20
351.310625
30
0.0
11
-164.632015
21
351.688425
31
0.0
0
LINE
8
0
6
CONTINUOUS
10
-164.632015
20
351.688425
30
0.0
11
-163.342825
21
351.157115
31
0.0
0
LINE
8
0
6
CONTINUOUS
10
-166.248575
20
350.401425
30
0.0
11
-166.084885
21
351.310625
31
0.0
0
LINE
8
0
6
CONTINUOUS
10
-166.248575
20
350.401425
30
0.0
11
-164.959375
21
349.870195
31
0.0
0
LINE
8
0
6
CONTINUOUS
10
-166.084885
20
351.310625
30
0.0
11
-166.248575
21
350.401425
31
0.0
0
LINE
8
0
6
CONTINUOUS
10
-164.632015
20
351.688425
30
0.0
11
-166.084885
21
351.310625
31
0.0
0
LINE
8
0
6
CONTINUOUS
10
-163.342825
20
351.157115
30
0.0
11
-164.632015
21
351.688425
31
0.0
0
LINE
8
0
6
CONTINUOUS
10
-163.506515
20
350.247995
30
0.0
11
-163.342825
21
351.157115
31
0.0
0
LINE
8
0
6
CONTINUOUS
10
-164.959375
20
349.870195
30
0.0
11
-163.506515
21
350.247995
31
0.0
0
LINE
8
0
6
CONTINUOUS
10
-167.718545
20
339.701505
30
0.0
11
-166.511325
21
340.015455
31
0.0
0
LINE
8
0
6
CONTINUOUS
10
-166.511325
20
340.015455
30
0.0
11
-165.440085
21
339.574015
31
0.0
0
LINE
8
0
6
CONTINUOUS
10
-166.526094
20
341.277049
30
0.0
11
-166.511325
21
340.015455
31
0.0
0
LINE
8
0
6
CONTINUOUS
10
-167.718545
20
339.701505
30
0.0
11
-167.736020
21
341.194543
31
0.0
0
LINE
8
0
6
CONTINUOUS
10
-167.854565
20
338.946115
30
0.0
11
-167.718545
21
339.701505
31
0.0
0
LINE
8
0
6
CONTINUOUS
10
-167.854565
20
338.946115
30
0.0
11
-166.783315
21
338.504605
31
0.0
0
LINE
8
0
6
CONTINUOUS
10
-167.718545
20
339.701505
30
0.0
11
-167.854565
21
338.946115
31
0.0
0
LINE
8
0
6
CONTINUOUS
10
-166.511325
20
340.015455
30
0.0
11
-167.718545
21
339.701505
31
0.0
0
LINE
8
0
6
CONTINUOUS
10
-165.440085
20
339.574015
30
0.0
11
-166.511325
21
340.015455
31
0.0
0
LINE
8
0
6
CONTINUOUS
10
-165.576095
20
338.818635
30
0.0
11
-165.440085
21
339.574015
31
0.0
0
LINE
8
0
6
CONTINUOUS
10
-166.783315
20
338.504605
30
0.0
11
-165.576095
21
338.818635
31
0.0
0
LINE
8
0
6
CONTINUOUS
10
-167.257375
20
343.417705
30
0.0
11
-166.050155
21
343.731655
31
0.0
0
LINE
8
0
6
CONTINUOUS
10
-164.978925
20
343.290215
30
0.0
11
-164.995084
21
344.670825
31
0.0
0
LINE
8
0
6
CONTINUOUS
10
-166.050155
20
343.731655
30
0.0
11
-164.978925
21
343.290215
31
0.0
0
LINE
8
0
6
CONTINUOUS
10
-166.063361
20
344.859943
30
0.0
11
-166.050155
21
343.731655
31
0.0
0
LINE
8
0
6
CONTINUOUS
10
-167.393385
20
342.662245
30
0.0
11
-167.257375
21
343.417705
31
0.0
0
LINE
8
0
6
CONTINUOUS
10
-167.393385
20
342.662245
30
0.0
11
-166.322155
21
342.220805
31
0.0
0
LINE
8
0
6
CONTINUOUS
10
-167.257375
20
343.417705
30
0.0
11
-167.393385
21
342.662245
31
0.0
0
LINE
8
0
6
CONTINUOUS
10
-166.050155
20
343.731655
30
0.0
11
-167.257375
21
343.417705
31
0.0
0
LINE
8
0
6
CONTINUOUS
10
-164.978925
20
343.290215
30
0.0
11
-166.050155
21
343.731655
31
0.0
0
LINE
8
0
6
CONTINUOUS
10
-165.114945
20
342.534835
30
0.0
11
-164.978925
21
343.290215
31
0.0
0
LINE
8
0
6
CONTINUOUS
10
-166.322155
20
342.220805
30
0.0
11
-165.114945
21
342.534835
31
0.0
0
LINE
8
0
6
CONTINUOUS
10
-168.228055
20
347.197385
30
0.0
11
-166.820815
21
347.563365
31
0.0
0
LINE
8
0
6
CONTINUOUS
10
-166.820815
20
347.563365
30
0.0
11
-165.572135
21
347.048845
31
0.0
0
LINE
8
0
6
CONTINUOUS
10
-168.386595
20
346.316805
30
0.0
11
-168.228055
21
347.197385
31
0.0
0
LINE
8
0
6
CONTINUOUS
10
-168.386595
20
346.316805
30
0.0
11
-167.137895
21
345.802275
31
0.0
0
LINE
8
0
6
CONTINUOUS
10
-168.228055
20
347.197385
30
0.0
11
-168.386595
21
346.316805
31
0.0
0
LINE
8
0
6
CONTINUOUS
10
-166.820815
20
347.563365
30
0.0
11
-168.228055
21
347.197385
31
0.0
0
LINE
8
0
6
CONTINUOUS
10
-165.572135
20
347.048845
30
0.0
11
-166.820815
21
347.563365
31
0.0
0
LINE
8
0
6
CONTINUOUS
10
-165.730675
20
346.168255
30
0.0
11
-165.572135
21
347.048845
31
0.0
0
LINE
8
0
6
CONTINUOUS
10
-167.137895
20
345.802275
30
0.0
11
-165.730675
21
346.168255
31
0.0
0
LINE
8
0
6
CONTINUOUS
10
-159.304125
20
341.047945
30
0.0
11
-158.096905
21
341.361895
31
0.0
0
LINE
8
0
6
CONTINUOUS
10
-157.025665
20
340.920455
30
0.0
11
-157.042067
21
342.321806
31
0.0
0
LINE
8
0
6
CONTINUOUS
10
-158.096905
20
341.361895
30
0.0
11
-157.025665
21
340.920455
31
0.0
0
LINE
8
0
6
CONTINUOUS
10
-158.105598
20
342.104472
30
0.0
11
-158.096905
21
341.361895
31
0.0
0
LINE
8
0
6
CONTINUOUS
10
-159.304125
20
341.047945
30
0.0
11
-159.313602
21
341.857615
31
0.0
0
LINE
8
0
6
CONTINUOUS
10
-159.440145
20
340.292555
30
0.0
11
-159.304125
21
341.047945
31
0.0
0
LINE
8
0
6
CONTINUOUS
10
-159.449958
20
341.130952
30
0.0
11
-159.440145
21
340.292555
31
0.0
0
LINE
8
0
6
CONTINUOUS
10
-159.440145
20
340.292555
30
0.0
11
-158.368915
21
339.851045
31
0.0
0
LINE
8
0
6
CONTINUOUS
10
-159.304125
20
341.047945
30
0.0
11
-159.440145
21
340.292555
31
0.0
0
LINE
8
0
6
CONTINUOUS
10
-158.096905
20
341.361895
30
0.0
11
-159.304125
21
341.047945
31
0.0
0
LINE
8
0
6
CONTINUOUS
10
-157.025665
20
340.920455
30
0.0
11
-158.066225
21
341.349252
31
0.0
0
LINE
8
0
6
CONTINUOUS
10
-157.161675
20
340.165065
30
0.0
11
-157.025665
21
340.920455
31
0.0
0
LINE
8
0
6
CONTINUOUS
10
-158.368915
20
339.851045
30
0.0
11
-157.161675
21
340.165065
31
0.0
0
LINE
8
0
6
CONTINUOUS
10
-159.177155
20
344.919245
30
0.0
11
-157.969935
21
345.233195
31
0.0
0
LINE
8
0
6
CONTINUOUS
10
-157.969935
20
345.233195
30
0.0
11
-156.898715
21
344.791765
31
0.0
0
LINE
8
0
6
CONTINUOUS
10
-157.979007
20
346.008324
30
0.0
11
-157.969935
21
345.233195
31
0.0
0
LINE
8
0
6
CONTINUOUS
10
-159.313165
20
344.163785
30
0.0
11
-159.177155
21
344.919245
31
0.0
0
LINE
8
0
6
CONTINUOUS
10
-159.313165
20
344.163785
30
0.0
11
-158.241945
21
343.722345
31
0.0
0
LINE
8
0
6
CONTINUOUS
10
-159.177155
20
344.919245
30
0.0
11
-159.313165
21
344.163785
31
0.0
0
LINE
8
0
6
CONTINUOUS
10
-157.969935
20
345.233195
30
0.0
11
-159.177155
21
344.919245
31
0.0
0
LINE
8
0
6
CONTINUOUS
10
-156.898715
20
344.791765
30
0.0
11
-157.969935
21
345.233195
31
0.0
0
LINE
8
0
6
CONTINUOUS
10
-157.034725
20
344.036295
30
0.0
11
-156.898715
21
344.791765
31
0.0
0
LINE
8
0
6
CONTINUOUS
10
-158.241945
20
343.722345
30
0.0
11
-157.034725
21
344.036295
31
0.0
0
LINE
8
0
6
CONTINUOUS
10
-160.322025
20
348.992125
30
0.0
11
-158.914795
21
349.358105
31
0.0
0
LINE
8
0
6
CONTINUOUS
10
-158.914795
20
349.358105
30
0.0
11
-157.666095
21
348.843505
31
0.0
0
LINE
8
0
6
CONTINUOUS
10
-160.480575
20
348.111535
30
0.0
11
-160.322025
21
348.992125
31
0.0
0
LINE
8
0
6
CONTINUOUS
10
-160.480575
20
348.111535
30
0.0
11
-159.231875
21
347.596935
31
0.0
0
LINE
8
0
6
CONTINUOUS
10
-160.322025
20
348.992125
30
0.0
11
-160.480575
21
348.111535
31
0.0
0
LINE
8
0
6
CONTINUOUS
10
-158.914795
20
349.358105
30
0.0
11
-160.322025
21
348.992125
31
0.0
0
LINE
8
0
6
CONTINUOUS
10
-157.666095
20
348.843505
30
0.0
11
-158.914795
21
349.358105
31
0.0
0
LINE
8
0
6
CONTINUOUS
10
-157.824655
20
347.962995
30
0.0
11
-157.666095
21
348.843505
31
0.0
0
LINE
8
0
6
CONTINUOUS
10
-159.231875
20
347.596935
30
0.0
11
-157.824655
21
347.962995
31
0.0
0
LINE
8
0
6
CONTINUOUS
10
-159.498275
20
354.266245
30
0.0
11
-158.045415
21
354.644135
31
0.0
0
LINE
8
0
6
CONTINUOUS
10
-158.045415
20
354.644135
30
0.0
11
-156.756195
21
354.112825
31
0.0
0
LINE
8
0
6
CONTINUOUS
10
-159.661965
20
353.357125
30
0.0
11
-159.498275
21
354.266245
31
0.0
0
LINE
8
0
6
CONTINUOUS
10
-159.661965
20
353.357125
30
0.0
11
-158.372765
21
352.825815
31
0.0
0
LINE
8
0
6
CONTINUOUS
10
-159.498275
20
354.266245
30
0.0
11
-159.661965
21
353.357125
31
0.0
0
LINE
8
0
6
CONTINUOUS
10
-158.045415
20
354.644135
30
0.0
11
-159.498275
21
354.266245
31
0.0
0
LINE
8
0
6
CONTINUOUS
10
-156.756195
20
354.112825
30
0.0
11
-158.045415
21
354.644135
31
0.0
0
LINE
8
0
6
CONTINUOUS
10
-156.919885
20
353.203705
30
0.0
11
-156.756195
21
354.112825
31
0.0
0
LINE
8
0
6
CONTINUOUS
10
-158.372765
20
352.825815
30
0.0
11
-156.919885
21
353.203705
31
0.0
0
LINE
8
0
6
CONTINUOUS
10
-156.371065
20
358.685655
30
0.0
11
-154.918195
21
359.063455
31
0.0
0
LINE
8
0
6
CONTINUOUS
10
-154.918195
20
359.063455
30
0.0
11
-153.628985
21
358.532225
31
0.0
0
LINE
8
0
6
CONTINUOUS
10
-156.534755
20
357.776455
30
0.0
11
-156.371065
21
358.685655
31
0.0
0
LINE
8
0
6
CONTINUOUS
10
-156.534755
20
357.776455
30
0.0
11
-155.245555
21
357.245225
31
0.0
0
LINE
8
0
6
CONTINUOUS
10
-156.371065
20
358.685655
30
0.0
11
-156.534755
21
357.776455
31
0.0
0
LINE
8
0
6
CONTINUOUS
10
-154.918195
20
359.063455
30
0.0
11
-156.371065
21
358.685655
31
0.0
0
LINE
8
0
6
CONTINUOUS
10
-153.628985
20
358.532225
30
0.0
11
-154.918195
21
359.063455
31
0.0
0
LINE
8
0
6
CONTINUOUS
10
-153.792675
20
357.623105
30
0.0
11
-153.628985
21
358.532225
31
0.0
0
LINE
8
0
6
CONTINUOUS
10
-155.245555
20
357.245225
30
0.0
11
-153.792675
21
357.623105
31
0.0
0
LINE
8
0
6
CONTINUOUS
10
-153.895635
20
352.250025
30
0.0
11
-152.488385
21
352.616015
31
0.0
0
LINE
8
0
6
CONTINUOUS
10
-152.488385
20
352.616015
30
0.0
11
-151.239685
21
352.101405
31
0.0
0
LINE
8
0
6
CONTINUOUS
10
-152.498458
20
353.402514
30
0.0
11
-152.488385
21
352.616015
31
0.0
0
LINE
8
0
6
CONTINUOUS
10
-154.054165
20
351.369445
30
0.0
11
-153.895635
21
352.250025
31
0.0
0
LINE
8
0
6
CONTINUOUS
10
-154.064229
20
352.155257
30
0.0
11
-154.054165
21
351.369445
31
0.0
0
LINE
8
0
6
CONTINUOUS
10
-154.054165
20
351.369445
30
0.0
11
-152.805465
21
350.854845
31
0.0
0
LINE
8
0
6
CONTINUOUS
10
-153.895635
20
352.250025
30
0.0
11
-154.054165
21
351.369445
31
0.0
0
LINE
8
0
6
CONTINUOUS
10
-152.488385
20
352.616015
30
0.0
11
-153.895635
21
352.250025
31
0.0
0
LINE
8
0
6
CONTINUOUS
10
-151.239685
20
352.101405
30
0.0
11
-152.488385
21
352.616015
31
0.0
0
LINE
8
0
6
CONTINUOUS
10
-151.398225
20
351.220825
30
0.0
11
-151.239685
21
352.101405
31
0.0
0
LINE
8
0
6
CONTINUOUS
10
-152.805465
20
350.854845
30
0.0
11
-151.398225
21
351.220825
31
0.0
0
LINE
8
0
6
CONTINUOUS
10
-150.233525
20
356.529275
30
0.0
11
-148.826275
21
356.895185
31
0.0
0
LINE
8
0
6
CONTINUOUS
10
-148.826275
20
356.895185
30
0.0
11
-147.577595
21
356.380655
31
0.0
0
LINE
8
0
6
CONTINUOUS
10
-148.836656
20
357.705106
30
0.0
11
-148.826275
21
356.895185
31
0.0
0
LINE
8
0
6
CONTINUOUS
10
-150.392055
20
355.648695
30
0.0
11
-150.233525
21
356.529275
31
0.0
0
LINE
8
0
6
CONTINUOUS
10
-150.401774
20
356.407295
30
0.0
11
-150.392055
21
355.648695
31
0.0
0
LINE
8
0
6
CONTINUOUS
10
-150.392055
20
355.648695
30
0.0
11
-149.143355
21
355.134095
31
0.0
0
LINE
8
0
6
CONTINUOUS
10
-150.233525
20
356.529275
30
0.0
11
-150.392055
21
355.648695
31
0.0
0
LINE
8
0
6
CONTINUOUS
10
-148.826275
20
356.895185
30
0.0
11
-150.233525
21
356.529275
31
0.0
0
LINE
8
0
6
CONTINUOUS
10
-147.577595
20
356.380655
30
0.0
11
-148.826275
21
356.895185
31
0.0
0
LINE
8
0
6
CONTINUOUS
10
-147.736135
20
355.500075
30
0.0
11
-147.577595
21
356.380655
31
0.0
0
LINE
8
0
6
CONTINUOUS
10
-149.143355
20
355.134095
30
0.0
11
-147.736135
21
355.500075
31
0.0
0
LINE
8
0
6
CONTINUOUS
10
-152.088035
20
347.772945
30
0.0
11
-150.880795
21
348.086895
31
0.0
0
LINE
8
0
6
CONTINUOUS
10
-150.880795
20
348.086895
30
0.0
11
-149.809575
21
347.645455
31
0.0
0
LINE
8
0
6
CONTINUOUS
10
-150.890015
20
348.874474
30
0.0
11
-150.880795
21
348.086895
31
0.0
0
LINE
8
0
6
CONTINUOUS
10
-152.224025
20
347.017485
30
0.0
11
-152.088035
21
347.772945
31
0.0
0
LINE
8
0
6
CONTINUOUS
10
-152.233466
20
347.823594
30
0.0
11
-152.224025
21
347.017485
31
0.0
0
LINE
8
0
6
CONTINUOUS
10
-152.224025
20
347.017485
30
0.0
11
-151.152805
21
346.576045
31
0.0
0
LINE
8
0
6
CONTINUOUS
10
-152.088035
20
347.772945
30
0.0
11
-152.224025
21
347.017485
31
0.0
0
LINE
8
0
6
CONTINUOUS
10
-150.880795
20
348.086895
30
0.0
11
-152.088035
21
347.772945
31
0.0
0
LINE
8
0
6
CONTINUOUS
10
-149.809575
20
347.645455
30
0.0
11
-150.880795
21
348.086895
31
0.0
0
LINE
8
0
6
CONTINUOUS
10
-149.945585
20
346.889995
30
0.0
11
-149.809575
21
347.645455
31
0.0
0
LINE
8
0
6
CONTINUOUS
10
-151.152805
20
346.576045
30
0.0
11
-149.945585
21
346.889995
31
0.0
0
LINE
8
0
6
CONTINUOUS
10
-146.568935
20
351.542405
30
0.0
11
-145.361695
21
351.856355
31
0.0
0
LINE
8
0
6
CONTINUOUS
10
-145.361695
20
351.856355
30
0.0
11
-144.290475
21
351.414915
31
0.0
0
LINE
8
0
6
CONTINUOUS
10
-145.371068
20
352.656851
30
0.0
11
-145.361695
21
351.856355
31
0.0
0
LINE
8
0
6
CONTINUOUS
10
-146.704945
20
350.787015
30
0.0
11
-146.568935
21
351.542405
31
0.0
0
LINE
8
0
6
CONTINUOUS
10
-146.714224
20
351.579766
30
0.0
11
-146.704945
21
350.787015
31
0.0
0
LINE
8
0
6
CONTINUOUS
10
-146.704945
20
350.787015
30
0.0
11
-145.633725
21
350.345505
31
0.0
0
LINE
8
0
6
CONTINUOUS
10
-146.568935
20
351.542405
30
0.0
11
-146.704945
21
350.787015
31
0.0
0
LINE
8
0
6
CONTINUOUS
10
-145.361695
20
351.856355
30
0.0
11
-146.568935
21
351.542405
31
0.0
0
LINE
8
0
6
CONTINUOUS
10
-144.290475
20
351.414915
30
0.0
11
-145.361695
21
351.856355
31
0.0
0
LINE
8
0
6
CONTINUOUS
10
-144.426485
20
350.659525
30
0.0
11
-144.290475
21
351.414915
31
0.0
0
LINE
8
0
6
CONTINUOUS
10
-145.633725
20
350.345505
30
0.0
11
-144.426485
21
350.659525
31
0.0
0
LINE
8
0
6
CONTINUOUS
10
-143.130535
20
356.035805
30
0.0
11
-141.923315
21
356.349755
31
0.0
0
LINE
8
0
6
CONTINUOUS
10
-141.923315
20
356.349755
30
0.0
11
-140.852095
21
355.908325
31
0.0
0
LINE
8
0
6
CONTINUOUS
10
-141.932866
20
357.165112
30
0.0
11
-141.923315
21
356.349755
31
0.0
0
LINE
8
0
6
CONTINUOUS
10
-143.266545
20
355.280425
30
0.0
11
-143.130535
21
356.035805
31
0.0
0
LINE
8
0
6
CONTINUOUS
10
-143.275691
20
356.061680
30
0.0
11
-143.266545
21
355.280425
31
0.0
0
LINE
8
0
6
CONTINUOUS
10
-143.266545
20
355.280425
30
0.0
11
-142.195325
21
354.838985
31
0.0
0
LINE
8
0
6
CONTINUOUS
10
-143.130535
20
356.035805
30
0.0
11
-143.266545
21
355.280425
31
0.0
0
LINE
8
0
6
CONTINUOUS
10
-141.923315
20
356.349755
30
0.0
11
-143.130535
21
356.035805
31
0.0
0
LINE
8
0
6
CONTINUOUS
10
-140.852095
20
355.908325
30
0.0
11
-141.923315
21
356.349755
31
0.0
0
LINE
8
0
6
CONTINUOUS
10
-140.988105
20
355.152935
30
0.0
11
-140.852095
21
355.908325
31
0.0
0
LINE
8
0
6
CONTINUOUS
10
-142.195325
20
354.838985
30
0.0
11
-140.988105
21
355.152935
31
0.0
0
LINE
8
0
6
CONTINUOUS
10
-134.428205
20
354.877665
30
0.0
11
-134.342785
21
354.120605
31
0.0
0
LINE
8
0
6
CONTINUOUS
10
-136.714045
20
354.785045
30
0.0
11
-135.613825
21
355.209925
31
0.0
0
LINE
8
0
6
CONTINUOUS
10
-136.722095
20
355.536725
30
0.0
11
-136.714045
21
354.785045
31
0.0
0
LINE
8
0
6
CONTINUOUS
10
-135.613825
20
355.209925
30
0.0
11
-134.428205
21
354.877665
31
0.0
0
LINE
8
0
6
CONTINUOUS
10
-135.622339
20
356.004516
30
0.0
11
-135.613825
21
355.209925
31
0.0
0
LINE
8
0
6
CONTINUOUS
10
-136.628615
20
354.027905
30
0.0
11
-135.442985
21
353.695725
31
0.0
0
LINE
8
0
6
CONTINUOUS
10
-136.714045
20
354.785045
30
0.0
11
-136.628615
21
354.027905
31
0.0
0
LINE
8
0
6
CONTINUOUS
10
-135.613825
20
355.209925
30
0.0
11
-136.714045
21
354.785045
31
0.0
0
LINE
8
0
6
CONTINUOUS
10
-134.428205
20
354.877665
30
0.0
11
-135.613825
21
355.209925
31
0.0
0
LINE
8
0
6
CONTINUOUS
10
-134.342785
20
354.120605
30
0.0
11
-134.428205
21
354.877665
31
0.0
0
LINE
8
0
6
CONTINUOUS
10
-135.442985
20
353.695725
30
0.0
11
-134.342785
21
354.120605
31
0.0
0
LINE
8
0
6
CONTINUOUS
10
-137.883115
20
350.349395
30
0.0
11
-137.797705
21
349.592255
31
0.0
0
LINE
8
0
6
CONTINUOUS
10
-140.168935
20
350.256695
30
0.0
11
-139.068745
21
350.681575
31
0.0
0
LINE
8
0
6
CONTINUOUS
10
-140.177004
20
351.009734
30
0.0
11
-140.168935
21
350.256695
31
0.0
0
LINE
8
0
6
CONTINUOUS
10
-139.068745
20
350.681575
30
0.0
11
-137.883115
21
350.349395
31
0.0
0
LINE
8
0
6
CONTINUOUS
10
-139.077110
20
351.462308
30
0.0
11
-139.068745
21
350.681575
31
0.0
0
LINE
8
0
6
CONTINUOUS
10
-140.083525
20
349.499635
30
0.0
11
-138.897895
21
349.167375
31
0.0
0
LINE
8
0
6
CONTINUOUS
10
-140.168935
20
350.256695
30
0.0
11
-140.083525
21
349.499635
31
0.0
0
LINE
8
0
6
CONTINUOUS
10
-139.068745
20
350.681575
30
0.0
11
-140.168935
21
350.256695
31
0.0
0
LINE
8
0
6
CONTINUOUS
10
-137.883115
20
350.349395
30
0.0
11
-139.068745
21
350.681575
31
0.0
0
LINE
8
0
6
CONTINUOUS
10
-137.797705
20
349.592255
30
0.0
11
-137.883115
21
350.349395
31
0.0
0
LINE
8
0
6
CONTINUOUS
10
-138.897895
20
349.167375
30
0.0
11
-137.797705
21
349.592255
31
0.0
0
LINE
8
0
6
CONTINUOUS
10
-142.884085
20
345.610085
30
0.0
11
-142.894183
21
346.552527
31
0.0
0
LINE
8
0
6
CONTINUOUS
10
-142.969495
20
346.367155
30
0.0
11
-142.884085
21
345.610085
31
0.0
0
LINE
8
0
6
CONTINUOUS
10
-145.255345
20
346.274535
30
0.0
11
-144.155125
21
346.699415
31
0.0
0
LINE
8
0
6
CONTINUOUS
10
-145.263432
20
347.029668
30
0.0
11
-145.255345
21
346.274535
31
0.0
0
LINE
8
0
6
CONTINUOUS
10
-142.969495
20
346.367155
30
0.0
11
-142.971181
21
346.524486
31
0.0
0
LINE
8
0
6
CONTINUOUS
10
-144.155125
20
346.699415
30
0.0
11
-142.969495
21
346.367155
31
0.0
0
LINE
8
0
6
CONTINUOUS
10
-144.163358
20
347.467817
30
0.0
11
-144.155125
21
346.699415
31
0.0
0
LINE
8
0
6
CONTINUOUS
10
-145.169925
20
345.517395
30
0.0
11
-143.984305
21
345.185205
31
0.0
0
LINE
8
0
6
CONTINUOUS
10
-145.255345
20
346.274535
30
0.0
11
-145.169925
21
345.517395
31
0.0
0
LINE
8
0
6
CONTINUOUS
10
-144.155125
20
346.699415
30
0.0
11
-145.255345
21
346.274535
31
0.0
0
LINE
8
0
6
CONTINUOUS
10
-142.969495
20
346.367155
30
0.0
11
-144.155125
21
346.699415
31
0.0
0
LINE
8
0
6
CONTINUOUS
10
-142.884085
20
345.610085
30
0.0
11
-142.969495
21
346.367155
31
0.0
0
LINE
8
0
6
CONTINUOUS
10
-143.984305
20
345.185205
30
0.0
11
-142.884085
21
345.610085
31
0.0
0
LINE
8
0
6
CONTINUOUS
10
-149.365235
20
342.492415
30
0.0
11
-149.380207
21
343.889715
31
0.0
0
LINE
8
0
6
CONTINUOUS
10
-149.450645
20
343.249475
30
0.0
11
-149.365235
21
342.492415
31
0.0
0
LINE
8
0
6
CONTINUOUS
10
-151.736475
20
343.156855
30
0.0
11
-150.636275
21
343.581735
31
0.0
0
LINE
8
0
6
CONTINUOUS
10
-151.744659
20
343.920656
30
0.0
11
-151.736475
21
343.156855
31
0.0
0
LINE
8
0
6
CONTINUOUS
10
-149.450645
20
343.249475
30
0.0
11
-149.460415
21
344.161263
31
0.0
0
LINE
8
0
6
CONTINUOUS
10
-150.636275
20
343.581735
30
0.0
11
-149.450645
21
343.249475
31
0.0
0
LINE
8
0
6
CONTINUOUS
10
-150.644439
20
344.343694
30
0.0
11
-150.636275
21
343.581735
31
0.0
0
LINE
8
0
6
CONTINUOUS
10
-151.651065
20
342.399715
30
0.0
11
-150.465455
21
342.067535
31
0.0
0
LINE
8
0
6
CONTINUOUS
10
-151.736475
20
343.156855
30
0.0
11
-151.651065
21
342.399715
31
0.0
0
LINE
8
0
6
CONTINUOUS
10
-150.636275
20
343.581735
30
0.0
11
-151.736475
21
343.156855
31
0.0
0
LINE
8
0
6
CONTINUOUS
10
-149.450645
20
343.249475
30
0.0
11
-150.636275
21
343.581735
31
0.0
0
LINE
8
0
6
CONTINUOUS
10
-149.365235
20
342.492415
30
0.0
11
-149.450645
21
343.249475
31
0.0
0
LINE
8
0
6
CONTINUOUS
10
-150.465455
20
342.067535
30
0.0
11
-149.365235
21
342.492415
31
0.0
0
LINE
8
0
6
CONTINUOUS
10
-181.265835
20
357.355925
30
0.0
11
-181.266445
21
358.269315
31
0.0
0
LINE
8
0
6
CONTINUOUS
10
-181.266445
20
358.269315
30
0.0
11
-179.888405
21
358.730965
31
0.0
0
LINE
8
0
6
CONTINUOUS
10
-179.888405
20
358.730965
30
0.0
11
-178.509715
21
358.279305
31
0.0
0
LINE
8
0
6
CONTINUOUS
10
-181.266445
20
358.269315
30
0.0
11
-181.265835
21
357.355925
31
0.0
0
LINE
8
0
6
CONTINUOUS
10
-179.888405
20
358.730965
30
0.0
11
-181.266445
21
358.269315
31
0.0
0
LINE
8
0
6
CONTINUOUS
10
-178.509715
20
358.279305
30
0.0
11
-179.888405
21
358.730965
31
0.0
0
LINE
8
0
6
CONTINUOUS
10
-178.509065
20
357.365915
30
0.0
11
-178.509715
21
358.279305
31
0.0
0
LINE
8
0
6
CONTINUOUS
10
-179.887125
20
356.904185
30
0.0
11
-178.509065
21
357.365915
31
0.0
0
LINE
8
0
6
CONTINUOUS
10
-181.265835
20
357.355925
30
0.0
11
-179.887125
21
356.904185
31
0.0
0
LINE
8
0
6
CONTINUOUS
10
-163.473785
20
363.074075
30
0.0
11
-162.532505
21
362.340745
31
0.0
0
LINE
8
0
6
CONTINUOUS
10
-165.055905
20
362.969095
30
0.0
11
-163.473785
21
363.074075
31
0.0
0
LINE
8
0
6
CONTINUOUS
10
-165.696755
20
362.130855
30
0.0
11
-165.055905
21
362.969095
31
0.0
0
LINE
8
0
6
CONTINUOUS
10
-162.532505
20
362.340745
30
0.0
11
-163.473785
21
363.074075
31
0.0
0
LINE
8
0
6
CONTINUOUS
10
-163.173355
20
361.502505
30
0.0
11
-162.532505
21
362.340745
31
0.0
0
LINE
8
0
6
CONTINUOUS
10
-164.755485
20
361.397515
30
0.0
11
-163.173355
21
361.502505
31
0.0
0
LINE
8
0
6
CONTINUOUS
10
-165.696755
20
362.130855
30
0.0
11
-164.755485
21
361.397515
31
0.0
0
LINE
8
0
6
CONTINUOUS
10
-165.055905
20
362.969095
30
0.0
11
-165.696755
21
362.130855
31
0.0
0
LINE
8
0
6
CONTINUOUS
10
-163.473785
20
363.074075
30
0.0
11
-165.055905
21
362.969095
31
0.0
0
LINE
8
0
6
CONTINUOUS
10
-179.705735
20
361.955155
30
0.0
11
-179.384385
21
362.850915
31
0.0
0
LINE
8
0
6
CONTINUOUS
10
-179.384385
20
362.850915
30
0.0
11
-177.873765
21
363.143655
31
0.0
0
LINE
8
0
6
CONTINUOUS
10
-177.873765
20
363.143655
30
0.0
11
-176.684515
21
362.540635
31
0.0
0
LINE
8
0
6
CONTINUOUS
10
-177.873765
20
363.143655
30
0.0
11
-179.384385
21
362.850915
31
0.0
0
LINE
8
0
6
CONTINUOUS
10
-176.684515
20
362.540635
30
0.0
11
-177.873765
21
363.143655
31
0.0
0
LINE
8
0
6
CONTINUOUS
10
-177.005865
20
361.644945
30
0.0
11
-176.684515
21
362.540635
31
0.0
0
LINE
8
0
6
CONTINUOUS
10
-178.516465
20
361.352205
30
0.0
11
-177.005865
21
361.644945
31
0.0
0
LINE
8
0
6
CONTINUOUS
10
-179.705735
20
361.955155
30
0.0
11
-178.516465
21
361.352205
31
0.0
0
LINE
8
0
6
CONTINUOUS
10
-179.384385
20
362.850915
30
0.0
11
-179.705735
21
361.955155
31
0.0
0
LINE
8
0
6
CONTINUOUS
10
-161.341695
20
358.597225
30
0.0
11
-160.691855
21
357.765625
31
0.0
0
LINE
8
0
6
CONTINUOUS
10
-162.924845
20
358.685805
30
0.0
11
-161.341695
21
358.597225
31
0.0
0
LINE
8
0
6
CONTINUOUS
10
-163.858135
20
357.942705
30
0.0
11
-162.924845
21
358.685805
31
0.0
0
LINE
8
0
6
CONTINUOUS
10
-161.625165
20
357.022595
30
0.0
11
-160.691855
21
357.765625
31
0.0
0
LINE
8
0
6
CONTINUOUS
10
-163.208295
20
357.111095
30
0.0
11
-161.625165
21
357.022595
31
0.0
0
LINE
8
0
6
CONTINUOUS
10
-163.858135
20
357.942705
30
0.0
11
-163.208295
21
357.111095
31
0.0
0
LINE
8
0
6
CONTINUOUS
10
-162.924845
20
358.685805
30
0.0
11
-163.858135
21
357.942705
31
0.0
0
LINE
8
0
6
CONTINUOUS
10
-161.341695
20
358.597225
30
0.0
11
-162.924845
21
358.685805
31
0.0
0
LINE
8
0
6
CONTINUOUS
10
-160.691855
20
357.765625
30
0.0
11
-161.341695
21
358.597225
31
0.0
0
LINE
8
0
6
CONTINUOUS
10
-173.800435
20
354.993485
30
0.0
11
-173.466325
21
354.101525
31
0.0
0
LINE
8
0
6
CONTINUOUS
10
-175.315095
20
355.268755
30
0.0
11
-173.800435
21
354.993485
31
0.0
0
LINE
8
0
6
CONTINUOUS
10
-176.495685
20
354.652065
30
0.0
11
-175.315095
21
355.268755
31
0.0
0
LINE
8
0
6
CONTINUOUS
10
-176.161595
20
353.760195
30
0.0
11
-174.646915
21
353.484925
31
0.0
0
LINE
8
0
6
CONTINUOUS
10
-176.495685
20
354.652065
30
0.0
11
-176.161595
21
353.760195
31
0.0
0
LINE
8
0
6
CONTINUOUS
10
-175.315095
20
355.268755
30
0.0
11
-176.495685
21
354.652065
31
0.0
0
LINE
8
0
6
CONTINUOUS
10
-173.800435
20
354.993485
30
0.0
11
-175.315095
21
355.268755
31
0.0
0
LINE
8
0
6
CONTINUOUS
10
-173.466325
20
354.101525
30
0.0
11
-173.800435
21
354.993485
31
0.0
0
LINE
8
0
6
CONTINUOUS
10
-174.646915
20
353.484925
30
0.0
11
-173.466325
21
354.101525
31
0.0
0
LINE
8
0
6
CONTINUOUS
10
-166.271325
20
355.057495
30
0.0
11
-165.621475
21
354.225885
31
0.0
0
LINE
8
0
6
CONTINUOUS
10
-167.854485
20
355.146065
30
0.0
11
-166.271325
21
355.057495
31
0.0
0
LINE
8
0
6
CONTINUOUS
10
-168.787765
20
354.403045
30
0.0
11
-167.854485
21
355.146065
31
0.0
0
LINE
8
0
6
CONTINUOUS
10
-166.554795
20
353.482865
30
0.0
11
-165.621475
21
354.225885
31
0.0
0
LINE
8
0
6
CONTINUOUS
10
-168.137915
20
353.571365
30
0.0
11
-166.554795
21
353.482865
31
0.0
0
LINE
8
0
6
CONTINUOUS
10
-168.787765
20
354.403045
30
0.0
11
-168.137915
21
353.571365
31
0.0
0
LINE
8
0
6
CONTINUOUS
10
-167.854485
20
355.146065
30
0.0
11
-168.787765
21
354.403045
31
0.0
0
LINE
8
0
6
CONTINUOUS
10
-166.271325
20
355.057495
30
0.0
11
-167.854485
21
355.146065
31
0.0
0
LINE
8
0
6
CONTINUOUS
10
-165.621475
20
354.225885
30
0.0
11
-166.271325
21
355.057495
31
0.0
0
LINE
8
0
6
CONTINUOUS
10
-170.141985
20
364.947785
30
0.0
11
-169.492135
21
364.116175
31
0.0
0
LINE
8
0
6
CONTINUOUS
10
-171.725145
20
365.036285
30
0.0
11
-170.141985
21
364.947785
31
0.0
0
LINE
8
0
6
CONTINUOUS
10
-172.658405
20
364.293255
30
0.0
11
-171.725145
21
365.036285
31
0.0
0
LINE
8
0
6
CONTINUOUS
10
-170.425435
20
363.373075
30
0.0
11
-169.492135
21
364.116175
31
0.0
0
LINE
8
0
6
CONTINUOUS
10
-172.008575
20
363.461655
30
0.0
11
-170.425435
21
363.373075
31
0.0
0
LINE
8
0
6
CONTINUOUS
10
-172.658405
20
364.293255
30
0.0
11
-172.008575
21
363.461655
31
0.0
0
LINE
8
0
6
CONTINUOUS
10
-171.725145
20
365.036285
30
0.0
11
-172.658405
21
364.293255
31
0.0
0
LINE
8
0
6
CONTINUOUS
10
-170.141985
20
364.947785
30
0.0
11
-171.725145
21
365.036285
31
0.0
0
LINE
8
0
6
CONTINUOUS
10
-169.492135
20
364.116175
30
0.0
11
-170.141985
21
364.947785
31
0.0
0
LINE
8
0
6
CONTINUOUS
10
-188.451505
20
359.778025
30
0.0
11
-188.452115
21
360.691415
31
0.0
0
LINE
8
0
6
CONTINUOUS
10
-188.452115
20
360.691415
30
0.0
11
-187.074075
21
361.153075
31
0.0
0
LINE
8
0
6
CONTINUOUS
10
-187.074075
20
361.153075
30
0.0
11
-185.695385
21
360.701415
31
0.0
0
LINE
8
0
6
CONTINUOUS
10
-188.452115
20
360.691415
30
0.0
11
-188.451505
21
359.778025
31
0.0
0
LINE
8
0
6
CONTINUOUS
10
-187.074075
20
361.153075
30
0.0
11
-188.452115
21
360.691415
31
0.0
0
LINE
8
0
6
CONTINUOUS
10
-185.695385
20
360.701415
30
0.0
11
-187.074075
21
361.153075
31
0.0
0
LINE
8
0
6
CONTINUOUS
10
-185.694735
20
359.788025
30
0.0
11
-185.695385
21
360.701415
31
0.0
0
LINE
8
0
6
CONTINUOUS
10
-187.072775
20
359.326295
30
0.0
11
-185.694735
21
359.788025
31
0.0
0
LINE
8
0
6
CONTINUOUS
10
-188.451505
20
359.778025
30
0.0
11
-187.072775
21
359.326295
31
0.0
0
LINE
8
0
6
CONTINUOUS
10
-195.343865
20
360.331925
30
0.0
11
-195.344475
21
361.216625
31
0.0
0
LINE
8
0
6
CONTINUOUS
10
-195.344475
20
361.216625
30
0.0
11
-194.009725
21
361.663865
31
0.0
0
LINE
8
0
6
CONTINUOUS
10
-194.009725
20
361.663865
30
0.0
11
-192.674335
21
361.226315
31
0.0
0
LINE
8
0
6
CONTINUOUS
10
-195.344475
20
361.216625
30
0.0
11
-195.343865
21
360.331925
31
0.0
0
LINE
8
0
6
CONTINUOUS
10
-194.009725
20
361.663865
30
0.0
11
-195.344475
21
361.216625
31
0.0
0
LINE
8
0
6
CONTINUOUS
10
-192.674335
20
361.226315
30
0.0
11
-194.009725
21
361.663865
31
0.0
0
LINE
8
0
6
CONTINUOUS
10
-192.673725
20
360.341615
30
0.0
11
-192.674335
21
361.226315
31
0.0
0
LINE
8
0
6
CONTINUOUS
10
-194.008485
20
359.894455
30
0.0
11
-192.673725
21
360.341615
31
0.0
0
LINE
8
0
6
CONTINUOUS
10
-195.343865
20
360.331925
30
0.0
11
-194.008485
21
359.894455
31
0.0
0
LINE
8
0
6
CONTINUOUS
10
-202.256795
20
359.189265
30
0.0
11
-202.257335
21
359.948235
31
0.0
0
LINE
8
0
6
CONTINUOUS
10
-202.257335
20
359.948235
30
0.0
11
-201.112275
21
360.331845
31
0.0
0
LINE
8
0
6
CONTINUOUS
10
-201.112275
20
360.331845
30
0.0
11
-199.966705
21
359.956555
31
0.0
0
LINE
8
0
6
CONTINUOUS
10
-202.257335
20
359.948235
30
0.0
11
-202.256795
21
359.189265
31
0.0
0
LINE
8
0
6
CONTINUOUS
10
-201.112275
20
360.331845
30
0.0
11
-202.257335
21
359.948235
31
0.0
0
LINE
8
0
6
CONTINUOUS
10
-199.966705
20
359.956555
30
0.0
11
-201.112275
21
360.331845
31
0.0
0
LINE
8
0
6
CONTINUOUS
10
-199.966145
20
359.197585
30
0.0
11
-199.966705
21
359.956555
31
0.0
0
LINE
8
0
6
CONTINUOUS
10
-201.111205
20
358.813905
30
0.0
11
-199.966145
21
359.197585
31
0.0
0
LINE
8
0
6
CONTINUOUS
10
-202.256795
20
359.189265
30
0.0
11
-201.111205
21
358.813905
31
0.0
0
LINE
8
0
6
CONTINUOUS
10
-209.275265
20
358.587305
30
0.0
11
-209.275785
21
359.346285
31
0.0
0
LINE
8
0
6
CONTINUOUS
10
-209.275785
20
359.346285
30
0.0
11
-209.275265
21
358.587305
31
0.0
0
LINE
8
0
6
CONTINUOUS
10
-209.275265
20
358.587305
30
0.0
11
-208.129675
21
358.212015
31
0.0
0
LINE
8
0
6
CONTINUOUS
10
-209.101205
20
358.641475
30
0.0
11
-209.101715
21
359.400445
31
0.0
0
LINE
8
0
6
CONTINUOUS
10
-209.101715
20
359.400445
30
0.0
11
-207.956685
21
359.784135
31
0.0
0
LINE
8
0
6
CONTINUOUS
10
-207.956685
20
359.784135
30
0.0
11
-206.811065
21
359.408765
31
0.0
0
LINE
8
0
6
CONTINUOUS
10
-209.101715
20
359.400445
30
0.0
11
-209.101205
21
358.641475
31
0.0
0
LINE
8
0
6
CONTINUOUS
10
-207.956685
20
359.784135
30
0.0
11
-209.101715
21
359.400445
31
0.0
0
LINE
8
0
6
CONTINUOUS
10
-206.811065
20
359.408765
30
0.0
11
-207.956685
21
359.784135
31
0.0
0
LINE
8
0
6
CONTINUOUS
10
-206.810535
20
358.649795
30
0.0
11
-206.811065
21
359.408765
31
0.0
0
LINE
8
0
6
CONTINUOUS
10
-207.955615
20
358.266185
30
0.0
11
-206.810535
21
358.649795
31
0.0
0
LINE
8
0
6
CONTINUOUS
10
-209.101205
20
358.641475
30
0.0
11
-207.955615
21
358.266185
31
0.0
0
LINE
8
0
6
CONTINUOUS
10
-202.256795
20
359.189265
30
0.0
11
-202.257335
21
359.948235
31
0.0
0
LINE
8
0
6
CONTINUOUS
10
-202.257335
20
359.948235
30
0.0
11
-201.112275
21
360.331845
31
0.0
0
LINE
8
0
6
CONTINUOUS
10
-201.112275
20
360.331845
30
0.0
11
-199.966705
21
359.956555
31
0.0
0
LINE
8
0
6
CONTINUOUS
10
-202.257335
20
359.948235
30
0.0
11
-202.256795
21
359.189265
31
0.0
0
LINE
8
0
6
CONTINUOUS
10
-201.112275
20
360.331845
30
0.0
11
-202.257335
21
359.948235
31
0.0
0
LINE
8
0
6
CONTINUOUS
10
-199.966705
20
359.956555
30
0.0
11
-201.112275
21
360.331845
31
0.0
0
LINE
8
0
6
CONTINUOUS
10
-199.966145
20
359.197585
30
0.0
11
-199.966705
21
359.956555
31
0.0
0
LINE
8
0
6
CONTINUOUS
10
-201.111205
20
358.813905
30
0.0
11
-199.966145
21
359.197585
31
0.0
0
LINE
8
0
6
CONTINUOUS
10
-202.256795
20
359.189265
30
0.0
11
-201.111205
21
358.813905
31
0.0
0
LINE
8
0
6
CONTINUOUS
10
-195.343865
20
360.331925
30
0.0
11
-195.344475
21
361.216625
31
0.0
0
LINE
8
0
6
CONTINUOUS
10
-195.344475
20
361.216625
30
0.0
11
-194.009725
21
361.663865
31
0.0
0
LINE
8
0
6
CONTINUOUS
10
-194.009725
20
361.663865
30
0.0
11
-192.674335
21
361.226315
31
0.0
0
LINE
8
0
6
CONTINUOUS
10
-195.344475
20
361.216625
30
0.0
11
-195.343865
21
360.331925
31
0.0
0
LINE
8
0
6
CONTINUOUS
10
-194.009725
20
361.663865
30
0.0
11
-195.344475
21
361.216625
31
0.0
0
LINE
8
0
6
CONTINUOUS
10
-192.674335
20
361.226315
30
0.0
11
-194.009725
21
361.663865
31
0.0
0
LINE
8
0
6
CONTINUOUS
10
-192.673725
20
360.341615
30
0.0
11
-192.674335
21
361.226315
31
0.0
0
LINE
8
0
6
CONTINUOUS
10
-194.008485
20
359.894455
30
0.0
11
-192.673725
21
360.341615
31
0.0
0
LINE
8
0
6
CONTINUOUS
10
-195.343865
20
360.331925
30
0.0
11
-194.008485
21
359.894455
31
0.0
0
LINE
8
0
6
CONTINUOUS
10
-188.451505
20
359.778025
30
0.0
11
-188.452115
21
360.691415
31
0.0
0
LINE
8
0
6
CONTINUOUS
10
-188.452115
20
360.691415
30
0.0
11
-187.074075
21
361.153075
31
0.0
0
LINE
8
0
6
CONTINUOUS
10
-187.074075
20
361.153075
30
0.0
11
-185.695385
21
360.701415
31
0.0
0
LINE
8
0
6
CONTINUOUS
10
-188.452115
20
360.691415
30
0.0
11
-188.451505
21
359.778025
31
0.0
0
LINE
8
0
6
CONTINUOUS
10
-187.074075
20
361.153075
30
0.0
11
-188.452115
21
360.691415
31
0.0
0
LINE
8
0
6
CONTINUOUS
10
-185.695385
20
360.701415
30
0.0
11
-187.074075
21
361.153075
31
0.0
0
LINE
8
0
6
CONTINUOUS
10
-185.694735
20
359.788025
30
0.0
11
-185.695385
21
360.701415
31
0.0
0
LINE
8
0
6
CONTINUOUS
10
-187.072775
20
359.326295
30
0.0
11
-185.694735
21
359.788025
31
0.0
0
LINE
8
0
6
CONTINUOUS
10
-188.451505
20
359.778025
30
0.0
11
-187.072775
21
359.326295
31
0.0
0
LINE
8
0
6
CONTINUOUS
10
-185.270775
20
364.263655
30
0.0
11
-185.271405
21
365.177125
31
0.0
0
LINE
8
0
6
CONTINUOUS
10
-185.271405
20
365.177125
30
0.0
11
-183.893365
21
365.638775
31
0.0
0
LINE
8
0
6
CONTINUOUS
10
-183.893365
20
365.638775
30
0.0
11
-182.514655
21
365.187115
31
0.0
0
LINE
8
0
6
CONTINUOUS
10
-185.271405
20
365.177125
30
0.0
11
-185.270775
21
364.263655
31
0.0
0
LINE
8
0
6
CONTINUOUS
10
-183.893365
20
365.638775
30
0.0
11
-185.271405
21
365.177125
31
0.0
0
LINE
8
0
6
CONTINUOUS
10
-182.514655
20
365.187115
30
0.0
11
-183.893365
21
365.638775
31
0.0
0
LINE
8
0
6
CONTINUOUS
10
-182.514005
20
364.273725
30
0.0
11
-182.514655
21
365.187115
31
0.0
0
LINE
8
0
6
CONTINUOUS
10
-183.892085
20
363.811995
30
0.0
11
-182.514005
21
364.273725
31
0.0
0
LINE
8
0
6
CONTINUOUS
10
-185.270775
20
364.263655
30
0.0
11
-183.892085
21
363.811995
31
0.0
0
LINE
8
0
6
CONTINUOUS
10
-192.940985
20
365.043755
30
0.0
11
-192.941595
21
365.928545
31
0.0
0
LINE
8
0
6
CONTINUOUS
10
-192.941595
20
365.928545
30
0.0
11
-191.606835
21
366.375695
31
0.0
0
LINE
8
0
6
CONTINUOUS
10
-191.606835
20
366.375695
30
0.0
11
-190.271455
21
365.938235
31
0.0
0
LINE
8
0
6
CONTINUOUS
10
-192.941595
20
365.928545
30
0.0
11
-192.940985
21
365.043755
31
0.0
0
LINE
8
0
6
CONTINUOUS
10
-191.606835
20
366.375695
30
0.0
11
-192.941595
21
365.928545
31
0.0
0
LINE
8
0
6
CONTINUOUS
10
-190.271455
20
365.938235
30
0.0
11
-191.606835
21
366.375695
31
0.0
0
LINE
8
0
6
CONTINUOUS
10
-190.270825
20
365.053525
30
0.0
11
-190.271455
21
365.938235
31
0.0
0
LINE
8
0
6
CONTINUOUS
10
-191.605615
20
364.606295
30
0.0
11
-190.270825
21
365.053525
31
0.0
0
LINE
8
0
6
CONTINUOUS
10
-192.940985
20
365.043755
30
0.0
11
-191.605615
21
364.606295
31
0.0
0
LINE
8
0
6
CONTINUOUS
10
-187.895895
20
368.931395
30
0.0
11
-187.896505
21
369.816095
31
0.0
0
LINE
8
0
6
CONTINUOUS
10
-187.896505
20
369.816095
30
0.0
11
-186.561745
21
370.263255
31
0.0
0
LINE
8
0
6
CONTINUOUS
10
-186.561745
20
370.263255
30
0.0
11
-185.226365
21
369.825785
31
0.0
0
LINE
8
0
6
CONTINUOUS
10
-187.896505
20
369.816095
30
0.0
11
-187.895895
21
368.931395
31
0.0
0
LINE
8
0
6
CONTINUOUS
10
-186.561745
20
370.263255
30
0.0
11
-187.896505
21
369.816095
31
0.0
0
LINE
8
0
6
CONTINUOUS
10
-185.226365
20
369.825785
30
0.0
11
-186.561745
21
370.263255
31
0.0
0
LINE
8
0
6
CONTINUOUS
10
-185.225735
20
368.941085
30
0.0
11
-185.226365
21
369.825785
31
0.0
0
LINE
8
0
6
CONTINUOUS
10
-186.560525
20
368.493845
30
0.0
11
-185.225735
21
368.941085
31
0.0
0
LINE
8
0
6
CONTINUOUS
10
-187.895895
20
368.931395
30
0.0
11
-186.560525
21
368.493845
31
0.0
0
LINE
8
0
6
CONTINUOUS
10
-201.098335
20
364.049645
30
0.0
11
-201.098845
21
364.808625
31
0.0
0
LINE
8
0
6
CONTINUOUS
10
-201.098845
20
364.808625
30
0.0
11
-199.953805
21
365.192305
31
0.0
0
LINE
8
0
6
CONTINUOUS
10
-199.953805
20
365.192305
30
0.0
11
-198.808215
21
364.816935
31
0.0
0
LINE
8
0
6
CONTINUOUS
10
-201.098845
20
364.808625
30
0.0
11
-201.098335
21
364.049645
31
0.0
0
LINE
8
0
6
CONTINUOUS
10
-199.953805
20
365.192305
30
0.0
11
-201.098845
21
364.808625
31
0.0
0
LINE
8
0
6
CONTINUOUS
10
-198.808215
20
364.816935
30
0.0
11
-199.953805
21
365.192305
31
0.0
0
LINE
8
0
6
CONTINUOUS
10
-198.807685
20
364.057965
30
0.0
11
-198.808215
21
364.816935
31
0.0
0
LINE
8
0
6
CONTINUOUS
10
-199.952735
20
363.674355
30
0.0
11
-198.807685
21
364.057965
31
0.0
0
LINE
8
0
6
CONTINUOUS
10
-201.098335
20
364.049645
30
0.0
11
-199.952735
21
363.674355
31
0.0
0
LINE
8
0
6
CONTINUOUS
10
-197.793625
20
368.597375
30
0.0
11
-197.794135
21
369.356355
31
0.0
0
LINE
8
0
6
CONTINUOUS
10
-197.794135
20
369.356355
30
0.0
11
-196.649075
21
369.739955
31
0.0
0
LINE
8
0
6
CONTINUOUS
10
-196.649075
20
369.739955
30
0.0
11
-195.503485
21
369.364745
31
0.0
0
LINE
8
0
6
CONTINUOUS
10
-197.794135
20
369.356355
30
0.0
11
-197.793625
21
368.597375
31
0.0
0
LINE
8
0
6
CONTINUOUS
10
-196.649075
20
369.739955
30
0.0
11
-197.794135
21
369.356355
31
0.0
0
LINE
8
0
6
CONTINUOUS
10
-195.503485
20
369.364745
30
0.0
11
-196.649075
21
369.739955
31
0.0
0
LINE
8
0
6
CONTINUOUS
10
-195.502975
20
368.605775
30
0.0
11
-195.503485
21
369.364745
31
0.0
0
LINE
8
0
6
CONTINUOUS
10
-196.648025
20
368.222015
30
0.0
11
-195.502975
21
368.605775
31
0.0
0
LINE
8
0
6
CONTINUOUS
10
-197.793625
20
368.597375
30
0.0
11
-196.648025
21
368.222015
31
0.0
0
LINE
8
0
6
CONTINUOUS
10
-192.226375
20
372.372405
30
0.0
11
-192.226895
21
373.131375
31
0.0
0
LINE
8
0
6
CONTINUOUS
10
-192.226895
20
373.131375
30
0.0
11
-191.081835
21
373.514985
31
0.0
0
LINE
8
0
6
CONTINUOUS
10
-191.081835
20
373.514985
30
0.0
11
-189.936265
21
373.139615
31
0.0
0
LINE
8
0
6
CONTINUOUS
10
-192.226895
20
373.131375
30
0.0
11
-192.226375
21
372.372405
31
0.0
0
LINE
8
0
6
CONTINUOUS
10
-191.081835
20
373.514985
30
0.0
11
-192.226895
21
373.131375
31
0.0
0
LINE
8
0
6
CONTINUOUS
10
-189.936265
20
373.139615
30
0.0
11
-191.081835
21
373.514985
31
0.0
0
LINE
8
0
6
CONTINUOUS
10
-189.935705
20
372.380715
30
0.0
11
-189.936265
21
373.139615
31
0.0
0
LINE
8
0
6
CONTINUOUS
10
-191.080785
20
371.997035
30
0.0
11
-189.935705
21
372.380715
31
0.0
0
LINE
8
0
6
CONTINUOUS
10
-192.226375
20
372.372405
30
0.0
11
-191.080785
21
371.997035
31
0.0
0
LINE
8
0
6
CONTINUOUS
10
-196.062935
20
376.319165
30
0.0
11
-195.842765
21
377.068295
31
0.0
0
LINE
8
0
6
CONTINUOUS
10
-195.842765
20
377.068295
30
0.0
11
-194.603355
21
377.337235
31
0.0
0
LINE
8
0
6
CONTINUOUS
10
-194.603355
20
377.337235
30
0.0
11
-193.584105
21
376.857115
31
0.0
0
LINE
8
0
6
CONTINUOUS
10
-195.842765
20
377.068295
30
0.0
11
-196.062935
21
376.319165
31
0.0
0
LINE
8
0
6
CONTINUOUS
10
-194.603355
20
377.337235
30
0.0
11
-195.842765
21
377.068295
31
0.0
0
LINE
8
0
6
CONTINUOUS
10
-193.584105
20
376.857115
30
0.0
11
-194.603355
21
377.337235
31
0.0
0
LINE
8
0
6
CONTINUOUS
10
-193.804245
20
376.107985
30
0.0
11
-193.584105
21
376.857115
31
0.0
0
LINE
8
0
6
CONTINUOUS
10
-195.043685
20
375.838975
30
0.0
11
-193.804245
21
376.107985
31
0.0
0
LINE
8
0
6
CONTINUOUS
10
-196.062935
20
376.319165
30
0.0
11
-195.043685
21
375.838975
31
0.0
0
LINE
8
0
6
CONTINUOUS
10
-201.949845
20
372.689025
30
0.0
11
-201.729665
21
373.438155
31
0.0
0
LINE
8
0
6
CONTINUOUS
10
-201.729665
20
373.438155
30
0.0
11
-200.490265
21
373.707085
31
0.0
0
LINE
8
0
6
CONTINUOUS
10
-200.490265
20
373.707085
30
0.0
11
-199.471005
21
373.226895
31
0.0
0
LINE
8
0
6
CONTINUOUS
10
-201.729665
20
373.438155
30
0.0
11
-201.949845
21
372.689025
31
0.0
0
LINE
8
0
6
CONTINUOUS
10
-200.490265
20
373.707085
30
0.0
11
-201.729665
21
373.438155
31
0.0
0
LINE
8
0
6
CONTINUOUS
10
-199.471005
20
373.226895
30
0.0
11
-200.490265
21
373.707085
31
0.0
0
LINE
8
0
6
CONTINUOUS
10
-199.691165
20
372.477845
30
0.0
11
-199.471005
21
373.226895
31
0.0
0
LINE
8
0
6
CONTINUOUS
10
-200.930585
20
372.208825
30
0.0
11
-199.691165
21
372.477845
31
0.0
0
LINE
8
0
6
CONTINUOUS
10
-201.949845
20
372.689025
30
0.0
11
-200.930585
21
372.208825
31
0.0
0
LINE
8
0
6
CONTINUOUS
10
-206.292725
20
368.364605
30
0.0
11
-206.072545
21
369.113735
31
0.0
0
LINE
8
0
6
CONTINUOUS
10
-206.072545
20
369.113735
30
0.0
11
-204.833145
21
369.382675
31
0.0
0
LINE
8
0
6
CONTINUOUS
10
-204.833145
20
369.382675
30
0.0
11
-203.813905
21
368.902555
31
0.0
0
LINE
8
0
6
CONTINUOUS
10
-206.072545
20
369.113735
30
0.0
11
-206.292725
21
368.364605
31
0.0
0
LINE
8
0
6
CONTINUOUS
10
-204.833145
20
369.382675
30
0.0
11
-206.072545
21
369.113735
31
0.0
0
LINE
8
0
6
CONTINUOUS
10
-203.813905
20
368.902555
30
0.0
11
-204.833145
21
369.382675
31
0.0
0
LINE
8
0
6
CONTINUOUS
10
-204.034045
20
368.153425
30
0.0
11
-203.813905
21
368.902555
31
0.0
0
LINE
8
0
6
CONTINUOUS
10
-205.273475
20
367.884415
30
0.0
11
-204.034045
21
368.153425
31
0.0
0
LINE
8
0
6
CONTINUOUS
10
-206.292725
20
368.364605
30
0.0
11
-205.273475
21
367.884415
31
0.0
0
LINE
8
0
6
CONTINUOUS
10
-208.848275
20
363.685345
30
0.0
11
-208.628085
21
364.434475
31
0.0
0
LINE
8
0
6
CONTINUOUS
10
-208.628085
20
364.434475
30
0.0
11
-207.388675
21
364.703415
31
0.0
0
LINE
8
0
6
CONTINUOUS
10
-207.388675
20
364.703415
30
0.0
11
-206.369425
21
364.223295
31
0.0
0
LINE
8
0
6
CONTINUOUS
10
-208.628085
20
364.434475
30
0.0
11
-208.848275
21
363.685345
31
0.0
0
LINE
8
0
6
CONTINUOUS
10
-207.388675
20
364.703415
30
0.0
11
-208.628085
21
364.434475
31
0.0
0
LINE
8
0
6
CONTINUOUS
10
-206.369425
20
364.223295
30
0.0
11
-207.388675
21
364.703415
31
0.0
0
LINE
8
0
6
CONTINUOUS
10
-206.589565
20
363.474165
30
0.0
11
-206.369425
21
364.223295
31
0.0
0
LINE
8
0
6
CONTINUOUS
10
-207.829005
20
363.205225
30
0.0
11
-206.589565
21
363.474165
31
0.0
0
LINE
8
0
6
CONTINUOUS
10
-208.848275
20
363.685345
30
0.0
11
-207.829005
21
363.205225
31
0.0
0
LINE
8
0
6
CONTINUOUS
10
-173.102535
20
351.009415
30
0.0
11
-171.643435
21
350.649615
31
0.0
0
LINE
8
0
6
CONTINUOUS
10
-174.382615
20
350.462235
30
0.0
11
-173.102535
21
351.009415
31
0.0
0
LINE
8
0
6
CONTINUOUS
10
-171.643435
20
350.649615
30
0.0
11
-171.464395
21
349.742625
31
0.0
0
LINE
8
0
6
CONTINUOUS
10
-174.203575
20
349.555245
30
0.0
11
-172.744465
21
349.195445
31
0.0
0
LINE
8
0
6
CONTINUOUS
10
-174.382615
20
350.462235
30
0.0
11
-174.203575
21
349.555245
31
0.0
0
LINE
8
0
6
CONTINUOUS
10
-173.102535
20
351.009415
30
0.0
11
-174.382615
21
350.462235
31
0.0
0
LINE
8
0
6
CONTINUOUS
10
-171.643435
20
350.649615
30
0.0
11
-173.102535
21
351.009415
31
0.0
0
LINE
8
0
6
CONTINUOUS
10
-171.464395
20
349.742625
30
0.0
11
-171.643435
21
350.649615
31
0.0
0
LINE
8
0
6
CONTINUOUS
10
-172.744465
20
349.195445
30
0.0
11
-171.464395
21
349.742625
31
0.0
0
LINE
8
0
6
CONTINUOUS
10
-175.523185
20
339.961055
30
0.0
11
-174.310785
21
339.662065
31
0.0
0
LINE
8
0
6
CONTINUOUS
10
-175.523185
20
339.961055
30
0.0
11
-175.521206
21
341.236072
31
0.0
0
LINE
8
0
6
CONTINUOUS
10
-176.586845
20
339.506425
30
0.0
11
-175.523185
21
339.961055
31
0.0
0
LINE
8
0
6
CONTINUOUS
10
-174.310785
20
339.662065
30
0.0
11
-174.162015
21
338.908425
31
0.0
0
LINE
8
0
6
CONTINUOUS
10
-174.308457
20
341.161921
30
0.0
11
-174.310785
21
339.662065
31
0.0
0
LINE
8
0
6
CONTINUOUS
10
-176.438065
20
338.752785
30
0.0
11
-175.225645
21
338.453715
31
0.0
0
LINE
8
0
6
CONTINUOUS
10
-176.586845
20
339.506425
30
0.0
11
-176.438065
21
338.752785
31
0.0
0
LINE
8
0
6
CONTINUOUS
10
-175.523185
20
339.961055
30
0.0
11
-176.586845
21
339.506425
31
0.0
0
LINE
8
0
6
CONTINUOUS
10
-174.310785
20
339.662065
30
0.0
11
-175.523185
21
339.961055
31
0.0
0
LINE
8
0
6
CONTINUOUS
10
-174.162015
20
338.908425
30
0.0
11
-174.310785
21
339.662065
31
0.0
0
LINE
8
0
6
CONTINUOUS
10
-175.225645
20
338.453715
30
0.0
11
-174.162015
21
338.908425
31
0.0
0
LINE
8
0
6
CONTINUOUS
10
-174.713385
20
343.674815
30
0.0
11
-173.500985
21
343.375895
31
0.0
0
LINE
8
0
6
CONTINUOUS
10
-174.713385
20
343.674815
30
0.0
11
-174.711217
21
345.071370
31
0.0
0
LINE
8
0
6
CONTINUOUS
10
-175.777035
20
343.220185
30
0.0
11
-174.713385
21
343.674815
31
0.0
0
LINE
8
0
6
CONTINUOUS
10
-173.500985
20
343.375895
30
0.0
11
-173.352205
21
342.622185
31
0.0
0
LINE
8
0
6
CONTINUOUS
10
-175.628265
20
342.466475
30
0.0
11
-174.415855
21
342.167555
31
0.0
0
LINE
8
0
6
CONTINUOUS
10
-175.777035
20
343.220185
30
0.0
11
-175.628265
21
342.466475
31
0.0
0
LINE
8
0
6
CONTINUOUS
10
-174.713385
20
343.674815
30
0.0
11
-175.777035
21
343.220185
31
0.0
0
LINE
8
0
6
CONTINUOUS
10
-173.500985
20
343.375895
30
0.0
11
-174.713385
21
343.674815
31
0.0
0
LINE
8
0
6
CONTINUOUS
10
-173.352205
20
342.622185
30
0.0
11
-173.500985
21
343.375895
31
0.0
0
LINE
8
0
6
CONTINUOUS
10
-174.415855
20
342.167555
30
0.0
11
-173.352205
21
342.622185
31
0.0
0
LINE
8
0
6
CONTINUOUS
10
-175.346775
20
347.512785
30
0.0
11
-173.933515
21
347.164275
31
0.0
0
LINE
8
0
6
CONTINUOUS
10
-176.586635
20
346.982775
30
0.0
11
-175.346775
21
347.512785
31
0.0
0
LINE
8
0
6
CONTINUOUS
10
-176.584495
20
347.790347
30
0.0
11
-176.586635
21
346.982775
31
0.0
0
LINE
8
0
6
CONTINUOUS
10
-173.933515
20
347.164275
30
0.0
11
-173.760075
21
346.285745
31
0.0
0
LINE
8
0
6
CONTINUOUS
10
-176.413215
20
346.104245
30
0.0
11
-174.999945
21
345.755735
31
0.0
0
LINE
8
0
6
CONTINUOUS
10
-176.586635
20
346.982775
30
0.0
11
-176.413215
21
346.104245
31
0.0
0
LINE
8
0
6
CONTINUOUS
10
-175.346775
20
347.512785
30
0.0
11
-176.586635
21
346.982775
31
0.0
0
LINE
8
0
6
CONTINUOUS
10
-173.933515
20
347.164275
30
0.0
11
-175.346775
21
347.512785
31
0.0
0
LINE
8
0
6
CONTINUOUS
10
-173.760075
20
346.285745
30
0.0
11
-173.933515
21
347.164275
31
0.0
0
LINE
8
0
6
CONTINUOUS
10
-174.999945
20
345.755735
30
0.0
11
-173.760075
21
346.285745
31
0.0
0
LINE
8
0
6
CONTINUOUS
10
-183.959675
20
341.207245
30
0.0
11
-182.747275
21
340.908245
31
0.0
0
LINE
8
0
6
CONTINUOUS
10
-183.959675
20
341.207245
30
0.0
11
-183.958463
21
341.987835
31
0.0
0
LINE
8
0
6
CONTINUOUS
10
-185.023335
20
340.752605
30
0.0
11
-183.959675
21
341.207245
31
0.0
0
LINE
8
0
6
CONTINUOUS
10
-185.021088
20
342.197469
30
0.0
11
-185.023335
21
340.752605
31
0.0
0
LINE
8
0
6
CONTINUOUS
10
-182.598485
20
340.154615
30
0.0
11
-182.596060
21
341.719061
31
0.0
0
LINE
8
0
6
CONTINUOUS
10
-182.747275
20
340.908245
30
0.0
11
-182.598485
21
340.154615
31
0.0
0
LINE
8
0
6
CONTINUOUS
10
-182.745970
20
341.748635
30
0.0
11
-182.747275
21
340.908245
31
0.0
0
LINE
8
0
6
CONTINUOUS
10
-184.874555
20
339.998975
30
0.0
11
-183.662135
21
339.699975
31
0.0
0
LINE
8
0
6
CONTINUOUS
10
-185.023335
20
340.752605
30
0.0
11
-184.874555
21
339.998975
31
0.0
0
LINE
8
0
6
CONTINUOUS
10
-183.959675
20
341.207245
30
0.0
11
-185.023335
21
340.752605
31
0.0
0
LINE
8
0
6
CONTINUOUS
10
-182.747275
20
340.908245
30
0.0
11
-183.959675
21
341.207245
31
0.0
0
LINE
8
0
6
CONTINUOUS
10
-182.598485
20
340.154615
30
0.0
11
-182.747275
21
340.908245
31
0.0
0
LINE
8
0
6
CONTINUOUS
10
-183.662135
20
339.699975
30
0.0
11
-182.598485
21
340.154615
31
0.0
0
LINE
8
0
6
CONTINUOUS
10
-183.149935
20
344.936105
30
0.0
11
-181.937545
21
344.637185
31
0.0
0
LINE
8
0
6
CONTINUOUS
10
-184.213585
20
344.481475
30
0.0
11
-183.149935
21
344.936105
31
0.0
0
LINE
8
0
6
CONTINUOUS
10
-181.788755
20
343.883485
30
0.0
11
-181.788273
21
344.194934
31
0.0
0
LINE
8
0
6
CONTINUOUS
10
-181.937545
20
344.637185
30
0.0
11
-181.788755
21
343.883485
31
0.0
0
LINE
8
0
6
CONTINUOUS
10
-184.064815
20
343.727845
30
0.0
11
-182.852405
21
343.428845
31
0.0
0
LINE
8
0
6
CONTINUOUS
10
-184.213585
20
344.481475
30
0.0
11
-184.064815
21
343.727845
31
0.0
0
LINE
8
0
6
CONTINUOUS
10
-183.149935
20
344.936105
30
0.0
11
-184.180064
21
344.495803
31
0.0
0
LINE
8
0
6
CONTINUOUS
10
-181.937545
20
344.637185
30
0.0
11
-183.149935
21
344.936105
31
0.0
0
LINE
8
0
6
CONTINUOUS
10
-181.788755
20
343.883485
30
0.0
11
-181.937545
21
344.637185
31
0.0
0
LINE
8
0
6
CONTINUOUS
10
-182.852405
20
343.428845
30
0.0
11
-181.788755
21
343.883485
31
0.0
0
LINE
8
0
6
CONTINUOUS
10
-183.282365
20
349.215435
30
0.0
11
-181.869095
21
348.866925
31
0.0
0
LINE
8
0
6
CONTINUOUS
10
-184.522235
20
348.685425
30
0.0
11
-183.282365
21
349.215435
31
0.0
0
LINE
8
0
6
CONTINUOUS
10
-181.869095
20
348.866925
30
0.0
11
-181.695655
21
347.988405
31
0.0
0
LINE
8
0
6
CONTINUOUS
10
-184.348815
20
347.806975
30
0.0
11
-182.935525
21
347.458385
31
0.0
0
LINE
8
0
6
CONTINUOUS
10
-184.522235
20
348.685425
30
0.0
11
-184.348815
21
347.806975
31
0.0
0
LINE
8
0
6
CONTINUOUS
10
-183.282365
20
349.215435
30
0.0
11
-184.522235
21
348.685425
31
0.0
0
LINE
8
0
6
CONTINUOUS
10
-181.869095
20
348.866925
30
0.0
11
-183.282365
21
349.215435
31
0.0
0
LINE
8
0
6
CONTINUOUS
10
-181.695655
20
347.988405
30
0.0
11
-181.869095
21
348.866925
31
0.0
0
LINE
8
0
6
CONTINUOUS
10
-182.935525
20
347.458385
30
0.0
11
-181.695655
21
347.988405
31
0.0
0
LINE
8
0
6
CONTINUOUS
10
-180.871055
20
352.708785
30
0.0
11
-179.411945
21
352.348985
31
0.0
0
LINE
8
0
6
CONTINUOUS
10
-182.151135
20
352.161605
30
0.0
11
-180.871055
21
352.708785
31
0.0
0
LINE
8
0
6
CONTINUOUS
10
-179.411945
20
352.348985
30
0.0
11
-179.232885
21
351.441925
31
0.0
0
LINE
8
0
6
CONTINUOUS
10
-181.972085
20
351.254625
30
0.0
11
-180.512985
21
350.894745
31
0.0
0
LINE
8
0
6
CONTINUOUS
10
-182.151135
20
352.161605
30
0.0
11
-181.972085
21
351.254625
31
0.0
0
LINE
8
0
6
CONTINUOUS
10
-180.871055
20
352.708785
30
0.0
11
-182.151135
21
352.161605
31
0.0
0
LINE
8
0
6
CONTINUOUS
10
-179.411945
20
352.348985
30
0.0
11
-180.871055
21
352.708785
31
0.0
0
LINE
8
0
6
CONTINUOUS
10
-179.232885
20
351.441925
30
0.0
11
-179.411945
21
352.348985
31
0.0
0
LINE
8
0
6
CONTINUOUS
10
-180.512985
20
350.894745
30
0.0
11
-179.232885
21
351.441925
31
0.0
0
LINE
8
0
6
CONTINUOUS
10
-185.916465
20
356.534925
30
0.0
11
-184.457365
21
356.175125
31
0.0
0
LINE
8
0
6
CONTINUOUS
10
-187.196545
20
355.987745
30
0.0
11
-185.916465
21
356.534925
31
0.0
0
LINE
8
0
6
CONTINUOUS
10
-184.457365
20
356.175125
30
0.0
11
-184.278325
21
355.268065
31
0.0
0
LINE
8
0
6
CONTINUOUS
10
-187.017505
20
355.080765
30
0.0
11
-185.558395
21
354.720885
31
0.0
0
LINE
8
0
6
CONTINUOUS
10
-187.196545
20
355.987745
30
0.0
11
-187.017505
21
355.080765
31
0.0
0
LINE
8
0
6
CONTINUOUS
10
-185.916465
20
356.534925
30
0.0
11
-187.196545
21
355.987745
31
0.0
0
LINE
8
0
6
CONTINUOUS
10
-184.457365
20
356.175125
30
0.0
11
-185.916465
21
356.534925
31
0.0
0
LINE
8
0
6
CONTINUOUS
10
-184.278325
20
355.268065
30
0.0
11
-184.457365
21
356.175125
31
0.0
0
LINE
8
0
6
CONTINUOUS
10
-185.558395
20
354.720885
30
0.0
11
-184.278325
21
355.268065
31
0.0
0
LINE
8
0
6
CONTINUOUS
10
-189.599215
20
352.570535
30
0.0
11
-188.185945
21
352.222025
31
0.0
0
LINE
8
0
6
CONTINUOUS
10
-190.839085
20
352.040525
30
0.0
11
-189.599215
21
352.570535
31
0.0
0
LINE
8
0
6
CONTINUOUS
10
-188.185945
20
352.222025
30
0.0
11
-188.012525
21
351.343505
31
0.0
0
LINE
8
0
6
CONTINUOUS
10
-190.665665
20
351.162005
30
0.0
11
-189.252385
21
350.813485
31
0.0
0
LINE
8
0
6
CONTINUOUS
10
-190.839085
20
352.040525
30
0.0
11
-190.665665
21
351.162005
31
0.0
0
LINE
8
0
6
CONTINUOUS
10
-189.599215
20
352.570535
30
0.0
11
-190.839085
21
352.040525
31
0.0
0
LINE
8
0
6
CONTINUOUS
10
-188.185945
20
352.222025
30
0.0
11
-189.599215
21
352.570535
31
0.0
0
LINE
8
0
6
CONTINUOUS
10
-188.012525
20
351.343505
30
0.0
11
-188.185945
21
352.222025
31
0.0
0
LINE
8
0
6
CONTINUOUS
10
-189.252385
20
350.813485
30
0.0
11
-188.012525
21
351.343505
31
0.0
0
LINE
8
0
6
CONTINUOUS
10
-193.500425
20
356.819425
30
0.0
11
-192.087155
21
356.470915
31
0.0
0
LINE
8
0
6
CONTINUOUS
10
-194.740285
20
356.289415
30
0.0
11
-193.500425
21
356.819425
31
0.0
0
LINE
8
0
6
CONTINUOUS
10
-192.087155
20
356.470915
30
0.0
11
-191.913725
21
355.592385
31
0.0
0
LINE
8
0
6
CONTINUOUS
10
-194.566865
20
355.410965
30
0.0
11
-193.153595
21
355.062375
31
0.0
0
LINE
8
0
6
CONTINUOUS
10
-194.740285
20
356.289415
30
0.0
11
-194.566865
21
355.410965
31
0.0
0
LINE
8
0
6
CONTINUOUS
10
-193.500425
20
356.819425
30
0.0
11
-194.740285
21
356.289415
31
0.0
0
LINE
8
0
6
CONTINUOUS
10
-192.087155
20
356.470915
30
0.0
11
-193.500425
21
356.819425
31
0.0
0
LINE
8
0
6
CONTINUOUS
10
-191.913725
20
355.592385
30
0.0
11
-192.087155
21
356.470915
31
0.0
0
LINE
8
0
6
CONTINUOUS
10
-193.153595
20
355.062375
30
0.0
11
-191.913725
21
355.592385
31
0.0
0
LINE
8
0
6
CONTINUOUS
10
-190.282615
20
347.457545
30
0.0
11
-189.070195
21
347.158555
31
0.0
0
LINE
8
0
6
CONTINUOUS
10
-191.346245
20
347.002915
30
0.0
11
-190.282615
21
347.457545
31
0.0
0
LINE
8
0
6
CONTINUOUS
10
-189.070195
20
347.158555
30
0.0
11
-188.921415
21
346.404925
31
0.0
0
LINE
8
0
6
CONTINUOUS
10
-191.197495
20
346.249205
30
0.0
11
-189.985065
21
345.950285
31
0.0
0
LINE
8
0
6
CONTINUOUS
10
-191.346245
20
347.002915
30
0.0
11
-191.197495
21
346.249205
31
0.0
0
LINE
8
0
6
CONTINUOUS
10
-190.282615
20
347.457545
30
0.0
11
-191.346245
21
347.002915
31
0.0
0
LINE
8
0
6
CONTINUOUS
10
-189.070195
20
347.158555
30
0.0
11
-190.282615
21
347.457545
31
0.0
0
LINE
8
0
6
CONTINUOUS
10
-188.921415
20
346.404925
30
0.0
11
-189.070195
21
347.158555
31
0.0
0
LINE
8
0
6
CONTINUOUS
10
-189.985065
20
345.950285
30
0.0
11
-188.921415
21
346.404925
31
0.0
0
LINE
8
0
6
CONTINUOUS
10
-196.026085
20
351.041765
30
0.0
11
-194.813675
21
350.742765
31
0.0
0
LINE
8
0
6
CONTINUOUS
10
-197.089715
20
350.587045
30
0.0
11
-196.026085
21
351.041765
31
0.0
0
LINE
8
0
6
CONTINUOUS
10
-194.813675
20
350.742765
30
0.0
11
-194.664905
21
349.989135
31
0.0
0
LINE
8
0
6
CONTINUOUS
10
-196.940965
20
349.833345
30
0.0
11
-195.728535
21
349.534495
31
0.0
0
LINE
8
0
6
CONTINUOUS
10
-197.089715
20
350.587045
30
0.0
11
-196.940965
21
349.833345
31
0.0
0
LINE
8
0
6
CONTINUOUS
10
-196.026085
20
351.041765
30
0.0
11
-197.089715
21
350.587045
31
0.0
0
LINE
8
0
6
CONTINUOUS
10
-194.813675
20
350.742765
30
0.0
11
-196.026085
21
351.041765
31
0.0
0
LINE
8
0
6
CONTINUOUS
10
-194.664905
20
349.989135
30
0.0
11
-194.813675
21
350.742765
31
0.0
0
LINE
8
0
6
CONTINUOUS
10
-195.728535
20
349.534495
30
0.0
11
-194.664905
21
349.989135
31
0.0
0
LINE
8
0
6
CONTINUOUS
10
-199.976755
20
355.517085
30
0.0
11
-198.764345
21
355.218095
31
0.0
0
LINE
8
0
6
CONTINUOUS
10
-201.040405
20
355.062375
30
0.0
11
-199.976755
21
355.517085
31
0.0
0
LINE
8
0
6
CONTINUOUS
10
-198.764345
20
355.218095
30
0.0
11
-198.615575
21
354.464455
31
0.0
0
LINE
8
0
6
CONTINUOUS
10
-200.891635
20
354.308745
30
0.0
11
-199.679225
21
354.009745
31
0.0
0
LINE
8
0
6
CONTINUOUS
10
-201.040405
20
355.062375
30
0.0
11
-200.891635
21
354.308745
31
0.0
0
LINE
8
0
6
CONTINUOUS
10
-199.976755
20
355.517085
30
0.0
11
-201.040405
21
355.062375
31
0.0
0
LINE
8
0
6
CONTINUOUS
10
-198.764345
20
355.218095
30
0.0
11
-199.976755
21
355.517085
31
0.0
0
LINE
8
0
6
CONTINUOUS
10
-198.615575
20
354.464455
30
0.0
11
-198.764345
21
355.218095
31
0.0
0
LINE
8
0
6
CONTINUOUS
10
-199.679225
20
354.009745
30
0.0
11
-198.615575
21
354.464455
31
0.0
0
LINE
8
0
6
CONTINUOUS
10
-207.730165
20
353.936205
30
0.0
11
-207.657555
21
354.694255
31
0.0
0
LINE
8
0
6
CONTINUOUS
10
-206.477665
20
355.041165
30
0.0
11
-205.370395
21
354.629945
31
0.0
0
LINE
8
0
6
CONTINUOUS
10
-207.657555
20
354.694255
30
0.0
11
-206.477665
21
355.041165
31
0.0
0
LINE
8
0
6
CONTINUOUS
10
-207.730165
20
353.936205
30
0.0
11
-206.622895
21
353.524975
31
0.0
0
LINE
8
0
6
CONTINUOUS
10
-207.657555
20
354.694255
30
0.0
11
-207.730165
21
353.936205
31
0.0
0
LINE
8
0
6
CONTINUOUS
10
-206.477665
20
355.041165
30
0.0
11
-207.657555
21
354.694255
31
0.0
0
LINE
8
0
6
CONTINUOUS
10
-205.370395
20
354.629945
30
0.0
11
-206.477665
21
355.041165
31
0.0
0
LINE
8
0
6
CONTINUOUS
10
-205.443005
20
353.871885
30
0.0
11
-205.370395
21
354.629945
31
0.0
0
LINE
8
0
6
CONTINUOUS
10
-206.622895
20
353.524975
30
0.0
11
-205.443005
21
353.871885
31
0.0
0
LINE
8
0
6
CONTINUOUS
10
-204.319135
20
349.407235
30
0.0
11
-204.246525
21
350.165295
31
0.0
0
LINE
8
0
6
CONTINUOUS
10
-203.066635
20
350.512125
30
0.0
11
-201.959365
21
350.100905
31
0.0
0
LINE
8
0
6
CONTINUOUS
10
-204.246525
20
350.165295
30
0.0
11
-203.066635
21
350.512125
31
0.0
0
LINE
8
0
6
CONTINUOUS
10
-204.319135
20
349.407235
30
0.0
11
-203.211865
21
348.996015
31
0.0
0
LINE
8
0
6
CONTINUOUS
10
-204.246525
20
350.165295
30
0.0
11
-204.319135
21
349.407235
31
0.0
0
LINE
8
0
6
CONTINUOUS
10
-203.066635
20
350.512125
30
0.0
11
-204.246525
21
350.165295
31
0.0
0
LINE
8
0
6
CONTINUOUS
10
-201.959365
20
350.100905
30
0.0
11
-203.066635
21
350.512125
31
0.0
0
LINE
8
0
6
CONTINUOUS
10
-202.031975
20
349.342845
30
0.0
11
-201.959365
21
350.100905
31
0.0
0
LINE
8
0
6
CONTINUOUS
10
-203.211865
20
348.996015
30
0.0
11
-202.031975
21
349.342845
31
0.0
0
LINE
8
0
6
CONTINUOUS
10
-199.164795
20
345.424615
30
0.0
11
-199.092205
21
346.182675
31
0.0
0
LINE
8
0
6
CONTINUOUS
10
-199.164300
20
346.305294
30
0.0
11
-199.164795
21
345.424615
31
0.0
0
LINE
8
0
6
CONTINUOUS
10
-197.912315
20
346.529585
30
0.0
11
-196.805045
21
346.118365
31
0.0
0
LINE
8
0
6
CONTINUOUS
10
-199.092205
20
346.182675
30
0.0
11
-197.912315
21
346.529585
31
0.0
0
LINE
8
0
6
CONTINUOUS
10
-199.092151
20
346.279534
30
0.0
11
-199.092205
21
346.182675
31
0.0
0
LINE
8
0
6
CONTINUOUS
10
-199.164795
20
345.424615
30
0.0
11
-198.057525
21
345.013395
31
0.0
0
LINE
8
0
6
CONTINUOUS
10
-199.092205
20
346.182675
30
0.0
11
-199.164795
21
345.424615
31
0.0
0
LINE
8
0
6
CONTINUOUS
10
-197.912315
20
346.529585
30
0.0
11
-199.092205
21
346.182675
31
0.0
0
LINE
8
0
6
CONTINUOUS
10
-196.805045
20
346.118365
30
0.0
11
-197.912315
21
346.529585
31
0.0
0
LINE
8
0
6
CONTINUOUS
10
-196.877635
20
345.360225
30
0.0
11
-196.805045
21
346.118365
31
0.0
0
LINE
8
0
6
CONTINUOUS
10
-198.057525
20
345.013395
30
0.0
11
-196.877635
21
345.360225
31
0.0
0
LINE
8
0
6
CONTINUOUS
10
-192.709605
20
342.241175
30
0.0
11
-192.636985
21
342.999315
31
0.0
0
LINE
8
0
6
CONTINUOUS
10
-192.708777
20
343.714092
30
0.0
11
-192.709605
21
342.241175
31
0.0
0
LINE
8
0
6
CONTINUOUS
10
-190.349835
20
342.934915
30
0.0
11
-190.349507
21
343.518419
31
0.0
0
LINE
8
0
6
CONTINUOUS
10
-191.457105
20
343.346145
30
0.0
11
-190.349835
21
342.934915
31
0.0
0
LINE
8
0
6
CONTINUOUS
10
-191.457105
20
343.346145
30
0.0
11
-191.456885
21
343.736883
31
0.0
0
LINE
8
0
6
CONTINUOUS
10
-192.636985
20
342.999315
30
0.0
11
-191.457105
21
343.346145
31
0.0
0
LINE
8
0
6
CONTINUOUS
10
-192.636593
20
343.699851
30
0.0
11
-192.636985
21
342.999315
31
0.0
0
LINE
8
0
6
CONTINUOUS
10
-192.709605
20
342.241175
30
0.0
11
-191.602315
21
341.830025
31
0.0
0
LINE
8
0
6
CONTINUOUS
10
-192.636985
20
342.999315
30
0.0
11
-192.709605
21
342.241175
31
0.0
0
LINE
8
0
6
CONTINUOUS
10
-191.457105
20
343.346145
30
0.0
11
-192.636985
21
342.999315
31
0.0
0
LINE
8
0
6
CONTINUOUS
10
-190.349835
20
342.934915
30
0.0
11
-191.457105
21
343.346145
31
0.0
0
LINE
8
0
6
CONTINUOUS
10
-190.422425
20
342.176865
30
0.0
11
-190.349835
21
342.934915
31
0.0
0
LINE
8
0
6
CONTINUOUS
10
-191.602315
20
341.830025
30
0.0
11
-190.422425
21
342.176865
31
0.0
0
LINE
8
0
6
CONTINUOUS
10
-178.374215
20
368.458675
30
0.0
11
-176.806335
21
368.621035
31
0.0
0
LINE
8
0
6
CONTINUOUS
10
-176.806335
20
368.621035
30
0.0
11
-175.785545
21
367.923705
31
0.0
0
LINE
8
0
6
CONTINUOUS
10
-178.921305
20
367.599075
30
0.0
11
-178.374215
21
368.458675
31
0.0
0
LINE
8
0
6
CONTINUOUS
10
-176.806335
20
368.621035
30
0.0
11
-178.374215
21
368.458675
31
0.0
0
LINE
8
0
6
CONTINUOUS
10
-175.785545
20
367.923705
30
0.0
11
-176.806335
21
368.621035
31
0.0
0
LINE
8
0
6
CONTINUOUS
10
-176.332635
20
367.064025
30
0.0
11
-175.785545
21
367.923705
31
0.0
0
LINE
8
0
6
CONTINUOUS
10
-177.900495
20
366.901745
30
0.0
11
-176.332635
21
367.064025
31
0.0
0
LINE
8
0
6
CONTINUOUS
10
-178.921305
20
367.599075
30
0.0
11
-177.900495
21
366.901745
31
0.0
0
LINE
8
0
6
CONTINUOUS
10
-178.374215
20
368.458675
30
0.0
11
-178.921305
21
367.599075
31
0.0
0
LINE
8
0
6
CONTINUOUS
10
-188.661355
20
379.988905
30
0.0
11
-187.358555
21
380.123795
31
0.0
0
LINE
8
0
6
CONTINUOUS
10
-187.358555
20
380.123795
30
0.0
11
-186.510355
21
379.544335
31
0.0
0
LINE
8
0
6
CONTINUOUS
10
-189.115925
20
379.274645
30
0.0
11
-188.661355
21
379.988905
31
0.0
0
LINE
8
0
6
CONTINUOUS
10
-187.358555
20
380.123795
30
0.0
11
-188.661355
21
379.988905
31
0.0
0
LINE
8
0
6
CONTINUOUS
10
-186.510355
20
379.544335
30
0.0
11
-187.358555
21
380.123795
31
0.0
0
LINE
8
0
6
CONTINUOUS
10
-186.964935
20
378.830075
30
0.0
11
-186.510355
21
379.544335
31
0.0
0
LINE
8
0
6
CONTINUOUS
10
-188.267715
20
378.695185
30
0.0
11
-186.964935
21
378.830075
31
0.0
0
LINE
8
0
6
CONTINUOUS
10
-189.115925
20
379.274645
30
0.0
11
-188.267715
21
378.695185
31
0.0
0
LINE
8
0
6
CONTINUOUS
10
-188.661355
20
379.988905
30
0.0
11
-189.115925
21
379.274645
31
0.0
0
LINE
8
0
6
CONTINUOUS
10
-184.962045
20
376.204265
30
0.0
11
-183.659255
21
376.339155
31
0.0
0
LINE
8
0
6
CONTINUOUS
10
-183.659255
20
376.339155
30
0.0
11
-182.811055
21
375.759705
31
0.0
0
LINE
8
0
6
CONTINUOUS
10
-185.416625
20
375.490005
30
0.0
11
-184.962045
21
376.204265
31
0.0
0
LINE
8
0
6
CONTINUOUS
10
-183.659255
20
376.339155
30
0.0
11
-184.962045
21
376.204265
31
0.0
0
LINE
8
0
6
CONTINUOUS
10
-182.811055
20
375.759705
30
0.0
11
-183.659255
21
376.339155
31
0.0
0
LINE
8
0
6
CONTINUOUS
10
-183.265635
20
375.045435
30
0.0
11
-182.811055
21
375.759705
31
0.0
0
LINE
8
0
6
CONTINUOUS
10
-184.568405
20
374.910555
30
0.0
11
-183.265635
21
375.045435
31
0.0
0
LINE
8
0
6
CONTINUOUS
10
-185.416625
20
375.490005
30
0.0
11
-184.568405
21
374.910555
31
0.0
0
LINE
8
0
6
CONTINUOUS
10
-184.962045
20
376.204265
30
0.0
11
-185.416625
21
375.490005
31
0.0
0
LINE
8
0
6
CONTINUOUS
10
-180.336615
20
372.599375
30
0.0
11
-178.817985
21
372.756545
31
0.0
0
LINE
8
0
6
CONTINUOUS
10
-178.817985
20
372.756545
30
0.0
11
-177.829255
21
372.081115
31
0.0
0
LINE
8
0
6
CONTINUOUS
10
-180.866495
20
371.766705
30
0.0
11
-180.336615
21
372.599375
31
0.0
0
LINE
8
0
6
CONTINUOUS
10
-178.817985
20
372.756545
30
0.0
11
-180.336615
21
372.599375
31
0.0
0
LINE
8
0
6
CONTINUOUS
10
-177.829255
20
372.081115
30
0.0
11
-178.817985
21
372.756545
31
0.0
0
LINE
8
0
6
CONTINUOUS
10
-178.359155
20
371.248515
30
0.0
11
-177.829255
21
372.081115
31
0.0
0
LINE
8
0
6
CONTINUOUS
10
-179.877745
20
371.091275
30
0.0
11
-178.359155
21
371.248515
31
0.0
0
LINE
8
0
6
CONTINUOUS
10
-180.866495
20
371.766705
30
0.0
11
-179.877745
21
371.091275
31
0.0
0
LINE
8
0
6
CONTINUOUS
10
-180.336615
20
372.599375
30
0.0
11
-180.866495
21
371.766705
31
0.0
0
LINE
8
0
6
CONTINUOUS
10
-180.379205
20
381.591765
30
0.0
11
-179.076405
21
381.726655
31
0.0
0
LINE
8
0
6
CONTINUOUS
10
-179.076405
20
381.726655
30
0.0
11
-178.228215
21
381.147195
31
0.0
0
LINE
8
0
6
CONTINUOUS
10
-180.833785
20
380.877425
30
0.0
11
-180.379205
21
381.591765
31
0.0
0
LINE
8
0
6
CONTINUOUS
10
-179.076405
20
381.726655
30
0.0
11
-180.379205
21
381.591765
31
0.0
0
LINE
8
0
6
CONTINUOUS
10
-178.228215
20
381.147195
30
0.0
11
-179.076405
21
381.726655
31
0.0
0
LINE
8
0
6
CONTINUOUS
10
-178.682775
20
380.432855
30
0.0
11
-178.228215
21
381.147195
31
0.0
0
LINE
8
0
6
CONTINUOUS
10
-179.985545
20
380.297975
30
0.0
11
-178.682775
21
380.432855
31
0.0
0
LINE
8
0
6
CONTINUOUS
10
-180.833785
20
380.877425
30
0.0
11
-179.985545
21
380.297975
31
0.0
0
LINE
8
0
6
CONTINUOUS
10
-180.379205
20
381.591765
30
0.0
11
-180.833785
21
380.877425
31
0.0
0
LINE
8
0
6
CONTINUOUS
10
-177.114895
20
377.566875
30
0.0
11
-175.812095
21
377.701685
31
0.0
0
LINE
8
0
6
CONTINUOUS
10
-175.812095
20
377.701685
30
0.0
11
-174.963875
21
377.122315
31
0.0
0
LINE
8
0
6
CONTINUOUS
10
-177.569465
20
376.852535
30
0.0
11
-177.114895
21
377.566875
31
0.0
0
LINE
8
0
6
CONTINUOUS
10
-175.812095
20
377.701685
30
0.0
11
-177.114895
21
377.566875
31
0.0
0
LINE
8
0
6
CONTINUOUS
10
-174.963875
20
377.122315
30
0.0
11
-175.812095
21
377.701685
31
0.0
0
LINE
8
0
6
CONTINUOUS
10
-175.418475
20
376.408045
30
0.0
11
-174.963875
21
377.122315
31
0.0
0
LINE
8
0
6
CONTINUOUS
10
-176.721235
20
376.273165
30
0.0
11
-175.418475
21
376.408045
31
0.0
0
LINE
8
0
6
CONTINUOUS
10
-177.569465
20
376.852535
30
0.0
11
-176.721235
21
376.273165
31
0.0
0
LINE
8
0
6
CONTINUOUS
10
-177.114895
20
377.566875
30
0.0
11
-177.569465
21
376.852535
31
0.0
0
LINE
8
0
6
CONTINUOUS
10
-172.058245
20
373.493395
30
0.0
11
-170.539615
21
373.650635
31
0.0
0
LINE
8
0
6
CONTINUOUS
10
-170.539615
20
373.650635
30
0.0
11
-169.550885
21
372.975205
31
0.0
0
LINE
8
0
6
CONTINUOUS
10
-172.588125
20
372.660715
30
0.0
11
-172.058245
21
373.493395
31
0.0
0
LINE
8
0
6
CONTINUOUS
10
-170.539615
20
373.650635
30
0.0
11
-172.058245
21
373.493395
31
0.0
0
LINE
8
0
6
CONTINUOUS
10
-169.550885
20
372.975205
30
0.0
11
-170.539615
21
373.650635
31
0.0
0
LINE
8
0
6
CONTINUOUS
10
-170.080785
20
372.142525
30
0.0
11
-169.550885
21
372.975205
31
0.0
0
LINE
8
0
6
CONTINUOUS
10
-171.599375
20
371.985365
30
0.0
11
-170.080785
21
372.142525
31
0.0
0
LINE
8
0
6
CONTINUOUS
10
-172.588125
20
372.660715
30
0.0
11
-171.599375
21
371.985365
31
0.0
0
LINE
8
0
6
CONTINUOUS
10
-172.058245
20
373.493395
30
0.0
11
-172.588125
21
372.660715
31
0.0
0
LINE
8
0
6
CONTINUOUS
10
-170.090145
20
368.969545
30
0.0
11
-168.522265
21
369.131815
31
0.0
0
LINE
8
0
6
CONTINUOUS
10
-168.522265
20
369.131815
30
0.0
11
-167.501455
21
368.434495
31
0.0
0
LINE
8
0
6
CONTINUOUS
10
-170.637215
20
368.109865
30
0.0
11
-170.090145
21
368.969545
31
0.0
0
LINE
8
0
6
CONTINUOUS
10
-168.522265
20
369.131815
30
0.0
11
-170.090145
21
368.969545
31
0.0
0
LINE
8
0
6
CONTINUOUS
10
-167.501455
20
368.434495
30
0.0
11
-168.522265
21
369.131815
31
0.0
0
LINE
8
0
6
CONTINUOUS
10
-168.048535
20
367.574885
30
0.0
11
-167.501455
21
368.434495
31
0.0
0
LINE
8
0
6
CONTINUOUS
10
-169.616395
20
367.412535
30
0.0
11
-168.048535
21
367.574885
31
0.0
0
LINE
8
0
6
CONTINUOUS
10
-170.637215
20
368.109865
30
0.0
11
-169.616395
21
367.412535
31
0.0
0
LINE
8
0
6
CONTINUOUS
10
-170.090145
20
368.969545
30
0.0
11
-170.637215
21
368.109865
31
0.0
0
LINE
8
0
6
CONTINUOUS
10
-162.283025
20
367.302285
30
0.0
11
-160.715145
21
367.464565
31
0.0
0
LINE
8
0
6
CONTINUOUS
10
-159.694355
20
366.767245
30
0.0
11
-159.707905
21
367.653295
31
0.0
0
LINE
8
0
6
CONTINUOUS
10
-160.715145
20
367.464565
30
0.0
11
-159.694355
21
366.767245
31
0.0
0
LINE
8
0
6
CONTINUOUS
10
-162.830105
20
366.442605
30
0.0
11
-162.283025
21
367.302285
31
0.0
0
LINE
8
0
6
CONTINUOUS
10
-160.715145
20
367.464565
30
0.0
11
-162.283025
21
367.302285
31
0.0
0
LINE
8
0
6
CONTINUOUS
10
-159.694355
20
366.767245
30
0.0
11
-160.715145
21
367.464565
31
0.0
0
LINE
8
0
6
CONTINUOUS
10
-160.241435
20
365.907635
30
0.0
11
-159.694355
21
366.767245
31
0.0
0
LINE
8
0
6
CONTINUOUS
10
-161.809295
20
365.745285
30
0.0
11
-160.241435
21
365.907635
31
0.0
0
LINE
8
0
6
CONTINUOUS
10
-162.830105
20
366.442605
30
0.0
11
-161.809295
21
365.745285
31
0.0
0
LINE
8
0
6
CONTINUOUS
10
-162.283025
20
367.302285
30
0.0
11
-162.830105
21
366.442605
31
0.0
0
LINE
8
0
6
CONTINUOUS
10
-163.775845
20
372.705355
30
0.0
11
-162.257215
21
372.862595
31
0.0
0
LINE
8
0
6
CONTINUOUS
10
-162.257215
20
372.862595
30
0.0
11
-161.268485
21
372.187165
31
0.0
0
LINE
8
0
6
CONTINUOUS
10
-164.305725
20
371.872755
30
0.0
11
-163.775845
21
372.705355
31
0.0
0
LINE
8
0
6
CONTINUOUS
10
-162.257215
20
372.862595
30
0.0
11
-163.775845
21
372.705355
31
0.0
0
LINE
8
0
6
CONTINUOUS
10
-161.268485
20
372.187165
30
0.0
11
-162.257215
21
372.862595
31
0.0
0
LINE
8
0
6
CONTINUOUS
10
-161.798365
20
371.354485
30
0.0
11
-161.268485
21
372.187165
31
0.0
0
LINE
8
0
6
CONTINUOUS
10
-163.316975
20
371.197325
30
0.0
11
-161.798365
21
371.354485
31
0.0
0
LINE
8
0
6
CONTINUOUS
10
-164.305725
20
371.872755
30
0.0
11
-163.316975
21
371.197325
31
0.0
0
LINE
8
0
6
CONTINUOUS
10
-163.775845
20
372.705355
30
0.0
11
-164.305725
21
371.872755
31
0.0
0
LINE
8
0
6
CONTINUOUS
10
-156.439975
20
370.141185
30
0.0
11
-154.921345
21
370.298425
31
0.0
0
LINE
8
0
6
CONTINUOUS
10
-153.932615
20
369.622995
30
0.0
11
-153.946308
21
370.537686
31
0.0
0
LINE
8
0
6
CONTINUOUS
10
-154.921345
20
370.298425
30
0.0
11
-153.932615
21
369.622995
31
0.0
0
LINE
8
0
6
CONTINUOUS
10
-154.935170
20
371.221913
30
0.0
11
-154.921345
21
370.298425
31
0.0
0
LINE
8
0
6
CONTINUOUS
10
-156.439975
20
370.141185
30
0.0
11
-156.452591
21
370.983783
31
0.0
0
LINE
8
0
6
CONTINUOUS
10
-156.969875
20
369.308595
30
0.0
11
-156.439975
21
370.141185
31
0.0
0
LINE
8
0
6
CONTINUOUS
10
-156.981145
20
370.061432
30
0.0
11
-156.969875
21
369.308595
31
0.0
0
LINE
8
0
6
CONTINUOUS
10
-154.921345
20
370.298425
30
0.0
11
-156.439975
21
370.141185
31
0.0
0
LINE
8
0
6
CONTINUOUS
10
-153.932615
20
369.622995
30
0.0
11
-154.921345
21
370.298425
31
0.0
0
LINE
8
0
6
CONTINUOUS
10
-154.462515
20
368.790405
30
0.0
11
-153.932615
21
369.622995
31
0.0
0
LINE
8
0
6
CONTINUOUS
10
-155.981125
20
368.633165
30
0.0
11
-154.462515
21
368.790405
31
0.0
0
LINE
8
0
6
CONTINUOUS
10
-156.969875
20
369.308595
30
0.0
11
-155.981125
21
368.633165
31
0.0
0
LINE
8
0
6
CONTINUOUS
10
-156.439975
20
370.141185
30
0.0
11
-156.969875
21
369.308595
31
0.0
0
LINE
8
0
6
CONTINUOUS
10
-168.180435
20
377.725335
30
0.0
11
-166.877635
21
377.860155
31
0.0
0
LINE
8
0
6
CONTINUOUS
10
-166.877635
20
377.860155
30
0.0
11
-166.029435
21
377.280775
31
0.0
0
LINE
8
0
6
CONTINUOUS
10
-168.635015
20
377.010995
30
0.0
11
-168.180435
21
377.725335
31
0.0
0
LINE
8
0
6
CONTINUOUS
10
-166.877635
20
377.860155
30
0.0
11
-168.180435
21
377.725335
31
0.0
0
LINE
8
0
6
CONTINUOUS
10
-166.029435
20
377.280775
30
0.0
11
-166.877635
21
377.860155
31
0.0
0
LINE
8
0
6
CONTINUOUS
10
-166.484015
20
376.566435
30
0.0
11
-166.029435
21
377.280775
31
0.0
0
LINE
8
0
6
CONTINUOUS
10
-167.786795
20
376.431545
30
0.0
11
-166.484015
21
376.566435
31
0.0
0
LINE
8
0
6
CONTINUOUS
10
-168.635015
20
377.010995
30
0.0
11
-167.786795
21
376.431545
31
0.0
0
LINE
8
0
6
CONTINUOUS
10
-168.180435
20
377.725335
30
0.0
11
-168.635015
21
377.010995
31
0.0
0
LINE
8
0
6
CONTINUOUS
10
-159.839955
20
376.575365
30
0.0
11
-158.537165
21
376.710245
31
0.0
0
LINE
8
0
6
CONTINUOUS
10
-158.537165
20
376.710245
30
0.0
11
-157.688965
21
376.130875
31
0.0
0
LINE
8
0
6
CONTINUOUS
10
-160.294535
20
375.861095
30
0.0
11
-159.839955
21
376.575365
31
0.0
0
LINE
8
0
6
CONTINUOUS
10
-158.537165
20
376.710245
30
0.0
11
-159.839955
21
376.575365
31
0.0
0
LINE
8
0
6
CONTINUOUS
10
-157.688965
20
376.130875
30
0.0
11
-158.537165
21
376.710245
31
0.0
0
LINE
8
0
6
CONTINUOUS
10
-158.143545
20
375.416535
30
0.0
11
-157.688965
21
376.130875
31
0.0
0
LINE
8
0
6
CONTINUOUS
10
-159.446315
20
375.281725
30
0.0
11
-158.143545
21
375.416535
31
0.0
0
LINE
8
0
6
CONTINUOUS
10
-160.294535
20
375.861095
30
0.0
11
-159.446315
21
375.281725
31
0.0
0
LINE
8
0
6
CONTINUOUS
10
-159.839955
20
376.575365
30
0.0
11
-160.294535
21
375.861095
31
0.0
0
LINE
8
0
6
CONTINUOUS
10
-152.589325
20
373.942155
30
0.0
11
-151.286525
21
374.077035
31
0.0
0
LINE
8
0
6
CONTINUOUS
10
-150.438335
20
373.497665
30
0.0
11
-150.450395
21
374.386768
31
0.0
0
LINE
8
0
6
CONTINUOUS
10
-151.286525
20
374.077035
30
0.0
11
-150.438335
21
373.497665
31
0.0
0
LINE
8
0
6
CONTINUOUS
10
-151.298674
20
374.972229
30
0.0
11
-151.286525
21
374.077035
31
0.0
0
LINE
8
0
6
CONTINUOUS
10
-152.589325
20
373.942155
30
0.0
11
-152.600812
21
374.788709
31
0.0
0
LINE
8
0
6
CONTINUOUS
10
-153.043905
20
373.227885
30
0.0
11
-152.589325
21
373.942155
31
0.0
0
LINE
8
0
6
CONTINUOUS
10
-153.054489
20
374.007957
30
0.0
11
-153.043905
21
373.227885
31
0.0
0
LINE
8
0
6
CONTINUOUS
10
-151.286525
20
374.077035
30
0.0
11
-152.589325
21
373.942155
31
0.0
0
LINE
8
0
6
CONTINUOUS
10
-150.438335
20
373.497665
30
0.0
11
-151.286525
21
374.077035
31
0.0
0
LINE
8
0
6
CONTINUOUS
10
-150.892915
20
372.783325
30
0.0
11
-150.438335
21
373.497665
31
0.0
0
LINE
8
0
6
CONTINUOUS
10
-152.195685
20
372.648435
30
0.0
11
-150.892915
21
372.783325
31
0.0
0
LINE
8
0
6
CONTINUOUS
10
-153.043905
20
373.227885
30
0.0
11
-152.195685
21
372.648435
31
0.0
0
LINE
8
0
6
CONTINUOUS
10
-152.589325
20
373.942155
30
0.0
11
-153.043905
21
373.227885
31
0.0
0
LINE
8
0
6
CONTINUOUS
10
-155.068285
20
380.042765
30
0.0
11
-153.745845
21
380.051085
31
0.0
0
LINE
8
0
6
CONTINUOUS
10
-153.078845
20
379.397935
30
0.0
11
-153.090668
21
380.286473
31
0.0
0
LINE
8
0
6
CONTINUOUS
10
-153.745845
20
380.051085
30
0.0
11
-153.078845
21
379.397935
31
0.0
0
LINE
8
0
6
CONTINUOUS
10
-153.758276
20
380.985298
30
0.0
11
-153.745845
21
380.051085
31
0.0
0
LINE
8
0
6
CONTINUOUS
10
-155.068285
20
380.042765
30
0.0
11
-155.080077
21
380.928655
31
0.0
0
LINE
8
0
6
CONTINUOUS
10
-155.723745
20
379.381295
30
0.0
11
-155.068285
21
380.042765
31
0.0
0
LINE
8
0
6
CONTINUOUS
10
-153.745845
20
380.051085
30
0.0
11
-155.068285
21
380.042765
31
0.0
0
LINE
8
0
6
CONTINUOUS
10
-153.078845
20
379.397935
30
0.0
11
-153.745845
21
380.051085
31
0.0
0
LINE
8
0
6
CONTINUOUS
10
-153.734305
20
378.736535
30
0.0
11
-153.078845
21
379.397935
31
0.0
0
LINE
8
0
6
CONTINUOUS
10
-155.056725
20
378.728145
30
0.0
11
-153.734305
21
378.736535
31
0.0
0
LINE
8
0
6
CONTINUOUS
10
-155.723745
20
379.381295
30
0.0
11
-155.056725
21
378.728145
31
0.0
0
LINE
8
0
6
CONTINUOUS
10
-155.068285
20
380.042765
30
0.0
11
-155.723745
21
379.381295
31
0.0
0
LINE
8
0
6
CONTINUOUS
10
-163.218825
20
381.728485
30
0.0
11
-161.896365
21
381.736795
31
0.0
0
LINE
8
0
6
CONTINUOUS
10
-161.229365
20
381.083725
30
0.0
11
-161.240901
21
381.950837
31
0.0
0
LINE
8
0
6
CONTINUOUS
10
-161.896365
20
381.736795
30
0.0
11
-161.229365
21
381.083725
31
0.0
0
LINE
8
0
6
CONTINUOUS
10
-161.908758
20
382.668338
30
0.0
11
-161.896365
21
381.736795
31
0.0
0
LINE
8
0
6
CONTINUOUS
10
-163.874265
20
381.067015
30
0.0
11
-163.218825
21
381.728485
31
0.0
0
LINE
8
0
6
CONTINUOUS
10
-161.896365
20
381.736795
30
0.0
11
-163.218825
21
381.728485
31
0.0
0
LINE
8
0
6
CONTINUOUS
10
-161.229365
20
381.083725
30
0.0
11
-161.896365
21
381.736795
31
0.0
0
LINE
8
0
6
CONTINUOUS
10
-161.884805
20
380.422255
30
0.0
11
-161.229365
21
381.083725
31
0.0
0
LINE
8
0
6
CONTINUOUS
10
-163.207245
20
380.413935
30
0.0
11
-161.884805
21
380.422255
31
0.0
0
LINE
8
0
6
CONTINUOUS
10
-163.874265
20
381.067015
30
0.0
11
-163.207245
21
380.413935
31
0.0
0
LINE
8
0
6
CONTINUOUS
10
-163.218825
20
381.728485
30
0.0
11
-163.874265
21
381.067015
31
0.0
0
LINE
8
0
6
CONTINUOUS
10
-171.693105
20
382.349825
30
0.0
11
-170.370655
21
382.358215
31
0.0
0
LINE
8
0
6
CONTINUOUS
10
-170.370655
20
382.358215
30
0.0
11
-169.703655
21
381.705135
31
0.0
0
LINE
8
0
6
CONTINUOUS
10
-172.348565
20
381.688425
30
0.0
11
-171.693105
21
382.349825
31
0.0
0
LINE
8
0
6
CONTINUOUS
10
-170.370655
20
382.358215
30
0.0
11
-171.693105
21
382.349825
31
0.0
0
LINE
8
0
6
CONTINUOUS
10
-169.703655
20
381.705135
30
0.0
11
-170.370655
21
382.358215
31
0.0
0
LINE
8
0
6
CONTINUOUS
10
-170.359115
20
381.043665
30
0.0
11
-169.703655
21
381.705135
31
0.0
0
LINE
8
0
6
CONTINUOUS
10
-171.681545
20
381.035275
30
0.0
11
-170.359115
21
381.043665
31
0.0
0
LINE
8
0
6
CONTINUOUS
10
-172.348565
20
381.688425
30
0.0
11
-171.681545
21
381.035275
31
0.0
0
LINE
8
0
6
CONTINUOUS
10
-171.693105
20
382.349825
30
0.0
11
-172.348565
21
381.688425
31
0.0
0
LINE
8
0
6
CONTINUOUS
10
-154.869735
20
363.374295
30
0.0
11
-154.854915
21
362.460985
31
0.0
0
LINE
8
0
6
CONTINUOUS
10
-156.255445
20
363.818865
30
0.0
11
-154.869735
21
363.374295
31
0.0
0
LINE
8
0
6
CONTINUOUS
10
-157.626345
20
363.350115
30
0.0
11
-156.255445
21
363.818865
31
0.0
0
LINE
8
0
6
CONTINUOUS
10
-156.225815
20
361.992235
30
0.0
11
-154.854915
21
362.460985
31
0.0
0
LINE
8
0
6
CONTINUOUS
10
-157.611545
20
362.436875
30
0.0
11
-156.225815
21
361.992235
31
0.0
0
LINE
8
0
6
CONTINUOUS
10
-157.626345
20
363.350115
30
0.0
11
-157.611545
21
362.436875
31
0.0
0
LINE
8
0
6
CONTINUOUS
10
-156.255445
20
363.818865
30
0.0
11
-157.626345
21
363.350115
31
0.0
0
LINE
8
0
6
CONTINUOUS
10
-154.869735
20
363.374295
30
0.0
11
-156.255445
21
363.818865
31
0.0
0
LINE
8
0
6
CONTINUOUS
10
-154.854915
20
362.460985
30
0.0
11
-154.869735
21
363.374295
31
0.0
0
LINE
8
0
6
CONTINUOUS
10
-127.614975
20
367.957195
30
0.0
11
-130.912865
21
373.351175
31
0.0
0
LINE
8
0
6
CONTINUOUS
10
-143.323995
20
382.139245
30
0.0
11
-151.762855
21
385.153695
31
0.0
0
LINE
8
0
6
CONTINUOUS
10
-151.762855
20
385.153695
30
0.0
11
-161.170815
21
387.009625
31
0.0
0
LINE
8
0
6
CONTINUOUS
10
-161.170815
20
387.009625
30
0.0
11
-171.075215
21
387.697415
31
0.0
0
LINE
8
0
6
CONTINUOUS
10
-171.075215
20
387.697415
30
0.0
11
-180.978645
21
386.940045
31
0.0
0
LINE
8
0
6
CONTINUOUS
10
-180.978645
20
386.940045
30
0.0
11
-190.441595
21
385.175675
31
0.0
0
LINE
8
0
6
CONTINUOUS
10
-205.868365
20
377.874875
30
0.0
11
-211.168735
21
373.013045
31
0.0
0
LINE
8
0
6
CONTINUOUS
10
-211.168735
20
373.013045
30
0.0
11
-214.458625
21
367.602735
31
0.0
0
LINE
8
0
6
CONTINUOUS
10
-214.458625
20
367.602735
30
0.0
11
-215.572575
21
361.915175
31
0.0
0
LINE
8
0
6
CONTINUOUS
10
-205.958845
20
346.067705
30
0.0
11
-198.851245
21
342.021065
31
0.0
0
LINE
8
0
6
CONTINUOUS
10
-198.851245
20
342.021065
30
0.0
11
-190.401715
21
339.001885
31
0.0
0
LINE
8
0
6
CONTINUOUS
10
-190.401715
20
339.001885
30
0.0
11
-180.990775
21
337.152065
31
0.0
0
LINE
8
0
6
CONTINUOUS
10
-180.990775
20
337.152065
30
0.0
11
-171.057975
21
336.536525
31
0.0
0
LINE
8
0
6
CONTINUOUS
10
-171.057975
20
336.536525
30
0.0
11
-161.146145
21
337.212115
31
0.0
0
LINE
8
0
6
CONTINUOUS
10
-161.146145
20
337.212115
30
0.0
11
-151.723695
21
339.136395
31
0.0
0
LINE
8
0
6
CONTINUOUS
10
-198.822125
20
381.943935
30
0.0
11
-205.868365
21
377.874875
31
0.0
0
LINE
8
0
6
CONTINUOUS
10
-126.560175
20
362.228285
30
0.0
11
-127.614975
21
367.957195
31
0.0
0
LINE
8
0
6
CONTINUOUS
10
-130.912865
20
373.351175
30
0.0
11
-136.224065
21
378.181505
31
0.0
0
LINE
8
0
6
CONTINUOUS
10
-136.224065
20
378.181505
30
0.0
11
-143.323995
21
382.139245
31
0.0
0
LINE
8
0
6
CONTINUOUS
10
-215.572575
20
361.915175
30
0.0
11
-214.581585
21
356.309095
31
0.0
0
LINE
8
0
6
CONTINUOUS
10
-214.581585
20
356.309095
30
0.0
11
-211.278405
21
350.906185
31
0.0
0
LINE
8
0
6
CONTINUOUS
10
-211.278405
20
350.906185
30
0.0
11
-205.958845
21
346.067705
31
0.0
0
LINE
8
0
6
CONTINUOUS
10
-151.723695
20
339.136395
30
0.0
11
-143.273185
21
342.214555
31
0.0
0
LINE
8
0
6
CONTINUOUS
10
-143.273185
20
342.214555
30
0.0
11
-136.163965
21
346.313295
31
0.0
0
LINE
8
0
6
CONTINUOUS
10
-136.163965
20
346.313295
30
0.0
11
-130.906855
21
351.157265
31
0.0
0
LINE
8
0
6
CONTINUOUS
10
-130.906855
20
351.157265
30
0.0
11
-127.611835
21
356.574825
31
0.0
0
LINE
8
0
6
CONTINUOUS
10
-127.611835
20
356.574825
30
0.0
11
-126.560175
21
362.228285
31
0.0
0
LINE
8
0
6
CONTINUOUS
10
-190.441595
20
385.175675
30
0.0
11
-198.822125
21
381.943935
31
0.0
0
LINE
8
0
6
CONTINUOUS
10
-158.098375
20
334.879885
30
0.0
11
-158.083677
21
337.837541
31
0.0
0
LINE
8
0
6
CONTINUOUS
10
-159.351755
20
333.208205
30
0.0
11
-159.353122
21
337.578291
31
0.0
0
LINE
8
0
6
CONTINUOUS
10
-157.896085
20
329.838075
30
0.0
11
-157.892235
21
329.522365
31
0.0
0
LINE
8
0
6
CONTINUOUS
10
-156.504555
20
332.076455
30
0.0
11
-156.505285
21
332.395595
31
0.0
0
LINE
8
0
6
CONTINUOUS
10
-156.819905
20
241.484575
30
0.0
11
-156.298645
21
243.136565
31
0.0
0
LINE
8
0
6
CONTINUOUS
10
-156.298645
20
243.136565
30
0.0
11
-156.300095
21
243.755535
31
0.0
0
LINE
8
0
6
CONTINUOUS
10
-159.292495
20
240.350765
30
0.0
11
-156.819905
21
241.484575
31
0.0
0
LINE
8
0
6
CONTINUOUS
10
-156.819905
20
241.484575
30
0.0
11
-156.827475
21
242.097825
31
0.0
0
LINE
8
0
6
CONTINUOUS
10
-162.970645
20
239.493605
30
0.0
11
-159.791015
21
240.234645
31
0.0
0
LINE
8
0
6
CONTINUOUS
10
-170.897675
20
238.764995
30
0.0
11
-166.859725
21
238.936275
31
0.0
0
LINE
8
0
6
CONTINUOUS
10
-166.859725
20
238.936275
30
0.0
11
-162.970645
21
239.493605
31
0.0
0
LINE
8
0
6
CONTINUOUS
10
-156.507615
20
333.398325
30
0.0
11
-157.908275
21
330.838515
31
0.0
0
LINE
8
0
6
CONTINUOUS
10
-156.505285
20
332.395595
30
0.0
11
-156.507615
21
333.398325
31
0.0
0
LINE
8
0
6
CONTINUOUS
10
-157.908275
20
330.838515
30
0.0
11
-160.889475
21
329.476055
31
0.0
0
LINE
8
0
6
CONTINUOUS
10
-157.896085
20
329.838075
30
0.0
11
-157.908275
21
330.838515
31
0.0
0
LINE
8
0
6
CONTINUOUS
10
-160.889475
20
329.476055
30
0.0
11
-161.340315
21
329.367495
31
0.0
0
LINE
8
0
6
CONTINUOUS
10
-164.215875
20
328.675125
30
0.0
11
-167.612385
21
328.112605
31
0.0
0
LINE
8
0
6
CONTINUOUS
10
-167.979225
20
331.105395
30
0.0
11
-164.799195
21
331.489685
31
0.0
0
LINE
8
0
6
CONTINUOUS
10
-159.351655
20
332.866175
30
0.0
11
-158.100095
21
334.532595
31
0.0
0
LINE
8
0
6
CONTINUOUS
10
-158.100095
20
334.532595
30
0.0
11
-158.098375
21
334.879885
31
0.0
0
LINE
8
0
6
CONTINUOUS
10
-168.501960
20
331.079580
30
0.0
11
-167.979225
21
331.105395
31
0.0
0
LINE
8
0
6
CONTINUOUS
10
-161.561205
20
332.099275
30
0.0
11
-159.351655
21
332.866175
31
0.0
0
LINE
8
0
6
CONTINUOUS
10
-159.351655
20
332.866175
30
0.0
11
-159.351755
21
333.208205
31
0.0
0
LINE
8
0
6
CONTINUOUS
10
-156.507615
20
333.398325
30
0.0
11
-156.540875
21
333.994415
31
0.0
0
LINE
8
0
6
CONTINUOUS
10
-156.540875
20
333.994415
30
0.0
11
-156.770258
21
338.105771
31
0.0
0
LINE
8
0
6
CONTINUOUS
10
-162.000045
20
332.016645
30
0.0
11
-164.799195
21
331.489685
31
0.0
0
LINE
8
0
6
CONTINUOUS
10
-159.791015
20
240.234645
30
0.0
11
-159.292495
21
240.350765
31
0.0
0
LINE
8
0
6
CONTINUOUS
10
-161.340315
20
329.367495
30
0.0
11
-164.215875
21
328.675125
31
0.0
0
LINE
8
0
6
CONTINUOUS
10
-162.000045
20
332.016645
30
0.0
11
-161.561205
21
332.099275
31
0.0
0
LINE
8
0
6
CONTINUOUS
10
-157.892235
20
329.522365
30
0.0
11
-156.827475
21
242.097825
31
0.0
0
LINE
8
0
6
CONTINUOUS
10
-156.300095
20
243.755535
30
0.0
11
-156.504555
21
332.076455
31
0.0
0
LINE
8
0
6
CONTINUOUS
10
-159.303635
20
240.961575
30
0.0
11
-160.865885
21
328.158005
31
0.0
0
LINE
8
0
6
CONTINUOUS
10
-157.863735
20
334.393735
30
0.0
11
-159.072005
21
332.608455
31
0.0
0
LINE
8
0
6
CONTINUOUS
10
-159.072005
20
332.608455
30
0.0
11
-161.375245
21
331.558575
31
0.0
0
LINE
8
0
6
CONTINUOUS
10
-168.500935
20
328.059582
30
0.0
11
-167.612385
21
328.112605
31
0.0
0
LINE
8
0
6
CONTINUOUS
10
-184.125517
20
337.768232
30
0.0
11
-184.101355
21
334.788255
31
0.0
0
LINE
8
0
6
CONTINUOUS
10
-182.842963
20
337.516132
30
0.0
11
-182.831025
21
333.125505
31
0.0
0
LINE
8
0
6
CONTINUOUS
10
-185.682645
20
332.292825
30
0.0
11
-185.682205
21
331.973695
31
0.0
0
LINE
8
0
6
CONTINUOUS
10
-184.268535
20
329.429445
30
0.0
11
-184.265845
21
329.745225
31
0.0
0
LINE
8
0
6
CONTINUOUS
10
-185.561525
20
243.652465
30
0.0
11
-185.560665
21
243.033495
31
0.0
0
LINE
8
0
6
CONTINUOUS
10
-185.560665
20
243.033495
30
0.0
11
-185.015075
21
241.385315
31
0.0
0
LINE
8
0
6
CONTINUOUS
10
-185.009765
20
241.998565
30
0.0
11
-185.015075
21
241.385315
31
0.0
0
LINE
8
0
6
CONTINUOUS
10
-185.015075
20
241.385315
30
0.0
11
-182.525845
21
240.268975
31
0.0
0
LINE
8
0
6
CONTINUOUS
10
-182.025645
20
240.156295
30
0.0
11
-178.835185
21
239.437685
31
0.0
0
LINE
8
0
6
CONTINUOUS
10
-174.938015
20
238.907815
30
0.0
11
-170.897675
21
238.764995
31
0.0
0
LINE
8
0
6
CONTINUOUS
10
-178.835185
20
239.437685
30
0.0
11
-174.938015
21
238.907815
31
0.0
0
LINE
8
0
6
CONTINUOUS
10
-185.684015
20
333.295565
30
0.0
11
-185.682645
21
332.292825
31
0.0
0
LINE
8
0
6
CONTINUOUS
10
-184.257375
20
330.745665
30
0.0
11
-185.684015
21
333.295565
31
0.0
0
LINE
8
0
6
CONTINUOUS
10
-184.257375
20
330.745665
30
0.0
11
-184.265845
21
329.745225
31
0.0
0
LINE
8
0
6
CONTINUOUS
10
-181.262425
20
329.404265
30
0.0
11
-184.257375
21
330.745665
31
0.0
0
LINE
8
0
6
CONTINUOUS
10
-180.810495
20
329.298905
30
0.0
11
-181.262425
21
329.404265
31
0.0
0
LINE
8
0
6
CONTINUOUS
10
-174.525895
20
328.088265
30
0.0
11
-177.927995
21
328.626825
31
0.0
0
LINE
8
0
6
CONTINUOUS
10
-177.368795
20
331.445435
30
0.0
11
-174.184995
21
331.083495
31
0.0
0
LINE
8
0
6
CONTINUOUS
10
-184.101355
20
334.788255
30
0.0
11
-184.098555
21
334.440965
31
0.0
0
LINE
8
0
6
CONTINUOUS
10
-184.098555
20
334.440965
30
0.0
11
-182.830105
21
332.783475
31
0.0
0
LINE
8
0
6
CONTINUOUS
10
-174.184995
20
331.083495
30
0.0
11
-173.601155
21
331.058795
31
0.0
0
LINE
8
0
6
CONTINUOUS
10
-182.831025
20
333.125505
30
0.0
11
-182.830105
21
332.783475
31
0.0
0
LINE
8
0
6
CONTINUOUS
10
-182.830105
20
332.783475
30
0.0
11
-180.612855
21
332.032135
31
0.0
0
LINE
8
0
6
CONTINUOUS
10
-185.656815
20
333.891795
30
0.0
11
-185.684015
21
333.295565
31
0.0
0
LINE
8
0
6
CONTINUOUS
10
-185.468048
20
338.032120
30
0.0
11
-185.656815
21
333.891795
31
0.0
0
LINE
8
0
6
CONTINUOUS
10
-177.368795
20
331.445435
30
0.0
11
-180.173175
21
331.952635
31
0.0
0
LINE
8
0
6
CONTINUOUS
10
-182.525845
20
240.268975
30
0.0
11
-182.025645
21
240.156295
31
0.0
0
LINE
8
0
6
CONTINUOUS
10
-177.927995
20
328.626825
30
0.0
11
-180.810495
21
329.298905
31
0.0
0
LINE
8
0
6
CONTINUOUS
10
-180.612855
20
332.032135
30
0.0
11
-180.173175
21
331.952635
31
0.0
0
LINE
8
0
6
CONTINUOUS
10
-185.682205
20
331.973695
30
0.0
11
-185.561525
21
243.652465
31
0.0
0
LINE
8
0
6
CONTINUOUS
10
-185.009765
20
241.998565
30
0.0
11
-184.268535
21
329.429445
31
0.0
0
LINE
8
0
6
CONTINUOUS
10
-181.281075
20
328.086055
30
0.0
11
-182.516632
21
240.905393
31
0.0
0
LINE
8
0
6
CONTINUOUS
10
-183.107115
20
332.523775
30
0.0
11
-184.333955
21
334.300505
31
0.0
0
LINE
8
0
6
CONTINUOUS
10
-180.793285
20
331.490215
30
0.0
11
-183.107115
21
332.523775
31
0.0
0
LINE
8
0
6
CONTINUOUS
10
-151.762855
20
385.153925
30
0.0
11
-143.323995
21
382.139555
31
0.0
0
LINE
8
0
6
CONTINUOUS
10
-161.170815
20
387.009855
30
0.0
11
-151.762855
21
385.153925
31
0.0
0
LINE
8
0
6
CONTINUOUS
10
-171.075215
20
387.697565
30
0.0
11
-161.170815
21
387.009855
31
0.0
0
LINE
8
0
6
CONTINUOUS
10
-180.978645
20
386.940195
30
0.0
11
-171.075215
21
387.697565
31
0.0
0
LINE
8
0
6
CONTINUOUS
10
-190.441595
20
385.175745
30
0.0
11
-180.978645
21
386.940195
31
0.0
0
LINE
8
0
6
CONTINUOUS
10
-211.168735
20
373.013045
30
0.0
11
-205.868365
21
377.874955
31
0.0
0
LINE
8
0
6
CONTINUOUS
10
-214.458625
20
367.602735
30
0.0
11
-211.168735
21
373.013045
31
0.0
0
LINE
8
0
6
CONTINUOUS
10
-215.572595
20
361.915095
30
0.0
11
-214.458625
21
367.602735
31
0.0
0
LINE
8
0
6
CONTINUOUS
10
-126.560155
20
362.228665
30
0.0
11
-127.611835
21
356.575135
31
0.0
0
LINE
8
0
6
CONTINUOUS
10
-220.897985
20
375.275465
30
0.0
11
-221.124725
21
369.695555
31
0.0
0
LINE
8
0
6
CONTINUOUS
10
-121.831495
20
378.311965
30
0.0
11
-123.070115
21
384.605605
31
0.0
0
LINE
8
0
6
CONTINUOUS
10
-121.370855
20
375.626115
30
0.0
11
-121.831495
21
378.311965
31
0.0
0
LINE
8
0
6
CONTINUOUS
10
-123.699665
20
387.205315
30
0.0
11
-124.526355
21
389.746745
31
0.0
0
LINE
8
0
6
CONTINUOUS
10
-141.962055
20
406.570095
30
0.0
11
-142.020265
21
406.597405
31
0.0
0
LINE
8
0
6
CONTINUOUS
10
-142.446465
20
406.757395
30
0.0
11
-151.190035
21
409.879275
31
0.0
0
LINE
8
0
6
CONTINUOUS
10
-142.020265
20
406.597405
30
0.0
11
-142.446465
21
406.757395
31
0.0
0
LINE
8
0
6
CONTINUOUS
10
-151.335915
20
409.910935
30
0.0
11
-161.011695
21
411.819805
31
0.0
0
LINE
8
0
6
CONTINUOUS
10
-151.190035
20
409.879275
30
0.0
11
-151.335915
21
409.910935
31
0.0
0
LINE
8
0
6
CONTINUOUS
10
-161.011695
20
411.819805
30
0.0
11
-171.197835
21
412.442595
31
0.0
0
LINE
8
0
6
CONTINUOUS
10
-171.197835
20
412.442595
30
0.0
11
-181.383485
21
411.748015
31
0.0
0
LINE
8
0
6
CONTINUOUS
10
-191.057975
20
409.771005
30
0.0
11
-191.201885
21
409.738275
31
0.0
0
LINE
8
0
6
CONTINUOUS
10
-181.383485
20
411.748015
30
0.0
11
-191.057975
21
409.771005
31
0.0
0
LINE
8
0
6
CONTINUOUS
10
-200.364995
20
406.391795
30
0.0
11
-200.422515
21
406.364105
31
0.0
0
LINE
8
0
6
CONTINUOUS
10
-199.943335
20
406.554835
30
0.0
11
-200.364995
21
406.391795
31
0.0
0
LINE
8
0
6
CONTINUOUS
10
-191.201885
20
409.738275
30
0.0
11
-199.943335
21
406.554835
31
0.0
0
LINE
8
0
6
CONTINUOUS
10
-217.828235
20
389.418075
30
0.0
11
-218.628025
21
386.870925
31
0.0
0
LINE
8
0
6
CONTINUOUS
10
-220.464675
20
377.964525
30
0.0
11
-220.897985
21
375.275465
31
0.0
0
LINE
8
0
6
CONTINUOUS
10
-219.230335
20
384.266855
30
0.0
11
-220.464675
21
377.964525
31
0.0
0
LINE
8
0
6
CONTINUOUS
10
-121.087345
20
370.047955
30
0.0
11
-121.370855
21
375.626115
31
0.0
0
LINE
8
0
6
CONTINUOUS
10
-123.070115
20
384.605605
30
0.0
11
-123.699665
21
387.205315
31
0.0
0
LINE
8
0
6
CONTINUOUS
10
-218.628025
20
386.870925
30
0.0
11
-219.230335
21
384.266855
31
0.0
0
LINE
8
0
6
CONTINUOUS
10
-121.086315
20
369.847535
30
0.0
11
-121.087345
21
370.047955
31
0.0
0
LINE
8
0
6
CONTINUOUS
10
-221.124725
20
369.695555
30
0.0
11
-221.123695
21
369.495205
31
0.0
0
LINE
8
0
6
CONTINUOUS
10
-121.080785
20
368.756835
30
0.0
11
-121.084885
21
369.565395
31
0.0
0
LINE
8
0
6
CONTINUOUS
10
-221.122265
20
369.212995
30
0.0
11
-221.118145
21
368.404505
31
0.0
0
LINE
8
0
6
CONTINUOUS
10
-127.614975
20
367.957505
30
0.0
11
-126.560155
21
362.228665
31
0.0
0
LINE
8
0
6
CONTINUOUS
10
-126.935275
20
356.974535
30
0.0
11
-130.281295
21
351.471825
31
0.0
0
LINE
8
0
6
CONTINUOUS
10
-198.913708
20
342.056628
30
0.0
11
-199.285515
21
342.189375
31
0.0
0
LINE
8
0
6
CONTINUOUS
10
-191.515585
20
339.311265
30
0.0
11
-190.701625
21
339.124645
31
0.0
0
LINE
8
0
6
CONTINUOUS
10
-200.452805
20
342.502175
30
0.0
11
-191.515585
21
339.311265
31
0.0
0
LINE
8
0
6
CONTINUOUS
10
-215.731605
20
354.402205
30
0.0
11
-214.732385
21
352.815515
31
0.0
0
LINE
8
0
6
CONTINUOUS
10
-219.398465
20
360.400055
30
0.0
11
-215.731605
21
354.402205
31
0.0
0
LINE
8
0
6
CONTINUOUS
10
-208.958005
20
347.563365
30
0.0
11
-207.916895
21
346.758775
31
0.0
0
LINE
8
0
6
CONTINUOUS
10
-214.732385
20
352.815515
30
0.0
11
-208.958005
21
347.563365
31
0.0
0
LINE
8
0
6
CONTINUOUS
10
-134.221485
20
347.018395
30
0.0
11
-133.193095
21
347.830245
31
0.0
0
LINE
8
0
6
CONTINUOUS
10
-133.193095
20
347.830245
30
0.0
11
-127.422265
21
353.123135
31
0.0
0
LINE
8
0
6
CONTINUOUS
10
-127.422265
20
353.123135
30
0.0
11
-126.441825
21
354.716845
31
0.0
0
LINE
8
0
6
CONTINUOUS
10
-126.441825
20
354.716845
30
0.0
11
-122.779065
21
360.740475
31
0.0
0
LINE
8
0
6
CONTINUOUS
10
-221.118145
20
368.404505
30
0.0
11
-219.861915
21
362.021225
31
0.0
0
LINE
8
0
6
CONTINUOUS
10
-219.861915
20
362.021225
30
0.0
11
-219.398465
21
360.400055
31
0.0
0
LINE
8
0
6
CONTINUOUS
10
-202.297805
20
391.824615
30
0.0
11
-210.216315
21
387.251475
31
0.0
0
LINE
8
0
6
CONTINUOUS
10
-126.043015
20
382.105145
30
0.0
11
-132.003925
21
387.526975
31
0.0
0
LINE
8
0
6
CONTINUOUS
10
-159.983315
20
397.516755
30
0.0
11
-171.113785
21
398.197295
31
0.0
0
LINE
8
0
6
CONTINUOUS
10
-149.410495
20
395.430955
30
0.0
11
-159.983315
21
397.516755
31
0.0
0
LINE
8
0
6
CONTINUOUS
10
-192.815075
20
395.278055
30
0.0
11
-202.297805
21
391.824615
31
0.0
0
LINE
8
0
6
CONTINUOUS
10
-221.122785
20
369.315225
30
0.0
11
-221.122265
21
369.212995
31
0.0
0
LINE
8
0
6
CONTINUOUS
10
-219.870855
20
375.707285
30
0.0
11
-221.122785
21
369.315225
31
0.0
0
LINE
8
0
6
CONTINUOUS
10
-122.341635
20
376.050835
30
0.0
11
-126.043015
21
382.105145
31
0.0
0
LINE
8
0
6
CONTINUOUS
10
-121.084885
20
369.565395
30
0.0
11
-121.085395
21
369.667635
31
0.0
0
LINE
8
0
6
CONTINUOUS
10
-121.085395
20
369.667635
30
0.0
11
-122.341635
21
376.050835
31
0.0
0
LINE
8
0
6
CONTINUOUS
10
-139.925505
20
392.044415
30
0.0
11
-149.410495
21
395.430955
31
0.0
0
LINE
8
0
6
CONTINUOUS
10
-182.243715
20
397.438395
30
0.0
11
-192.815075
21
395.278055
31
0.0
0
LINE
8
0
6
CONTINUOUS
10
-216.173575
20
381.787685
30
0.0
11
-219.870855
21
375.707285
31
0.0
0
LINE
8
0
6
CONTINUOUS
10
-132.003925
20
387.526975
30
0.0
11
-139.925505
21
392.044415
31
0.0
0
LINE
8
0
6
CONTINUOUS
10
-171.113785
20
398.197295
30
0.0
11
-182.243715
21
397.438395
31
0.0
0
LINE
8
0
6
CONTINUOUS
10
-210.216315
20
387.251475
30
0.0
11
-216.173575
21
381.787685
31
0.0
0
LINE
8
0
6
CONTINUOUS
10
-121.086315
20
369.847535
30
0.0
11
-122.342555
21
376.230815
31
0.0
0
LINE
8
0
6
CONTINUOUS
10
-122.342555
20
376.230815
30
0.0
11
-126.043935
21
382.285125
31
0.0
0
LINE
8
0
6
CONTINUOUS
10
-126.043935
20
382.285125
30
0.0
11
-132.004835
21
387.706955
31
0.0
0
LINE
8
0
6
CONTINUOUS
10
-132.004835
20
387.706955
30
0.0
11
-139.926415
21
392.224395
31
0.0
0
LINE
8
0
6
CONTINUOUS
10
-139.926415
20
392.224395
30
0.0
11
-149.411415
21
395.610855
31
0.0
0
LINE
8
0
6
CONTINUOUS
10
-149.411415
20
395.610855
30
0.0
11
-159.984235
21
397.696725
31
0.0
0
LINE
8
0
6
CONTINUOUS
10
-159.984235
20
397.696725
30
0.0
11
-171.114695
21
398.377195
31
0.0
0
LINE
8
0
6
CONTINUOUS
10
-171.114695
20
398.377195
30
0.0
11
-182.244625
21
397.618295
31
0.0
0
LINE
8
0
6
CONTINUOUS
10
-182.244625
20
397.618295
30
0.0
11
-192.815995
21
395.457955
31
0.0
0
LINE
8
0
6
CONTINUOUS
10
-192.815995
20
395.457955
30
0.0
11
-202.298705
21
392.004595
31
0.0
0
LINE
8
0
6
CONTINUOUS
10
-202.298705
20
392.004595
30
0.0
11
-210.217235
21
387.431455
31
0.0
0
LINE
8
0
6
CONTINUOUS
10
-210.217235
20
387.431455
30
0.0
11
-216.174495
21
381.967585
31
0.0
0
LINE
8
0
6
CONTINUOUS
10
-216.174495
20
381.967585
30
0.0
11
-219.871775
21
375.887185
31
0.0
0
LINE
8
0
6
CONTINUOUS
10
-219.871775
20
375.887185
30
0.0
11
-221.123695
21
369.495205
31
0.0
0
LINE
8
0
6
CONTINUOUS
10
-221.123695
20
369.495205
30
0.0
11
-221.105572
21
369.403113
31
0.0
0
LINE
8
0
6
CONTINUOUS
10
-121.103516
20
369.759712
30
0.0
11
-121.086315
21
369.847535
31
0.0
0
LINE
8
0
6
CONTINUOUS
10
-128.950215
20
397.254225
30
0.0
11
-134.537305
21
402.335935
31
0.0
0
LINE
8
0
6
CONTINUOUS
10
-128.509545
20
396.550875
30
0.0
11
-128.950215
21
397.254225
31
0.0
0
LINE
8
0
6
CONTINUOUS
10
-134.537305
20
402.335935
30
0.0
11
-141.962055
21
406.570095
31
0.0
0
LINE
8
0
6
CONTINUOUS
10
-200.422515
20
406.364105
30
0.0
11
-207.844415
21
402.077755
31
0.0
0
LINE
8
0
6
CONTINUOUS
10
-213.428045
20
396.956605
30
0.0
11
-213.860405
21
396.250195
31
0.0
0
LINE
8
0
6
CONTINUOUS
10
-207.844415
20
402.077755
30
0.0
11
-213.428045
21
396.956605
31
0.0
0
LINE
8
0
6
CONTINUOUS
10
-217.361625
20
390.492295
30
0.0
11
-217.828235
21
389.418075
31
0.0
0
LINE
8
0
6
CONTINUOUS
10
-213.860405
20
396.250195
30
0.0
11
-217.361625
21
390.492295
31
0.0
0
LINE
8
0
6
CONTINUOUS
10
-125.004465
20
390.817605
30
0.0
11
-128.509545
21
396.550875
31
0.0
0
LINE
8
0
6
CONTINUOUS
10
-124.526355
20
389.746745
30
0.0
11
-125.004465
21
390.817605
31
0.0
0
LINE
8
0
6
CONTINUOUS
10
-130.288925
20
374.015245
30
0.0
11
-135.683525
21
378.922005
31
0.0
0
LINE
8
0
6
CONTINUOUS
10
-206.465425
20
378.672605
30
0.0
11
-211.856735
21
373.727915
31
0.0
0
LINE
8
0
6
CONTINUOUS
10
-211.401405
20
374.015545
30
0.0
11
-206.082919
21
378.893515
31
0.0
0
LINE
8
0
6
CONTINUOUS
10
-211.849125
20
351.184435
30
0.0
11
-206.454495
21
346.277735
31
0.0
0
LINE
8
0
6
CONTINUOUS
10
-143.200047
20
342.256722
30
0.0
11
-142.838805
21
342.388275
31
0.0
0
LINE
8
0
6
CONTINUOUS
10
-142.838805
20
342.388275
30
0.0
11
-135.672595
21
346.527065
31
0.0
0
LINE
8
0
6
CONTINUOUS
10
-136.224065
20
378.181805
30
0.0
11
-130.912845
21
373.351485
31
0.0
0
LINE
8
0
6
CONTINUOUS
10
-130.748355
20
374.299665
30
0.0
11
-136.077044
21
379.146414
31
0.0
0
LINE
8
0
6
CONTINUOUS
10
-143.323995
20
382.139555
30
0.0
11
-136.224065
21
378.181805
31
0.0
0
LINE
8
0
6
CONTINUOUS
10
-198.822125
20
381.943935
30
0.0
11
-190.441595
21
385.175745
31
0.0
0
LINE
8
0
6
CONTINUOUS
10
-205.868365
20
377.874955
30
0.0
11
-198.822125
21
381.943935
31
0.0
0
LINE
8
0
6
CONTINUOUS
10
-151.420615
20
339.263045
30
0.0
11
-150.617715
21
339.455385
31
0.0
0
LINE
8
0
6
CONTINUOUS
10
-142.838805
20
342.388275
30
0.0
11
-143.200047
21
342.256722
31
0.0
0
LINE
8
0
6
CONTINUOUS
10
-150.617715
20
339.455385
30
0.0
11
-141.682685
21
342.709315
31
0.0
0
LINE
8
0
6
CONTINUOUS
10
-142.852535
20
383.010225
30
0.0
11
-135.683525
21
378.922005
31
0.0
0
LINE
8
0
6
CONTINUOUS
10
-211.849125
20
351.184435
30
0.0
11
-215.188853
21
356.647179
31
0.0
0
LINE
8
0
6
CONTINUOUS
10
-211.856735
20
373.727915
30
0.0
11
-206.465425
21
378.672605
31
0.0
0
LINE
8
0
6
CONTINUOUS
10
-181.150345
20
387.891735
30
0.0
11
-171.077785
21
388.578535
31
0.0
0
LINE
8
0
6
CONTINUOUS
10
-135.672595
20
346.527065
30
0.0
11
-142.838805
21
342.388275
31
0.0
0
LINE
8
0
6
CONTINUOUS
10
-141.682685
20
342.709315
30
0.0
11
-134.221485
21
347.018395
31
0.0
0
LINE
8
0
6
CONTINUOUS
10
-206.454495
20
346.277735
30
0.0
11
-211.849125
21
351.184435
31
0.0
0
LINE
8
0
6
CONTINUOUS
10
-190.717395
20
385.936705
30
0.0
11
-181.150345
21
387.891735
31
0.0
0
LINE
8
0
6
CONTINUOUS
10
-151.436405
20
386.075025
30
0.0
11
-142.852535
21
383.010225
31
0.0
0
LINE
8
0
6
CONTINUOUS
10
-126.939185
20
368.536115
30
0.0
11
-125.802315
21
362.759295
31
0.0
0
LINE
8
0
6
CONTINUOUS
10
-215.202755
20
368.225215
30
0.0
11
-211.856735
21
373.727915
31
0.0
0
LINE
8
0
6
CONTINUOUS
10
-130.281295
20
351.471825
30
0.0
11
-135.672595
21
346.527065
31
0.0
0
LINE
8
0
6
CONTINUOUS
10
-199.285515
20
342.189375
30
0.0
11
-206.454495
21
346.277735
31
0.0
0
LINE
8
0
6
CONTINUOUS
10
-207.916895
20
346.758775
30
0.0
11
-200.452805
21
342.502175
31
0.0
0
LINE
8
0
6
CONTINUOUS
10
-216.335755
20
362.440385
30
0.0
11
-215.202755
21
368.225215
31
0.0
0
LINE
8
0
6
CONTINUOUS
10
-199.299205
20
382.811325
30
0.0
11
-190.717395
21
385.936705
31
0.0
0
LINE
8
0
6
CONTINUOUS
10
-161.004775
20
387.962685
30
0.0
11
-151.436405
21
386.075025
31
0.0
0
LINE
8
0
6
CONTINUOUS
10
-130.288925
20
374.015245
30
0.0
11
-126.939185
21
368.536115
31
0.0
0
LINE
8
0
6
CONTINUOUS
10
-215.198865
20
356.663555
30
0.0
11
-216.335755
21
362.440385
31
0.0
0
LINE
8
0
6
CONTINUOUS
10
-206.465425
20
378.672605
30
0.0
11
-199.299205
21
382.811325
31
0.0
0
LINE
8
0
6
CONTINUOUS
10
-171.077785
20
388.578535
30
0.0
11
-161.004775
21
387.962685
31
0.0
0
LINE
8
0
6
CONTINUOUS
10
-135.683525
20
378.922005
30
0.0
11
-130.288925
21
374.015245
31
0.0
0
LINE
8
0
6
CONTINUOUS
10
-126.939185
20
368.536115
30
0.0
11
-130.288925
21
374.015245
31
0.0
0
LINE
8
0
6
CONTINUOUS
10
-211.856735
20
373.727915
30
0.0
11
-215.202755
21
368.225215
31
0.0
0
LINE
8
0
6
CONTINUOUS
10
-214.709935
20
368.574565
30
0.0
11
-211.401405
21
374.015545
31
0.0
0
LINE
8
0
6
CONTINUOUS
10
-215.202755
20
368.225215
30
0.0
11
-216.335755
21
362.440385
31
0.0
0
LINE
8
0
6
CONTINUOUS
10
-215.830195
20
362.854655
30
0.0
11
-214.709935
21
368.574565
31
0.0
0
LINE
8
0
6
CONTINUOUS
10
-216.335755
20
362.440385
30
0.0
11
-215.198865
21
356.663555
31
0.0
0
LINE
8
0
6
CONTINUOUS
10
-214.706065
20
357.142605
30
0.0
11
-215.830195
21
362.854655
31
0.0
0
LINE
8
0
6
CONTINUOUS
10
-215.198865
20
356.663555
30
0.0
11
-211.849125
21
351.184435
31
0.0
0
LINE
8
0
6
CONTINUOUS
10
-206.454495
20
346.277735
30
0.0
11
-199.285515
21
342.189375
31
0.0
0
LINE
8
0
6
CONTINUOUS
10
-199.285515
20
342.189375
30
0.0
11
-198.913708
21
342.056628
31
0.0
0
LINE
8
0
6
CONTINUOUS
10
-135.672595
20
346.527065
30
0.0
11
-130.281295
21
351.471825
31
0.0
0
LINE
8
0
6
CONTINUOUS
10
-130.281295
20
351.471825
30
0.0
11
-126.935275
21
356.974535
31
0.0
0
LINE
8
0
6
CONTINUOUS
10
-126.935275
20
356.974535
30
0.0
11
-125.802315
21
362.759295
31
0.0
0
LINE
8
0
6
CONTINUOUS
10
-126.312055
20
363.169985
30
0.0
11
-127.432315
21
357.450075
31
0.0
0
LINE
8
0
6
CONTINUOUS
10
-125.802315
20
362.759295
30
0.0
11
-126.935275
21
356.974535
31
0.0
0
LINE
8
0
6
CONTINUOUS
10
-125.802315
20
362.759295
30
0.0
11
-126.939185
21
368.536115
31
0.0
0
LINE
8
0
6
CONTINUOUS
10
-127.436185
20
368.881955
30
0.0
11
-126.312055
21
363.169985
31
0.0
0
LINE
8
0
6
CONTINUOUS
10
-122.332695
20
362.364775
30
0.0
11
-121.080785
21
368.756835
31
0.0
0
LINE
8
0
6
CONTINUOUS
10
-122.779065
20
360.740475
30
0.0
11
-122.332695
21
362.364775
31
0.0
0
LINE
8
0
6
CONTINUOUS
10
-130.912845
20
373.351485
30
0.0
11
-127.614975
21
367.957505
31
0.0
0
LINE
8
0
6
CONTINUOUS
10
-127.436185
20
368.881955
30
0.0
11
-130.748355
21
374.299665
31
0.0
0
LINE
8
0
6
CONTINUOUS
10
-168.501975
20
331.122865
30
0.0
11
-168.502185
21
331.735885
31
0.0
0
LINE
8
0
6
CONTINUOUS
10
-173.591965
20
328.734865
30
0.0
11
-173.583375
21
326.733365
31
0.0
0
LINE
8
0
6
CONTINUOUS
10
-173.608615
20
332.945145
30
0.0
11
-173.591965
21
328.734865
31
0.0
0
LINE
8
0
6
CONTINUOUS
10
-173.621981
20
336.695418
30
0.0
11
-173.608615
21
332.945145
31
0.0
0
LINE
8
0
6
CONTINUOUS
10
-172.401455
20
329.296075
30
0.0
11
-172.372235
21
328.677645
31
0.0
0
LINE
8
0
6
CONTINUOUS
10
-171.031825
20
329.040575
30
0.0
11
-171.031615
21
328.423125
31
0.0
0
LINE
8
0
6
CONTINUOUS
10
-169.785655
20
329.305235
30
0.0
11
-169.785445
21
328.686715
31
0.0
0
LINE
8
0
6
CONTINUOUS
10
-168.731195
20
329.428445
30
0.0
11
-168.731405
21
330.050245
31
0.0
0
LINE
8
0
6
CONTINUOUS
10
-173.582785
20
326.595575
30
0.0
11
-173.338985
21
324.838685
31
0.0
0
LINE
8
0
6
CONTINUOUS
10
-168.500675
20
327.294505
30
0.0
11
-168.501975
21
331.122865
31
0.0
0
LINE
8
0
6
CONTINUOUS
10
-171.031615
20
328.423125
30
0.0
11
-171.030315
21
324.567455
31
0.0
0
LINE
8
0
6
CONTINUOUS
10
-169.785445
20
328.686715
30
0.0
11
-169.784145
21
324.823955
31
0.0
0
LINE
8
0
6
CONTINUOUS
10
-168.729905
20
325.545695
30
0.0
11
-168.731195
21
329.428445
31
0.0
0
LINE
8
0
6
CONTINUOUS
10
-173.340535
20
329.412275
30
0.0
11
-173.340725
21
330.033995
31
0.0
0
LINE
8
0
6
CONTINUOUS
10
-173.339215
20
325.529445
30
0.0
11
-173.340535
21
329.412275
31
0.0
0
LINE
8
0
6
CONTINUOUS
10
-168.500445
20
326.613435
30
0.0
11
-168.500675
21
327.294505
31
0.0
0
LINE
8
0
6
CONTINUOUS
10
-168.729675
20
324.854935
30
0.0
11
-168.500445
21
326.613435
31
0.0
0
LINE
8
0
6
CONTINUOUS
10
-173.339215
20
325.529445
30
0.0
11
-173.338985
21
324.838685
31
0.0
0
LINE
8
0
6
CONTINUOUS
10
-173.338985
20
324.838685
30
0.0
11
-172.157195
21
324.128465
31
0.0
0
LINE
8
0
6
CONTINUOUS
10
-172.157195
20
324.128465
30
0.0
11
-171.030085
21
323.881495
31
0.0
0
LINE
8
0
6
CONTINUOUS
10
-171.030315
20
324.567455
30
0.0
11
-171.030085
21
323.881495
31
0.0
0
LINE
8
0
6
CONTINUOUS
10
-171.030085
20
323.881495
30
0.0
11
-169.783925
21
324.136775
31
0.0
0
LINE
8
0
6
CONTINUOUS
10
-169.784145
20
324.823955
30
0.0
11
-169.783925
21
324.136775
31
0.0
0
LINE
8
0
6
CONTINUOUS
10
-168.729675
20
324.854935
30
0.0
11
-168.729905
21
325.545695
31
0.0
0
LINE
8
0
6
CONTINUOUS
10
-169.783925
20
324.136775
30
0.0
11
-168.729675
21
324.854935
31
0.0
0
LINE
8
0
6
CONTINUOUS
10
-168.502775
20
331.901595
30
0.0
11
-168.511495
21
334.307985
31
0.0
0
LINE
8
0
6
CONTINUOUS
10
-168.511495
20
334.307985
30
0.0
11
-168.515435
21
335.506785
31
0.0
0
LINE
8
0
6
CONTINUOUS
10
-173.597755
20
335.488935
30
0.0
11
-173.593815
21
334.290125
31
0.0
0
LINE
8
0
6
CONTINUOUS
10
-168.515435
20
335.506785
30
0.0
11
-168.519365
21
336.656695
31
0.0
0
LINE
8
0
6
CONTINUOUS
10
-173.601685
20
336.638835
30
0.0
11
-173.597755
21
335.488935
31
0.0
0
LINE
8
0
6
CONTINUOUS
10
-173.340725
20
330.033995
30
0.0
11
-172.401455
21
329.296075
31
0.0
0
LINE
8
0
6
CONTINUOUS
10
-172.401455
20
329.296075
30
0.0
11
-171.031825
21
329.040575
31
0.0
0
LINE
8
0
6
CONTINUOUS
10
-171.031825
20
329.040575
30
0.0
11
-169.785655
21
329.305235
31
0.0
0
LINE
8
0
6
CONTINUOUS
10
-169.785655
20
329.305235
30
0.0
11
-168.731405
21
330.050245
31
0.0
0
LINE
8
0
6
CONTINUOUS
10
-173.584505
20
331.718035
30
0.0
11
-173.340725
21
330.033995
31
0.0
0
LINE
8
0
6
CONTINUOUS
10
-168.731405
20
330.050245
30
0.0
11
-168.502185
21
331.735885
31
0.0
0
LINE
8
0
6
CONTINUOUS
10
-173.601861
20
336.694171
30
0.0
11
-173.601685
21
336.638835
31
0.0
0
LINE
8
0
6
CONTINUOUS
10
-173.584505
20
331.718035
30
0.0
11
-173.585095
21
331.883665
31
0.0
0
LINE
8
0
6
CONTINUOUS
10
-168.502185
20
331.735885
30
0.0
11
-168.502775
21
331.901595
31
0.0
0
LINE
8
0
6
CONTINUOUS
10
-173.593815
20
334.290125
30
0.0
11
-173.585095
21
331.883665
31
0.0
0
LINE
8
0
6
CONTINUOUS
10
-168.519365
20
336.656695
30
0.0
11
-168.519534
21
336.709545
31
0.0
0
LINE
8
0
6
CONTINUOUS
10
-182.476010
20
240.257749
30
0.0
11
-182.392105
21
238.920054
31
0.0
0
LINE
8
0
6
CONTINUOUS
10
-160.743435
20
219.117555
30
0.0
11
-159.414038
21
240.322454
31
0.0
0
LINE
8
0
6
CONTINUOUS
10
-162.099025
20
216.136515
30
0.0
11
-161.099035
21
217.370955
31
0.0
0
LINE
8
0
6
CONTINUOUS
10
-160.770035
20
218.693205
30
0.0
11
-160.743435
21
219.117555
31
0.0
0
LINE
8
0
6
CONTINUOUS
10
-161.099035
20
217.370955
30
0.0
11
-160.770035
21
218.693205
31
0.0
0
LINE
8
0
6
CONTINUOUS
10
-163.620455
20
203.822865
30
0.0
11
-163.620456
21
205.292365
31
0.0
0
LINE
8
0
6
CONTINUOUS
10
-164.692255
20
202.026675
30
0.0
11
-164.692255
21
205.292365
31
0.0
0
LINE
8
0
6
CONTINUOUS
10
-167.620455
20
200.711755
30
0.0
11
-167.620455
21
205.273767
31
0.0
0
LINE
8
0
6
CONTINUOUS
10
-171.620445
20
200.230485
30
0.0
11
-171.620450
21
205.233610
31
0.0
0
LINE
8
0
6
CONTINUOUS
10
-175.620465
20
200.711755
30
0.0
11
-175.620465
21
205.257860
31
0.0
0
LINE
8
0
6
CONTINUOUS
10
-178.548665
20
202.026635
30
0.0
11
-178.548665
21
205.284835
31
0.0
0
LINE
8
0
6
CONTINUOUS
10
-179.620465
20
205.292365
30
0.0
11
-179.620465
21
203.822825
31
0.0
0
LINE
8
0
6
CONTINUOUS
10
-163.620455
20
185.215305
30
0.0
11
-163.620455
21
203.822865
31
0.0
0
LINE
8
0
6
CONTINUOUS
10
-164.692255
20
183.647925
30
0.0
11
-164.692255
21
202.026675
31
0.0
0
LINE
8
0
6
CONTINUOUS
10
-167.620455
20
182.500535
30
0.0
11
-167.620455
21
200.711755
31
0.0
0
LINE
8
0
6
CONTINUOUS
10
-171.620445
20
182.080545
30
0.0
11
-171.620445
21
200.230485
31
0.0
0
LINE
8
0
6
CONTINUOUS
10
-175.620445
20
182.500535
30
0.0
11
-175.620465
21
200.711755
31
0.0
0
LINE
8
0
6
CONTINUOUS
10
-178.548665
20
183.647885
30
0.0
11
-178.548665
21
202.026635
31
0.0
0
LINE
8
0
6
CONTINUOUS
10
-179.620465
20
203.822825
30
0.0
11
-179.620465
21
185.215265
31
0.0
0
LINE
8
0
6
CONTINUOUS
10
-163.620455
20
167.890405
30
0.0
11
-163.620455
21
185.215305
31
0.0
0
LINE
8
0
6
CONTINUOUS
10
-164.692255
20
166.594395
30
0.0
11
-164.692255
21
183.647925
31
0.0
0
LINE
8
0
6
CONTINUOUS
10
-167.620455
20
165.645685
30
0.0
11
-167.620455
21
182.500535
31
0.0
0
LINE
8
0
6
CONTINUOUS
10
-171.620445
20
165.298465
30
0.0
11
-171.620445
21
182.080545
31
0.0
0
LINE
8
0
6
CONTINUOUS
10
-175.620445
20
165.645685
30
0.0
11
-175.620445
21
182.500535
31
0.0
0
LINE
8
0
6
CONTINUOUS
10
-178.548665
20
166.594355
30
0.0
11
-178.548665
21
183.647885
31
0.0
0
LINE
8
0
6
CONTINUOUS
10
-179.620465
20
185.215265
30
0.0
11
-179.620465
21
167.890365
31
0.0
0
LINE
8
0
6
CONTINUOUS
10
-163.620475
20
151.430745
30
0.0
11
-163.620455
21
167.890405
31
0.0
0
LINE
8
0
6
CONTINUOUS
10
-164.692275
20
150.434115
30
0.0
11
-164.692255
21
166.594395
31
0.0
0
LINE
8
0
6
CONTINUOUS
10
-167.620455
20
149.704595
30
0.0
11
-167.620455
21
165.645685
31
0.0
0
LINE
8
0
6
CONTINUOUS
10
-171.620445
20
149.437525
30
0.0
11
-171.620445
21
165.298465
31
0.0
0
LINE
8
0
6
CONTINUOUS
10
-175.620445
20
149.704595
30
0.0
11
-175.620445
21
165.645685
31
0.0
0
LINE
8
0
6
CONTINUOUS
10
-178.548665
20
150.434115
30
0.0
11
-178.548665
21
166.594355
31
0.0
0
LINE
8
0
6
CONTINUOUS
10
-179.620465
20
167.890365
30
0.0
11
-179.620475
21
151.430705
31
0.0
0
LINE
8
0
6
CONTINUOUS
10
-163.620455
20
135.419045
30
0.0
11
-163.620475
21
151.430745
31
0.0
0
LINE
8
0
6
CONTINUOUS
10
-164.692255
20
134.723435
30
0.0
11
-164.692275
21
150.434115
31
0.0
0
LINE
8
0
6
CONTINUOUS
10
-167.620455
20
134.214175
30
0.0
11
-167.620455
21
149.704595
31
0.0
0
LINE
8
0
6
CONTINUOUS
10
-171.620465
20
134.027795
30
0.0
11
-171.620445
21
149.437525
31
0.0
0
LINE
8
0
6
CONTINUOUS
10
-175.620465
20
134.214175
30
0.0
11
-175.620445
21
149.704595
31
0.0
0
LINE
8
0
6
CONTINUOUS
10
-178.548665
20
134.723405
30
0.0
11
-178.548665
21
150.434115
31
0.0
0
LINE
8
0
6
CONTINUOUS
10
-179.620475
20
151.430705
30
0.0
11
-179.620465
21
135.419015
31
0.0
0
LINE
8
0
6
CONTINUOUS
10
-163.620455
20
119.437875
30
0.0
11
-163.620455
21
135.419045
31
0.0
0
LINE
8
0
6
CONTINUOUS
10
-164.692255
20
119.013445
30
0.0
11
-164.692255
21
134.723435
31
0.0
0
LINE
8
0
6
CONTINUOUS
10
-167.620455
20
118.702775
30
0.0
11
-167.620455
21
134.214175
31
0.0
0
LINE
8
0
6
CONTINUOUS
10
-171.620445
20
118.589105
30
0.0
11
-171.620465
21
134.027795
31
0.0
0
LINE
8
0
6
CONTINUOUS
10
-175.620445
20
118.702815
30
0.0
11
-175.620465
21
134.214175
31
0.0
0
LINE
8
0
6
CONTINUOUS
10
-178.548665
20
119.013445
30
0.0
11
-178.548665
21
134.723405
31
0.0
0
LINE
8
0
6
CONTINUOUS
10
-179.620465
20
135.419015
30
0.0
11
-179.620465
21
119.437835
31
0.0
0
LINE
8
0
6
CONTINUOUS
10
-163.620455
20
103.069845
30
0.0
11
-163.620455
21
119.437875
31
0.0
0
LINE
8
0
6
CONTINUOUS
10
-164.692255
20
102.860765
30
0.0
11
-164.692255
21
119.013445
31
0.0
0
LINE
8
0
6
CONTINUOUS
10
-167.620455
20
102.707715
30
0.0
11
-167.620455
21
118.702775
31
0.0
0
LINE
8
0
6
CONTINUOUS
10
-171.620445
20
102.651675
30
0.0
11
-171.620445
21
118.589105
31
0.0
0
LINE
8
0
6
CONTINUOUS
10
-175.620445
20
102.707715
30
0.0
11
-175.620445
21
118.702815
31
0.0
0
LINE
8
0
6
CONTINUOUS
10
-178.548645
20
102.860765
30
0.0
11
-178.548665
21
119.013445
31
0.0
0
LINE
8
0
6
CONTINUOUS
10
-179.620465
20
119.437835
30
0.0
11
-179.620465
21
103.069805
31
0.0
0
LINE
8
0
6
CONTINUOUS
10
-163.620455
20
85.897605
30
0.0
11
-163.620455
21
103.069845
31
0.0
0
LINE
8
0
6
CONTINUOUS
10
-164.692255
20
85.897605
30
0.0
11
-164.692255
21
102.860765
31
0.0
0
LINE
8
0
6
CONTINUOUS
10
-167.620455
20
85.897605
30
0.0
11
-167.620455
21
102.707715
31
0.0
0
LINE
8
0
6
CONTINUOUS
10
-171.620445
20
85.897605
30
0.0
11
-171.620445
21
102.651675
31
0.0
0
LINE
8
0
6
CONTINUOUS
10
-175.620445
20
85.897605
30
0.0
11
-175.620445
21
102.707715
31
0.0
0
LINE
8
0
6
CONTINUOUS
10
-178.548645
20
85.897565
30
0.0
11
-178.548645
21
102.860765
31
0.0
0
LINE
8
0
6
CONTINUOUS
10
-179.620465
20
103.069805
30
0.0
11
-179.620465
21
85.897565
31
0.0
0
LINE
8
0
6
CONTINUOUS
10
-163.620475
20
-479.500005
30
0.0
11
-163.620455
21
85.897605
31
0.0
0
LINE
8
0
6
CONTINUOUS
10
-164.692295
20
-478.428205
30
0.0
11
-163.620475
21
-479.500005
31
0.0
0
LINE
8
0
6
CONTINUOUS
10
-179.620495
20
-463.499985
30
0.0
11
-178.548685
21
-464.571805
31
0.0
0
LINE
8
0
6
CONTINUOUS
10
-179.620465
20
85.897565
30
0.0
11
-179.620495
21
-463.499985
31
0.0
0
LINE
8
0
6
CONTINUOUS
10
-175.620485
20
-467.500005
30
0.0
11
-171.620485
21
-471.500005
31
0.0
0
LINE
8
0
6
CONTINUOUS
10
-171.620485
20
-471.500005
30
0.0
11
-167.620495
21
-475.500005
31
0.0
0
LINE
8
0
6
CONTINUOUS
10
-171.620445
20
85.897605
30
0.0
11
-171.620485
21
-471.500005
31
0.0
0
LINE
8
0
6
CONTINUOUS
10
-164.692295
20
-478.428205
30
0.0
11
-164.692255
21
85.897605
31
0.0
0
LINE
8
0
6
CONTINUOUS
10
-167.620495
20
-475.500005
30
0.0
11
-164.692295
21
-478.428205
31
0.0
0
LINE
8
0
6
CONTINUOUS
10
-167.620455
20
85.897605
30
0.0
11
-167.620495
21
-475.500005
31
0.0
0
LINE
8
0
6
CONTINUOUS
10
-175.620485
20
-467.500005
30
0.0
11
-175.620445
21
85.897605
31
0.0
0
LINE
8
0
6
CONTINUOUS
10
-178.548685
20
-464.571805
30
0.0
11
-175.620485
21
-467.500005
31
0.0
0
LINE
8
0
6
CONTINUOUS
10
-178.548645
20
85.897565
30
0.0
11
-178.548685
21
-464.571805
31
0.0
0
LINE
8
0
6
CONTINUOUS
10
-229.000245
20
251.516695
30
0.0
11
-244.641465
21
251.518525
31
0.0
0
LINE
8
0
6
CONTINUOUS
10
-228.887825
20
247.475705
30
0.0
11
-228.887825
21
248.239715
31
0.0
0
LINE
8
0
6
CONTINUOUS
10
-228.887825
20
248.239715
30
0.0
11
-228.887825
21
249.023405
31
0.0
0
LINE
8
0
6
CONTINUOUS
10
-228.887825
20
249.023405
30
0.0
11
-228.887825
21
249.773065
31
0.0
0
LINE
8
0
6
CONTINUOUS
10
-228.887825
20
249.773065
30
0.0
11
-228.887825
21
250.438045
31
0.0
0
LINE
8
0
6
CONTINUOUS
10
-228.887825
20
250.438045
30
0.0
11
-228.887825
21
250.972715
31
0.0
0
LINE
8
0
6
CONTINUOUS
10
-228.887825
20
250.972715
30
0.0
11
-228.887825
21
251.340685
31
0.0
0
LINE
8
0
6
CONTINUOUS
10
-228.887825
20
251.516915
30
0.0
11
-229.000245
21
251.516695
31
0.0
0
LINE
8
0
6
CONTINUOUS
10
-228.887825
20
251.340685
30
0.0
11
-228.887825
21
251.516915
31
0.0
0
LINE
8
0
6
CONTINUOUS
10
-229.000215
20
240.447735
30
0.0
11
-228.887795
21
240.449265
31
0.0
0
LINE
8
0
6
CONTINUOUS
10
-228.887825
20
247.475705
30
0.0
11
-228.887795
21
240.449265
31
0.0
0
LINE
8
0
6
CONTINUOUS
10
-245.354385
20
205.769815
30
0.0
11
-245.354355
21
205.413865
31
0.0
0
LINE
8
0
6
CONTINUOUS
10
-245.354355
20
205.413865
30
0.0
11
-244.641685
21
205.413865
31
0.0
0
LINE
8
0
6
CONTINUOUS
10
-245.354355
20
239.561205
30
0.0
11
-245.354425
21
236.199995
31
0.0
0
LINE
8
0
6
CONTINUOUS
10
-245.354425
20
236.199995
30
0.0
11
-245.354465
21
232.020915
31
0.0
0
LINE
8
0
6
CONTINUOUS
10
-245.354465
20
232.020915
30
0.0
11
-245.354465
21
227.308855
31
0.0
0
LINE
8
0
6
CONTINUOUS
10
-245.354465
20
227.308855
30
0.0
11
-245.354505
21
222.384915
31
0.0
0
LINE
8
0
6
CONTINUOUS
10
-245.354505
20
222.384915
30
0.0
11
-245.354505
21
217.584575
31
0.0
0
LINE
8
0
6
CONTINUOUS
10
-245.354505
20
217.584575
30
0.0
11
-245.354465
21
213.235135
31
0.0
0
LINE
8
0
6
CONTINUOUS
10
-245.354465
20
213.235135
30
0.0
11
-245.354465
21
209.632875
31
0.0
0
LINE
8
0
6
CONTINUOUS
10
-245.354465
20
209.632875
30
0.0
11
-245.354425
21
207.023325
31
0.0
0
LINE
8
0
6
CONTINUOUS
10
-245.354425
20
207.023325
30
0.0
11
-245.354385
21
205.769815
31
0.0
0
LINE
8
0
6
CONTINUOUS
10
-244.641685
20
205.413865
30
0.0
11
-224.380955
21
205.413785
31
0.0
0
LINE
8
0
6
CONTINUOUS
10
-224.090465
20
209.632765
30
0.0
11
-224.090465
21
213.235025
31
0.0
0
LINE
8
0
6
CONTINUOUS
10
-224.090235
20
242.985345
30
0.0
11
-224.380875
21
242.985345
31
0.0
0
LINE
8
0
6
CONTINUOUS
10
-224.380955
20
205.413785
30
0.0
11
-224.090355
21
205.413785
31
0.0
0
LINE
8
0
6
CONTINUOUS
10
-245.354275
20
248.238495
30
0.0
11
-245.354275
21
247.475555
31
0.0
0
LINE
8
0
6
CONTINUOUS
10
-245.354275
20
249.020965
30
0.0
11
-245.354275
21
248.238495
31
0.0
0
LINE
8
0
6
CONTINUOUS
10
-245.354275
20
249.769485
30
0.0
11
-245.354275
21
249.020965
31
0.0
0
LINE
8
0
6
CONTINUOUS
10
-245.354275
20
250.433245
30
0.0
11
-245.354275
21
249.769485
31
0.0
0
LINE
8
0
6
CONTINUOUS
10
-245.354275
20
250.966915
30
0.0
11
-245.354275
21
250.433245
31
0.0
0
LINE
8
0
6
CONTINUOUS
10
-245.354275
20
251.334045
30
0.0
11
-245.354275
21
250.966915
31
0.0
0
LINE
8
0
6
CONTINUOUS
10
-245.354275
20
251.509745
30
0.0
11
-245.354275
21
251.334045
31
0.0
0
LINE
8
0
6
CONTINUOUS
10
-244.641465
20
251.518525
30
0.0
11
-245.354275
21
251.509745
31
0.0
0
LINE
8
0
6
CONTINUOUS
10
-224.090505
20
217.584505
30
0.0
11
-224.090465
21
213.235025
31
0.0
0
LINE
8
0
6
CONTINUOUS
10
-244.641425
20
240.455895
30
0.0
11
-229.000215
21
240.447735
31
0.0
0
LINE
8
0
6
CONTINUOUS
10
-224.380875
20
242.985345
30
0.0
11
-228.887795
21
242.985363
31
0.0
0
LINE
8
0
6
CONTINUOUS
10
-245.354235
20
240.453305
30
0.0
11
-244.641425
21
240.455895
31
0.0
0
LINE
8
0
6
CONTINUOUS
10
-245.354275
20
247.475555
30
0.0
11
-245.354235
21
240.453305
31
0.0
0
LINE
8
0
6
CONTINUOUS
10
-245.354235
20
240.453305
30
0.0
11
-245.354355
21
239.561205
31
0.0
0
LINE
8
0
6
CONTINUOUS
10
-244.641425
20
240.455895
30
0.0
11
-245.354235
21
240.453305
31
0.0
0
LINE
8
0
6
CONTINUOUS
10
-224.090425
20
207.023205
30
0.0
11
-224.090385
21
205.584185
31
0.0
0
LINE
8
0
6
CONTINUOUS
10
-224.090465
20
209.632765
30
0.0
11
-224.090425
21
207.023205
31
0.0
0
LINE
8
0
6
CONTINUOUS
10
-224.090505
20
222.384835
30
0.0
11
-224.090505
21
217.584505
31
0.0
0
LINE
8
0
6
CONTINUOUS
10
-224.090465
20
227.308775
30
0.0
11
-224.090505
21
222.384835
31
0.0
0
LINE
8
0
6
CONTINUOUS
10
-224.090425
20
232.020845
30
0.0
11
-224.090465
21
227.308775
31
0.0
0
LINE
8
0
6
CONTINUOUS
10
-224.090385
20
236.199915
30
0.0
11
-224.090425
21
232.020845
31
0.0
0
LINE
8
0
6
CONTINUOUS
10
-224.090355
20
239.561125
30
0.0
11
-224.090385
21
236.199915
31
0.0
0
LINE
8
0
6
CONTINUOUS
10
-224.090315
20
241.875575
30
0.0
11
-224.090355
21
239.561125
31
0.0
0
LINE
8
0
6
CONTINUOUS
10
-224.090235
20
242.985345
30
0.0
11
-224.090315
21
241.875575
31
0.0
0
LINE
8
0
6
CONTINUOUS
10
-224.090385
20
205.584185
30
0.0
11
-224.090355
21
205.413785
31
0.0
0
LINE
8
0
6
CONTINUOUS
10
-223.509065
20
228.002665
30
0.0
11
-223.509065
21
224.307525
31
0.0
0
LINE
8
0
6
CONTINUOUS
10
-223.509105
20
237.685135
30
0.0
11
-223.509105
21
234.822435
31
0.0
0
LINE
8
0
6
CONTINUOUS
10
-223.509105
20
234.822435
30
0.0
11
-223.509105
21
231.553005
31
0.0
0
LINE
8
0
6
CONTINUOUS
10
-182.199259
20
238.501336
30
0.0
11
-182.724005
21
239.640695
31
0.0
0
LINE
8
0
6
CONTINUOUS
10
-162.701175
20
224.307595
30
0.0
11
-162.701175
21
228.002665
31
0.0
0
LINE
8
0
6
CONTINUOUS
10
-162.701155
20
220.609935
30
0.0
11
-162.701175
21
224.307595
31
0.0
0
LINE
8
0
6
CONTINUOUS
10
-181.930625
20
237.685135
30
0.0
11
-183.011055
21
240.031095
31
0.0
0
LINE
8
0
6
CONTINUOUS
10
-162.701175
20
213.769725
30
0.0
11
-162.701175
21
217.051745
31
0.0
0
LINE
8
0
6
CONTINUOUS
10
-162.701175
20
217.051745
30
0.0
11
-162.701155
21
220.609935
31
0.0
0
LINE
8
0
6
CONTINUOUS
10
-162.701175
20
228.002665
30
0.0
11
-162.701195
21
231.553085
31
0.0
0
LINE
8
0
6
CONTINUOUS
10
-162.701195
20
231.553085
30
0.0
11
-162.701155
21
233.658795
31
0.0
0
LINE
8
0
6
CONTINUOUS
10
-223.509105
20
240.031095
30
0.0
11
-223.509105
21
237.685135
31
0.0
0
LINE
8
0
6
CONTINUOUS
10
-223.509145
20
243.186305
30
0.0
11
-223.509145
21
242.835505
31
0.0
0
LINE
8
0
6
CONTINUOUS
10
-223.189395
20
243.186305
30
0.0
11
-223.509145
21
243.186305
31
0.0
0
LINE
8
0
6
CONTINUOUS
10
-182.463597
20
240.059858
30
0.0
11
-182.724005
21
239.640695
31
0.0
0
LINE
8
0
6
CONTINUOUS
10
-223.509105
20
241.770135
30
0.0
11
-223.509105
21
240.031095
31
0.0
0
LINE
8
0
6
CONTINUOUS
10
-182.659698
20
243.186305
30
0.0
11
-192.130955
21
243.186305
31
0.0
0
LINE
8
0
6
CONTINUOUS
10
-214.107748
20
243.186305
30
0.0
11
-223.189395
21
243.186305
31
0.0
0
LINE
8
0
6
CONTINUOUS
10
-223.509105
20
213.769725
30
0.0
11
-223.509105
21
210.890085
31
0.0
0
LINE
8
0
6
CONTINUOUS
10
-223.509105
20
210.890085
30
0.0
11
-223.509105
21
208.523415
31
0.0
0
LINE
8
0
6
CONTINUOUS
10
-223.509105
20
208.523415
30
0.0
11
-223.509105
21
206.760755
31
0.0
0
LINE
8
0
6
CONTINUOUS
10
-223.509145
20
205.292365
30
0.0
11
-223.189395
21
205.292365
31
0.0
0
LINE
8
0
6
CONTINUOUS
10
-223.509145
20
205.669755
30
0.0
11
-223.509145
21
205.292365
31
0.0
0
LINE
8
0
6
CONTINUOUS
10
-170.878925
20
205.229115
30
0.0
11
-166.263265
21
205.292365
31
0.0
0
LINE
8
0
6
CONTINUOUS
10
-175.787965
20
205.258875
30
0.0
11
-170.878925
21
205.229115
31
0.0
0
LINE
8
0
6
CONTINUOUS
10
-179.349465
20
205.292365
30
0.0
11
-175.787965
21
205.258875
31
0.0
0
LINE
8
0
6
CONTINUOUS
10
-166.263265
20
205.292365
30
0.0
11
-163.101795
21
205.292365
31
0.0
0
LINE
8
0
6
CONTINUOUS
10
-162.701225
20
205.669755
30
0.0
11
-162.701195
21
206.760795
31
0.0
0
LINE
8
0
6
CONTINUOUS
10
-162.701195
20
206.760795
30
0.0
11
-162.701195
21
208.523455
31
0.0
0
LINE
8
0
6
CONTINUOUS
10
-162.701195
20
210.890055
30
0.0
11
-162.701175
21
213.769725
31
0.0
0
LINE
8
0
6
CONTINUOUS
10
-162.701195
20
208.523455
30
0.0
11
-162.701195
21
210.890055
31
0.0
0
LINE
8
0
6
CONTINUOUS
10
-162.701225
20
205.292435
30
0.0
11
-162.701225
21
205.669755
31
0.0
0
LINE
8
0
6
CONTINUOUS
10
-163.101795
20
205.292365
30
0.0
11
-162.701225
21
205.292435
31
0.0
0
LINE
8
0
6
CONTINUOUS
10
-223.189395
20
205.292365
30
0.0
11
-214.130950
21
205.292365
31
0.0
0
LINE
8
0
6
CONTINUOUS
10
-192.130955
20
205.292365
30
0.0
11
-179.349465
21
205.292365
31
0.0
0
LINE
8
0
6
CONTINUOUS
10
-223.509065
20
228.002665
30
0.0
11
-223.509105
21
231.553005
31
0.0
0
LINE
8
0
6
CONTINUOUS
10
-223.509105
20
213.769725
30
0.0
11
-223.509065
21
217.051665
31
0.0
0
LINE
8
0
6
CONTINUOUS
10
-223.509065
20
220.609865
30
0.0
11
-223.509065
21
224.307525
31
0.0
0
LINE
8
0
6
CONTINUOUS
10
-223.509145
20
205.669755
30
0.0
11
-223.509105
21
206.760755
31
0.0
0
LINE
8
0
6
CONTINUOUS
10
-223.509065
20
217.051665
30
0.0
11
-223.509065
21
220.609865
31
0.0
0
LINE
8
0
6
CONTINUOUS
10
-223.509105
20
241.770135
30
0.0
11
-223.509145
21
242.835505
31
0.0
0
LINE
8
0
6
CONTINUOUS
10
-213.730935
20
-479.500015
30
0.0
11
-212.630945
21
-479.500015
31
0.0
0
LINE
8
0
6
CONTINUOUS
10
-212.630945
20
-479.500015
30
0.0
11
-210.930945
21
-479.500015
31
0.0
0
LINE
8
0
6
CONTINUOUS
10
-210.930945
20
-479.500015
30
0.0
11
-208.630925
21
-479.500015
31
0.0
0
LINE
8
0
6
CONTINUOUS
10
-214.130935
20
-428.054175
30
0.0
11
-214.130935
21
-478.945895
31
0.0
0
LINE
8
0
6
CONTINUOUS
10
-203.130955
20
-427.500035
30
0.0
11
-205.930945
21
-427.500045
31
0.0
0
LINE
8
0
6
CONTINUOUS
10
-214.130935
20
-479.500015
30
0.0
11
-213.730935
21
-479.500015
31
0.0
0
LINE
8
0
6
CONTINUOUS
10
-214.130935
20
-478.945895
30
0.0
11
-214.130935
21
-479.500015
31
0.0
0
LINE
8
0
6
CONTINUOUS
10
-208.630925
20
-479.500015
30
0.0
11
-205.930945
21
-479.500015
31
0.0
0
LINE
8
0
6
CONTINUOUS
10
-205.930945
20
-479.500015
30
0.0
11
-203.130935
21
-479.500005
31
0.0
0
LINE
8
0
6
CONTINUOUS
10
-205.930945
20
-427.500045
30
0.0
11
-208.630945
21
-427.500045
31
0.0
0
LINE
8
0
6
CONTINUOUS
10
-208.630945
20
-427.500045
30
0.0
11
-210.930945
21
-427.500045
31
0.0
0
LINE
8
0
6
CONTINUOUS
10
-212.630945
20
-427.499975
30
0.0
11
-213.730945
21
-427.499975
31
0.0
0
LINE
8
0
6
CONTINUOUS
10
-192.130935
20
-479.499995
30
0.0
11
-192.130935
21
-478.945875
31
0.0
0
LINE
8
0
6
CONTINUOUS
10
-192.530945
20
-479.499995
30
0.0
11
-192.130935
21
-479.499995
31
0.0
0
LINE
8
0
6
CONTINUOUS
10
-197.630945
20
-479.500005
30
0.0
11
-195.330925
21
-479.500005
31
0.0
0
LINE
8
0
6
CONTINUOUS
10
-200.330925
20
-479.500005
30
0.0
11
-197.630945
21
-479.500005
31
0.0
0
LINE
8
0
6
CONTINUOUS
10
-203.130935
20
-479.500005
30
0.0
11
-200.330925
21
-479.500005
31
0.0
0
LINE
8
0
6
CONTINUOUS
10
-213.730945
20
-427.499975
30
0.0
11
-214.130935
21
-427.499975
31
0.0
0
LINE
8
0
6
CONTINUOUS
10
-214.130935
20
-427.499975
30
0.0
11
-214.130935
21
-428.054175
31
0.0
0
LINE
8
0
6
CONTINUOUS
10
-192.130955
20
-427.500025
30
0.0
11
-192.530945
21
-427.500025
31
0.0
0
LINE
8
0
6
CONTINUOUS
10
-192.130955
20
-428.054155
30
0.0
11
-192.130955
21
-427.500025
31
0.0
0
LINE
8
0
6
CONTINUOUS
10
-192.130935
20
-478.945875
30
0.0
11
-192.130955
21
-428.054155
31
0.0
0
LINE
8
0
6
CONTINUOUS
10
-193.630945
20
-427.500035
30
0.0
11
-195.330945
21
-427.500035
31
0.0
0
LINE
8
0
6
CONTINUOUS
10
-195.330945
20
-427.500035
30
0.0
11
-197.630945
21
-427.500035
31
0.0
0
LINE
8
0
6
CONTINUOUS
10
-197.630945
20
-427.500035
30
0.0
11
-200.330945
21
-427.500035
31
0.0
0
LINE
8
0
6
CONTINUOUS
10
-200.330945
20
-427.500035
30
0.0
11
-203.130955
21
-427.500035
31
0.0
0
LINE
8
0
6
CONTINUOUS
10
-195.730935
20
-427.500035
30
0.0
11
-194.030955
21
-427.500035
31
0.0
0
LINE
8
0
6
CONTINUOUS
10
-214.130935
20
-427.000015
30
0.0
11
-213.630945
21
-427.500045
31
0.0
0
LINE
8
0
6
CONTINUOUS
10
-213.630965
20
427.499965
30
0.0
11
-214.130955
21
426.999935
31
0.0
0
LINE
8
0
6
CONTINUOUS
10
-192.630945
20
-427.500025
30
0.0
11
-192.130955
21
-426.999995
31
0.0
0
LINE
8
0
6
CONTINUOUS
10
-193.030955
20
-427.500025
30
0.0
11
-192.630945
21
-427.500025
31
0.0
0
LINE
8
0
6
CONTINUOUS
10
-194.030955
20
-427.500035
30
0.0
11
-193.030955
21
-427.500025
31
0.0
0
LINE
8
0
6
CONTINUOUS
10
-195.730955
20
-427.500035
30
0.0
11
-194.030955
21
-427.500035
31
0.0
0
LINE
8
0
6
CONTINUOUS
10
-197.930955
20
-427.500035
30
0.0
11
-195.730955
21
-427.500035
31
0.0
0
LINE
8
0
6
CONTINUOUS
10
-200.430955
20
-427.500035
30
0.0
11
-197.930955
21
-427.500035
31
0.0
0
LINE
8
0
6
CONTINUOUS
10
-203.130955
20
-427.500035
30
0.0
11
-200.430955
21
-427.500035
31
0.0
0
LINE
8
0
6
CONTINUOUS
10
-192.130955
20
426.999935
30
0.0
11
-192.630945
21
427.499965
31
0.0
0
LINE
8
0
6
CONTINUOUS
10
-212.630945
20
-427.499975
30
0.0
11
-210.930945
21
-427.500045
31
0.0
0
LINE
8
0
6
CONTINUOUS
10
-212.230955
20
-427.499975
30
0.0
11
-212.630945
21
-427.499975
31
0.0
0
LINE
8
0
6
CONTINUOUS
10
-192.530945
20
-427.500025
30
0.0
11
-193.030935
21
-427.500025
31
0.0
0
LINE
8
0
6
CONTINUOUS
10
-193.630945
20
-427.500035
30
0.0
11
-192.530945
21
-427.500025
31
0.0
0
LINE
8
0
6
CONTINUOUS
10
-194.030955
20
-427.500035
30
0.0
11
-193.630945
21
-427.500035
31
0.0
0
LINE
8
0
6
CONTINUOUS
10
-192.530945
20
-479.499995
30
0.0
11
-193.630925
21
-479.499995
31
0.0
0
LINE
8
0
6
CONTINUOUS
10
-193.630925
20
-479.499995
30
0.0
11
-195.330925
21
-479.500005
31
0.0
0
LINE
8
0
6
CONTINUOUS
10
-192.130955
20
479.500015
30
0.0
11
-192.530945
21
479.500015
31
0.0
0
LINE
8
0
6
CONTINUOUS
10
-192.130955
20
478.791695
30
0.0
11
-192.130955
21
479.500015
31
0.0
0
LINE
8
0
6
CONTINUOUS
10
-192.530945
20
479.500015
30
0.0
11
-193.630945
21
479.500015
31
0.0
0
LINE
8
0
6
CONTINUOUS
10
-193.630945
20
479.500015
30
0.0
11
-195.330945
21
479.500015
31
0.0
0
LINE
8
0
6
CONTINUOUS
10
-195.330945
20
479.500015
30
0.0
11
-197.630945
21
479.499935
31
0.0
0
LINE
8
0
6
CONTINUOUS
10
-197.630945
20
479.499935
30
0.0
11
-200.330945
21
479.499935
31
0.0
0
LINE
8
0
6
CONTINUOUS
10
-200.330945
20
479.499935
30
0.0
11
-203.130935
21
479.499935
31
0.0
0
LINE
8
0
6
CONTINUOUS
10
-214.130935
20
479.500015
30
0.0
11
-214.130935
21
478.791695
31
0.0
0
LINE
8
0
6
CONTINUOUS
10
-213.730945
20
479.500015
30
0.0
11
-214.130935
21
479.500015
31
0.0
0
LINE
8
0
6
CONTINUOUS
10
-212.630945
20
479.500015
30
0.0
11
-213.730945
21
479.500015
31
0.0
0
LINE
8
0
6
CONTINUOUS
10
-210.930945
20
479.500015
30
0.0
11
-212.630945
21
479.500015
31
0.0
0
LINE
8
0
6
CONTINUOUS
10
-208.630945
20
479.500015
30
0.0
11
-210.930945
21
479.500015
31
0.0
0
LINE
8
0
6
CONTINUOUS
10
-205.930945
20
479.500015
30
0.0
11
-208.630945
21
479.500015
31
0.0
0
LINE
8
0
6
CONTINUOUS
10
-203.130935
20
479.499935
30
0.0
11
-205.930945
21
479.500015
31
0.0
0
LINE
8
0
6
CONTINUOUS
10
-192.130955
20
427.499965
30
0.0
11
-192.130955
21
428.207665
31
0.0
0
LINE
8
0
6
CONTINUOUS
10
-192.530965
20
427.499965
30
0.0
11
-192.130955
21
427.499965
31
0.0
0
LINE
8
0
6
CONTINUOUS
10
-192.130955
20
428.207665
30
0.0
11
-192.130955
21
478.791695
31
0.0
0
LINE
8
0
6
CONTINUOUS
10
-193.630945
20
427.499965
30
0.0
11
-192.530965
21
427.499965
31
0.0
0
LINE
8
0
6
CONTINUOUS
10
-195.330945
20
427.499965
30
0.0
11
-193.630945
21
427.499965
31
0.0
0
LINE
8
0
6
CONTINUOUS
10
-197.630945
20
427.499895
30
0.0
11
-195.330945
21
427.499965
31
0.0
0
LINE
8
0
6
CONTINUOUS
10
-200.330945
20
427.499895
30
0.0
11
-197.630945
21
427.499895
31
0.0
0
LINE
8
0
6
CONTINUOUS
10
-203.130955
20
427.499895
30
0.0
11
-200.330945
21
427.499895
31
0.0
0
LINE
8
0
6
CONTINUOUS
10
-214.130955
20
428.207665
30
0.0
11
-214.130955
21
427.499965
31
0.0
0
LINE
8
0
6
CONTINUOUS
10
-214.130955
20
427.499965
30
0.0
11
-213.730945
21
427.499965
31
0.0
0
LINE
8
0
6
CONTINUOUS
10
-214.130935
20
478.791695
30
0.0
11
-214.130955
21
428.207665
31
0.0
0
LINE
8
0
6
CONTINUOUS
10
-213.730945
20
427.499965
30
0.0
11
-212.630945
21
427.499965
31
0.0
0
LINE
8
0
6
CONTINUOUS
10
-212.630945
20
427.499965
30
0.0
11
-210.930965
21
427.499965
31
0.0
0
LINE
8
0
6
CONTINUOUS
10
-210.930965
20
427.499965
30
0.0
11
-208.630945
21
427.499965
31
0.0
0
LINE
8
0
6
CONTINUOUS
10
-208.630945
20
427.499965
30
0.0
11
-205.930965
21
427.499965
31
0.0
0
LINE
8
0
6
CONTINUOUS
10
-205.930965
20
427.499965
30
0.0
11
-203.130955
21
427.499895
31
0.0
0
LINE
8
0
6
CONTINUOUS
10
-195.730935
20
479.500015
30
0.0
11
-203.130935
21
479.499935
31
0.0
0
LINE
8
0
6
CONTINUOUS
10
-214.130955
20
426.999935
30
0.0
11
-214.130955
21
426.686825
31
0.0
0
LINE
8
0
6
CONTINUOUS
10
-213.730945
20
426.999935
30
0.0
11
-214.130955
21
426.999935
31
0.0
0
LINE
8
0
6
CONTINUOUS
10
-212.630945
20
426.999935
30
0.0
11
-213.730945
21
426.999935
31
0.0
0
LINE
8
0
6
CONTINUOUS
10
-210.930965
20
426.999935
30
0.0
11
-212.630945
21
426.999935
31
0.0
0
LINE
8
0
6
CONTINUOUS
10
-208.630965
20
426.999935
30
0.0
11
-210.930965
21
426.999935
31
0.0
0
LINE
8
0
6
CONTINUOUS
10
-205.930965
20
426.999935
30
0.0
11
-208.630965
21
426.999935
31
0.0
0
LINE
8
0
6
CONTINUOUS
10
-203.130955
20
426.999865
30
0.0
11
-205.930965
21
426.999935
31
0.0
0
LINE
8
0
6
CONTINUOUS
10
-192.130955
20
426.999935
30
0.0
11
-192.530965
21
426.999935
31
0.0
0
LINE
8
0
6
CONTINUOUS
10
-192.130955
20
426.686825
30
0.0
11
-192.130955
21
426.999935
31
0.0
0
LINE
8
0
6
CONTINUOUS
10
-192.530965
20
426.999935
30
0.0
11
-193.630945
21
426.999935
31
0.0
0
LINE
8
0
6
CONTINUOUS
10
-193.630945
20
426.999935
30
0.0
11
-195.330945
21
426.999935
31
0.0
0
LINE
8
0
6
CONTINUOUS
10
-195.330945
20
426.999935
30
0.0
11
-197.630945
21
426.999865
31
0.0
0
LINE
8
0
6
CONTINUOUS
10
-197.630945
20
426.999865
30
0.0
11
-200.330945
21
426.999865
31
0.0
0
LINE
8
0
6
CONTINUOUS
10
-200.330945
20
426.999865
30
0.0
11
-203.130955
21
426.999865
31
0.0
0
LINE
8
0
6
CONTINUOUS
10
-214.130955
20
426.686825
30
0.0
11
-214.130955
21
426.144985
31
0.0
0
LINE
8
0
6
CONTINUOUS
10
-192.130955
20
426.144985
30
0.0
11
-192.130955
21
426.686825
31
0.0
0
LINE
8
0
6
CONTINUOUS
10
-214.130955
20
426.144985
30
0.0
11
-214.130954
21
395.805266
31
0.0
0
LINE
8
0
6
CONTINUOUS
10
-214.130953
20
352.268476
30
0.0
11
-214.130951
21
243.186305
31
0.0
0
LINE
8
0
6
CONTINUOUS
10
-214.130950
20
205.292365
30
0.0
11
-214.130935
21
-426.205795
31
0.0
0
LINE
8
0
6
CONTINUOUS
10
-192.130955
20
-426.205775
30
0.0
11
-192.130955
21
205.292365
31
0.0
0
LINE
8
0
6
CONTINUOUS
10
-192.130955
20
243.186305
30
0.0
11
-192.130955
21
339.530974
31
0.0
0
LINE
8
0
6
CONTINUOUS
10
-192.130955
20
409.399929
30
0.0
11
-192.130955
21
426.144985
31
0.0
0
LINE
8
0
6
CONTINUOUS
10
-214.130935
20
-426.205795
30
0.0
11
-214.130935
21
-426.785785
31
0.0
0
LINE
8
0
6
CONTINUOUS
10
-192.130955
20
-426.785765
30
0.0
11
-192.130955
21
-426.205775
31
0.0
0
LINE
8
0
6
CONTINUOUS
10
-195.330945
20
-427.000005
30
0.0
11
-193.630945
21
-426.999995
31
0.0
0
LINE
8
0
6
CONTINUOUS
10
-192.130955
20
-426.999995
30
0.0
11
-192.130955
21
-426.785765
31
0.0
0
LINE
8
0
6
CONTINUOUS
10
-192.530945
20
-426.999995
30
0.0
11
-192.130955
21
-426.999995
31
0.0
0
LINE
8
0
6
CONTINUOUS
10
-208.630945
20
-427.000015
30
0.0
11
-205.930945
21
-427.000015
31
0.0
0
LINE
8
0
6
CONTINUOUS
10
-214.130935
20
-427.000015
30
0.0
11
-213.730945
21
-427.000015
31
0.0
0
LINE
8
0
6
CONTINUOUS
10
-214.130935
20
-426.785785
30
0.0
11
-214.130935
21
-427.000015
31
0.0
0
LINE
8
0
6
CONTINUOUS
10
-203.130955
20
-427.000005
30
0.0
11
-200.330945
21
-427.000005
31
0.0
0
LINE
8
0
6
CONTINUOUS
10
-200.330945
20
-427.000005
30
0.0
11
-197.630945
21
-427.000005
31
0.0
0
LINE
8
0
6
CONTINUOUS
10
-193.630945
20
-426.999995
30
0.0
11
-192.530945
21
-426.999995
31
0.0
0
LINE
8
0
6
CONTINUOUS
10
-205.930945
20
-427.000015
30
0.0
11
-203.130955
21
-427.000005
31
0.0
0
LINE
8
0
6
CONTINUOUS
10
-210.930945
20
-427.000015
30
0.0
11
-208.630945
21
-427.000015
31
0.0
0
LINE
8
0
6
CONTINUOUS
10
-213.730945
20
-427.000015
30
0.0
11
-212.630945
21
-427.000015
31
0.0
0
LINE
8
0
6
CONTINUOUS
10
-212.630945
20
-427.000015
30
0.0
11
-210.930945
21
-427.000015
31
0.0
0
LINE
8
0
6
CONTINUOUS
10
-197.630945
20
-427.000005
30
0.0
11
-195.330945
21
-427.000005
31
0.0
0
LINE
8
0
6
CONTINUOUS
10
-201.817721
20
208.523434
30
0.0
11
-200.330945
21
208.408936
31
0.0
0
LINE
8
0
6
CONTINUOUS
10
-203.130955
20
208.678510
30
0.0
11
-201.817721
21
208.523434
31
0.0
0
LINE
8
0
6
CONTINUOUS
10
-201.030708
20
240.031095
30
0.0
11
-200.330945
21
240.084087
31
0.0
0
LINE
8
0
6
CONTINUOUS
10
-203.130955
20
239.786656
30
0.0
11
-201.030708
21
240.031095
31
0.0
0
LINE
8
0
6
CONTINUOUS
10
-195.330945
20
206.899349
30
0.0
11
-195.140965
21
206.760755
31
0.0
0
LINE
8
0
6
CONTINUOUS
10
-193.630945
20
206.132980
30
0.0
11
-193.016805
21
205.669776
31
0.0
0
LINE
8
0
6
CONTINUOUS
10
-192.962786
20
242.835560
30
0.0
11
-192.530961
21
242.936119
31
0.0
0
LINE
8
0
6
CONTINUOUS
10
-192.530961
20
242.936119
30
0.0
11
-192.154140
21
243.186305
31
0.0
0
LINE
8
0
6
CONTINUOUS
10
-205.930960
20
208.408924
30
0.0
11
-204.444123
21
208.523432
31
0.0
0
LINE
8
0
6
CONTINUOUS
10
-204.444123
20
208.523432
30
0.0
11
-203.130955
21
208.678510
31
0.0
0
LINE
8
0
6
CONTINUOUS
10
-205.930961
20
240.084091
30
0.0
11
-205.231104
21
240.031095
31
0.0
0
LINE
8
0
6
CONTINUOUS
10
-205.231104
20
240.031095
30
0.0
11
-203.130955
21
239.786656
31
0.0
0
LINE
8
0
6
CONTINUOUS
10
-210.930960
20
206.899317
30
0.0
11
-211.120909
21
206.760755
31
0.0
0
LINE
8
0
6
CONTINUOUS
10
-212.630945
20
206.132957
30
0.0
11
-213.245074
21
205.669762
31
0.0
0
LINE
8
0
6
CONTINUOUS
10
-213.299093
20
242.835523
30
0.0
11
-213.730945
21
242.936106
31
0.0
0
LINE
8
0
6
CONTINUOUS
10
-213.730945
20
242.936106
30
0.0
11
-214.107748
21
243.186305
31
0.0
0
LINE
8
0
6
CONTINUOUS
10
-166.263205
20
231.553085
30
0.0
11
-165.219669
21
231.999725
31
0.0
0
LINE
8
0
6
CONTINUOUS
10
-165.219669
20
231.999725
30
0.0
11
-163.405937
21
233.398921
31
0.0
0
LINE
8
0
6
CONTINUOUS
10
-179.593552
20
234.554292
30
0.0
11
-179.806378
21
234.822435
31
0.0
0
LINE
8
0
6
CONTINUOUS
10
-179.806378
20
234.822435
30
0.0
11
-180.808664
21
235.847876
31
0.0
0
LINE
8
0
6
CONTINUOUS
10
-180.808664
20
235.847876
30
0.0
11
-181.209182
21
236.589694
31
0.0
0
LINE
8
0
6
CONTINUOUS
10
-176.189383
20
231.782650
30
0.0
11
-175.839660
21
231.640888
31
0.0
0
LINE
8
0
6
CONTINUOUS
10
-175.839660
20
231.640888
30
0.0
11
-175.319492
21
231.430055
31
0.0
0
LINE
8
0
6
CONTINUOUS
10
-178.933120
20
233.722211
30
0.0
11
-176.536705
21
231.923443
31
0.0
0
LINE
8
0
6
CONTINUOUS
10
-176.536705
20
231.923443
30
0.0
11
-176.189383
21
231.782650
31
0.0
0
LINE
8
0
6
CONTINUOUS
10
-173.790919
20
230.810471
30
0.0
11
-170.879015
21
230.447097
31
0.0
0
LINE
8
0
6
CONTINUOUS
10
102.867539
20
-441.525612
30
0.0
11
105.707050
21
-442.183111
31
0.0
0
LINE
8
0
6
CONTINUOUS
10
90.870579
20
-441.522585
30
0.0
11
88.031070
21
-442.178651
31
0.0
0
LINE
8
0
6
CONTINUOUS
10
105.707050
20
-442.183111
30
0.0
11
105.958507
21
-442.344348
31
0.0
0
LINE
8
0
6
CONTINUOUS
10
90.870579
20
-441.522585
30
0.0
11
93.239023
21
-441.303563
31
0.0
0
LINE
8
0
6
CONTINUOUS
10
93.239023
20
-441.303563
30
0.0
11
94.747268
21
-440.986484
31
0.0
0
LINE
8
0
6
CONTINUOUS
10
94.747268
20
-440.986484
30
0.0
11
98.990848
21
-440.987641
31
0.0
0
LINE
8
0
6
CONTINUOUS
10
100.497829
20
-441.305277
30
0.0
11
102.867539
21
-441.525612
31
0.0
0
LINE
8
0
6
CONTINUOUS
10
98.990848
20
-440.987641
30
0.0
11
100.497829
21
-441.305277
31
0.0
0
LINE
8
0
6
CONTINUOUS
10
88.031070
20
-442.178651
30
0.0
11
87.779508
21
-442.339832
31
0.0
0
LINE
8
0
6
CONTINUOUS
10
-153.758276
20
380.985298
30
0.0
11
-153.090668
21
380.286473
31
0.0
0
LINE
8
0
6
CONTINUOUS
10
-151.744659
20
343.920656
30
0.0
11
-150.644439
21
344.343694
31
0.0
0
LINE
8
0
6
CONTINUOUS
10
-152.600812
20
374.788709
30
0.0
11
-151.705519
21
374.912720
31
0.0
0
LINE
8
0
6
CONTINUOUS
10
-151.298674
20
374.972229
30
0.0
11
-150.450395
21
374.386768
31
0.0
0
ENDSEC
0
EOF
