999
Erzeugt mit innoplus bad 
0
SECTION
2
HEADER
9
$ACADVER
1
AC1009
9
$DWGCODEPAGE
3
ISO8859-1
0
ENDSEC
0
SECTION
2
TABLES
0
TABLE
2
LAYER
70
1
0
LAYER
2
0
70
0
62
7
6
CONTINUOUS
0
ENDTAB
0
ENDSEC
0
SECTION
2
ENTITIES
0
LINE
8
0
6
CONTINUOUS
10
175.313425
20
-400.292520
30
0.0
11
171.596625
21
-400.293450
31
0.0
0
LINE
8
0
6
CONTINUOUS
10
163.273435
20
-442.358780
30
0.0
11
171.597445
21
-442.360850
31
0.0
0
LINE
8
0
6
CONTINUOUS
10
171.596625
20
-400.293450
30
0.0
11
163.275295
21
-400.295510
31
0.0
0
LINE
8
0
6
CONTINUOUS
10
171.597445
20
-442.360850
30
0.0
11
175.315775
21
-442.361770
31
0.0
0
LINE
8
0
6
CONTINUOUS
10
162.769055
20
-442.753710
30
0.0
11
165.707775
21
-442.754950
31
0.0
0
LINE
8
0
6
CONTINUOUS
10
168.646445
20
-442.756190
30
0.0
11
171.583185
21
-442.745770
31
0.0
0
LINE
8
0
6
CONTINUOUS
10
168.646445
20
-442.756190
30
0.0
11
172.988485
21
-442.581510
31
0.0
0
LINE
8
0
6
CONTINUOUS
10
165.707775
20
-442.754950
30
0.0
11
168.646445
21
-442.756190
31
0.0
0
LINE
8
0
6
CONTINUOUS
10
172.988485
20
-442.581510
30
0.0
11
175.803725
21
-442.209840
31
0.0
0
LINE
8
0
6
CONTINUOUS
10
172.637765
20
-442.590700
30
0.0
11
172.988485
21
-442.581510
31
0.0
0
LINE
8
0
6
CONTINUOUS
10
167.404065
20
-442.629350
30
0.0
11
172.637765
21
-442.590700
31
0.0
0
LINE
8
0
6
CONTINUOUS
10
163.275295
20
-400.295510
30
0.0
11
30.462875
21
-400.328500
31
0.0
0
LINE
8
0
6
CONTINUOUS
10
30.464735
20
-442.325790
30
0.0
11
87.779508
21
-442.340027
31
0.0
0
LINE
8
0
6
CONTINUOUS
10
105.958507
20
-442.344543
30
0.0
11
163.273435
21
-442.358780
31
0.0
0
LINE
8
0
6
CONTINUOUS
10
30.969015
20
-442.753770
30
0.0
11
86.719770
21
-442.753745
31
0.0
0
LINE
8
0
6
CONTINUOUS
10
107.018390
20
-442.753735
30
0.0
11
162.769055
21
-442.753710
31
0.0
0
LINE
8
0
6
CONTINUOUS
10
179.556485
20
-400.291470
30
0.0
11
175.313425
21
-400.292520
31
0.0
0
LINE
8
0
6
CONTINUOUS
10
175.315775
20
-442.361770
30
0.0
11
179.557295
21
-442.362820
31
0.0
0
LINE
8
0
6
CONTINUOUS
10
183.798785
20
-442.363880
30
0.0
11
187.829825
21
-442.364880
31
0.0
0
LINE
8
0
6
CONTINUOUS
10
179.557295
20
-442.362820
30
0.0
11
183.798785
21
-442.363880
31
0.0
0
LINE
8
0
6
CONTINUOUS
10
187.829975
20
-400.289420
30
0.0
11
183.797385
21
-400.290420
31
0.0
0
LINE
8
0
6
CONTINUOUS
10
183.797385
20
-400.290420
30
0.0
11
179.556485
21
-400.291470
31
0.0
0
LINE
8
0
6
CONTINUOUS
10
188.869025
20
-431.692310
30
0.0
11
188.869025
21
-426.836070
31
0.0
0
LINE
8
0
6
CONTINUOUS
10
188.869025
20
-435.908150
30
0.0
11
188.869025
21
-431.692310
31
0.0
0
LINE
8
0
6
CONTINUOUS
10
22.141555
20
-400.330570
30
0.0
11
18.422805
21
-400.331490
31
0.0
0
LINE
8
0
6
CONTINUOUS
10
22.140705
20
-442.323730
30
0.0
11
30.464735
21
-442.325790
31
0.0
0
LINE
8
0
6
CONTINUOUS
10
30.462875
20
-400.328500
30
0.0
11
22.141555
21
-400.330570
31
0.0
0
LINE
8
0
6
CONTINUOUS
10
18.422775
20
-442.322800
30
0.0
11
22.140705
21
-442.323730
31
0.0
0
LINE
8
0
6
CONTINUOUS
10
28.030315
20
-442.755020
30
0.0
11
30.969015
21
-442.753770
31
0.0
0
LINE
8
0
6
CONTINUOUS
10
22.154905
20
-442.745770
30
0.0
11
25.091655
21
-442.756270
31
0.0
0
LINE
8
0
6
CONTINUOUS
10
25.091655
20
-442.756270
30
0.0
11
28.030315
21
-442.755020
31
0.0
0
LINE
8
0
6
CONTINUOUS
10
20.749585
20
-442.581530
30
0.0
11
25.091655
21
-442.756270
31
0.0
0
LINE
8
0
6
CONTINUOUS
10
17.934375
20
-442.209810
30
0.0
11
20.749585
21
-442.581530
31
0.0
0
LINE
8
0
6
CONTINUOUS
10
20.749585
20
-442.581530
30
0.0
11
21.100315
21
-442.590710
31
0.0
0
LINE
8
0
6
CONTINUOUS
10
21.100315
20
-442.590710
30
0.0
11
26.334015
21
-442.629380
31
0.0
0
LINE
8
0
6
CONTINUOUS
10
18.422805
20
-400.331490
30
0.0
11
14.179385
21
-400.332550
31
0.0
0
LINE
8
0
6
CONTINUOUS
10
14.181315
20
-442.321750
30
0.0
11
18.422775
21
-442.322800
31
0.0
0
LINE
8
0
6
CONTINUOUS
10
5.908835
20
-442.319690
30
0.0
11
9.939815
21
-442.320690
31
0.0
0
LINE
8
0
6
CONTINUOUS
10
9.939815
20
-442.320690
30
0.0
11
14.181315
21
-442.321750
31
0.0
0
LINE
8
0
6
CONTINUOUS
10
9.939765
20
-400.333600
30
0.0
11
5.908015
21
-400.334600
31
0.0
0
LINE
8
0
6
CONTINUOUS
10
14.179385
20
-400.332550
30
0.0
11
9.939765
21
-400.333600
31
0.0
0
LINE
8
0
6
CONTINUOUS
10
4.869065
20
-400.334860
30
0.0
11
4.869065
21
-401.398540
31
0.0
0
LINE
8
0
6
CONTINUOUS
10
5.908015
20
-400.334600
30
0.0
11
4.869065
21
-400.334860
31
0.0
0
LINE
8
0
6
CONTINUOUS
10
4.869065
20
-401.398540
30
0.0
11
4.869065
21
-403.549190
31
0.0
0
LINE
8
0
6
CONTINUOUS
10
188.869025
20
-400.289160
30
0.0
11
187.829975
21
-400.289420
31
0.0
0
LINE
8
0
6
CONTINUOUS
10
188.869025
20
-401.355160
30
0.0
11
188.869025
21
-400.289160
31
0.0
0
LINE
8
0
6
CONTINUOUS
10
188.869025
20
-411.006180
30
0.0
11
188.869025
21
-406.868510
31
0.0
0
LINE
8
0
6
CONTINUOUS
10
187.829825
20
-442.364880
30
0.0
11
188.869025
21
-442.365140
31
0.0
0
LINE
8
0
6
CONTINUOUS
10
188.869025
20
-442.365140
30
0.0
11
188.869025
21
-441.326330
31
0.0
0
LINE
8
0
6
CONTINUOUS
10
188.869025
20
-426.836070
30
0.0
11
188.869025
21
-421.414010
31
0.0
0
LINE
8
0
6
CONTINUOUS
10
188.869025
20
-406.868510
30
0.0
11
188.869025
21
-403.510490
31
0.0
0
LINE
8
0
6
CONTINUOUS
10
188.869025
20
-441.326330
30
0.0
11
188.869025
21
-439.175510
31
0.0
0
LINE
8
0
6
CONTINUOUS
10
188.869025
20
-421.414010
30
0.0
11
188.869025
21
-416.070520
31
0.0
0
LINE
8
0
6
CONTINUOUS
10
188.869025
20
-403.510490
30
0.0
11
188.869025
21
-401.355160
31
0.0
0
LINE
8
0
6
CONTINUOUS
10
188.869025
20
-439.175510
30
0.0
11
188.869025
21
-435.908150
31
0.0
0
LINE
8
0
6
CONTINUOUS
10
188.869025
20
-416.070520
30
0.0
11
188.869025
21
-411.006180
31
0.0
0
LINE
8
0
6
CONTINUOUS
10
4.869065
20
-426.824100
30
0.0
11
4.869065
21
-431.669790
31
0.0
0
LINE
8
0
6
CONTINUOUS
10
4.869065
20
-406.899920
30
0.0
11
4.869065
21
-411.028600
31
0.0
0
LINE
8
0
6
CONTINUOUS
10
4.869065
20
-441.282890
30
0.0
11
4.869065
21
-442.319440
31
0.0
0
LINE
8
0
6
CONTINUOUS
10
4.869065
20
-442.319440
30
0.0
11
5.908835
21
-442.319690
31
0.0
0
LINE
8
0
6
CONTINUOUS
10
4.869065
20
-421.413820
30
0.0
11
4.869065
21
-426.824100
31
0.0
0
LINE
8
0
6
CONTINUOUS
10
4.869065
20
-403.549190
30
0.0
11
4.869065
21
-406.899920
31
0.0
0
LINE
8
0
6
CONTINUOUS
10
4.869065
20
-439.136740
30
0.0
11
4.869065
21
-441.282890
31
0.0
0
LINE
8
0
6
CONTINUOUS
10
4.869065
20
-416.081940
30
0.0
11
4.869065
21
-421.413820
31
0.0
0
LINE
8
0
6
CONTINUOUS
10
4.869065
20
-431.669790
30
0.0
11
4.869065
21
-435.876470
31
0.0
0
LINE
8
0
6
CONTINUOUS
10
4.869065
20
-435.876470
30
0.0
11
4.869065
21
-439.136740
31
0.0
0
LINE
8
0
6
CONTINUOUS
10
4.869065
20
-411.028600
30
0.0
11
4.869065
21
-416.081940
31
0.0
0
LINE
8
0
6
CONTINUOUS
10
172.104715
20
-392.260020
30
0.0
11
165.463975
21
-392.914520
31
0.0
0
LINE
8
0
6
CONTINUOUS
10
165.463975
20
-392.914520
30
0.0
11
159.061995
21
-394.815770
31
0.0
0
LINE
8
0
6
CONTINUOUS
10
159.061995
20
-394.815770
30
0.0
11
153.123525
21
-398.025080
31
0.0
0
LINE
8
0
6
CONTINUOUS
10
153.123525
20
-398.025080
30
0.0
11
150.386004
21
-400.298712
31
0.0
0
LINE
8
0
6
CONTINUOUS
10
142.604563
20
-442.753719
30
0.0
11
143.938745
21
-445.218880
31
0.0
0
LINE
8
0
6
CONTINUOUS
10
143.938745
20
-445.218880
30
0.0
11
148.160495
21
-450.384740
31
0.0
0
LINE
8
0
6
CONTINUOUS
10
148.160495
20
-450.384740
30
0.0
11
153.352955
21
-454.536270
31
0.0
0
LINE
8
0
6
CONTINUOUS
10
153.352955
20
-454.536270
30
0.0
11
159.176215
21
-457.614190
31
0.0
0
LINE
8
0
6
CONTINUOUS
10
159.176215
20
-457.614190
30
0.0
11
165.470065
21
-459.559070
31
0.0
0
LINE
8
0
6
CONTINUOUS
10
165.470065
20
-459.559070
30
0.0
11
172.145215
21
-460.164690
31
0.0
0
LINE
8
0
6
CONTINUOUS
10
172.145215
20
-460.164690
30
0.0
11
178.687195
21
-459.505200
31
0.0
0
LINE
8
0
6
CONTINUOUS
10
178.687195
20
-459.505200
30
0.0
11
184.998755
21
-457.643690
31
0.0
0
LINE
8
0
6
CONTINUOUS
10
184.998755
20
-457.643690
30
0.0
11
190.901285
21
-454.468790
31
0.0
0
LINE
8
0
6
CONTINUOUS
10
190.901285
20
-454.468790
30
0.0
11
195.988465
21
-450.295970
31
0.0
0
LINE
8
0
6
CONTINUOUS
10
195.988465
20
-450.295970
30
0.0
11
200.219535
21
-445.244540
31
0.0
0
LINE
8
0
6
CONTINUOUS
10
200.219535
20
-445.244540
30
0.0
11
201.656340
21
-442.569497
31
0.0
0
LINE
8
0
6
CONTINUOUS
10
193.372538
20
-399.969204
30
0.0
11
191.049565
21
-398.067960
31
0.0
0
LINE
8
0
6
CONTINUOUS
10
191.049565
20
-398.067960
30
0.0
11
185.191805
21
-394.897190
31
0.0
0
LINE
8
0
6
CONTINUOUS
10
185.191805
20
-394.897190
30
0.0
11
178.761915
21
-392.876020
31
0.0
0
LINE
8
0
6
CONTINUOUS
10
178.761915
20
-392.876020
30
0.0
11
172.104715
21
-392.260020
31
0.0
0
LINE
8
0
6
CONTINUOUS
10
172.121835
20
-392.887390
30
0.0
11
165.577315
21
-393.531810
31
0.0
0
LINE
8
0
6
CONTINUOUS
10
165.577315
20
-393.531810
30
0.0
11
159.282795
21
-395.437720
31
0.0
0
LINE
8
0
6
CONTINUOUS
10
159.282795
20
-395.437720
30
0.0
11
153.492205
21
-398.537090
31
0.0
0
LINE
8
0
6
CONTINUOUS
10
153.492205
20
-398.537090
30
0.0
11
151.348846
21
-400.298472
31
0.0
0
LINE
8
0
6
CONTINUOUS
10
143.028809
20
-442.753719
30
0.0
11
144.259065
21
-445.037610
31
0.0
0
LINE
8
0
6
CONTINUOUS
10
144.259065
20
-445.037610
30
0.0
11
148.423935
21
-450.120990
31
0.0
0
LINE
8
0
6
CONTINUOUS
10
148.423935
20
-450.120990
30
0.0
11
153.525755
21
-454.247880
31
0.0
0
LINE
8
0
6
CONTINUOUS
10
153.525755
20
-454.247880
30
0.0
11
159.318605
21
-457.324890
31
0.0
0
LINE
8
0
6
CONTINUOUS
10
159.318605
20
-457.324890
30
0.0
11
165.591865
21
-459.240700
31
0.0
0
LINE
8
0
6
CONTINUOUS
10
165.591865
20
-459.240700
30
0.0
11
172.120665
21
-459.855010
31
0.0
0
LINE
8
0
6
CONTINUOUS
10
172.120665
20
-459.855010
30
0.0
11
178.641065
21
-459.204900
31
0.0
0
LINE
8
0
6
CONTINUOUS
10
178.641065
20
-459.204900
30
0.0
11
184.920815
21
-457.324400
31
0.0
0
LINE
8
0
6
CONTINUOUS
10
184.920815
20
-457.324400
30
0.0
11
190.699335
21
-454.224420
31
0.0
0
LINE
8
0
6
CONTINUOUS
10
190.699335
20
-454.224420
30
0.0
11
195.768805
21
-450.068460
31
0.0
0
LINE
8
0
6
CONTINUOUS
10
195.768805
20
-450.068460
30
0.0
11
199.956365
21
-445.018330
31
0.0
0
LINE
8
0
6
CONTINUOUS
10
199.956365
20
-445.018330
30
0.0
11
201.267465
21
-442.572314
31
0.0
0
LINE
8
0
6
CONTINUOUS
10
192.469157
20
-399.960809
30
0.0
11
190.745735
21
-398.546250
31
0.0
0
LINE
8
0
6
CONTINUOUS
10
190.745735
20
-398.546250
30
0.0
11
184.949415
21
-395.443220
31
0.0
0
LINE
8
0
6
CONTINUOUS
10
184.949415
20
-395.443220
30
0.0
11
178.667135
21
-393.528940
31
0.0
0
LINE
8
0
6
CONTINUOUS
10
178.667135
20
-393.528940
30
0.0
11
172.121835
21
-392.887390
31
0.0
0
LINE
8
0
6
CONTINUOUS
10
172.145215
20
-460.164690
30
0.0
11
165.470065
21
-459.559070
31
0.0
0
LINE
8
0
6
CONTINUOUS
10
165.470045
20
-459.559070
30
0.0
11
172.145205
21
-460.164760
31
0.0
0
LINE
8
0
6
CONTINUOUS
10
28.274115
20
-392.914520
30
0.0
11
21.633375
21
-392.260020
31
0.0
0
LINE
8
0
6
CONTINUOUS
10
34.676095
20
-394.815770
30
0.0
11
28.274115
21
-392.914520
31
0.0
0
LINE
8
0
6
CONTINUOUS
10
40.614565
20
-398.025080
30
0.0
11
34.676095
21
-394.815770
31
0.0
0
LINE
8
0
6
CONTINUOUS
10
43.384087
20
-400.325290
30
0.0
11
40.614565
21
-398.025080
31
0.0
0
LINE
8
0
6
CONTINUOUS
10
49.799345
20
-445.218880
30
0.0
11
51.133504
21
-442.753761
31
0.0
0
LINE
8
0
6
CONTINUOUS
10
45.577595
20
-450.384740
30
0.0
11
49.799345
21
-445.218880
31
0.0
0
LINE
8
0
6
CONTINUOUS
10
40.385135
20
-454.536270
30
0.0
11
45.577595
21
-450.384740
31
0.0
0
LINE
8
0
6
CONTINUOUS
10
34.561875
20
-457.614190
30
0.0
11
40.385135
21
-454.536270
31
0.0
0
LINE
8
0
6
CONTINUOUS
10
28.268025
20
-459.559070
30
0.0
11
34.561875
21
-457.614190
31
0.0
0
LINE
8
0
6
CONTINUOUS
10
21.592875
20
-460.164690
30
0.0
11
28.268025
21
-459.559070
31
0.0
0
LINE
8
0
6
CONTINUOUS
10
15.050895
20
-459.505200
30
0.0
11
21.592875
21
-460.164690
31
0.0
0
LINE
8
0
6
CONTINUOUS
10
8.739335
20
-457.643690
30
0.0
11
15.050895
21
-459.505200
31
0.0
0
LINE
8
0
6
CONTINUOUS
10
2.836805
20
-454.468790
30
0.0
11
8.739335
21
-457.643690
31
0.0
0
LINE
8
0
6
CONTINUOUS
10
-2.250375
20
-450.295970
30
0.0
11
2.836805
21
-454.468790
31
0.0
0
LINE
8
0
6
CONTINUOUS
10
-6.481445
20
-445.244540
30
0.0
11
-2.250375
21
-450.295970
31
0.0
0
LINE
8
0
6
CONTINUOUS
10
-7.918250
20
-442.569498
30
0.0
11
-6.481445
21
-445.244540
31
0.0
0
LINE
8
0
6
CONTINUOUS
10
2.688525
20
-398.067960
30
0.0
11
0.365553
21
-399.969203
31
0.0
0
LINE
8
0
6
CONTINUOUS
10
8.546285
20
-394.897190
30
0.0
11
2.688525
21
-398.067960
31
0.0
0
LINE
8
0
6
CONTINUOUS
10
14.976175
20
-392.876020
30
0.0
11
8.546285
21
-394.897190
31
0.0
0
LINE
8
0
6
CONTINUOUS
10
21.633375
20
-392.260020
30
0.0
11
14.976175
21
-392.876020
31
0.0
0
LINE
8
0
6
CONTINUOUS
10
28.160775
20
-393.531810
30
0.0
11
21.616255
21
-392.887390
31
0.0
0
LINE
8
0
6
CONTINUOUS
10
34.455295
20
-395.437720
30
0.0
11
28.160775
21
-393.531810
31
0.0
0
LINE
8
0
6
CONTINUOUS
10
40.245885
20
-398.537090
30
0.0
11
34.455295
21
-395.437720
31
0.0
0
LINE
8
0
6
CONTINUOUS
10
42.422169
20
-400.325529
30
0.0
11
40.245885
21
-398.537090
31
0.0
0
LINE
8
0
6
CONTINUOUS
10
49.479025
20
-445.037610
30
0.0
11
50.709258
21
-442.753761
31
0.0
0
LINE
8
0
6
CONTINUOUS
10
45.314155
20
-450.120990
30
0.0
11
49.479025
21
-445.037610
31
0.0
0
LINE
8
0
6
CONTINUOUS
10
40.212335
20
-454.247880
30
0.0
11
45.314155
21
-450.120990
31
0.0
0
LINE
8
0
6
CONTINUOUS
10
34.419485
20
-457.324890
30
0.0
11
40.212335
21
-454.247880
31
0.0
0
LINE
8
0
6
CONTINUOUS
10
28.146225
20
-459.240700
30
0.0
11
34.419485
21
-457.324890
31
0.0
0
LINE
8
0
6
CONTINUOUS
10
21.617425
20
-459.855010
30
0.0
11
28.146225
21
-459.240700
31
0.0
0
LINE
8
0
6
CONTINUOUS
10
15.097025
20
-459.204900
30
0.0
11
21.617425
21
-459.855010
31
0.0
0
LINE
8
0
6
CONTINUOUS
10
8.817275
20
-457.324400
30
0.0
11
15.097025
21
-459.204900
31
0.0
0
LINE
8
0
6
CONTINUOUS
10
3.038755
20
-454.224420
30
0.0
11
8.817275
21
-457.324400
31
0.0
0
LINE
8
0
6
CONTINUOUS
10
-2.030715
20
-450.068460
30
0.0
11
3.038755
21
-454.224420
31
0.0
0
LINE
8
0
6
CONTINUOUS
10
-6.218275
20
-445.018330
30
0.0
11
-2.030715
21
-450.068460
31
0.0
0
LINE
8
0
6
CONTINUOUS
10
-7.529375
20
-442.572314
30
0.0
11
-6.218275
21
-445.018330
31
0.0
0
LINE
8
0
6
CONTINUOUS
10
2.992355
20
-398.546250
30
0.0
11
1.268934
21
-399.960809
31
0.0
0
LINE
8
0
6
CONTINUOUS
10
8.788675
20
-395.443220
30
0.0
11
2.992355
21
-398.546250
31
0.0
0
LINE
8
0
6
CONTINUOUS
10
15.070955
20
-393.528940
30
0.0
11
8.788675
21
-395.443220
31
0.0
0
LINE
8
0
6
CONTINUOUS
10
21.616255
20
-392.887390
30
0.0
11
15.070955
21
-393.528940
31
0.0
0
LINE
8
0
6
CONTINUOUS
10
21.592885
20
-460.164760
30
0.0
11
28.268045
21
-459.559070
31
0.0
0
LINE
8
0
6
CONTINUOUS
10
28.268025
20
-459.559070
30
0.0
11
21.592875
21
-460.164690
31
0.0
0
LINE
8
0
6
CONTINUOUS
10
208.809675
20
-442.517692
30
0.0
11
208.809675
21
-444.099490
31
0.0
0
LINE
8
0
6
CONTINUOUS
10
218.724875
20
-444.099490
30
0.0
11
218.724875
21
-442.445886
31
0.0
0
LINE
8
0
6
CONTINUOUS
10
217.272825
20
-445.912630
30
0.0
11
217.272825
21
-442.456402
31
0.0
0
LINE
8
0
6
CONTINUOUS
10
215.664455
20
-442.468050
30
0.0
11
215.664455
21
-446.468470
31
0.0
0
LINE
8
0
6
CONTINUOUS
10
211.870085
20
-446.896940
30
0.0
11
213.767265
21
-447.092130
31
0.0
0
LINE
8
0
6
CONTINUOUS
10
211.870085
20
-446.896940
30
0.0
11
211.870085
21
-446.468470
31
0.0
0
LINE
8
0
6
CONTINUOUS
10
210.261725
20
-446.341100
30
0.0
11
211.870085
21
-446.896940
31
0.0
0
LINE
8
0
6
CONTINUOUS
10
209.187055
20
-445.509230
30
0.0
11
210.261725
21
-446.341100
31
0.0
0
LINE
8
0
6
CONTINUOUS
10
208.809675
20
-444.527960
30
0.0
11
209.187055
21
-445.509230
31
0.0
0
LINE
8
0
6
CONTINUOUS
10
208.809675
20
-444.099490
30
0.0
11
208.809675
21
-444.527960
31
0.0
0
LINE
8
0
6
CONTINUOUS
10
218.724875
20
-444.527960
30
0.0
11
218.724875
21
-444.099490
31
0.0
0
LINE
8
0
6
CONTINUOUS
10
218.347475
20
-445.509230
30
0.0
11
218.724875
21
-444.527960
31
0.0
0
LINE
8
0
6
CONTINUOUS
10
217.272825
20
-446.341100
30
0.0
11
218.347475
21
-445.509230
31
0.0
0
LINE
8
0
6
CONTINUOUS
10
217.272825
20
-446.341100
30
0.0
11
217.272825
21
-445.912630
31
0.0
0
LINE
8
0
6
CONTINUOUS
10
215.664455
20
-446.896940
30
0.0
11
217.272825
21
-446.341100
31
0.0
0
LINE
8
0
6
CONTINUOUS
10
215.664455
20
-446.896940
30
0.0
11
215.664455
21
-446.468470
31
0.0
0
LINE
8
0
6
CONTINUOUS
10
213.767265
20
-447.092130
30
0.0
11
215.664455
21
-446.896940
31
0.0
0
LINE
8
0
6
CONTINUOUS
10
213.767265
20
-446.663650
30
0.0
11
213.767265
21
-447.092130
31
0.0
0
LINE
8
0
6
CONTINUOUS
10
213.767265
20
-446.663650
30
0.0
11
213.767265
21
-442.481789
31
0.0
0
LINE
8
0
6
CONTINUOUS
10
211.870085
20
-442.495529
30
0.0
11
211.870085
21
-446.468470
31
0.0
0
LINE
8
0
6
CONTINUOUS
10
244.434895
20
-405.089960
30
0.0
11
245.354445
21
-405.091110
31
0.0
0
LINE
8
0
6
CONTINUOUS
10
245.354445
20
-405.091110
30
0.0
11
245.354505
21
-398.713080
31
0.0
0
LINE
8
0
6
CONTINUOUS
10
245.354445
20
-405.091110
30
0.0
11
244.434895
21
-405.089960
31
0.0
0
LINE
8
0
6
CONTINUOUS
10
245.354445
20
-406.673480
30
0.0
11
245.354445
21
-405.091110
31
0.0
0
LINE
8
0
6
CONTINUOUS
10
224.141435
20
-394.691290
30
0.0
11
224.132745
21
-395.792900
31
0.0
0
LINE
8
0
6
CONTINUOUS
10
224.372235
20
-394.687470
30
0.0
11
244.490515
21
-394.686020
31
0.0
0
LINE
8
0
6
CONTINUOUS
10
244.488345
20
-394.268850
30
0.0
11
224.370085
21
-394.270300
31
0.0
0
LINE
8
0
6
CONTINUOUS
10
224.363175
20
-397.228400
30
0.0
11
244.481465
21
-397.225010
31
0.0
0
LINE
8
0
6
CONTINUOUS
10
244.487995
20
-395.751580
30
0.0
11
224.369715
21
-395.753990
31
0.0
0
LINE
8
0
6
CONTINUOUS
10
245.354505
20
-398.713080
30
0.0
11
245.354495
21
-397.226080
31
0.0
0
LINE
8
0
6
CONTINUOUS
10
245.354495
20
-397.226080
30
0.0
11
245.354495
21
-395.752150
31
0.0
0
LINE
8
0
6
CONTINUOUS
10
244.481465
20
-397.225010
30
0.0
11
245.354495
21
-397.226080
31
0.0
0
LINE
8
0
6
CONTINUOUS
10
245.354495
20
-395.752150
30
0.0
11
245.354495
21
-394.686100
31
0.0
0
LINE
8
0
6
CONTINUOUS
10
244.487995
20
-395.751580
30
0.0
11
245.354495
21
-395.752150
31
0.0
0
LINE
8
0
6
CONTINUOUS
10
245.354495
20
-394.268920
30
0.0
11
244.488345
21
-394.268850
31
0.0
0
LINE
8
0
6
CONTINUOUS
10
245.354495
20
-394.686100
30
0.0
11
245.354495
21
-394.268920
31
0.0
0
LINE
8
0
6
CONTINUOUS
10
244.490515
20
-394.686020
30
0.0
11
245.354495
21
-394.686100
31
0.0
0
LINE
8
0
6
CONTINUOUS
10
224.140835
20
-397.227340
30
0.0
11
224.132035
21
-398.714380
31
0.0
0
LINE
8
0
6
CONTINUOUS
10
224.140835
20
-397.227340
30
0.0
11
224.363175
21
-397.228400
31
0.0
0
LINE
8
0
6
CONTINUOUS
10
224.147335
20
-395.753410
30
0.0
11
224.140835
21
-397.227340
31
0.0
0
LINE
8
0
6
CONTINUOUS
10
224.147335
20
-395.753410
30
0.0
11
224.369715
21
-395.753990
31
0.0
0
LINE
8
0
6
CONTINUOUS
10
224.149855
20
-394.687400
30
0.0
11
224.147335
21
-395.753410
31
0.0
0
LINE
8
0
6
CONTINUOUS
10
224.149855
20
-394.687400
30
0.0
11
224.372235
21
-394.687470
31
0.0
0
LINE
8
0
6
CONTINUOUS
10
224.147705
20
-394.270220
30
0.0
11
224.149855
21
-394.687400
31
0.0
0
LINE
8
0
6
CONTINUOUS
10
224.370085
20
-394.270300
30
0.0
11
224.147705
21
-394.270220
31
0.0
0
LINE
8
0
6
CONTINUOUS
10
224.132745
20
-395.792900
30
0.0
11
224.096695
21
-401.881570
31
0.0
0
LINE
8
0
6
CONTINUOUS
10
190.729545
20
-442.648630
30
0.0
11
243.297385
21
-442.267930
31
0.0
0
LINE
8
0
6
CONTINUOUS
10
224.106327
20
-400.254797
30
0.0
11
190.731315
21
-399.944660
31
0.0
0
LINE
8
0
6
CONTINUOUS
10
190.367765
20
-442.649890
30
0.0
11
190.729545
21
-442.648630
31
0.0
0
LINE
8
0
6
CONTINUOUS
10
190.368235
20
-442.095920
30
0.0
11
190.367765
21
-442.649890
31
0.0
0
LINE
8
0
6
CONTINUOUS
10
190.368815
20
-440.106060
30
0.0
11
190.368235
21
-442.095920
31
0.0
0
LINE
8
0
6
CONTINUOUS
10
190.369385
20
-436.782620
30
0.0
11
190.368815
21
-440.106060
31
0.0
0
LINE
8
0
6
CONTINUOUS
10
190.370015
20
-432.378590
30
0.0
11
190.369385
21
-436.782620
31
0.0
0
LINE
8
0
6
CONTINUOUS
10
190.370555
20
-427.202620
30
0.0
11
190.370015
21
-432.378590
31
0.0
0
LINE
8
0
6
CONTINUOUS
10
190.370845
20
-421.602950
30
0.0
11
190.370555
21
-427.202620
31
0.0
0
LINE
8
0
6
CONTINUOUS
10
190.370795
20
-416.034370
30
0.0
11
190.370845
21
-421.602950
31
0.0
0
LINE
8
0
6
CONTINUOUS
10
190.370695
20
-410.776490
30
0.0
11
190.370795
21
-416.034370
31
0.0
0
LINE
8
0
6
CONTINUOUS
10
190.370465
20
-406.265160
30
0.0
11
190.370695
21
-410.776490
31
0.0
0
LINE
8
0
6
CONTINUOUS
10
190.375905
20
-402.750260
30
0.0
11
190.370465
21
-406.265160
31
0.0
0
LINE
8
0
6
CONTINUOUS
10
190.731315
20
-399.944660
30
0.0
11
190.369045
21
-399.943060
31
0.0
0
LINE
8
0
6
CONTINUOUS
10
245.354455
20
-411.062020
30
0.0
11
245.354445
21
-406.673480
31
0.0
0
LINE
8
0
6
CONTINUOUS
10
245.354445
20
-416.162690
30
0.0
11
245.354455
21
-411.062020
31
0.0
0
LINE
8
0
6
CONTINUOUS
10
245.354455
20
-421.624650
30
0.0
11
245.354445
21
-416.162690
31
0.0
0
LINE
8
0
6
CONTINUOUS
10
245.354445
20
-427.048620
30
0.0
11
245.354455
21
-421.624650
31
0.0
0
LINE
8
0
6
CONTINUOUS
10
245.354455
20
-432.086080
30
0.0
11
245.354445
21
-427.048620
31
0.0
0
LINE
8
0
6
CONTINUOUS
10
245.354445
20
-436.377380
30
0.0
11
245.354455
21
-432.086080
31
0.0
0
LINE
8
0
6
CONTINUOUS
10
245.354455
20
-441.635030
30
0.0
11
245.354455
21
-439.632620
31
0.0
0
LINE
8
0
6
CONTINUOUS
10
244.436085
20
-442.259610
30
0.0
11
245.354445
21
-442.252480
31
0.0
0
LINE
8
0
6
CONTINUOUS
10
245.354445
20
-442.252480
30
0.0
11
245.354455
21
-441.635030
31
0.0
0
LINE
8
0
6
CONTINUOUS
10
245.354445
20
-436.377380
30
0.0
11
245.354455
21
-439.632620
31
0.0
0
LINE
8
0
6
CONTINUOUS
10
224.094935
20
-404.980480
30
0.0
11
224.132035
21
-398.714380
31
0.0
0
LINE
8
0
6
CONTINUOUS
10
243.297385
20
-442.267930
30
0.0
11
244.436085
21
-442.259610
31
0.0
0
LINE
8
0
6
CONTINUOUS
10
190.375905
20
-402.750260
30
0.0
11
190.370815
21
-400.635580
31
0.0
0
LINE
8
0
6
CONTINUOUS
10
190.370815
20
-400.635580
30
0.0
11
190.369045
21
-399.943060
31
0.0
0
LINE
8
0
6
CONTINUOUS
10
188.868255
20
-441.360830
30
0.0
11
190.370045
21
-441.360830
31
0.0
0
LINE
8
0
6
CONTINUOUS
10
190.370825
20
-401.233800
30
0.0
11
188.869035
21
-401.233800
31
0.0
0
LINE
8
0
6
CONTINUOUS
10
-15.071605
20
-444.099490
30
0.0
11
-15.071605
21
-442.517692
31
0.0
0
LINE
8
0
6
CONTINUOUS
10
-24.986805
20
-442.445886
30
0.0
11
-24.986805
21
-444.099490
31
0.0
0
LINE
8
0
6
CONTINUOUS
10
-21.926385
20
-446.468470
30
0.0
11
-21.926385
21
-442.468050
31
0.0
0
LINE
8
0
6
CONTINUOUS
10
-23.534755
20
-442.456402
30
0.0
11
-23.534755
21
-445.912630
31
0.0
0
LINE
8
0
6
CONTINUOUS
10
-20.029195
20
-447.092130
30
0.0
11
-18.132015
21
-446.896940
31
0.0
0
LINE
8
0
6
CONTINUOUS
10
-18.132015
20
-446.896940
30
0.0
11
-16.523655
21
-446.341100
31
0.0
0
LINE
8
0
6
CONTINUOUS
10
-18.132015
20
-446.468470
30
0.0
11
-18.132015
21
-446.896940
31
0.0
0
LINE
8
0
6
CONTINUOUS
10
-16.523655
20
-446.341100
30
0.0
11
-15.448985
21
-445.509230
31
0.0
0
LINE
8
0
6
CONTINUOUS
10
-15.071605
20
-444.527960
30
0.0
11
-15.071605
21
-444.099490
31
0.0
0
LINE
8
0
6
CONTINUOUS
10
-15.448985
20
-445.509230
30
0.0
11
-15.071605
21
-444.527960
31
0.0
0
LINE
8
0
6
CONTINUOUS
10
-24.986805
20
-444.527960
30
0.0
11
-24.609405
21
-445.509230
31
0.0
0
LINE
8
0
6
CONTINUOUS
10
-24.986805
20
-444.099490
30
0.0
11
-24.986805
21
-444.527960
31
0.0
0
LINE
8
0
6
CONTINUOUS
10
-24.609405
20
-445.509230
30
0.0
11
-23.534755
21
-446.341100
31
0.0
0
LINE
8
0
6
CONTINUOUS
10
-23.534755
20
-446.341100
30
0.0
11
-21.926385
21
-446.896940
31
0.0
0
LINE
8
0
6
CONTINUOUS
10
-23.534755
20
-445.912630
30
0.0
11
-23.534755
21
-446.341100
31
0.0
0
LINE
8
0
6
CONTINUOUS
10
-20.029195
20
-447.092130
30
0.0
11
-20.029195
21
-446.663650
31
0.0
0
LINE
8
0
6
CONTINUOUS
10
-21.926385
20
-446.896940
30
0.0
11
-20.029195
21
-447.092130
31
0.0
0
LINE
8
0
6
CONTINUOUS
10
-21.926385
20
-446.468470
30
0.0
11
-21.926385
21
-446.896940
31
0.0
0
LINE
8
0
6
CONTINUOUS
10
-18.132015
20
-446.468470
30
0.0
11
-18.132015
21
-442.495529
31
0.0
0
LINE
8
0
6
CONTINUOUS
10
-20.029195
20
-442.481789
30
0.0
11
-20.029195
21
-446.663650
31
0.0
0
LINE
8
0
6
CONTINUOUS
10
-51.616435
20
-398.713080
30
0.0
11
-51.616375
21
-405.091110
31
0.0
0
LINE
8
0
6
CONTINUOUS
10
-51.616375
20
-405.091110
30
0.0
11
-50.696825
21
-405.089960
31
0.0
0
LINE
8
0
6
CONTINUOUS
10
-51.616375
20
-405.091110
30
0.0
11
-51.616375
21
-406.673480
31
0.0
0
LINE
8
0
6
CONTINUOUS
10
-50.696825
20
-405.089960
30
0.0
11
-51.616375
21
-405.091110
31
0.0
0
LINE
8
0
6
CONTINUOUS
10
-30.394675
20
-395.792900
30
0.0
11
-30.403365
21
-394.691290
31
0.0
0
LINE
8
0
6
CONTINUOUS
10
-30.632015
20
-394.270300
30
0.0
11
-50.750275
21
-394.268850
31
0.0
0
LINE
8
0
6
CONTINUOUS
10
-50.752445
20
-394.686020
30
0.0
11
-30.634165
21
-394.687470
31
0.0
0
LINE
8
0
6
CONTINUOUS
10
-30.631645
20
-395.753990
30
0.0
11
-50.749925
21
-395.751580
31
0.0
0
LINE
8
0
6
CONTINUOUS
10
-50.743395
20
-397.225010
30
0.0
11
-30.625105
21
-397.228400
31
0.0
0
LINE
8
0
6
CONTINUOUS
10
-51.616425
20
-397.226080
30
0.0
11
-51.616435
21
-398.713080
31
0.0
0
LINE
8
0
6
CONTINUOUS
10
-51.616425
20
-397.226080
30
0.0
11
-50.743395
21
-397.225010
31
0.0
0
LINE
8
0
6
CONTINUOUS
10
-51.616425
20
-395.752150
30
0.0
11
-51.616425
21
-397.226080
31
0.0
0
LINE
8
0
6
CONTINUOUS
10
-51.616425
20
-395.752150
30
0.0
11
-50.749925
21
-395.751580
31
0.0
0
LINE
8
0
6
CONTINUOUS
10
-51.616425
20
-394.686100
30
0.0
11
-51.616425
21
-395.752150
31
0.0
0
LINE
8
0
6
CONTINUOUS
10
-51.616425
20
-394.686100
30
0.0
11
-50.752445
21
-394.686020
31
0.0
0
LINE
8
0
6
CONTINUOUS
10
-51.616425
20
-394.268920
30
0.0
11
-51.616425
21
-394.686100
31
0.0
0
LINE
8
0
6
CONTINUOUS
10
-50.750275
20
-394.268850
30
0.0
11
-51.616425
21
-394.268920
31
0.0
0
LINE
8
0
6
CONTINUOUS
10
-30.393965
20
-398.714380
30
0.0
11
-30.402755
21
-397.227340
31
0.0
0
LINE
8
0
6
CONTINUOUS
10
-30.402755
20
-397.227340
30
0.0
11
-30.409265
21
-395.753410
31
0.0
0
LINE
8
0
6
CONTINUOUS
10
-30.625105
20
-397.228400
30
0.0
11
-30.402755
21
-397.227340
31
0.0
0
LINE
8
0
6
CONTINUOUS
10
-30.409265
20
-395.753410
30
0.0
11
-30.411785
21
-394.687400
31
0.0
0
LINE
8
0
6
CONTINUOUS
10
-30.631645
20
-395.753990
30
0.0
11
-30.409265
21
-395.753410
31
0.0
0
LINE
8
0
6
CONTINUOUS
10
-30.409635
20
-394.270220
30
0.0
11
-30.632015
21
-394.270300
31
0.0
0
LINE
8
0
6
CONTINUOUS
10
-30.411785
20
-394.687400
30
0.0
11
-30.409635
21
-394.270220
31
0.0
0
LINE
8
0
6
CONTINUOUS
10
-30.634165
20
-394.687470
30
0.0
11
-30.411785
21
-394.687400
31
0.0
0
LINE
8
0
6
CONTINUOUS
10
-30.358625
20
-401.881570
30
0.0
11
-30.394675
21
-395.792900
31
0.0
0
LINE
8
0
6
CONTINUOUS
10
-49.559315
20
-442.267930
30
0.0
11
3.008525
21
-442.648630
31
0.0
0
LINE
8
0
6
CONTINUOUS
10
3.006755
20
-399.944660
30
0.0
11
-30.368257
21
-400.254797
31
0.0
0
LINE
8
0
6
CONTINUOUS
10
3.370305
20
-442.649890
30
0.0
11
3.369835
21
-442.095920
31
0.0
0
LINE
8
0
6
CONTINUOUS
10
3.008525
20
-442.648630
30
0.0
11
3.370305
21
-442.649890
31
0.0
0
LINE
8
0
6
CONTINUOUS
10
3.369835
20
-442.095920
30
0.0
11
3.369255
21
-440.106060
31
0.0
0
LINE
8
0
6
CONTINUOUS
10
3.369255
20
-440.106060
30
0.0
11
3.368685
21
-436.782620
31
0.0
0
LINE
8
0
6
CONTINUOUS
10
3.368685
20
-436.782620
30
0.0
11
3.368055
21
-432.378590
31
0.0
0
LINE
8
0
6
CONTINUOUS
10
3.368055
20
-432.378590
30
0.0
11
3.367515
21
-427.202620
31
0.0
0
LINE
8
0
6
CONTINUOUS
10
3.367515
20
-427.202620
30
0.0
11
3.367225
21
-421.602950
31
0.0
0
LINE
8
0
6
CONTINUOUS
10
3.367225
20
-421.602950
30
0.0
11
3.367275
21
-416.034370
31
0.0
0
LINE
8
0
6
CONTINUOUS
10
3.367275
20
-416.034370
30
0.0
11
3.367375
21
-410.776490
31
0.0
0
LINE
8
0
6
CONTINUOUS
10
3.367375
20
-410.776490
30
0.0
11
3.367615
21
-406.265160
31
0.0
0
LINE
8
0
6
CONTINUOUS
10
3.367615
20
-406.265160
30
0.0
11
3.362165
21
-402.750260
31
0.0
0
LINE
8
0
6
CONTINUOUS
10
3.369025
20
-399.943060
30
0.0
11
3.006755
21
-399.944660
31
0.0
0
LINE
8
0
6
CONTINUOUS
10
-51.616375
20
-406.673480
30
0.0
11
-51.616385
21
-411.062020
31
0.0
0
LINE
8
0
6
CONTINUOUS
10
-51.616385
20
-411.062020
30
0.0
11
-51.616375
21
-416.162690
31
0.0
0
LINE
8
0
6
CONTINUOUS
10
-51.616375
20
-416.162690
30
0.0
11
-51.616385
21
-421.624650
31
0.0
0
LINE
8
0
6
CONTINUOUS
10
-51.616385
20
-421.624650
30
0.0
11
-51.616375
21
-427.048620
31
0.0
0
LINE
8
0
6
CONTINUOUS
10
-51.616375
20
-427.048620
30
0.0
11
-51.616385
21
-432.086080
31
0.0
0
LINE
8
0
6
CONTINUOUS
10
-51.616385
20
-432.086080
30
0.0
11
-51.616375
21
-436.377380
31
0.0
0
LINE
8
0
6
CONTINUOUS
10
-51.616385
20
-439.632620
30
0.0
11
-51.616385
21
-441.635030
31
0.0
0
LINE
8
0
6
CONTINUOUS
10
-51.616385
20
-441.635030
30
0.0
11
-51.616375
21
-442.252480
31
0.0
0
LINE
8
0
6
CONTINUOUS
10
-51.616375
20
-442.252480
30
0.0
11
-50.698015
21
-442.259610
31
0.0
0
LINE
8
0
6
CONTINUOUS
10
-51.616385
20
-439.632620
30
0.0
11
-51.616375
21
-436.377380
31
0.0
0
LINE
8
0
6
CONTINUOUS
10
-30.393965
20
-398.714380
30
0.0
11
-30.356855
21
-404.980480
31
0.0
0
LINE
8
0
6
CONTINUOUS
10
-50.698015
20
-442.259610
30
0.0
11
-49.559315
21
-442.267930
31
0.0
0
LINE
8
0
6
CONTINUOUS
10
3.367255
20
-400.635580
30
0.0
11
3.362165
21
-402.750260
31
0.0
0
LINE
8
0
6
CONTINUOUS
10
3.369025
20
-399.943060
30
0.0
11
3.367255
21
-400.635580
31
0.0
0
LINE
8
0
6
CONTINUOUS
10
3.368035
20
-441.360830
30
0.0
11
4.869815
21
-441.360830
31
0.0
0
LINE
8
0
6
CONTINUOUS
10
4.869035
20
-401.233800
30
0.0
11
3.367245
21
-401.233800
31
0.0
0
LINE
8
0
6
CONTINUOUS
10
98.990851
20
-443.330340
30
0.0
11
98.990848
21
-440.987836
31
0.0
0
LINE
8
0
6
CONTINUOUS
10
94.747271
20
-443.330350
30
0.0
11
94.747268
21
-440.986679
31
0.0
0
LINE
8
0
6
CONTINUOUS
10
107.018391
20
-443.330335
30
0.0
11
107.018390
21
-442.344806
31
0.0
0
LINE
8
0
6
CONTINUOUS
10
90.870581
20
-443.330350
30
0.0
11
90.870579
21
-441.522780
31
0.0
0
LINE
8
0
6
CONTINUOUS
10
102.867539
20
-441.525807
30
0.0
11
102.867541
21
-443.330340
31
0.0
0
LINE
8
0
6
CONTINUOUS
10
105.707051
20
-443.330340
30
0.0
11
105.707050
21
-442.183306
31
0.0
0
LINE
8
0
6
CONTINUOUS
10
98.990855
20
-443.330340
30
0.0
11
94.747265
21
-443.330350
31
0.0
0
LINE
8
0
6
CONTINUOUS
10
102.867535
20
-443.330340
30
0.0
11
98.990855
21
-443.330340
31
0.0
0
LINE
8
0
6
CONTINUOUS
10
86.719770
20
-442.339764
30
0.0
11
86.719771
21
-443.330350
31
0.0
0
LINE
8
0
6
CONTINUOUS
10
88.031071
20
-443.330350
30
0.0
11
88.031070
21
-442.178846
31
0.0
0
LINE
8
0
6
CONTINUOUS
10
94.473715
20
-443.330350
30
0.0
11
90.097195
21
-443.330350
31
0.0
0
LINE
8
0
6
CONTINUOUS
10
106.846575
20
-443.330330
30
0.0
11
103.640965
21
-443.330340
31
0.0
0
LINE
8
0
6
CONTINUOUS
10
86.891545
20
-443.330350
30
0.0
11
85.411145
21
-443.330350
31
0.0
0
LINE
8
0
6
CONTINUOUS
10
94.473715
20
-443.330350
30
0.0
11
94.473715
21
-444.710810
31
0.0
0
LINE
8
0
6
CONTINUOUS
10
99.264405
20
-443.330340
30
0.0
11
94.473715
21
-443.330350
31
0.0
0
LINE
8
0
6
CONTINUOUS
10
106.846575
20
-443.330330
30
0.0
11
106.846575
21
-444.710800
31
0.0
0
LINE
8
0
6
CONTINUOUS
10
108.326985
20
-443.330330
30
0.0
11
106.846575
21
-443.330330
31
0.0
0
LINE
8
0
6
CONTINUOUS
10
108.326985
20
-444.710800
30
0.0
11
108.326985
21
-443.330330
31
0.0
0
LINE
8
0
6
CONTINUOUS
10
86.891545
20
-443.330350
30
0.0
11
86.891545
21
-444.710820
31
0.0
0
LINE
8
0
6
CONTINUOUS
10
90.097195
20
-443.330350
30
0.0
11
86.891545
21
-443.330350
31
0.0
0
LINE
8
0
6
CONTINUOUS
10
90.097195
20
-444.710810
30
0.0
11
90.097195
21
-443.330350
31
0.0
0
LINE
8
0
6
CONTINUOUS
10
99.264405
20
-443.330340
30
0.0
11
99.264405
21
-444.710800
31
0.0
0
LINE
8
0
6
CONTINUOUS
10
103.640965
20
-443.330340
30
0.0
11
99.264405
21
-443.330340
31
0.0
0
LINE
8
0
6
CONTINUOUS
10
103.640965
20
-444.710800
30
0.0
11
103.640965
21
-443.330340
31
0.0
0
LINE
8
0
6
CONTINUOUS
10
85.411145
20
-444.710820
30
0.0
11
85.411145
21
-443.330350
31
0.0
0
LINE
8
0
6
CONTINUOUS
10
86.612595
20
-465.978290
30
0.0
11
87.937745
21
-465.978290
31
0.0
0
LINE
8
0
6
CONTINUOUS
10
86.570635
20
-465.235570
30
0.0
11
86.612595
21
-465.978290
31
0.0
0
LINE
8
0
6
CONTINUOUS
10
87.937745
20
-465.978290
30
0.0
11
90.807245
21
-465.978280
31
0.0
0
LINE
8
0
6
CONTINUOUS
10
87.901245
20
-465.235560
30
0.0
11
87.937745
21
-465.978290
31
0.0
0
LINE
8
0
6
CONTINUOUS
10
90.807245
20
-465.978280
30
0.0
11
94.724855
21
-465.978280
31
0.0
0
LINE
8
0
6
CONTINUOUS
10
90.782445
20
-465.235560
30
0.0
11
90.807245
21
-465.978280
31
0.0
0
LINE
8
0
6
CONTINUOUS
10
94.724855
20
-465.978280
30
0.0
11
99.013265
21
-465.978280
31
0.0
0
LINE
8
0
6
CONTINUOUS
10
94.716085
20
-465.235560
30
0.0
11
94.724855
21
-465.978280
31
0.0
0
LINE
8
0
6
CONTINUOUS
10
99.013265
20
-465.978280
30
0.0
11
102.930885
21
-465.978270
31
0.0
0
LINE
8
0
6
CONTINUOUS
10
99.022035
20
-465.235550
30
0.0
11
99.013265
21
-465.978280
31
0.0
0
LINE
8
0
6
CONTINUOUS
10
102.930885
20
-465.978270
30
0.0
11
105.800375
21
-465.978270
31
0.0
0
LINE
8
0
6
CONTINUOUS
10
102.955675
20
-465.235550
30
0.0
11
102.930885
21
-465.978270
31
0.0
0
LINE
8
0
6
CONTINUOUS
10
105.800375
20
-465.978270
30
0.0
11
107.125565
21
-465.978270
31
0.0
0
LINE
8
0
6
CONTINUOUS
10
105.836915
20
-465.235550
30
0.0
11
105.800375
21
-465.978270
31
0.0
0
LINE
8
0
6
CONTINUOUS
10
107.167525
20
-465.235550
30
0.0
11
107.125565
21
-465.978270
31
0.0
0
LINE
8
0
6
CONTINUOUS
10
85.411145
20
-444.710820
30
0.0
11
86.570635
21
-465.235570
31
0.0
0
LINE
8
0
6
CONTINUOUS
10
86.891545
20
-444.710820
30
0.0
11
87.901245
21
-465.235560
31
0.0
0
LINE
8
0
6
CONTINUOUS
10
90.097195
20
-444.710810
30
0.0
11
90.782445
21
-465.235560
31
0.0
0
LINE
8
0
6
CONTINUOUS
10
94.473715
20
-444.710810
30
0.0
11
94.716085
21
-465.235560
31
0.0
0
LINE
8
0
6
CONTINUOUS
10
99.264405
20
-444.710800
30
0.0
11
99.022035
21
-465.235550
31
0.0
0
LINE
8
0
6
CONTINUOUS
10
103.640965
20
-444.710800
30
0.0
11
102.955675
21
-465.235550
31
0.0
0
LINE
8
0
6
CONTINUOUS
10
106.846575
20
-444.710800
30
0.0
11
105.836915
21
-465.235550
31
0.0
0
LINE
8
0
6
CONTINUOUS
10
108.326985
20
-444.710800
30
0.0
11
107.167525
21
-465.235550
31
0.0
0
LINE
8
0
6
CONTINUOUS
10
-146.722895
20
361.521990
30
0.0
11
-146.708535
21
360.637440
31
0.0
0
LINE
8
0
6
CONTINUOUS
10
-148.065075
20
361.952590
30
0.0
11
-146.722895
21
361.521990
31
0.0
0
LINE
8
0
6
CONTINUOUS
10
-149.392915
20
361.498640
30
0.0
11
-148.065075
21
361.952590
31
0.0
0
LINE
8
0
6
CONTINUOUS
10
-149.394691
20
362.247107
30
0.0
11
-149.392915
21
361.498640
31
0.0
0
LINE
8
0
6
CONTINUOUS
10
-148.036365
20
360.183410
30
0.0
11
-146.708535
21
360.637440
31
0.0
0
LINE
8
0
6
CONTINUOUS
10
-149.378575
20
360.614010
30
0.0
11
-148.036365
21
360.183410
31
0.0
0
LINE
8
0
6
CONTINUOUS
10
-149.392915
20
361.498640
30
0.0
11
-149.378575
21
360.614010
31
0.0
0
LINE
8
0
6
CONTINUOUS
10
-148.065075
20
361.952590
30
0.0
11
-149.392915
21
361.498640
31
0.0
0
LINE
8
0
6
CONTINUOUS
10
-146.722895
20
361.521990
30
0.0
11
-148.065075
21
361.952590
31
0.0
0
LINE
8
0
6
CONTINUOUS
10
-146.708535
20
360.637440
30
0.0
11
-146.722895
21
361.521990
31
0.0
0
LINE
8
0
6
CONTINUOUS
10
-139.919455
20
360.909350
30
0.0
11
-139.907135
21
360.150450
31
0.0
0
LINE
8
0
6
CONTINUOUS
10
-141.070865
20
361.278690
30
0.0
11
-139.919455
21
360.909350
31
0.0
0
LINE
8
0
6
CONTINUOUS
10
-142.209995
20
360.889280
30
0.0
11
-141.070865
21
361.278690
31
0.0
0
LINE
8
0
6
CONTINUOUS
10
-142.212134
20
361.663312
30
0.0
11
-142.209995
21
360.889280
31
0.0
0
LINE
8
0
6
CONTINUOUS
10
-141.046265
20
359.760970
30
0.0
11
-139.907135
21
360.150450
31
0.0
0
LINE
8
0
6
CONTINUOUS
10
-142.197685
20
360.130390
30
0.0
11
-141.046265
21
359.760970
31
0.0
0
LINE
8
0
6
CONTINUOUS
10
-142.209995
20
360.889280
30
0.0
11
-142.197685
21
360.130390
31
0.0
0
LINE
8
0
6
CONTINUOUS
10
-141.070865
20
361.278690
30
0.0
11
-142.209995
21
360.889280
31
0.0
0
LINE
8
0
6
CONTINUOUS
10
-139.919455
20
360.909350
30
0.0
11
-141.070865
21
361.278690
31
0.0
0
LINE
8
0
6
CONTINUOUS
10
-139.907135
20
360.150450
30
0.0
11
-139.919455
21
360.909350
31
0.0
0
LINE
8
0
6
CONTINUOUS
10
-133.023515
20
359.731290
30
0.0
11
-133.011175
21
358.972400
31
0.0
0
LINE
8
0
6
CONTINUOUS
10
-134.174925
20
360.100710
30
0.0
11
-133.023515
21
359.731290
31
0.0
0
LINE
8
0
6
CONTINUOUS
10
-135.314025
20
359.711230
30
0.0
11
-134.174925
21
360.100710
31
0.0
0
LINE
8
0
6
CONTINUOUS
10
-135.316123
20
360.468247
30
0.0
11
-135.314025
21
359.711230
31
0.0
0
LINE
8
0
6
CONTINUOUS
10
-134.150295
20
358.582920
30
0.0
11
-133.011175
21
358.972400
31
0.0
0
LINE
8
0
6
CONTINUOUS
10
-135.301725
20
358.952330
30
0.0
11
-134.150295
21
358.582920
31
0.0
0
LINE
8
0
6
CONTINUOUS
10
-135.314025
20
359.711230
30
0.0
11
-135.301725
21
358.952330
31
0.0
0
LINE
8
0
6
CONTINUOUS
10
-134.174925
20
360.100710
30
0.0
11
-135.314025
21
359.711230
31
0.0
0
LINE
8
0
6
CONTINUOUS
10
-133.023515
20
359.731290
30
0.0
11
-134.174925
21
360.100710
31
0.0
0
LINE
8
0
6
CONTINUOUS
10
-133.011175
20
358.972400
30
0.0
11
-133.023515
21
359.731290
31
0.0
0
LINE
8
0
6
CONTINUOUS
10
-173.501725
20
359.037100
30
0.0
11
-172.050785
21
360.192260
31
0.0
0
LINE
8
0
6
CONTINUOUS
10
-169.589505
20
360.054630
30
0.0
11
-168.579185
21
358.761750
31
0.0
0
LINE
8
0
6
CONTINUOUS
10
-172.050785
20
360.192260
30
0.0
11
-169.589505
21
360.054630
31
0.0
0
LINE
8
0
6
CONTINUOUS
10
-170.030155
20
357.606580
30
0.0
11
-168.579185
21
358.761750
31
0.0
0
LINE
8
0
6
CONTINUOUS
10
-172.491425
20
357.744220
30
0.0
11
-170.030155
21
357.606580
31
0.0
0
LINE
8
0
6
CONTINUOUS
10
-173.501725
20
359.037100
30
0.0
11
-172.491425
21
357.744220
31
0.0
0
LINE
8
0
6
CONTINUOUS
10
-172.050785
20
360.192260
30
0.0
11
-173.501725
21
359.037100
31
0.0
0
LINE
8
0
6
CONTINUOUS
10
-169.589505
20
360.054630
30
0.0
11
-172.050785
21
360.192260
31
0.0
0
LINE
8
0
6
CONTINUOUS
10
-168.579185
20
358.761750
30
0.0
11
-169.589505
21
360.054630
31
0.0
0
LINE
8
0
6
CONTINUOUS
10
-148.954775
20
366.218490
30
0.0
11
-148.940415
21
365.333860
31
0.0
0
LINE
8
0
6
CONTINUOUS
10
-150.296945
20
366.649090
30
0.0
11
-148.954775
21
366.218490
31
0.0
0
LINE
8
0
6
CONTINUOUS
10
-151.624775
20
366.195070
30
0.0
11
-150.296945
21
366.649090
31
0.0
0
LINE
8
0
6
CONTINUOUS
10
-151.626634
20
366.976850
30
0.0
11
-151.624775
21
366.195070
31
0.0
0
LINE
8
0
6
CONTINUOUS
10
-150.268255
20
364.879840
30
0.0
11
-148.940415
21
365.333860
31
0.0
0
LINE
8
0
6
CONTINUOUS
10
-151.610455
20
365.310440
30
0.0
11
-150.268255
21
364.879840
31
0.0
0
LINE
8
0
6
CONTINUOUS
10
-151.624775
20
366.195070
30
0.0
11
-151.610455
21
365.310440
31
0.0
0
LINE
8
0
6
CONTINUOUS
10
-150.296945
20
366.649090
30
0.0
11
-151.624775
21
366.195070
31
0.0
0
LINE
8
0
6
CONTINUOUS
10
-148.954775
20
366.218490
30
0.0
11
-150.296945
21
366.649090
31
0.0
0
LINE
8
0
6
CONTINUOUS
10
-148.940415
20
365.333860
30
0.0
11
-148.954775
21
366.218490
31
0.0
0
LINE
8
0
6
CONTINUOUS
10
-141.294345
20
365.745850
30
0.0
11
-141.282025
21
364.986950
31
0.0
0
LINE
8
0
6
CONTINUOUS
10
-142.445755
20
366.115270
30
0.0
11
-141.294345
21
365.745850
31
0.0
0
LINE
8
0
6
CONTINUOUS
10
-143.584865
20
365.725790
30
0.0
11
-142.445755
21
366.115270
31
0.0
0
LINE
8
0
6
CONTINUOUS
10
-143.587033
20
366.510197
30
0.0
11
-143.584865
21
365.725790
31
0.0
0
LINE
8
0
6
CONTINUOUS
10
-142.421155
20
364.597550
30
0.0
11
-141.282025
21
364.986950
31
0.0
0
LINE
8
0
6
CONTINUOUS
10
-143.572585
20
364.966970
30
0.0
11
-142.421155
21
364.597550
31
0.0
0
LINE
8
0
6
CONTINUOUS
10
-143.584865
20
365.725790
30
0.0
11
-143.572585
21
364.966970
31
0.0
0
LINE
8
0
6
CONTINUOUS
10
-142.445755
20
366.115270
30
0.0
11
-143.584865
21
365.725790
31
0.0
0
LINE
8
0
6
CONTINUOUS
10
-141.294345
20
365.745850
30
0.0
11
-142.445755
21
366.115270
31
0.0
0
LINE
8
0
6
CONTINUOUS
10
-141.282025
20
364.986950
30
0.0
11
-141.294345
21
365.745850
31
0.0
0
LINE
8
0
6
CONTINUOUS
10
-145.076645
20
370.110250
30
0.0
11
-145.064335
21
369.351350
31
0.0
0
LINE
8
0
6
CONTINUOUS
10
-146.228065
20
370.479660
30
0.0
11
-145.076645
21
370.110250
31
0.0
0
LINE
8
0
6
CONTINUOUS
10
-147.367195
20
370.090180
30
0.0
11
-146.228065
21
370.479660
31
0.0
0
LINE
8
0
6
CONTINUOUS
10
-147.369397
20
370.887148
30
0.0
11
-147.367195
21
370.090180
31
0.0
0
LINE
8
0
6
CONTINUOUS
10
-146.203465
20
368.961870
30
0.0
11
-145.064335
21
369.351350
31
0.0
0
LINE
8
0
6
CONTINUOUS
10
-147.354895
20
369.331360
30
0.0
11
-146.203465
21
368.961870
31
0.0
0
LINE
8
0
6
CONTINUOUS
10
-147.367195
20
370.090180
30
0.0
11
-147.354895
21
369.331360
31
0.0
0
LINE
8
0
6
CONTINUOUS
10
-146.228065
20
370.479660
30
0.0
11
-147.367195
21
370.090180
31
0.0
0
LINE
8
0
6
CONTINUOUS
10
-145.076645
20
370.110250
30
0.0
11
-146.228065
21
370.479660
31
0.0
0
LINE
8
0
6
CONTINUOUS
10
-145.064335
20
369.351350
30
0.0
11
-145.076645
21
370.110250
31
0.0
0
LINE
8
0
6
CONTINUOUS
10
-146.320485
20
377.284240
30
0.0
11
-146.087665
21
376.537860
31
0.0
0
LINE
8
0
6
CONTINUOUS
10
-147.564315
20
377.537840
30
0.0
11
-146.320485
21
377.284240
31
0.0
0
LINE
8
0
6
CONTINUOUS
10
-148.575325
20
377.045060
30
0.0
11
-147.564315
21
377.537840
31
0.0
0
LINE
8
0
6
CONTINUOUS
10
-148.576465
20
377.842921
30
0.0
11
-148.575325
21
377.045060
31
0.0
0
LINE
8
0
6
CONTINUOUS
10
-147.098695
20
376.045150
30
0.0
11
-146.087665
21
376.537860
31
0.0
0
LINE
8
0
6
CONTINUOUS
10
-148.342535
20
376.298750
30
0.0
11
-147.098695
21
376.045150
31
0.0
0
LINE
8
0
6
CONTINUOUS
10
-148.575325
20
377.045060
30
0.0
11
-148.342535
21
376.298750
31
0.0
0
LINE
8
0
6
CONTINUOUS
10
-147.564315
20
377.537840
30
0.0
11
-148.575325
21
377.045060
31
0.0
0
LINE
8
0
6
CONTINUOUS
10
-146.320485
20
377.284240
30
0.0
11
-147.564315
21
377.537840
31
0.0
0
LINE
8
0
6
CONTINUOUS
10
-146.087665
20
376.537860
30
0.0
11
-146.320485
21
377.284240
31
0.0
0
LINE
8
0
6
CONTINUOUS
10
-140.385935
20
373.691100
30
0.0
11
-140.153105
21
372.944790
31
0.0
0
LINE
8
0
6
CONTINUOUS
10
-141.629755
20
373.944700
30
0.0
11
-140.385935
21
373.691100
31
0.0
0
LINE
8
0
6
CONTINUOUS
10
-142.640785
20
373.452000
30
0.0
11
-141.629755
21
373.944700
31
0.0
0
LINE
8
0
6
CONTINUOUS
10
-142.641893
20
374.232225
30
0.0
11
-142.640785
21
373.452000
31
0.0
0
LINE
8
0
6
CONTINUOUS
10
-141.164135
20
372.452090
30
0.0
11
-140.153105
21
372.944790
31
0.0
0
LINE
8
0
6
CONTINUOUS
10
-142.407995
20
372.705690
30
0.0
11
-141.164135
21
372.452090
31
0.0
0
LINE
8
0
6
CONTINUOUS
10
-142.640785
20
373.452000
30
0.0
11
-142.407995
21
372.705690
31
0.0
0
LINE
8
0
6
CONTINUOUS
10
-141.629755
20
373.944700
30
0.0
11
-142.640785
21
373.452000
31
0.0
0
LINE
8
0
6
CONTINUOUS
10
-140.385935
20
373.691100
30
0.0
11
-141.629755
21
373.944700
31
0.0
0
LINE
8
0
6
CONTINUOUS
10
-140.153105
20
372.944790
30
0.0
11
-140.385935
21
373.691100
31
0.0
0
LINE
8
0
6
CONTINUOUS
10
-136.071705
20
369.464880
30
0.0
11
-135.838875
21
368.718490
31
0.0
0
LINE
8
0
6
CONTINUOUS
10
-137.315525
20
369.718400
30
0.0
11
-136.071705
21
369.464880
31
0.0
0
LINE
8
0
6
CONTINUOUS
10
-138.326555
20
369.225690
30
0.0
11
-137.315525
21
369.718400
31
0.0
0
LINE
8
0
6
CONTINUOUS
10
-138.327646
20
369.994330
30
0.0
11
-138.326555
21
369.225690
31
0.0
0
LINE
8
0
6
CONTINUOUS
10
-136.849905
20
368.225790
30
0.0
11
-135.838875
21
368.718490
31
0.0
0
LINE
8
0
6
CONTINUOUS
10
-138.093765
20
368.479390
30
0.0
11
-136.849905
21
368.225790
31
0.0
0
LINE
8
0
6
CONTINUOUS
10
-138.326555
20
369.225690
30
0.0
11
-138.093765
21
368.479390
31
0.0
0
LINE
8
0
6
CONTINUOUS
10
-137.315525
20
369.718400
30
0.0
11
-138.326555
21
369.225690
31
0.0
0
LINE
8
0
6
CONTINUOUS
10
-136.071705
20
369.464880
30
0.0
11
-137.315525
21
369.718400
31
0.0
0
LINE
8
0
6
CONTINUOUS
10
-135.838875
20
368.718490
30
0.0
11
-136.071705
21
369.464880
31
0.0
0
LINE
8
0
6
CONTINUOUS
10
-133.555325
20
364.722670
30
0.0
11
-133.322495
21
363.976370
31
0.0
0
LINE
8
0
6
CONTINUOUS
10
-134.799165
20
364.976270
30
0.0
11
-133.555325
21
364.722670
31
0.0
0
LINE
8
0
6
CONTINUOUS
10
-135.810165
20
364.483490
30
0.0
11
-134.799165
21
364.976270
31
0.0
0
LINE
8
0
6
CONTINUOUS
10
-135.811243
20
365.240337
30
0.0
11
-135.810165
21
364.483490
31
0.0
0
LINE
8
0
6
CONTINUOUS
10
-134.333535
20
363.483580
30
0.0
11
-133.322495
21
363.976370
31
0.0
0
LINE
8
0
6
CONTINUOUS
10
-135.577375
20
363.737180
30
0.0
11
-134.333535
21
363.483580
31
0.0
0
LINE
8
0
6
CONTINUOUS
10
-135.810165
20
364.483490
30
0.0
11
-135.577375
21
363.737180
31
0.0
0
LINE
8
0
6
CONTINUOUS
10
-134.799165
20
364.976270
30
0.0
11
-135.810165
21
364.483490
31
0.0
0
LINE
8
0
6
CONTINUOUS
10
-133.555325
20
364.722670
30
0.0
11
-134.799165
21
364.976270
31
0.0
0
LINE
8
0
6
CONTINUOUS
10
-133.322495
20
363.976370
30
0.0
11
-133.555325
21
364.722670
31
0.0
0
LINE
8
0
6
CONTINUOUS
10
-166.084885
20
351.310430
30
0.0
11
-164.632015
21
351.688230
31
0.0
0
LINE
8
0
6
CONTINUOUS
10
-164.632015
20
351.688230
30
0.0
11
-163.342825
21
351.156920
31
0.0
0
LINE
8
0
6
CONTINUOUS
10
-166.248575
20
350.401230
30
0.0
11
-166.084885
21
351.310430
31
0.0
0
LINE
8
0
6
CONTINUOUS
10
-166.248575
20
350.401230
30
0.0
11
-164.959375
21
349.870000
31
0.0
0
LINE
8
0
6
CONTINUOUS
10
-166.084885
20
351.310430
30
0.0
11
-166.248575
21
350.401230
31
0.0
0
LINE
8
0
6
CONTINUOUS
10
-164.632015
20
351.688230
30
0.0
11
-166.084885
21
351.310430
31
0.0
0
LINE
8
0
6
CONTINUOUS
10
-163.342825
20
351.156920
30
0.0
11
-164.632015
21
351.688230
31
0.0
0
LINE
8
0
6
CONTINUOUS
10
-163.506515
20
350.247800
30
0.0
11
-163.342825
21
351.156920
31
0.0
0
LINE
8
0
6
CONTINUOUS
10
-164.959375
20
349.870000
30
0.0
11
-163.506515
21
350.247800
31
0.0
0
LINE
8
0
6
CONTINUOUS
10
-167.718545
20
339.701310
30
0.0
11
-166.511325
21
340.015260
31
0.0
0
LINE
8
0
6
CONTINUOUS
10
-166.511325
20
340.015260
30
0.0
11
-165.440085
21
339.573820
31
0.0
0
LINE
8
0
6
CONTINUOUS
10
-166.526094
20
341.276854
30
0.0
11
-166.511325
21
340.015260
31
0.0
0
LINE
8
0
6
CONTINUOUS
10
-167.718545
20
339.701310
30
0.0
11
-167.736020
21
341.194348
31
0.0
0
LINE
8
0
6
CONTINUOUS
10
-167.854565
20
338.945920
30
0.0
11
-167.718545
21
339.701310
31
0.0
0
LINE
8
0
6
CONTINUOUS
10
-167.854565
20
338.945920
30
0.0
11
-166.783315
21
338.504410
31
0.0
0
LINE
8
0
6
CONTINUOUS
10
-167.718545
20
339.701310
30
0.0
11
-167.854565
21
338.945920
31
0.0
0
LINE
8
0
6
CONTINUOUS
10
-166.511325
20
340.015260
30
0.0
11
-167.718545
21
339.701310
31
0.0
0
LINE
8
0
6
CONTINUOUS
10
-165.440085
20
339.573820
30
0.0
11
-166.511325
21
340.015260
31
0.0
0
LINE
8
0
6
CONTINUOUS
10
-165.576095
20
338.818440
30
0.0
11
-165.440085
21
339.573820
31
0.0
0
LINE
8
0
6
CONTINUOUS
10
-166.783315
20
338.504410
30
0.0
11
-165.576095
21
338.818440
31
0.0
0
LINE
8
0
6
CONTINUOUS
10
-167.257375
20
343.417510
30
0.0
11
-166.050155
21
343.731460
31
0.0
0
LINE
8
0
6
CONTINUOUS
10
-164.978925
20
343.290020
30
0.0
11
-164.995084
21
344.670630
31
0.0
0
LINE
8
0
6
CONTINUOUS
10
-166.050155
20
343.731460
30
0.0
11
-164.978925
21
343.290020
31
0.0
0
LINE
8
0
6
CONTINUOUS
10
-166.063361
20
344.859748
30
0.0
11
-166.050155
21
343.731460
31
0.0
0
LINE
8
0
6
CONTINUOUS
10
-167.393385
20
342.662050
30
0.0
11
-167.257375
21
343.417510
31
0.0
0
LINE
8
0
6
CONTINUOUS
10
-167.393385
20
342.662050
30
0.0
11
-166.322155
21
342.220610
31
0.0
0
LINE
8
0
6
CONTINUOUS
10
-167.257375
20
343.417510
30
0.0
11
-167.393385
21
342.662050
31
0.0
0
LINE
8
0
6
CONTINUOUS
10
-166.050155
20
343.731460
30
0.0
11
-167.257375
21
343.417510
31
0.0
0
LINE
8
0
6
CONTINUOUS
10
-164.978925
20
343.290020
30
0.0
11
-166.050155
21
343.731460
31
0.0
0
LINE
8
0
6
CONTINUOUS
10
-165.114945
20
342.534640
30
0.0
11
-164.978925
21
343.290020
31
0.0
0
LINE
8
0
6
CONTINUOUS
10
-166.322155
20
342.220610
30
0.0
11
-165.114945
21
342.534640
31
0.0
0
LINE
8
0
6
CONTINUOUS
10
-168.228055
20
347.197190
30
0.0
11
-166.820815
21
347.563170
31
0.0
0
LINE
8
0
6
CONTINUOUS
10
-166.820815
20
347.563170
30
0.0
11
-165.572135
21
347.048650
31
0.0
0
LINE
8
0
6
CONTINUOUS
10
-168.386595
20
346.316610
30
0.0
11
-168.228055
21
347.197190
31
0.0
0
LINE
8
0
6
CONTINUOUS
10
-168.386595
20
346.316610
30
0.0
11
-167.137895
21
345.802080
31
0.0
0
LINE
8
0
6
CONTINUOUS
10
-168.228055
20
347.197190
30
0.0
11
-168.386595
21
346.316610
31
0.0
0
LINE
8
0
6
CONTINUOUS
10
-166.820815
20
347.563170
30
0.0
11
-168.228055
21
347.197190
31
0.0
0
LINE
8
0
6
CONTINUOUS
10
-165.572135
20
347.048650
30
0.0
11
-166.820815
21
347.563170
31
0.0
0
LINE
8
0
6
CONTINUOUS
10
-165.730675
20
346.168060
30
0.0
11
-165.572135
21
347.048650
31
0.0
0
LINE
8
0
6
CONTINUOUS
10
-167.137895
20
345.802080
30
0.0
11
-165.730675
21
346.168060
31
0.0
0
LINE
8
0
6
CONTINUOUS
10
-159.304125
20
341.047750
30
0.0
11
-158.096905
21
341.361700
31
0.0
0
LINE
8
0
6
CONTINUOUS
10
-157.025665
20
340.920260
30
0.0
11
-157.042067
21
342.321611
31
0.0
0
LINE
8
0
6
CONTINUOUS
10
-158.096905
20
341.361700
30
0.0
11
-157.025665
21
340.920260
31
0.0
0
LINE
8
0
6
CONTINUOUS
10
-158.105598
20
342.104277
30
0.0
11
-158.096905
21
341.361700
31
0.0
0
LINE
8
0
6
CONTINUOUS
10
-159.304125
20
341.047750
30
0.0
11
-159.313602
21
341.857420
31
0.0
0
LINE
8
0
6
CONTINUOUS
10
-159.440145
20
340.292360
30
0.0
11
-159.304125
21
341.047750
31
0.0
0
LINE
8
0
6
CONTINUOUS
10
-159.449958
20
341.130757
30
0.0
11
-159.440145
21
340.292360
31
0.0
0
LINE
8
0
6
CONTINUOUS
10
-159.440145
20
340.292360
30
0.0
11
-158.368915
21
339.850850
31
0.0
0
LINE
8
0
6
CONTINUOUS
10
-159.304125
20
341.047750
30
0.0
11
-159.440145
21
340.292360
31
0.0
0
LINE
8
0
6
CONTINUOUS
10
-158.096905
20
341.361700
30
0.0
11
-159.304125
21
341.047750
31
0.0
0
LINE
8
0
6
CONTINUOUS
10
-157.025665
20
340.920260
30
0.0
11
-158.066225
21
341.349057
31
0.0
0
LINE
8
0
6
CONTINUOUS
10
-157.161675
20
340.164870
30
0.0
11
-157.025665
21
340.920260
31
0.0
0
LINE
8
0
6
CONTINUOUS
10
-158.368915
20
339.850850
30
0.0
11
-157.161675
21
340.164870
31
0.0
0
LINE
8
0
6
CONTINUOUS
10
-159.177155
20
344.919050
30
0.0
11
-157.969935
21
345.233000
31
0.0
0
LINE
8
0
6
CONTINUOUS
10
-157.969935
20
345.233000
30
0.0
11
-156.898715
21
344.791570
31
0.0
0
LINE
8
0
6
CONTINUOUS
10
-157.979007
20
346.008129
30
0.0
11
-157.969935
21
345.233000
31
0.0
0
LINE
8
0
6
CONTINUOUS
10
-159.313165
20
344.163590
30
0.0
11
-159.177155
21
344.919050
31
0.0
0
LINE
8
0
6
CONTINUOUS
10
-159.313165
20
344.163590
30
0.0
11
-158.241945
21
343.722150
31
0.0
0
LINE
8
0
6
CONTINUOUS
10
-159.177155
20
344.919050
30
0.0
11
-159.313165
21
344.163590
31
0.0
0
LINE
8
0
6
CONTINUOUS
10
-157.969935
20
345.233000
30
0.0
11
-159.177155
21
344.919050
31
0.0
0
LINE
8
0
6
CONTINUOUS
10
-156.898715
20
344.791570
30
0.0
11
-157.969935
21
345.233000
31
0.0
0
LINE
8
0
6
CONTINUOUS
10
-157.034725
20
344.036100
30
0.0
11
-156.898715
21
344.791570
31
0.0
0
LINE
8
0
6
CONTINUOUS
10
-158.241945
20
343.722150
30
0.0
11
-157.034725
21
344.036100
31
0.0
0
LINE
8
0
6
CONTINUOUS
10
-160.322025
20
348.991930
30
0.0
11
-158.914795
21
349.357910
31
0.0
0
LINE
8
0
6
CONTINUOUS
10
-158.914795
20
349.357910
30
0.0
11
-157.666095
21
348.843310
31
0.0
0
LINE
8
0
6
CONTINUOUS
10
-160.480575
20
348.111340
30
0.0
11
-160.322025
21
348.991930
31
0.0
0
LINE
8
0
6
CONTINUOUS
10
-160.480575
20
348.111340
30
0.0
11
-159.231875
21
347.596740
31
0.0
0
LINE
8
0
6
CONTINUOUS
10
-160.322025
20
348.991930
30
0.0
11
-160.480575
21
348.111340
31
0.0
0
LINE
8
0
6
CONTINUOUS
10
-158.914795
20
349.357910
30
0.0
11
-160.322025
21
348.991930
31
0.0
0
LINE
8
0
6
CONTINUOUS
10
-157.666095
20
348.843310
30
0.0
11
-158.914795
21
349.357910
31
0.0
0
LINE
8
0
6
CONTINUOUS
10
-157.824655
20
347.962800
30
0.0
11
-157.666095
21
348.843310
31
0.0
0
LINE
8
0
6
CONTINUOUS
10
-159.231875
20
347.596740
30
0.0
11
-157.824655
21
347.962800
31
0.0
0
LINE
8
0
6
CONTINUOUS
10
-159.498275
20
354.266050
30
0.0
11
-158.045415
21
354.643940
31
0.0
0
LINE
8
0
6
CONTINUOUS
10
-158.045415
20
354.643940
30
0.0
11
-156.756195
21
354.112630
31
0.0
0
LINE
8
0
6
CONTINUOUS
10
-159.661965
20
353.356930
30
0.0
11
-159.498275
21
354.266050
31
0.0
0
LINE
8
0
6
CONTINUOUS
10
-159.661965
20
353.356930
30
0.0
11
-158.372765
21
352.825620
31
0.0
0
LINE
8
0
6
CONTINUOUS
10
-159.498275
20
354.266050
30
0.0
11
-159.661965
21
353.356930
31
0.0
0
LINE
8
0
6
CONTINUOUS
10
-158.045415
20
354.643940
30
0.0
11
-159.498275
21
354.266050
31
0.0
0
LINE
8
0
6
CONTINUOUS
10
-156.756195
20
354.112630
30
0.0
11
-158.045415
21
354.643940
31
0.0
0
LINE
8
0
6
CONTINUOUS
10
-156.919885
20
353.203510
30
0.0
11
-156.756195
21
354.112630
31
0.0
0
LINE
8
0
6
CONTINUOUS
10
-158.372765
20
352.825620
30
0.0
11
-156.919885
21
353.203510
31
0.0
0
LINE
8
0
6
CONTINUOUS
10
-156.371065
20
358.685460
30
0.0
11
-154.918195
21
359.063260
31
0.0
0
LINE
8
0
6
CONTINUOUS
10
-154.918195
20
359.063260
30
0.0
11
-153.628985
21
358.532030
31
0.0
0
LINE
8
0
6
CONTINUOUS
10
-156.534755
20
357.776260
30
0.0
11
-156.371065
21
358.685460
31
0.0
0
LINE
8
0
6
CONTINUOUS
10
-156.534755
20
357.776260
30
0.0
11
-155.245555
21
357.245030
31
0.0
0
LINE
8
0
6
CONTINUOUS
10
-156.371065
20
358.685460
30
0.0
11
-156.534755
21
357.776260
31
0.0
0
LINE
8
0
6
CONTINUOUS
10
-154.918195
20
359.063260
30
0.0
11
-156.371065
21
358.685460
31
0.0
0
LINE
8
0
6
CONTINUOUS
10
-153.628985
20
358.532030
30
0.0
11
-154.918195
21
359.063260
31
0.0
0
LINE
8
0
6
CONTINUOUS
10
-153.792675
20
357.622910
30
0.0
11
-153.628985
21
358.532030
31
0.0
0
LINE
8
0
6
CONTINUOUS
10
-155.245555
20
357.245030
30
0.0
11
-153.792675
21
357.622910
31
0.0
0
LINE
8
0
6
CONTINUOUS
10
-153.895635
20
352.249830
30
0.0
11
-152.488385
21
352.615820
31
0.0
0
LINE
8
0
6
CONTINUOUS
10
-152.488385
20
352.615820
30
0.0
11
-151.239685
21
352.101210
31
0.0
0
LINE
8
0
6
CONTINUOUS
10
-152.498458
20
353.402319
30
0.0
11
-152.488385
21
352.615820
31
0.0
0
LINE
8
0
6
CONTINUOUS
10
-154.054165
20
351.369250
30
0.0
11
-153.895635
21
352.249830
31
0.0
0
LINE
8
0
6
CONTINUOUS
10
-154.064229
20
352.155062
30
0.0
11
-154.054165
21
351.369250
31
0.0
0
LINE
8
0
6
CONTINUOUS
10
-154.054165
20
351.369250
30
0.0
11
-152.805465
21
350.854650
31
0.0
0
LINE
8
0
6
CONTINUOUS
10
-153.895635
20
352.249830
30
0.0
11
-154.054165
21
351.369250
31
0.0
0
LINE
8
0
6
CONTINUOUS
10
-152.488385
20
352.615820
30
0.0
11
-153.895635
21
352.249830
31
0.0
0
LINE
8
0
6
CONTINUOUS
10
-151.239685
20
352.101210
30
0.0
11
-152.488385
21
352.615820
31
0.0
0
LINE
8
0
6
CONTINUOUS
10
-151.398225
20
351.220630
30
0.0
11
-151.239685
21
352.101210
31
0.0
0
LINE
8
0
6
CONTINUOUS
10
-152.805465
20
350.854650
30
0.0
11
-151.398225
21
351.220630
31
0.0
0
LINE
8
0
6
CONTINUOUS
10
-150.233525
20
356.529080
30
0.0
11
-148.826275
21
356.894990
31
0.0
0
LINE
8
0
6
CONTINUOUS
10
-148.826275
20
356.894990
30
0.0
11
-147.577595
21
356.380460
31
0.0
0
LINE
8
0
6
CONTINUOUS
10
-148.836656
20
357.704911
30
0.0
11
-148.826275
21
356.894990
31
0.0
0
LINE
8
0
6
CONTINUOUS
10
-150.392055
20
355.648500
30
0.0
11
-150.233525
21
356.529080
31
0.0
0
LINE
8
0
6
CONTINUOUS
10
-150.401774
20
356.407100
30
0.0
11
-150.392055
21
355.648500
31
0.0
0
LINE
8
0
6
CONTINUOUS
10
-150.392055
20
355.648500
30
0.0
11
-149.143355
21
355.133900
31
0.0
0
LINE
8
0
6
CONTINUOUS
10
-150.233525
20
356.529080
30
0.0
11
-150.392055
21
355.648500
31
0.0
0
LINE
8
0
6
CONTINUOUS
10
-148.826275
20
356.894990
30
0.0
11
-150.233525
21
356.529080
31
0.0
0
LINE
8
0
6
CONTINUOUS
10
-147.577595
20
356.380460
30
0.0
11
-148.826275
21
356.894990
31
0.0
0
LINE
8
0
6
CONTINUOUS
10
-147.736135
20
355.499880
30
0.0
11
-147.577595
21
356.380460
31
0.0
0
LINE
8
0
6
CONTINUOUS
10
-149.143355
20
355.133900
30
0.0
11
-147.736135
21
355.499880
31
0.0
0
LINE
8
0
6
CONTINUOUS
10
-152.088035
20
347.772750
30
0.0
11
-150.880795
21
348.086700
31
0.0
0
LINE
8
0
6
CONTINUOUS
10
-150.880795
20
348.086700
30
0.0
11
-149.809575
21
347.645260
31
0.0
0
LINE
8
0
6
CONTINUOUS
10
-150.890015
20
348.874279
30
0.0
11
-150.880795
21
348.086700
31
0.0
0
LINE
8
0
6
CONTINUOUS
10
-152.224025
20
347.017290
30
0.0
11
-152.088035
21
347.772750
31
0.0
0
LINE
8
0
6
CONTINUOUS
10
-152.233466
20
347.823399
30
0.0
11
-152.224025
21
347.017290
31
0.0
0
LINE
8
0
6
CONTINUOUS
10
-152.224025
20
347.017290
30
0.0
11
-151.152805
21
346.575850
31
0.0
0
LINE
8
0
6
CONTINUOUS
10
-152.088035
20
347.772750
30
0.0
11
-152.224025
21
347.017290
31
0.0
0
LINE
8
0
6
CONTINUOUS
10
-150.880795
20
348.086700
30
0.0
11
-152.088035
21
347.772750
31
0.0
0
LINE
8
0
6
CONTINUOUS
10
-149.809575
20
347.645260
30
0.0
11
-150.880795
21
348.086700
31
0.0
0
LINE
8
0
6
CONTINUOUS
10
-149.945585
20
346.889800
30
0.0
11
-149.809575
21
347.645260
31
0.0
0
LINE
8
0
6
CONTINUOUS
10
-151.152805
20
346.575850
30
0.0
11
-149.945585
21
346.889800
31
0.0
0
LINE
8
0
6
CONTINUOUS
10
-146.568935
20
351.542210
30
0.0
11
-145.361695
21
351.856160
31
0.0
0
LINE
8
0
6
CONTINUOUS
10
-145.361695
20
351.856160
30
0.0
11
-144.290475
21
351.414720
31
0.0
0
LINE
8
0
6
CONTINUOUS
10
-145.371068
20
352.656656
30
0.0
11
-145.361695
21
351.856160
31
0.0
0
LINE
8
0
6
CONTINUOUS
10
-146.704945
20
350.786820
30
0.0
11
-146.568935
21
351.542210
31
0.0
0
LINE
8
0
6
CONTINUOUS
10
-146.714224
20
351.579571
30
0.0
11
-146.704945
21
350.786820
31
0.0
0
LINE
8
0
6
CONTINUOUS
10
-146.704945
20
350.786820
30
0.0
11
-145.633725
21
350.345310
31
0.0
0
LINE
8
0
6
CONTINUOUS
10
-146.568935
20
351.542210
30
0.0
11
-146.704945
21
350.786820
31
0.0
0
LINE
8
0
6
CONTINUOUS
10
-145.361695
20
351.856160
30
0.0
11
-146.568935
21
351.542210
31
0.0
0
LINE
8
0
6
CONTINUOUS
10
-144.290475
20
351.414720
30
0.0
11
-145.361695
21
351.856160
31
0.0
0
LINE
8
0
6
CONTINUOUS
10
-144.426485
20
350.659330
30
0.0
11
-144.290475
21
351.414720
31
0.0
0
LINE
8
0
6
CONTINUOUS
10
-145.633725
20
350.345310
30
0.0
11
-144.426485
21
350.659330
31
0.0
0
LINE
8
0
6
CONTINUOUS
10
-143.130535
20
356.035610
30
0.0
11
-141.923315
21
356.349560
31
0.0
0
LINE
8
0
6
CONTINUOUS
10
-141.923315
20
356.349560
30
0.0
11
-140.852095
21
355.908130
31
0.0
0
LINE
8
0
6
CONTINUOUS
10
-141.932866
20
357.164917
30
0.0
11
-141.923315
21
356.349560
31
0.0
0
LINE
8
0
6
CONTINUOUS
10
-143.266545
20
355.280230
30
0.0
11
-143.130535
21
356.035610
31
0.0
0
LINE
8
0
6
CONTINUOUS
10
-143.275691
20
356.061485
30
0.0
11
-143.266545
21
355.280230
31
0.0
0
LINE
8
0
6
CONTINUOUS
10
-143.266545
20
355.280230
30
0.0
11
-142.195325
21
354.838790
31
0.0
0
LINE
8
0
6
CONTINUOUS
10
-143.130535
20
356.035610
30
0.0
11
-143.266545
21
355.280230
31
0.0
0
LINE
8
0
6
CONTINUOUS
10
-141.923315
20
356.349560
30
0.0
11
-143.130535
21
356.035610
31
0.0
0
LINE
8
0
6
CONTINUOUS
10
-140.852095
20
355.908130
30
0.0
11
-141.923315
21
356.349560
31
0.0
0
LINE
8
0
6
CONTINUOUS
10
-140.988105
20
355.152740
30
0.0
11
-140.852095
21
355.908130
31
0.0
0
LINE
8
0
6
CONTINUOUS
10
-142.195325
20
354.838790
30
0.0
11
-140.988105
21
355.152740
31
0.0
0
LINE
8
0
6
CONTINUOUS
10
-134.428205
20
354.877470
30
0.0
11
-134.342785
21
354.120410
31
0.0
0
LINE
8
0
6
CONTINUOUS
10
-136.714045
20
354.784850
30
0.0
11
-135.613825
21
355.209730
31
0.0
0
LINE
8
0
6
CONTINUOUS
10
-136.722095
20
355.536530
30
0.0
11
-136.714045
21
354.784850
31
0.0
0
LINE
8
0
6
CONTINUOUS
10
-135.613825
20
355.209730
30
0.0
11
-134.428205
21
354.877470
31
0.0
0
LINE
8
0
6
CONTINUOUS
10
-135.622339
20
356.004321
30
0.0
11
-135.613825
21
355.209730
31
0.0
0
LINE
8
0
6
CONTINUOUS
10
-136.628615
20
354.027710
30
0.0
11
-135.442985
21
353.695530
31
0.0
0
LINE
8
0
6
CONTINUOUS
10
-136.714045
20
354.784850
30
0.0
11
-136.628615
21
354.027710
31
0.0
0
LINE
8
0
6
CONTINUOUS
10
-135.613825
20
355.209730
30
0.0
11
-136.714045
21
354.784850
31
0.0
0
LINE
8
0
6
CONTINUOUS
10
-134.428205
20
354.877470
30
0.0
11
-135.613825
21
355.209730
31
0.0
0
LINE
8
0
6
CONTINUOUS
10
-134.342785
20
354.120410
30
0.0
11
-134.428205
21
354.877470
31
0.0
0
LINE
8
0
6
CONTINUOUS
10
-135.442985
20
353.695530
30
0.0
11
-134.342785
21
354.120410
31
0.0
0
LINE
8
0
6
CONTINUOUS
10
-137.883115
20
350.349200
30
0.0
11
-137.797705
21
349.592060
31
0.0
0
LINE
8
0
6
CONTINUOUS
10
-140.168935
20
350.256500
30
0.0
11
-139.068745
21
350.681380
31
0.0
0
LINE
8
0
6
CONTINUOUS
10
-140.177004
20
351.009539
30
0.0
11
-140.168935
21
350.256500
31
0.0
0
LINE
8
0
6
CONTINUOUS
10
-139.068745
20
350.681380
30
0.0
11
-137.883115
21
350.349200
31
0.0
0
LINE
8
0
6
CONTINUOUS
10
-139.077110
20
351.462113
30
0.0
11
-139.068745
21
350.681380
31
0.0
0
LINE
8
0
6
CONTINUOUS
10
-140.083525
20
349.499440
30
0.0
11
-138.897895
21
349.167180
31
0.0
0
LINE
8
0
6
CONTINUOUS
10
-140.168935
20
350.256500
30
0.0
11
-140.083525
21
349.499440
31
0.0
0
LINE
8
0
6
CONTINUOUS
10
-139.068745
20
350.681380
30
0.0
11
-140.168935
21
350.256500
31
0.0
0
LINE
8
0
6
CONTINUOUS
10
-137.883115
20
350.349200
30
0.0
11
-139.068745
21
350.681380
31
0.0
0
LINE
8
0
6
CONTINUOUS
10
-137.797705
20
349.592060
30
0.0
11
-137.883115
21
350.349200
31
0.0
0
LINE
8
0
6
CONTINUOUS
10
-138.897895
20
349.167180
30
0.0
11
-137.797705
21
349.592060
31
0.0
0
LINE
8
0
6
CONTINUOUS
10
-142.884085
20
345.609890
30
0.0
11
-142.894183
21
346.552332
31
0.0
0
LINE
8
0
6
CONTINUOUS
10
-142.969495
20
346.366960
30
0.0
11
-142.884085
21
345.609890
31
0.0
0
LINE
8
0
6
CONTINUOUS
10
-145.255345
20
346.274340
30
0.0
11
-144.155125
21
346.699220
31
0.0
0
LINE
8
0
6
CONTINUOUS
10
-145.263432
20
347.029473
30
0.0
11
-145.255345
21
346.274340
31
0.0
0
LINE
8
0
6
CONTINUOUS
10
-142.969495
20
346.366960
30
0.0
11
-142.971181
21
346.524291
31
0.0
0
LINE
8
0
6
CONTINUOUS
10
-144.155125
20
346.699220
30
0.0
11
-142.969495
21
346.366960
31
0.0
0
LINE
8
0
6
CONTINUOUS
10
-144.163358
20
347.467622
30
0.0
11
-144.155125
21
346.699220
31
0.0
0
LINE
8
0
6
CONTINUOUS
10
-145.169925
20
345.517200
30
0.0
11
-143.984305
21
345.185010
31
0.0
0
LINE
8
0
6
CONTINUOUS
10
-145.255345
20
346.274340
30
0.0
11
-145.169925
21
345.517200
31
0.0
0
LINE
8
0
6
CONTINUOUS
10
-144.155125
20
346.699220
30
0.0
11
-145.255345
21
346.274340
31
0.0
0
LINE
8
0
6
CONTINUOUS
10
-142.969495
20
346.366960
30
0.0
11
-144.155125
21
346.699220
31
0.0
0
LINE
8
0
6
CONTINUOUS
10
-142.884085
20
345.609890
30
0.0
11
-142.969495
21
346.366960
31
0.0
0
LINE
8
0
6
CONTINUOUS
10
-143.984305
20
345.185010
30
0.0
11
-142.884085
21
345.609890
31
0.0
0
LINE
8
0
6
CONTINUOUS
10
-149.365235
20
342.492220
30
0.0
11
-149.380207
21
343.889520
31
0.0
0
LINE
8
0
6
CONTINUOUS
10
-149.450645
20
343.249280
30
0.0
11
-149.365235
21
342.492220
31
0.0
0
LINE
8
0
6
CONTINUOUS
10
-151.736475
20
343.156660
30
0.0
11
-150.636275
21
343.581540
31
0.0
0
LINE
8
0
6
CONTINUOUS
10
-151.744659
20
343.920461
30
0.0
11
-151.736475
21
343.156660
31
0.0
0
LINE
8
0
6
CONTINUOUS
10
-149.450645
20
343.249280
30
0.0
11
-149.460415
21
344.161068
31
0.0
0
LINE
8
0
6
CONTINUOUS
10
-150.636275
20
343.581540
30
0.0
11
-149.450645
21
343.249280
31
0.0
0
LINE
8
0
6
CONTINUOUS
10
-150.644439
20
344.343499
30
0.0
11
-150.636275
21
343.581540
31
0.0
0
LINE
8
0
6
CONTINUOUS
10
-151.651065
20
342.399520
30
0.0
11
-150.465455
21
342.067340
31
0.0
0
LINE
8
0
6
CONTINUOUS
10
-151.736475
20
343.156660
30
0.0
11
-151.651065
21
342.399520
31
0.0
0
LINE
8
0
6
CONTINUOUS
10
-150.636275
20
343.581540
30
0.0
11
-151.736475
21
343.156660
31
0.0
0
LINE
8
0
6
CONTINUOUS
10
-149.450645
20
343.249280
30
0.0
11
-150.636275
21
343.581540
31
0.0
0
LINE
8
0
6
CONTINUOUS
10
-149.365235
20
342.492220
30
0.0
11
-149.450645
21
343.249280
31
0.0
0
LINE
8
0
6
CONTINUOUS
10
-150.465455
20
342.067340
30
0.0
11
-149.365235
21
342.492220
31
0.0
0
LINE
8
0
6
CONTINUOUS
10
-181.265835
20
357.355730
30
0.0
11
-181.266445
21
358.269120
31
0.0
0
LINE
8
0
6
CONTINUOUS
10
-181.266445
20
358.269120
30
0.0
11
-179.888405
21
358.730770
31
0.0
0
LINE
8
0
6
CONTINUOUS
10
-179.888405
20
358.730770
30
0.0
11
-178.509715
21
358.279110
31
0.0
0
LINE
8
0
6
CONTINUOUS
10
-181.266445
20
358.269120
30
0.0
11
-181.265835
21
357.355730
31
0.0
0
LINE
8
0
6
CONTINUOUS
10
-179.888405
20
358.730770
30
0.0
11
-181.266445
21
358.269120
31
0.0
0
LINE
8
0
6
CONTINUOUS
10
-178.509715
20
358.279110
30
0.0
11
-179.888405
21
358.730770
31
0.0
0
LINE
8
0
6
CONTINUOUS
10
-178.509065
20
357.365720
30
0.0
11
-178.509715
21
358.279110
31
0.0
0
LINE
8
0
6
CONTINUOUS
10
-179.887125
20
356.903990
30
0.0
11
-178.509065
21
357.365720
31
0.0
0
LINE
8
0
6
CONTINUOUS
10
-181.265835
20
357.355730
30
0.0
11
-179.887125
21
356.903990
31
0.0
0
LINE
8
0
6
CONTINUOUS
10
-163.473785
20
363.073880
30
0.0
11
-162.532505
21
362.340550
31
0.0
0
LINE
8
0
6
CONTINUOUS
10
-165.055905
20
362.968900
30
0.0
11
-163.473785
21
363.073880
31
0.0
0
LINE
8
0
6
CONTINUOUS
10
-165.696755
20
362.130660
30
0.0
11
-165.055905
21
362.968900
31
0.0
0
LINE
8
0
6
CONTINUOUS
10
-162.532505
20
362.340550
30
0.0
11
-163.473785
21
363.073880
31
0.0
0
LINE
8
0
6
CONTINUOUS
10
-163.173355
20
361.502310
30
0.0
11
-162.532505
21
362.340550
31
0.0
0
LINE
8
0
6
CONTINUOUS
10
-164.755485
20
361.397320
30
0.0
11
-163.173355
21
361.502310
31
0.0
0
LINE
8
0
6
CONTINUOUS
10
-165.696755
20
362.130660
30
0.0
11
-164.755485
21
361.397320
31
0.0
0
LINE
8
0
6
CONTINUOUS
10
-165.055905
20
362.968900
30
0.0
11
-165.696755
21
362.130660
31
0.0
0
LINE
8
0
6
CONTINUOUS
10
-163.473785
20
363.073880
30
0.0
11
-165.055905
21
362.968900
31
0.0
0
LINE
8
0
6
CONTINUOUS
10
-179.705735
20
361.954960
30
0.0
11
-179.384385
21
362.850720
31
0.0
0
LINE
8
0
6
CONTINUOUS
10
-179.384385
20
362.850720
30
0.0
11
-177.873765
21
363.143460
31
0.0
0
LINE
8
0
6
CONTINUOUS
10
-177.873765
20
363.143460
30
0.0
11
-176.684515
21
362.540440
31
0.0
0
LINE
8
0
6
CONTINUOUS
10
-177.873765
20
363.143460
30
0.0
11
-179.384385
21
362.850720
31
0.0
0
LINE
8
0
6
CONTINUOUS
10
-176.684515
20
362.540440
30
0.0
11
-177.873765
21
363.143460
31
0.0
0
LINE
8
0
6
CONTINUOUS
10
-177.005865
20
361.644750
30
0.0
11
-176.684515
21
362.540440
31
0.0
0
LINE
8
0
6
CONTINUOUS
10
-178.516465
20
361.352010
30
0.0
11
-177.005865
21
361.644750
31
0.0
0
LINE
8
0
6
CONTINUOUS
10
-179.705735
20
361.954960
30
0.0
11
-178.516465
21
361.352010
31
0.0
0
LINE
8
0
6
CONTINUOUS
10
-179.384385
20
362.850720
30
0.0
11
-179.705735
21
361.954960
31
0.0
0
LINE
8
0
6
CONTINUOUS
10
-161.341695
20
358.597030
30
0.0
11
-160.691855
21
357.765430
31
0.0
0
LINE
8
0
6
CONTINUOUS
10
-162.924845
20
358.685610
30
0.0
11
-161.341695
21
358.597030
31
0.0
0
LINE
8
0
6
CONTINUOUS
10
-163.858135
20
357.942510
30
0.0
11
-162.924845
21
358.685610
31
0.0
0
LINE
8
0
6
CONTINUOUS
10
-161.625165
20
357.022400
30
0.0
11
-160.691855
21
357.765430
31
0.0
0
LINE
8
0
6
CONTINUOUS
10
-163.208295
20
357.110900
30
0.0
11
-161.625165
21
357.022400
31
0.0
0
LINE
8
0
6
CONTINUOUS
10
-163.858135
20
357.942510
30
0.0
11
-163.208295
21
357.110900
31
0.0
0
LINE
8
0
6
CONTINUOUS
10
-162.924845
20
358.685610
30
0.0
11
-163.858135
21
357.942510
31
0.0
0
LINE
8
0
6
CONTINUOUS
10
-161.341695
20
358.597030
30
0.0
11
-162.924845
21
358.685610
31
0.0
0
LINE
8
0
6
CONTINUOUS
10
-160.691855
20
357.765430
30
0.0
11
-161.341695
21
358.597030
31
0.0
0
LINE
8
0
6
CONTINUOUS
10
-173.800435
20
354.993290
30
0.0
11
-173.466325
21
354.101330
31
0.0
0
LINE
8
0
6
CONTINUOUS
10
-175.315095
20
355.268560
30
0.0
11
-173.800435
21
354.993290
31
0.0
0
LINE
8
0
6
CONTINUOUS
10
-176.495685
20
354.651870
30
0.0
11
-175.315095
21
355.268560
31
0.0
0
LINE
8
0
6
CONTINUOUS
10
-176.161595
20
353.760000
30
0.0
11
-174.646915
21
353.484730
31
0.0
0
LINE
8
0
6
CONTINUOUS
10
-176.495685
20
354.651870
30
0.0
11
-176.161595
21
353.760000
31
0.0
0
LINE
8
0
6
CONTINUOUS
10
-175.315095
20
355.268560
30
0.0
11
-176.495685
21
354.651870
31
0.0
0
LINE
8
0
6
CONTINUOUS
10
-173.800435
20
354.993290
30
0.0
11
-175.315095
21
355.268560
31
0.0
0
LINE
8
0
6
CONTINUOUS
10
-173.466325
20
354.101330
30
0.0
11
-173.800435
21
354.993290
31
0.0
0
LINE
8
0
6
CONTINUOUS
10
-174.646915
20
353.484730
30
0.0
11
-173.466325
21
354.101330
31
0.0
0
LINE
8
0
6
CONTINUOUS
10
-166.271325
20
355.057300
30
0.0
11
-165.621475
21
354.225690
31
0.0
0
LINE
8
0
6
CONTINUOUS
10
-167.854485
20
355.145870
30
0.0
11
-166.271325
21
355.057300
31
0.0
0
LINE
8
0
6
CONTINUOUS
10
-168.787765
20
354.402850
30
0.0
11
-167.854485
21
355.145870
31
0.0
0
LINE
8
0
6
CONTINUOUS
10
-166.554795
20
353.482670
30
0.0
11
-165.621475
21
354.225690
31
0.0
0
LINE
8
0
6
CONTINUOUS
10
-168.137915
20
353.571170
30
0.0
11
-166.554795
21
353.482670
31
0.0
0
LINE
8
0
6
CONTINUOUS
10
-168.787765
20
354.402850
30
0.0
11
-168.137915
21
353.571170
31
0.0
0
LINE
8
0
6
CONTINUOUS
10
-167.854485
20
355.145870
30
0.0
11
-168.787765
21
354.402850
31
0.0
0
LINE
8
0
6
CONTINUOUS
10
-166.271325
20
355.057300
30
0.0
11
-167.854485
21
355.145870
31
0.0
0
LINE
8
0
6
CONTINUOUS
10
-165.621475
20
354.225690
30
0.0
11
-166.271325
21
355.057300
31
0.0
0
LINE
8
0
6
CONTINUOUS
10
-170.141985
20
364.947590
30
0.0
11
-169.492135
21
364.115980
31
0.0
0
LINE
8
0
6
CONTINUOUS
10
-171.725145
20
365.036090
30
0.0
11
-170.141985
21
364.947590
31
0.0
0
LINE
8
0
6
CONTINUOUS
10
-172.658405
20
364.293060
30
0.0
11
-171.725145
21
365.036090
31
0.0
0
LINE
8
0
6
CONTINUOUS
10
-170.425435
20
363.372880
30
0.0
11
-169.492135
21
364.115980
31
0.0
0
LINE
8
0
6
CONTINUOUS
10
-172.008575
20
363.461460
30
0.0
11
-170.425435
21
363.372880
31
0.0
0
LINE
8
0
6
CONTINUOUS
10
-172.658405
20
364.293060
30
0.0
11
-172.008575
21
363.461460
31
0.0
0
LINE
8
0
6
CONTINUOUS
10
-171.725145
20
365.036090
30
0.0
11
-172.658405
21
364.293060
31
0.0
0
LINE
8
0
6
CONTINUOUS
10
-170.141985
20
364.947590
30
0.0
11
-171.725145
21
365.036090
31
0.0
0
LINE
8
0
6
CONTINUOUS
10
-169.492135
20
364.115980
30
0.0
11
-170.141985
21
364.947590
31
0.0
0
LINE
8
0
6
CONTINUOUS
10
-188.451505
20
359.777830
30
0.0
11
-188.452115
21
360.691220
31
0.0
0
LINE
8
0
6
CONTINUOUS
10
-188.452115
20
360.691220
30
0.0
11
-187.074075
21
361.152880
31
0.0
0
LINE
8
0
6
CONTINUOUS
10
-187.074075
20
361.152880
30
0.0
11
-185.695385
21
360.701220
31
0.0
0
LINE
8
0
6
CONTINUOUS
10
-188.452115
20
360.691220
30
0.0
11
-188.451505
21
359.777830
31
0.0
0
LINE
8
0
6
CONTINUOUS
10
-187.074075
20
361.152880
30
0.0
11
-188.452115
21
360.691220
31
0.0
0
LINE
8
0
6
CONTINUOUS
10
-185.695385
20
360.701220
30
0.0
11
-187.074075
21
361.152880
31
0.0
0
LINE
8
0
6
CONTINUOUS
10
-185.694735
20
359.787830
30
0.0
11
-185.695385
21
360.701220
31
0.0
0
LINE
8
0
6
CONTINUOUS
10
-187.072775
20
359.326100
30
0.0
11
-185.694735
21
359.787830
31
0.0
0
LINE
8
0
6
CONTINUOUS
10
-188.451505
20
359.777830
30
0.0
11
-187.072775
21
359.326100
31
0.0
0
LINE
8
0
6
CONTINUOUS
10
-195.343865
20
360.331730
30
0.0
11
-195.344475
21
361.216430
31
0.0
0
LINE
8
0
6
CONTINUOUS
10
-195.344475
20
361.216430
30
0.0
11
-194.009725
21
361.663670
31
0.0
0
LINE
8
0
6
CONTINUOUS
10
-194.009725
20
361.663670
30
0.0
11
-192.674335
21
361.226120
31
0.0
0
LINE
8
0
6
CONTINUOUS
10
-195.344475
20
361.216430
30
0.0
11
-195.343865
21
360.331730
31
0.0
0
LINE
8
0
6
CONTINUOUS
10
-194.009725
20
361.663670
30
0.0
11
-195.344475
21
361.216430
31
0.0
0
LINE
8
0
6
CONTINUOUS
10
-192.674335
20
361.226120
30
0.0
11
-194.009725
21
361.663670
31
0.0
0
LINE
8
0
6
CONTINUOUS
10
-192.673725
20
360.341420
30
0.0
11
-192.674335
21
361.226120
31
0.0
0
LINE
8
0
6
CONTINUOUS
10
-194.008485
20
359.894260
30
0.0
11
-192.673725
21
360.341420
31
0.0
0
LINE
8
0
6
CONTINUOUS
10
-195.343865
20
360.331730
30
0.0
11
-194.008485
21
359.894260
31
0.0
0
LINE
8
0
6
CONTINUOUS
10
-202.256795
20
359.189070
30
0.0
11
-202.257335
21
359.948040
31
0.0
0
LINE
8
0
6
CONTINUOUS
10
-202.257335
20
359.948040
30
0.0
11
-201.112275
21
360.331650
31
0.0
0
LINE
8
0
6
CONTINUOUS
10
-201.112275
20
360.331650
30
0.0
11
-199.966705
21
359.956360
31
0.0
0
LINE
8
0
6
CONTINUOUS
10
-202.257335
20
359.948040
30
0.0
11
-202.256795
21
359.189070
31
0.0
0
LINE
8
0
6
CONTINUOUS
10
-201.112275
20
360.331650
30
0.0
11
-202.257335
21
359.948040
31
0.0
0
LINE
8
0
6
CONTINUOUS
10
-199.966705
20
359.956360
30
0.0
11
-201.112275
21
360.331650
31
0.0
0
LINE
8
0
6
CONTINUOUS
10
-199.966145
20
359.197390
30
0.0
11
-199.966705
21
359.956360
31
0.0
0
LINE
8
0
6
CONTINUOUS
10
-201.111205
20
358.813710
30
0.0
11
-199.966145
21
359.197390
31
0.0
0
LINE
8
0
6
CONTINUOUS
10
-202.256795
20
359.189070
30
0.0
11
-201.111205
21
358.813710
31
0.0
0
LINE
8
0
6
CONTINUOUS
10
-209.275265
20
358.587110
30
0.0
11
-209.275785
21
359.346090
31
0.0
0
LINE
8
0
6
CONTINUOUS
10
-209.275785
20
359.346090
30
0.0
11
-209.275265
21
358.587110
31
0.0
0
LINE
8
0
6
CONTINUOUS
10
-209.275265
20
358.587110
30
0.0
11
-208.129675
21
358.211820
31
0.0
0
LINE
8
0
6
CONTINUOUS
10
-209.101205
20
358.641280
30
0.0
11
-209.101715
21
359.400250
31
0.0
0
LINE
8
0
6
CONTINUOUS
10
-209.101715
20
359.400250
30
0.0
11
-207.956685
21
359.783940
31
0.0
0
LINE
8
0
6
CONTINUOUS
10
-207.956685
20
359.783940
30
0.0
11
-206.811065
21
359.408570
31
0.0
0
LINE
8
0
6
CONTINUOUS
10
-209.101715
20
359.400250
30
0.0
11
-209.101205
21
358.641280
31
0.0
0
LINE
8
0
6
CONTINUOUS
10
-207.956685
20
359.783940
30
0.0
11
-209.101715
21
359.400250
31
0.0
0
LINE
8
0
6
CONTINUOUS
10
-206.811065
20
359.408570
30
0.0
11
-207.956685
21
359.783940
31
0.0
0
LINE
8
0
6
CONTINUOUS
10
-206.810535
20
358.649600
30
0.0
11
-206.811065
21
359.408570
31
0.0
0
LINE
8
0
6
CONTINUOUS
10
-207.955615
20
358.265990
30
0.0
11
-206.810535
21
358.649600
31
0.0
0
LINE
8
0
6
CONTINUOUS
10
-209.101205
20
358.641280
30
0.0
11
-207.955615
21
358.265990
31
0.0
0
LINE
8
0
6
CONTINUOUS
10
-202.256795
20
359.189070
30
0.0
11
-202.257335
21
359.948040
31
0.0
0
LINE
8
0
6
CONTINUOUS
10
-202.257335
20
359.948040
30
0.0
11
-201.112275
21
360.331650
31
0.0
0
LINE
8
0
6
CONTINUOUS
10
-201.112275
20
360.331650
30
0.0
11
-199.966705
21
359.956360
31
0.0
0
LINE
8
0
6
CONTINUOUS
10
-202.257335
20
359.948040
30
0.0
11
-202.256795
21
359.189070
31
0.0
0
LINE
8
0
6
CONTINUOUS
10
-201.112275
20
360.331650
30
0.0
11
-202.257335
21
359.948040
31
0.0
0
LINE
8
0
6
CONTINUOUS
10
-199.966705
20
359.956360
30
0.0
11
-201.112275
21
360.331650
31
0.0
0
LINE
8
0
6
CONTINUOUS
10
-199.966145
20
359.197390
30
0.0
11
-199.966705
21
359.956360
31
0.0
0
LINE
8
0
6
CONTINUOUS
10
-201.111205
20
358.813710
30
0.0
11
-199.966145
21
359.197390
31
0.0
0
LINE
8
0
6
CONTINUOUS
10
-202.256795
20
359.189070
30
0.0
11
-201.111205
21
358.813710
31
0.0
0
LINE
8
0
6
CONTINUOUS
10
-195.343865
20
360.331730
30
0.0
11
-195.344475
21
361.216430
31
0.0
0
LINE
8
0
6
CONTINUOUS
10
-195.344475
20
361.216430
30
0.0
11
-194.009725
21
361.663670
31
0.0
0
LINE
8
0
6
CONTINUOUS
10
-194.009725
20
361.663670
30
0.0
11
-192.674335
21
361.226120
31
0.0
0
LINE
8
0
6
CONTINUOUS
10
-195.344475
20
361.216430
30
0.0
11
-195.343865
21
360.331730
31
0.0
0
LINE
8
0
6
CONTINUOUS
10
-194.009725
20
361.663670
30
0.0
11
-195.344475
21
361.216430
31
0.0
0
LINE
8
0
6
CONTINUOUS
10
-192.674335
20
361.226120
30
0.0
11
-194.009725
21
361.663670
31
0.0
0
LINE
8
0
6
CONTINUOUS
10
-192.673725
20
360.341420
30
0.0
11
-192.674335
21
361.226120
31
0.0
0
LINE
8
0
6
CONTINUOUS
10
-194.008485
20
359.894260
30
0.0
11
-192.673725
21
360.341420
31
0.0
0
LINE
8
0
6
CONTINUOUS
10
-195.343865
20
360.331730
30
0.0
11
-194.008485
21
359.894260
31
0.0
0
LINE
8
0
6
CONTINUOUS
10
-188.451505
20
359.777830
30
0.0
11
-188.452115
21
360.691220
31
0.0
0
LINE
8
0
6
CONTINUOUS
10
-188.452115
20
360.691220
30
0.0
11
-187.074075
21
361.152880
31
0.0
0
LINE
8
0
6
CONTINUOUS
10
-187.074075
20
361.152880
30
0.0
11
-185.695385
21
360.701220
31
0.0
0
LINE
8
0
6
CONTINUOUS
10
-188.452115
20
360.691220
30
0.0
11
-188.451505
21
359.777830
31
0.0
0
LINE
8
0
6
CONTINUOUS
10
-187.074075
20
361.152880
30
0.0
11
-188.452115
21
360.691220
31
0.0
0
LINE
8
0
6
CONTINUOUS
10
-185.695385
20
360.701220
30
0.0
11
-187.074075
21
361.152880
31
0.0
0
LINE
8
0
6
CONTINUOUS
10
-185.694735
20
359.787830
30
0.0
11
-185.695385
21
360.701220
31
0.0
0
LINE
8
0
6
CONTINUOUS
10
-187.072775
20
359.326100
30
0.0
11
-185.694735
21
359.787830
31
0.0
0
LINE
8
0
6
CONTINUOUS
10
-188.451505
20
359.777830
30
0.0
11
-187.072775
21
359.326100
31
0.0
0
LINE
8
0
6
CONTINUOUS
10
-185.270775
20
364.263460
30
0.0
11
-185.271405
21
365.176930
31
0.0
0
LINE
8
0
6
CONTINUOUS
10
-185.271405
20
365.176930
30
0.0
11
-183.893365
21
365.638580
31
0.0
0
LINE
8
0
6
CONTINUOUS
10
-183.893365
20
365.638580
30
0.0
11
-182.514655
21
365.186920
31
0.0
0
LINE
8
0
6
CONTINUOUS
10
-185.271405
20
365.176930
30
0.0
11
-185.270775
21
364.263460
31
0.0
0
LINE
8
0
6
CONTINUOUS
10
-183.893365
20
365.638580
30
0.0
11
-185.271405
21
365.176930
31
0.0
0
LINE
8
0
6
CONTINUOUS
10
-182.514655
20
365.186920
30
0.0
11
-183.893365
21
365.638580
31
0.0
0
LINE
8
0
6
CONTINUOUS
10
-182.514005
20
364.273530
30
0.0
11
-182.514655
21
365.186920
31
0.0
0
LINE
8
0
6
CONTINUOUS
10
-183.892085
20
363.811800
30
0.0
11
-182.514005
21
364.273530
31
0.0
0
LINE
8
0
6
CONTINUOUS
10
-185.270775
20
364.263460
30
0.0
11
-183.892085
21
363.811800
31
0.0
0
LINE
8
0
6
CONTINUOUS
10
-192.940985
20
365.043560
30
0.0
11
-192.941595
21
365.928350
31
0.0
0
LINE
8
0
6
CONTINUOUS
10
-192.941595
20
365.928350
30
0.0
11
-191.606835
21
366.375500
31
0.0
0
LINE
8
0
6
CONTINUOUS
10
-191.606835
20
366.375500
30
0.0
11
-190.271455
21
365.938040
31
0.0
0
LINE
8
0
6
CONTINUOUS
10
-192.941595
20
365.928350
30
0.0
11
-192.940985
21
365.043560
31
0.0
0
LINE
8
0
6
CONTINUOUS
10
-191.606835
20
366.375500
30
0.0
11
-192.941595
21
365.928350
31
0.0
0
LINE
8
0
6
CONTINUOUS
10
-190.271455
20
365.938040
30
0.0
11
-191.606835
21
366.375500
31
0.0
0
LINE
8
0
6
CONTINUOUS
10
-190.270825
20
365.053330
30
0.0
11
-190.271455
21
365.938040
31
0.0
0
LINE
8
0
6
CONTINUOUS
10
-191.605615
20
364.606100
30
0.0
11
-190.270825
21
365.053330
31
0.0
0
LINE
8
0
6
CONTINUOUS
10
-192.940985
20
365.043560
30
0.0
11
-191.605615
21
364.606100
31
0.0
0
LINE
8
0
6
CONTINUOUS
10
-187.895895
20
368.931200
30
0.0
11
-187.896505
21
369.815900
31
0.0
0
LINE
8
0
6
CONTINUOUS
10
-187.896505
20
369.815900
30
0.0
11
-186.561745
21
370.263060
31
0.0
0
LINE
8
0
6
CONTINUOUS
10
-186.561745
20
370.263060
30
0.0
11
-185.226365
21
369.825590
31
0.0
0
LINE
8
0
6
CONTINUOUS
10
-187.896505
20
369.815900
30
0.0
11
-187.895895
21
368.931200
31
0.0
0
LINE
8
0
6
CONTINUOUS
10
-186.561745
20
370.263060
30
0.0
11
-187.896505
21
369.815900
31
0.0
0
LINE
8
0
6
CONTINUOUS
10
-185.226365
20
369.825590
30
0.0
11
-186.561745
21
370.263060
31
0.0
0
LINE
8
0
6
CONTINUOUS
10
-185.225735
20
368.940890
30
0.0
11
-185.226365
21
369.825590
31
0.0
0
LINE
8
0
6
CONTINUOUS
10
-186.560525
20
368.493650
30
0.0
11
-185.225735
21
368.940890
31
0.0
0
LINE
8
0
6
CONTINUOUS
10
-187.895895
20
368.931200
30
0.0
11
-186.560525
21
368.493650
31
0.0
0
LINE
8
0
6
CONTINUOUS
10
-201.098335
20
364.049450
30
0.0
11
-201.098845
21
364.808430
31
0.0
0
LINE
8
0
6
CONTINUOUS
10
-201.098845
20
364.808430
30
0.0
11
-199.953805
21
365.192110
31
0.0
0
LINE
8
0
6
CONTINUOUS
10
-199.953805
20
365.192110
30
0.0
11
-198.808215
21
364.816740
31
0.0
0
LINE
8
0
6
CONTINUOUS
10
-201.098845
20
364.808430
30
0.0
11
-201.098335
21
364.049450
31
0.0
0
LINE
8
0
6
CONTINUOUS
10
-199.953805
20
365.192110
30
0.0
11
-201.098845
21
364.808430
31
0.0
0
LINE
8
0
6
CONTINUOUS
10
-198.808215
20
364.816740
30
0.0
11
-199.953805
21
365.192110
31
0.0
0
LINE
8
0
6
CONTINUOUS
10
-198.807685
20
364.057770
30
0.0
11
-198.808215
21
364.816740
31
0.0
0
LINE
8
0
6
CONTINUOUS
10
-199.952735
20
363.674160
30
0.0
11
-198.807685
21
364.057770
31
0.0
0
LINE
8
0
6
CONTINUOUS
10
-201.098335
20
364.049450
30
0.0
11
-199.952735
21
363.674160
31
0.0
0
LINE
8
0
6
CONTINUOUS
10
-197.793625
20
368.597180
30
0.0
11
-197.794135
21
369.356160
31
0.0
0
LINE
8
0
6
CONTINUOUS
10
-197.794135
20
369.356160
30
0.0
11
-196.649075
21
369.739760
31
0.0
0
LINE
8
0
6
CONTINUOUS
10
-196.649075
20
369.739760
30
0.0
11
-195.503485
21
369.364550
31
0.0
0
LINE
8
0
6
CONTINUOUS
10
-197.794135
20
369.356160
30
0.0
11
-197.793625
21
368.597180
31
0.0
0
LINE
8
0
6
CONTINUOUS
10
-196.649075
20
369.739760
30
0.0
11
-197.794135
21
369.356160
31
0.0
0
LINE
8
0
6
CONTINUOUS
10
-195.503485
20
369.364550
30
0.0
11
-196.649075
21
369.739760
31
0.0
0
LINE
8
0
6
CONTINUOUS
10
-195.502975
20
368.605580
30
0.0
11
-195.503485
21
369.364550
31
0.0
0
LINE
8
0
6
CONTINUOUS
10
-196.648025
20
368.221820
30
0.0
11
-195.502975
21
368.605580
31
0.0
0
LINE
8
0
6
CONTINUOUS
10
-197.793625
20
368.597180
30
0.0
11
-196.648025
21
368.221820
31
0.0
0
LINE
8
0
6
CONTINUOUS
10
-192.226375
20
372.372210
30
0.0
11
-192.226895
21
373.131180
31
0.0
0
LINE
8
0
6
CONTINUOUS
10
-192.226895
20
373.131180
30
0.0
11
-191.081835
21
373.514790
31
0.0
0
LINE
8
0
6
CONTINUOUS
10
-191.081835
20
373.514790
30
0.0
11
-189.936265
21
373.139420
31
0.0
0
LINE
8
0
6
CONTINUOUS
10
-192.226895
20
373.131180
30
0.0
11
-192.226375
21
372.372210
31
0.0
0
LINE
8
0
6
CONTINUOUS
10
-191.081835
20
373.514790
30
0.0
11
-192.226895
21
373.131180
31
0.0
0
LINE
8
0
6
CONTINUOUS
10
-189.936265
20
373.139420
30
0.0
11
-191.081835
21
373.514790
31
0.0
0
LINE
8
0
6
CONTINUOUS
10
-189.935705
20
372.380520
30
0.0
11
-189.936265
21
373.139420
31
0.0
0
LINE
8
0
6
CONTINUOUS
10
-191.080785
20
371.996840
30
0.0
11
-189.935705
21
372.380520
31
0.0
0
LINE
8
0
6
CONTINUOUS
10
-192.226375
20
372.372210
30
0.0
11
-191.080785
21
371.996840
31
0.0
0
LINE
8
0
6
CONTINUOUS
10
-196.062935
20
376.318970
30
0.0
11
-195.842765
21
377.068100
31
0.0
0
LINE
8
0
6
CONTINUOUS
10
-195.842765
20
377.068100
30
0.0
11
-194.603355
21
377.337040
31
0.0
0
LINE
8
0
6
CONTINUOUS
10
-194.603355
20
377.337040
30
0.0
11
-193.584105
21
376.856920
31
0.0
0
LINE
8
0
6
CONTINUOUS
10
-195.842765
20
377.068100
30
0.0
11
-196.062935
21
376.318970
31
0.0
0
LINE
8
0
6
CONTINUOUS
10
-194.603355
20
377.337040
30
0.0
11
-195.842765
21
377.068100
31
0.0
0
LINE
8
0
6
CONTINUOUS
10
-193.584105
20
376.856920
30
0.0
11
-194.603355
21
377.337040
31
0.0
0
LINE
8
0
6
CONTINUOUS
10
-193.804245
20
376.107790
30
0.0
11
-193.584105
21
376.856920
31
0.0
0
LINE
8
0
6
CONTINUOUS
10
-195.043685
20
375.838780
30
0.0
11
-193.804245
21
376.107790
31
0.0
0
LINE
8
0
6
CONTINUOUS
10
-196.062935
20
376.318970
30
0.0
11
-195.043685
21
375.838780
31
0.0
0
LINE
8
0
6
CONTINUOUS
10
-201.949845
20
372.688830
30
0.0
11
-201.729665
21
373.437960
31
0.0
0
LINE
8
0
6
CONTINUOUS
10
-201.729665
20
373.437960
30
0.0
11
-200.490265
21
373.706890
31
0.0
0
LINE
8
0
6
CONTINUOUS
10
-200.490265
20
373.706890
30
0.0
11
-199.471005
21
373.226700
31
0.0
0
LINE
8
0
6
CONTINUOUS
10
-201.729665
20
373.437960
30
0.0
11
-201.949845
21
372.688830
31
0.0
0
LINE
8
0
6
CONTINUOUS
10
-200.490265
20
373.706890
30
0.0
11
-201.729665
21
373.437960
31
0.0
0
LINE
8
0
6
CONTINUOUS
10
-199.471005
20
373.226700
30
0.0
11
-200.490265
21
373.706890
31
0.0
0
LINE
8
0
6
CONTINUOUS
10
-199.691165
20
372.477650
30
0.0
11
-199.471005
21
373.226700
31
0.0
0
LINE
8
0
6
CONTINUOUS
10
-200.930585
20
372.208630
30
0.0
11
-199.691165
21
372.477650
31
0.0
0
LINE
8
0
6
CONTINUOUS
10
-201.949845
20
372.688830
30
0.0
11
-200.930585
21
372.208630
31
0.0
0
LINE
8
0
6
CONTINUOUS
10
-206.292725
20
368.364410
30
0.0
11
-206.072545
21
369.113540
31
0.0
0
LINE
8
0
6
CONTINUOUS
10
-206.072545
20
369.113540
30
0.0
11
-204.833145
21
369.382480
31
0.0
0
LINE
8
0
6
CONTINUOUS
10
-204.833145
20
369.382480
30
0.0
11
-203.813905
21
368.902360
31
0.0
0
LINE
8
0
6
CONTINUOUS
10
-206.072545
20
369.113540
30
0.0
11
-206.292725
21
368.364410
31
0.0
0
LINE
8
0
6
CONTINUOUS
10
-204.833145
20
369.382480
30
0.0
11
-206.072545
21
369.113540
31
0.0
0
LINE
8
0
6
CONTINUOUS
10
-203.813905
20
368.902360
30
0.0
11
-204.833145
21
369.382480
31
0.0
0
LINE
8
0
6
CONTINUOUS
10
-204.034045
20
368.153230
30
0.0
11
-203.813905
21
368.902360
31
0.0
0
LINE
8
0
6
CONTINUOUS
10
-205.273475
20
367.884220
30
0.0
11
-204.034045
21
368.153230
31
0.0
0
LINE
8
0
6
CONTINUOUS
10
-206.292725
20
368.364410
30
0.0
11
-205.273475
21
367.884220
31
0.0
0
LINE
8
0
6
CONTINUOUS
10
-208.848275
20
363.685150
30
0.0
11
-208.628085
21
364.434280
31
0.0
0
LINE
8
0
6
CONTINUOUS
10
-208.628085
20
364.434280
30
0.0
11
-207.388675
21
364.703220
31
0.0
0
LINE
8
0
6
CONTINUOUS
10
-207.388675
20
364.703220
30
0.0
11
-206.369425
21
364.223100
31
0.0
0
LINE
8
0
6
CONTINUOUS
10
-208.628085
20
364.434280
30
0.0
11
-208.848275
21
363.685150
31
0.0
0
LINE
8
0
6
CONTINUOUS
10
-207.388675
20
364.703220
30
0.0
11
-208.628085
21
364.434280
31
0.0
0
LINE
8
0
6
CONTINUOUS
10
-206.369425
20
364.223100
30
0.0
11
-207.388675
21
364.703220
31
0.0
0
LINE
8
0
6
CONTINUOUS
10
-206.589565
20
363.473970
30
0.0
11
-206.369425
21
364.223100
31
0.0
0
LINE
8
0
6
CONTINUOUS
10
-207.829005
20
363.205030
30
0.0
11
-206.589565
21
363.473970
31
0.0
0
LINE
8
0
6
CONTINUOUS
10
-208.848275
20
363.685150
30
0.0
11
-207.829005
21
363.205030
31
0.0
0
LINE
8
0
6
CONTINUOUS
10
-173.102535
20
351.009220
30
0.0
11
-171.643435
21
350.649420
31
0.0
0
LINE
8
0
6
CONTINUOUS
10
-174.382615
20
350.462040
30
0.0
11
-173.102535
21
351.009220
31
0.0
0
LINE
8
0
6
CONTINUOUS
10
-171.643435
20
350.649420
30
0.0
11
-171.464395
21
349.742430
31
0.0
0
LINE
8
0
6
CONTINUOUS
10
-174.203575
20
349.555050
30
0.0
11
-172.744465
21
349.195250
31
0.0
0
LINE
8
0
6
CONTINUOUS
10
-174.382615
20
350.462040
30
0.0
11
-174.203575
21
349.555050
31
0.0
0
LINE
8
0
6
CONTINUOUS
10
-173.102535
20
351.009220
30
0.0
11
-174.382615
21
350.462040
31
0.0
0
LINE
8
0
6
CONTINUOUS
10
-171.643435
20
350.649420
30
0.0
11
-173.102535
21
351.009220
31
0.0
0
LINE
8
0
6
CONTINUOUS
10
-171.464395
20
349.742430
30
0.0
11
-171.643435
21
350.649420
31
0.0
0
LINE
8
0
6
CONTINUOUS
10
-172.744465
20
349.195250
30
0.0
11
-171.464395
21
349.742430
31
0.0
0
LINE
8
0
6
CONTINUOUS
10
-175.523185
20
339.960860
30
0.0
11
-174.310785
21
339.661870
31
0.0
0
LINE
8
0
6
CONTINUOUS
10
-175.523185
20
339.960860
30
0.0
11
-175.521206
21
341.235877
31
0.0
0
LINE
8
0
6
CONTINUOUS
10
-176.586845
20
339.506230
30
0.0
11
-175.523185
21
339.960860
31
0.0
0
LINE
8
0
6
CONTINUOUS
10
-174.310785
20
339.661870
30
0.0
11
-174.162015
21
338.908230
31
0.0
0
LINE
8
0
6
CONTINUOUS
10
-174.308457
20
341.161726
30
0.0
11
-174.310785
21
339.661870
31
0.0
0
LINE
8
0
6
CONTINUOUS
10
-176.438065
20
338.752590
30
0.0
11
-175.225645
21
338.453520
31
0.0
0
LINE
8
0
6
CONTINUOUS
10
-176.586845
20
339.506230
30
0.0
11
-176.438065
21
338.752590
31
0.0
0
LINE
8
0
6
CONTINUOUS
10
-175.523185
20
339.960860
30
0.0
11
-176.586845
21
339.506230
31
0.0
0
LINE
8
0
6
CONTINUOUS
10
-174.310785
20
339.661870
30
0.0
11
-175.523185
21
339.960860
31
0.0
0
LINE
8
0
6
CONTINUOUS
10
-174.162015
20
338.908230
30
0.0
11
-174.310785
21
339.661870
31
0.0
0
LINE
8
0
6
CONTINUOUS
10
-175.225645
20
338.453520
30
0.0
11
-174.162015
21
338.908230
31
0.0
0
LINE
8
0
6
CONTINUOUS
10
-174.713385
20
343.674620
30
0.0
11
-173.500985
21
343.375700
31
0.0
0
LINE
8
0
6
CONTINUOUS
10
-174.713385
20
343.674620
30
0.0
11
-174.711217
21
345.071175
31
0.0
0
LINE
8
0
6
CONTINUOUS
10
-175.777035
20
343.219990
30
0.0
11
-174.713385
21
343.674620
31
0.0
0
LINE
8
0
6
CONTINUOUS
10
-173.500985
20
343.375700
30
0.0
11
-173.352205
21
342.621990
31
0.0
0
LINE
8
0
6
CONTINUOUS
10
-175.628265
20
342.466280
30
0.0
11
-174.415855
21
342.167360
31
0.0
0
LINE
8
0
6
CONTINUOUS
10
-175.777035
20
343.219990
30
0.0
11
-175.628265
21
342.466280
31
0.0
0
LINE
8
0
6
CONTINUOUS
10
-174.713385
20
343.674620
30
0.0
11
-175.777035
21
343.219990
31
0.0
0
LINE
8
0
6
CONTINUOUS
10
-173.500985
20
343.375700
30
0.0
11
-174.713385
21
343.674620
31
0.0
0
LINE
8
0
6
CONTINUOUS
10
-173.352205
20
342.621990
30
0.0
11
-173.500985
21
343.375700
31
0.0
0
LINE
8
0
6
CONTINUOUS
10
-174.415855
20
342.167360
30
0.0
11
-173.352205
21
342.621990
31
0.0
0
LINE
8
0
6
CONTINUOUS
10
-175.346775
20
347.512590
30
0.0
11
-173.933515
21
347.164080
31
0.0
0
LINE
8
0
6
CONTINUOUS
10
-176.586635
20
346.982580
30
0.0
11
-175.346775
21
347.512590
31
0.0
0
LINE
8
0
6
CONTINUOUS
10
-176.584495
20
347.790152
30
0.0
11
-176.586635
21
346.982580
31
0.0
0
LINE
8
0
6
CONTINUOUS
10
-173.933515
20
347.164080
30
0.0
11
-173.760075
21
346.285550
31
0.0
0
LINE
8
0
6
CONTINUOUS
10
-176.413215
20
346.104050
30
0.0
11
-174.999945
21
345.755540
31
0.0
0
LINE
8
0
6
CONTINUOUS
10
-176.586635
20
346.982580
30
0.0
11
-176.413215
21
346.104050
31
0.0
0
LINE
8
0
6
CONTINUOUS
10
-175.346775
20
347.512590
30
0.0
11
-176.586635
21
346.982580
31
0.0
0
LINE
8
0
6
CONTINUOUS
10
-173.933515
20
347.164080
30
0.0
11
-175.346775
21
347.512590
31
0.0
0
LINE
8
0
6
CONTINUOUS
10
-173.760075
20
346.285550
30
0.0
11
-173.933515
21
347.164080
31
0.0
0
LINE
8
0
6
CONTINUOUS
10
-174.999945
20
345.755540
30
0.0
11
-173.760075
21
346.285550
31
0.0
0
LINE
8
0
6
CONTINUOUS
10
-183.959675
20
341.207050
30
0.0
11
-182.747275
21
340.908050
31
0.0
0
LINE
8
0
6
CONTINUOUS
10
-183.959675
20
341.207050
30
0.0
11
-183.958463
21
341.987640
31
0.0
0
LINE
8
0
6
CONTINUOUS
10
-185.023335
20
340.752410
30
0.0
11
-183.959675
21
341.207050
31
0.0
0
LINE
8
0
6
CONTINUOUS
10
-185.021088
20
342.197274
30
0.0
11
-185.023335
21
340.752410
31
0.0
0
LINE
8
0
6
CONTINUOUS
10
-182.598485
20
340.154420
30
0.0
11
-182.596060
21
341.718866
31
0.0
0
LINE
8
0
6
CONTINUOUS
10
-182.747275
20
340.908050
30
0.0
11
-182.598485
21
340.154420
31
0.0
0
LINE
8
0
6
CONTINUOUS
10
-182.745970
20
341.748440
30
0.0
11
-182.747275
21
340.908050
31
0.0
0
LINE
8
0
6
CONTINUOUS
10
-184.874555
20
339.998780
30
0.0
11
-183.662135
21
339.699780
31
0.0
0
LINE
8
0
6
CONTINUOUS
10
-185.023335
20
340.752410
30
0.0
11
-184.874555
21
339.998780
31
0.0
0
LINE
8
0
6
CONTINUOUS
10
-183.959675
20
341.207050
30
0.0
11
-185.023335
21
340.752410
31
0.0
0
LINE
8
0
6
CONTINUOUS
10
-182.747275
20
340.908050
30
0.0
11
-183.959675
21
341.207050
31
0.0
0
LINE
8
0
6
CONTINUOUS
10
-182.598485
20
340.154420
30
0.0
11
-182.747275
21
340.908050
31
0.0
0
LINE
8
0
6
CONTINUOUS
10
-183.662135
20
339.699780
30
0.0
11
-182.598485
21
340.154420
31
0.0
0
LINE
8
0
6
CONTINUOUS
10
-183.149935
20
344.935910
30
0.0
11
-181.937545
21
344.636990
31
0.0
0
LINE
8
0
6
CONTINUOUS
10
-184.213585
20
344.481280
30
0.0
11
-183.149935
21
344.935910
31
0.0
0
LINE
8
0
6
CONTINUOUS
10
-181.788755
20
343.883290
30
0.0
11
-181.788273
21
344.194739
31
0.0
0
LINE
8
0
6
CONTINUOUS
10
-181.937545
20
344.636990
30
0.0
11
-181.788755
21
343.883290
31
0.0
0
LINE
8
0
6
CONTINUOUS
10
-184.064815
20
343.727650
30
0.0
11
-182.852405
21
343.428650
31
0.0
0
LINE
8
0
6
CONTINUOUS
10
-184.213585
20
344.481280
30
0.0
11
-184.064815
21
343.727650
31
0.0
0
LINE
8
0
6
CONTINUOUS
10
-183.149935
20
344.935910
30
0.0
11
-184.180064
21
344.495608
31
0.0
0
LINE
8
0
6
CONTINUOUS
10
-181.937545
20
344.636990
30
0.0
11
-183.149935
21
344.935910
31
0.0
0
LINE
8
0
6
CONTINUOUS
10
-181.788755
20
343.883290
30
0.0
11
-181.937545
21
344.636990
31
0.0
0
LINE
8
0
6
CONTINUOUS
10
-182.852405
20
343.428650
30
0.0
11
-181.788755
21
343.883290
31
0.0
0
LINE
8
0
6
CONTINUOUS
10
-183.282365
20
349.215240
30
0.0
11
-181.869095
21
348.866730
31
0.0
0
LINE
8
0
6
CONTINUOUS
10
-184.522235
20
348.685230
30
0.0
11
-183.282365
21
349.215240
31
0.0
0
LINE
8
0
6
CONTINUOUS
10
-181.869095
20
348.866730
30
0.0
11
-181.695655
21
347.988210
31
0.0
0
LINE
8
0
6
CONTINUOUS
10
-184.348815
20
347.806780
30
0.0
11
-182.935525
21
347.458190
31
0.0
0
LINE
8
0
6
CONTINUOUS
10
-184.522235
20
348.685230
30
0.0
11
-184.348815
21
347.806780
31
0.0
0
LINE
8
0
6
CONTINUOUS
10
-183.282365
20
349.215240
30
0.0
11
-184.522235
21
348.685230
31
0.0
0
LINE
8
0
6
CONTINUOUS
10
-181.869095
20
348.866730
30
0.0
11
-183.282365
21
349.215240
31
0.0
0
LINE
8
0
6
CONTINUOUS
10
-181.695655
20
347.988210
30
0.0
11
-181.869095
21
348.866730
31
0.0
0
LINE
8
0
6
CONTINUOUS
10
-182.935525
20
347.458190
30
0.0
11
-181.695655
21
347.988210
31
0.0
0
LINE
8
0
6
CONTINUOUS
10
-180.871055
20
352.708590
30
0.0
11
-179.411945
21
352.348790
31
0.0
0
LINE
8
0
6
CONTINUOUS
10
-182.151135
20
352.161410
30
0.0
11
-180.871055
21
352.708590
31
0.0
0
LINE
8
0
6
CONTINUOUS
10
-179.411945
20
352.348790
30
0.0
11
-179.232885
21
351.441730
31
0.0
0
LINE
8
0
6
CONTINUOUS
10
-181.972085
20
351.254430
30
0.0
11
-180.512985
21
350.894550
31
0.0
0
LINE
8
0
6
CONTINUOUS
10
-182.151135
20
352.161410
30
0.0
11
-181.972085
21
351.254430
31
0.0
0
LINE
8
0
6
CONTINUOUS
10
-180.871055
20
352.708590
30
0.0
11
-182.151135
21
352.161410
31
0.0
0
LINE
8
0
6
CONTINUOUS
10
-179.411945
20
352.348790
30
0.0
11
-180.871055
21
352.708590
31
0.0
0
LINE
8
0
6
CONTINUOUS
10
-179.232885
20
351.441730
30
0.0
11
-179.411945
21
352.348790
31
0.0
0
LINE
8
0
6
CONTINUOUS
10
-180.512985
20
350.894550
30
0.0
11
-179.232885
21
351.441730
31
0.0
0
LINE
8
0
6
CONTINUOUS
10
-185.916465
20
356.534730
30
0.0
11
-184.457365
21
356.174930
31
0.0
0
LINE
8
0
6
CONTINUOUS
10
-187.196545
20
355.987550
30
0.0
11
-185.916465
21
356.534730
31
0.0
0
LINE
8
0
6
CONTINUOUS
10
-184.457365
20
356.174930
30
0.0
11
-184.278325
21
355.267870
31
0.0
0
LINE
8
0
6
CONTINUOUS
10
-187.017505
20
355.080570
30
0.0
11
-185.558395
21
354.720690
31
0.0
0
LINE
8
0
6
CONTINUOUS
10
-187.196545
20
355.987550
30
0.0
11
-187.017505
21
355.080570
31
0.0
0
LINE
8
0
6
CONTINUOUS
10
-185.916465
20
356.534730
30
0.0
11
-187.196545
21
355.987550
31
0.0
0
LINE
8
0
6
CONTINUOUS
10
-184.457365
20
356.174930
30
0.0
11
-185.916465
21
356.534730
31
0.0
0
LINE
8
0
6
CONTINUOUS
10
-184.278325
20
355.267870
30
0.0
11
-184.457365
21
356.174930
31
0.0
0
LINE
8
0
6
CONTINUOUS
10
-185.558395
20
354.720690
30
0.0
11
-184.278325
21
355.267870
31
0.0
0
LINE
8
0
6
CONTINUOUS
10
-189.599215
20
352.570340
30
0.0
11
-188.185945
21
352.221830
31
0.0
0
LINE
8
0
6
CONTINUOUS
10
-190.839085
20
352.040330
30
0.0
11
-189.599215
21
352.570340
31
0.0
0
LINE
8
0
6
CONTINUOUS
10
-188.185945
20
352.221830
30
0.0
11
-188.012525
21
351.343310
31
0.0
0
LINE
8
0
6
CONTINUOUS
10
-190.665665
20
351.161810
30
0.0
11
-189.252385
21
350.813290
31
0.0
0
LINE
8
0
6
CONTINUOUS
10
-190.839085
20
352.040330
30
0.0
11
-190.665665
21
351.161810
31
0.0
0
LINE
8
0
6
CONTINUOUS
10
-189.599215
20
352.570340
30
0.0
11
-190.839085
21
352.040330
31
0.0
0
LINE
8
0
6
CONTINUOUS
10
-188.185945
20
352.221830
30
0.0
11
-189.599215
21
352.570340
31
0.0
0
LINE
8
0
6
CONTINUOUS
10
-188.012525
20
351.343310
30
0.0
11
-188.185945
21
352.221830
31
0.0
0
LINE
8
0
6
CONTINUOUS
10
-189.252385
20
350.813290
30
0.0
11
-188.012525
21
351.343310
31
0.0
0
LINE
8
0
6
CONTINUOUS
10
-193.500425
20
356.819230
30
0.0
11
-192.087155
21
356.470720
31
0.0
0
LINE
8
0
6
CONTINUOUS
10
-194.740285
20
356.289220
30
0.0
11
-193.500425
21
356.819230
31
0.0
0
LINE
8
0
6
CONTINUOUS
10
-192.087155
20
356.470720
30
0.0
11
-191.913725
21
355.592190
31
0.0
0
LINE
8
0
6
CONTINUOUS
10
-194.566865
20
355.410770
30
0.0
11
-193.153595
21
355.062180
31
0.0
0
LINE
8
0
6
CONTINUOUS
10
-194.740285
20
356.289220
30
0.0
11
-194.566865
21
355.410770
31
0.0
0
LINE
8
0
6
CONTINUOUS
10
-193.500425
20
356.819230
30
0.0
11
-194.740285
21
356.289220
31
0.0
0
LINE
8
0
6
CONTINUOUS
10
-192.087155
20
356.470720
30
0.0
11
-193.500425
21
356.819230
31
0.0
0
LINE
8
0
6
CONTINUOUS
10
-191.913725
20
355.592190
30
0.0
11
-192.087155
21
356.470720
31
0.0
0
LINE
8
0
6
CONTINUOUS
10
-193.153595
20
355.062180
30
0.0
11
-191.913725
21
355.592190
31
0.0
0
LINE
8
0
6
CONTINUOUS
10
-190.282615
20
347.457350
30
0.0
11
-189.070195
21
347.158360
31
0.0
0
LINE
8
0
6
CONTINUOUS
10
-191.346245
20
347.002720
30
0.0
11
-190.282615
21
347.457350
31
0.0
0
LINE
8
0
6
CONTINUOUS
10
-189.070195
20
347.158360
30
0.0
11
-188.921415
21
346.404730
31
0.0
0
LINE
8
0
6
CONTINUOUS
10
-191.197495
20
346.249010
30
0.0
11
-189.985065
21
345.950090
31
0.0
0
LINE
8
0
6
CONTINUOUS
10
-191.346245
20
347.002720
30
0.0
11
-191.197495
21
346.249010
31
0.0
0
LINE
8
0
6
CONTINUOUS
10
-190.282615
20
347.457350
30
0.0
11
-191.346245
21
347.002720
31
0.0
0
LINE
8
0
6
CONTINUOUS
10
-189.070195
20
347.158360
30
0.0
11
-190.282615
21
347.457350
31
0.0
0
LINE
8
0
6
CONTINUOUS
10
-188.921415
20
346.404730
30
0.0
11
-189.070195
21
347.158360
31
0.0
0
LINE
8
0
6
CONTINUOUS
10
-189.985065
20
345.950090
30
0.0
11
-188.921415
21
346.404730
31
0.0
0
LINE
8
0
6
CONTINUOUS
10
-196.026085
20
351.041570
30
0.0
11
-194.813675
21
350.742570
31
0.0
0
LINE
8
0
6
CONTINUOUS
10
-197.089715
20
350.586850
30
0.0
11
-196.026085
21
351.041570
31
0.0
0
LINE
8
0
6
CONTINUOUS
10
-194.813675
20
350.742570
30
0.0
11
-194.664905
21
349.988940
31
0.0
0
LINE
8
0
6
CONTINUOUS
10
-196.940965
20
349.833150
30
0.0
11
-195.728535
21
349.534300
31
0.0
0
LINE
8
0
6
CONTINUOUS
10
-197.089715
20
350.586850
30
0.0
11
-196.940965
21
349.833150
31
0.0
0
LINE
8
0
6
CONTINUOUS
10
-196.026085
20
351.041570
30
0.0
11
-197.089715
21
350.586850
31
0.0
0
LINE
8
0
6
CONTINUOUS
10
-194.813675
20
350.742570
30
0.0
11
-196.026085
21
351.041570
31
0.0
0
LINE
8
0
6
CONTINUOUS
10
-194.664905
20
349.988940
30
0.0
11
-194.813675
21
350.742570
31
0.0
0
LINE
8
0
6
CONTINUOUS
10
-195.728535
20
349.534300
30
0.0
11
-194.664905
21
349.988940
31
0.0
0
LINE
8
0
6
CONTINUOUS
10
-199.976755
20
355.516890
30
0.0
11
-198.764345
21
355.217900
31
0.0
0
LINE
8
0
6
CONTINUOUS
10
-201.040405
20
355.062180
30
0.0
11
-199.976755
21
355.516890
31
0.0
0
LINE
8
0
6
CONTINUOUS
10
-198.764345
20
355.217900
30
0.0
11
-198.615575
21
354.464260
31
0.0
0
LINE
8
0
6
CONTINUOUS
10
-200.891635
20
354.308550
30
0.0
11
-199.679225
21
354.009550
31
0.0
0
LINE
8
0
6
CONTINUOUS
10
-201.040405
20
355.062180
30
0.0
11
-200.891635
21
354.308550
31
0.0
0
LINE
8
0
6
CONTINUOUS
10
-199.976755
20
355.516890
30
0.0
11
-201.040405
21
355.062180
31
0.0
0
LINE
8
0
6
CONTINUOUS
10
-198.764345
20
355.217900
30
0.0
11
-199.976755
21
355.516890
31
0.0
0
LINE
8
0
6
CONTINUOUS
10
-198.615575
20
354.464260
30
0.0
11
-198.764345
21
355.217900
31
0.0
0
LINE
8
0
6
CONTINUOUS
10
-199.679225
20
354.009550
30
0.0
11
-198.615575
21
354.464260
31
0.0
0
LINE
8
0
6
CONTINUOUS
10
-207.730165
20
353.936010
30
0.0
11
-207.657555
21
354.694060
31
0.0
0
LINE
8
0
6
CONTINUOUS
10
-206.477665
20
355.040970
30
0.0
11
-205.370395
21
354.629750
31
0.0
0
LINE
8
0
6
CONTINUOUS
10
-207.657555
20
354.694060
30
0.0
11
-206.477665
21
355.040970
31
0.0
0
LINE
8
0
6
CONTINUOUS
10
-207.730165
20
353.936010
30
0.0
11
-206.622895
21
353.524780
31
0.0
0
LINE
8
0
6
CONTINUOUS
10
-207.657555
20
354.694060
30
0.0
11
-207.730165
21
353.936010
31
0.0
0
LINE
8
0
6
CONTINUOUS
10
-206.477665
20
355.040970
30
0.0
11
-207.657555
21
354.694060
31
0.0
0
LINE
8
0
6
CONTINUOUS
10
-205.370395
20
354.629750
30
0.0
11
-206.477665
21
355.040970
31
0.0
0
LINE
8
0
6
CONTINUOUS
10
-205.443005
20
353.871690
30
0.0
11
-205.370395
21
354.629750
31
0.0
0
LINE
8
0
6
CONTINUOUS
10
-206.622895
20
353.524780
30
0.0
11
-205.443005
21
353.871690
31
0.0
0
LINE
8
0
6
CONTINUOUS
10
-204.319135
20
349.407040
30
0.0
11
-204.246525
21
350.165100
31
0.0
0
LINE
8
0
6
CONTINUOUS
10
-203.066635
20
350.511930
30
0.0
11
-201.959365
21
350.100710
31
0.0
0
LINE
8
0
6
CONTINUOUS
10
-204.246525
20
350.165100
30
0.0
11
-203.066635
21
350.511930
31
0.0
0
LINE
8
0
6
CONTINUOUS
10
-204.319135
20
349.407040
30
0.0
11
-203.211865
21
348.995820
31
0.0
0
LINE
8
0
6
CONTINUOUS
10
-204.246525
20
350.165100
30
0.0
11
-204.319135
21
349.407040
31
0.0
0
LINE
8
0
6
CONTINUOUS
10
-203.066635
20
350.511930
30
0.0
11
-204.246525
21
350.165100
31
0.0
0
LINE
8
0
6
CONTINUOUS
10
-201.959365
20
350.100710
30
0.0
11
-203.066635
21
350.511930
31
0.0
0
LINE
8
0
6
CONTINUOUS
10
-202.031975
20
349.342650
30
0.0
11
-201.959365
21
350.100710
31
0.0
0
LINE
8
0
6
CONTINUOUS
10
-203.211865
20
348.995820
30
0.0
11
-202.031975
21
349.342650
31
0.0
0
LINE
8
0
6
CONTINUOUS
10
-199.164795
20
345.424420
30
0.0
11
-199.092205
21
346.182480
31
0.0
0
LINE
8
0
6
CONTINUOUS
10
-199.164300
20
346.305099
30
0.0
11
-199.164795
21
345.424420
31
0.0
0
LINE
8
0
6
CONTINUOUS
10
-197.912315
20
346.529390
30
0.0
11
-196.805045
21
346.118170
31
0.0
0
LINE
8
0
6
CONTINUOUS
10
-199.092205
20
346.182480
30
0.0
11
-197.912315
21
346.529390
31
0.0
0
LINE
8
0
6
CONTINUOUS
10
-199.092151
20
346.279339
30
0.0
11
-199.092205
21
346.182480
31
0.0
0
LINE
8
0
6
CONTINUOUS
10
-199.164795
20
345.424420
30
0.0
11
-198.057525
21
345.013200
31
0.0
0
LINE
8
0
6
CONTINUOUS
10
-199.092205
20
346.182480
30
0.0
11
-199.164795
21
345.424420
31
0.0
0
LINE
8
0
6
CONTINUOUS
10
-197.912315
20
346.529390
30
0.0
11
-199.092205
21
346.182480
31
0.0
0
LINE
8
0
6
CONTINUOUS
10
-196.805045
20
346.118170
30
0.0
11
-197.912315
21
346.529390
31
0.0
0
LINE
8
0
6
CONTINUOUS
10
-196.877635
20
345.360030
30
0.0
11
-196.805045
21
346.118170
31
0.0
0
LINE
8
0
6
CONTINUOUS
10
-198.057525
20
345.013200
30
0.0
11
-196.877635
21
345.360030
31
0.0
0
LINE
8
0
6
CONTINUOUS
10
-192.709605
20
342.240980
30
0.0
11
-192.636985
21
342.999120
31
0.0
0
LINE
8
0
6
CONTINUOUS
10
-192.708777
20
343.713897
30
0.0
11
-192.709605
21
342.240980
31
0.0
0
LINE
8
0
6
CONTINUOUS
10
-190.349835
20
342.934720
30
0.0
11
-190.349507
21
343.518224
31
0.0
0
LINE
8
0
6
CONTINUOUS
10
-191.457105
20
343.345950
30
0.0
11
-190.349835
21
342.934720
31
0.0
0
LINE
8
0
6
CONTINUOUS
10
-191.457105
20
343.345950
30
0.0
11
-191.456885
21
343.736688
31
0.0
0
LINE
8
0
6
CONTINUOUS
10
-192.636985
20
342.999120
30
0.0
11
-191.457105
21
343.345950
31
0.0
0
LINE
8
0
6
CONTINUOUS
10
-192.636593
20
343.699656
30
0.0
11
-192.636985
21
342.999120
31
0.0
0
LINE
8
0
6
CONTINUOUS
10
-192.709605
20
342.240980
30
0.0
11
-191.602315
21
341.829830
31
0.0
0
LINE
8
0
6
CONTINUOUS
10
-192.636985
20
342.999120
30
0.0
11
-192.709605
21
342.240980
31
0.0
0
LINE
8
0
6
CONTINUOUS
10
-191.457105
20
343.345950
30
0.0
11
-192.636985
21
342.999120
31
0.0
0
LINE
8
0
6
CONTINUOUS
10
-190.349835
20
342.934720
30
0.0
11
-191.457105
21
343.345950
31
0.0
0
LINE
8
0
6
CONTINUOUS
10
-190.422425
20
342.176670
30
0.0
11
-190.349835
21
342.934720
31
0.0
0
LINE
8
0
6
CONTINUOUS
10
-191.602315
20
341.829830
30
0.0
11
-190.422425
21
342.176670
31
0.0
0
LINE
8
0
6
CONTINUOUS
10
-178.374215
20
368.458480
30
0.0
11
-176.806335
21
368.620840
31
0.0
0
LINE
8
0
6
CONTINUOUS
10
-176.806335
20
368.620840
30
0.0
11
-175.785545
21
367.923510
31
0.0
0
LINE
8
0
6
CONTINUOUS
10
-178.921305
20
367.598880
30
0.0
11
-178.374215
21
368.458480
31
0.0
0
LINE
8
0
6
CONTINUOUS
10
-176.806335
20
368.620840
30
0.0
11
-178.374215
21
368.458480
31
0.0
0
LINE
8
0
6
CONTINUOUS
10
-175.785545
20
367.923510
30
0.0
11
-176.806335
21
368.620840
31
0.0
0
LINE
8
0
6
CONTINUOUS
10
-176.332635
20
367.063830
30
0.0
11
-175.785545
21
367.923510
31
0.0
0
LINE
8
0
6
CONTINUOUS
10
-177.900495
20
366.901550
30
0.0
11
-176.332635
21
367.063830
31
0.0
0
LINE
8
0
6
CONTINUOUS
10
-178.921305
20
367.598880
30
0.0
11
-177.900495
21
366.901550
31
0.0
0
LINE
8
0
6
CONTINUOUS
10
-178.374215
20
368.458480
30
0.0
11
-178.921305
21
367.598880
31
0.0
0
LINE
8
0
6
CONTINUOUS
10
-188.661355
20
379.988710
30
0.0
11
-187.358555
21
380.123600
31
0.0
0
LINE
8
0
6
CONTINUOUS
10
-187.358555
20
380.123600
30
0.0
11
-186.510355
21
379.544140
31
0.0
0
LINE
8
0
6
CONTINUOUS
10
-189.115925
20
379.274450
30
0.0
11
-188.661355
21
379.988710
31
0.0
0
LINE
8
0
6
CONTINUOUS
10
-187.358555
20
380.123600
30
0.0
11
-188.661355
21
379.988710
31
0.0
0
LINE
8
0
6
CONTINUOUS
10
-186.510355
20
379.544140
30
0.0
11
-187.358555
21
380.123600
31
0.0
0
LINE
8
0
6
CONTINUOUS
10
-186.964935
20
378.829880
30
0.0
11
-186.510355
21
379.544140
31
0.0
0
LINE
8
0
6
CONTINUOUS
10
-188.267715
20
378.694990
30
0.0
11
-186.964935
21
378.829880
31
0.0
0
LINE
8
0
6
CONTINUOUS
10
-189.115925
20
379.274450
30
0.0
11
-188.267715
21
378.694990
31
0.0
0
LINE
8
0
6
CONTINUOUS
10
-188.661355
20
379.988710
30
0.0
11
-189.115925
21
379.274450
31
0.0
0
LINE
8
0
6
CONTINUOUS
10
-184.962045
20
376.204070
30
0.0
11
-183.659255
21
376.338960
31
0.0
0
LINE
8
0
6
CONTINUOUS
10
-183.659255
20
376.338960
30
0.0
11
-182.811055
21
375.759510
31
0.0
0
LINE
8
0
6
CONTINUOUS
10
-185.416625
20
375.489810
30
0.0
11
-184.962045
21
376.204070
31
0.0
0
LINE
8
0
6
CONTINUOUS
10
-183.659255
20
376.338960
30
0.0
11
-184.962045
21
376.204070
31
0.0
0
LINE
8
0
6
CONTINUOUS
10
-182.811055
20
375.759510
30
0.0
11
-183.659255
21
376.338960
31
0.0
0
LINE
8
0
6
CONTINUOUS
10
-183.265635
20
375.045240
30
0.0
11
-182.811055
21
375.759510
31
0.0
0
LINE
8
0
6
CONTINUOUS
10
-184.568405
20
374.910360
30
0.0
11
-183.265635
21
375.045240
31
0.0
0
LINE
8
0
6
CONTINUOUS
10
-185.416625
20
375.489810
30
0.0
11
-184.568405
21
374.910360
31
0.0
0
LINE
8
0
6
CONTINUOUS
10
-184.962045
20
376.204070
30
0.0
11
-185.416625
21
375.489810
31
0.0
0
LINE
8
0
6
CONTINUOUS
10
-180.336615
20
372.599180
30
0.0
11
-178.817985
21
372.756350
31
0.0
0
LINE
8
0
6
CONTINUOUS
10
-178.817985
20
372.756350
30
0.0
11
-177.829255
21
372.080920
31
0.0
0
LINE
8
0
6
CONTINUOUS
10
-180.866495
20
371.766510
30
0.0
11
-180.336615
21
372.599180
31
0.0
0
LINE
8
0
6
CONTINUOUS
10
-178.817985
20
372.756350
30
0.0
11
-180.336615
21
372.599180
31
0.0
0
LINE
8
0
6
CONTINUOUS
10
-177.829255
20
372.080920
30
0.0
11
-178.817985
21
372.756350
31
0.0
0
LINE
8
0
6
CONTINUOUS
10
-178.359155
20
371.248320
30
0.0
11
-177.829255
21
372.080920
31
0.0
0
LINE
8
0
6
CONTINUOUS
10
-179.877745
20
371.091080
30
0.0
11
-178.359155
21
371.248320
31
0.0
0
LINE
8
0
6
CONTINUOUS
10
-180.866495
20
371.766510
30
0.0
11
-179.877745
21
371.091080
31
0.0
0
LINE
8
0
6
CONTINUOUS
10
-180.336615
20
372.599180
30
0.0
11
-180.866495
21
371.766510
31
0.0
0
LINE
8
0
6
CONTINUOUS
10
-180.379205
20
381.591570
30
0.0
11
-179.076405
21
381.726460
31
0.0
0
LINE
8
0
6
CONTINUOUS
10
-179.076405
20
381.726460
30
0.0
11
-178.228215
21
381.147000
31
0.0
0
LINE
8
0
6
CONTINUOUS
10
-180.833785
20
380.877230
30
0.0
11
-180.379205
21
381.591570
31
0.0
0
LINE
8
0
6
CONTINUOUS
10
-179.076405
20
381.726460
30
0.0
11
-180.379205
21
381.591570
31
0.0
0
LINE
8
0
6
CONTINUOUS
10
-178.228215
20
381.147000
30
0.0
11
-179.076405
21
381.726460
31
0.0
0
LINE
8
0
6
CONTINUOUS
10
-178.682775
20
380.432660
30
0.0
11
-178.228215
21
381.147000
31
0.0
0
LINE
8
0
6
CONTINUOUS
10
-179.985545
20
380.297780
30
0.0
11
-178.682775
21
380.432660
31
0.0
0
LINE
8
0
6
CONTINUOUS
10
-180.833785
20
380.877230
30
0.0
11
-179.985545
21
380.297780
31
0.0
0
LINE
8
0
6
CONTINUOUS
10
-180.379205
20
381.591570
30
0.0
11
-180.833785
21
380.877230
31
0.0
0
LINE
8
0
6
CONTINUOUS
10
-177.114895
20
377.566680
30
0.0
11
-175.812095
21
377.701490
31
0.0
0
LINE
8
0
6
CONTINUOUS
10
-175.812095
20
377.701490
30
0.0
11
-174.963875
21
377.122120
31
0.0
0
LINE
8
0
6
CONTINUOUS
10
-177.569465
20
376.852340
30
0.0
11
-177.114895
21
377.566680
31
0.0
0
LINE
8
0
6
CONTINUOUS
10
-175.812095
20
377.701490
30
0.0
11
-177.114895
21
377.566680
31
0.0
0
LINE
8
0
6
CONTINUOUS
10
-174.963875
20
377.122120
30
0.0
11
-175.812095
21
377.701490
31
0.0
0
LINE
8
0
6
CONTINUOUS
10
-175.418475
20
376.407850
30
0.0
11
-174.963875
21
377.122120
31
0.0
0
LINE
8
0
6
CONTINUOUS
10
-176.721235
20
376.272970
30
0.0
11
-175.418475
21
376.407850
31
0.0
0
LINE
8
0
6
CONTINUOUS
10
-177.569465
20
376.852340
30
0.0
11
-176.721235
21
376.272970
31
0.0
0
LINE
8
0
6
CONTINUOUS
10
-177.114895
20
377.566680
30
0.0
11
-177.569465
21
376.852340
31
0.0
0
LINE
8
0
6
CONTINUOUS
10
-172.058245
20
373.493200
30
0.0
11
-170.539615
21
373.650440
31
0.0
0
LINE
8
0
6
CONTINUOUS
10
-170.539615
20
373.650440
30
0.0
11
-169.550885
21
372.975010
31
0.0
0
LINE
8
0
6
CONTINUOUS
10
-172.588125
20
372.660520
30
0.0
11
-172.058245
21
373.493200
31
0.0
0
LINE
8
0
6
CONTINUOUS
10
-170.539615
20
373.650440
30
0.0
11
-172.058245
21
373.493200
31
0.0
0
LINE
8
0
6
CONTINUOUS
10
-169.550885
20
372.975010
30
0.0
11
-170.539615
21
373.650440
31
0.0
0
LINE
8
0
6
CONTINUOUS
10
-170.080785
20
372.142330
30
0.0
11
-169.550885
21
372.975010
31
0.0
0
LINE
8
0
6
CONTINUOUS
10
-171.599375
20
371.985170
30
0.0
11
-170.080785
21
372.142330
31
0.0
0
LINE
8
0
6
CONTINUOUS
10
-172.588125
20
372.660520
30
0.0
11
-171.599375
21
371.985170
31
0.0
0
LINE
8
0
6
CONTINUOUS
10
-172.058245
20
373.493200
30
0.0
11
-172.588125
21
372.660520
31
0.0
0
LINE
8
0
6
CONTINUOUS
10
-170.090145
20
368.969350
30
0.0
11
-168.522265
21
369.131620
31
0.0
0
LINE
8
0
6
CONTINUOUS
10
-168.522265
20
369.131620
30
0.0
11
-167.501455
21
368.434300
31
0.0
0
LINE
8
0
6
CONTINUOUS
10
-170.637215
20
368.109670
30
0.0
11
-170.090145
21
368.969350
31
0.0
0
LINE
8
0
6
CONTINUOUS
10
-168.522265
20
369.131620
30
0.0
11
-170.090145
21
368.969350
31
0.0
0
LINE
8
0
6
CONTINUOUS
10
-167.501455
20
368.434300
30
0.0
11
-168.522265
21
369.131620
31
0.0
0
LINE
8
0
6
CONTINUOUS
10
-168.048535
20
367.574690
30
0.0
11
-167.501455
21
368.434300
31
0.0
0
LINE
8
0
6
CONTINUOUS
10
-169.616395
20
367.412340
30
0.0
11
-168.048535
21
367.574690
31
0.0
0
LINE
8
0
6
CONTINUOUS
10
-170.637215
20
368.109670
30
0.0
11
-169.616395
21
367.412340
31
0.0
0
LINE
8
0
6
CONTINUOUS
10
-170.090145
20
368.969350
30
0.0
11
-170.637215
21
368.109670
31
0.0
0
LINE
8
0
6
CONTINUOUS
10
-162.283025
20
367.302090
30
0.0
11
-160.715145
21
367.464370
31
0.0
0
LINE
8
0
6
CONTINUOUS
10
-159.694355
20
366.767050
30
0.0
11
-159.707905
21
367.653100
31
0.0
0
LINE
8
0
6
CONTINUOUS
10
-160.715145
20
367.464370
30
0.0
11
-159.694355
21
366.767050
31
0.0
0
LINE
8
0
6
CONTINUOUS
10
-162.830105
20
366.442410
30
0.0
11
-162.283025
21
367.302090
31
0.0
0
LINE
8
0
6
CONTINUOUS
10
-160.715145
20
367.464370
30
0.0
11
-162.283025
21
367.302090
31
0.0
0
LINE
8
0
6
CONTINUOUS
10
-159.694355
20
366.767050
30
0.0
11
-160.715145
21
367.464370
31
0.0
0
LINE
8
0
6
CONTINUOUS
10
-160.241435
20
365.907440
30
0.0
11
-159.694355
21
366.767050
31
0.0
0
LINE
8
0
6
CONTINUOUS
10
-161.809295
20
365.745090
30
0.0
11
-160.241435
21
365.907440
31
0.0
0
LINE
8
0
6
CONTINUOUS
10
-162.830105
20
366.442410
30
0.0
11
-161.809295
21
365.745090
31
0.0
0
LINE
8
0
6
CONTINUOUS
10
-162.283025
20
367.302090
30
0.0
11
-162.830105
21
366.442410
31
0.0
0
LINE
8
0
6
CONTINUOUS
10
-163.775845
20
372.705160
30
0.0
11
-162.257215
21
372.862400
31
0.0
0
LINE
8
0
6
CONTINUOUS
10
-162.257215
20
372.862400
30
0.0
11
-161.268485
21
372.186970
31
0.0
0
LINE
8
0
6
CONTINUOUS
10
-164.305725
20
371.872560
30
0.0
11
-163.775845
21
372.705160
31
0.0
0
LINE
8
0
6
CONTINUOUS
10
-162.257215
20
372.862400
30
0.0
11
-163.775845
21
372.705160
31
0.0
0
LINE
8
0
6
CONTINUOUS
10
-161.268485
20
372.186970
30
0.0
11
-162.257215
21
372.862400
31
0.0
0
LINE
8
0
6
CONTINUOUS
10
-161.798365
20
371.354290
30
0.0
11
-161.268485
21
372.186970
31
0.0
0
LINE
8
0
6
CONTINUOUS
10
-163.316975
20
371.197130
30
0.0
11
-161.798365
21
371.354290
31
0.0
0
LINE
8
0
6
CONTINUOUS
10
-164.305725
20
371.872560
30
0.0
11
-163.316975
21
371.197130
31
0.0
0
LINE
8
0
6
CONTINUOUS
10
-163.775845
20
372.705160
30
0.0
11
-164.305725
21
371.872560
31
0.0
0
LINE
8
0
6
CONTINUOUS
10
-156.439975
20
370.140990
30
0.0
11
-154.921345
21
370.298230
31
0.0
0
LINE
8
0
6
CONTINUOUS
10
-153.932615
20
369.622800
30
0.0
11
-153.946308
21
370.537491
31
0.0
0
LINE
8
0
6
CONTINUOUS
10
-154.921345
20
370.298230
30
0.0
11
-153.932615
21
369.622800
31
0.0
0
LINE
8
0
6
CONTINUOUS
10
-154.935170
20
371.221718
30
0.0
11
-154.921345
21
370.298230
31
0.0
0
LINE
8
0
6
CONTINUOUS
10
-156.439975
20
370.140990
30
0.0
11
-156.452591
21
370.983588
31
0.0
0
LINE
8
0
6
CONTINUOUS
10
-156.969875
20
369.308400
30
0.0
11
-156.439975
21
370.140990
31
0.0
0
LINE
8
0
6
CONTINUOUS
10
-156.981145
20
370.061237
30
0.0
11
-156.969875
21
369.308400
31
0.0
0
LINE
8
0
6
CONTINUOUS
10
-154.921345
20
370.298230
30
0.0
11
-156.439975
21
370.140990
31
0.0
0
LINE
8
0
6
CONTINUOUS
10
-153.932615
20
369.622800
30
0.0
11
-154.921345
21
370.298230
31
0.0
0
LINE
8
0
6
CONTINUOUS
10
-154.462515
20
368.790210
30
0.0
11
-153.932615
21
369.622800
31
0.0
0
LINE
8
0
6
CONTINUOUS
10
-155.981125
20
368.632970
30
0.0
11
-154.462515
21
368.790210
31
0.0
0
LINE
8
0
6
CONTINUOUS
10
-156.969875
20
369.308400
30
0.0
11
-155.981125
21
368.632970
31
0.0
0
LINE
8
0
6
CONTINUOUS
10
-156.439975
20
370.140990
30
0.0
11
-156.969875
21
369.308400
31
0.0
0
LINE
8
0
6
CONTINUOUS
10
-168.180435
20
377.725140
30
0.0
11
-166.877635
21
377.859960
31
0.0
0
LINE
8
0
6
CONTINUOUS
10
-166.877635
20
377.859960
30
0.0
11
-166.029435
21
377.280580
31
0.0
0
LINE
8
0
6
CONTINUOUS
10
-168.635015
20
377.010800
30
0.0
11
-168.180435
21
377.725140
31
0.0
0
LINE
8
0
6
CONTINUOUS
10
-166.877635
20
377.859960
30
0.0
11
-168.180435
21
377.725140
31
0.0
0
LINE
8
0
6
CONTINUOUS
10
-166.029435
20
377.280580
30
0.0
11
-166.877635
21
377.859960
31
0.0
0
LINE
8
0
6
CONTINUOUS
10
-166.484015
20
376.566240
30
0.0
11
-166.029435
21
377.280580
31
0.0
0
LINE
8
0
6
CONTINUOUS
10
-167.786795
20
376.431350
30
0.0
11
-166.484015
21
376.566240
31
0.0
0
LINE
8
0
6
CONTINUOUS
10
-168.635015
20
377.010800
30
0.0
11
-167.786795
21
376.431350
31
0.0
0
LINE
8
0
6
CONTINUOUS
10
-168.180435
20
377.725140
30
0.0
11
-168.635015
21
377.010800
31
0.0
0
LINE
8
0
6
CONTINUOUS
10
-159.839955
20
376.575170
30
0.0
11
-158.537165
21
376.710050
31
0.0
0
LINE
8
0
6
CONTINUOUS
10
-158.537165
20
376.710050
30
0.0
11
-157.688965
21
376.130680
31
0.0
0
LINE
8
0
6
CONTINUOUS
10
-160.294535
20
375.860900
30
0.0
11
-159.839955
21
376.575170
31
0.0
0
LINE
8
0
6
CONTINUOUS
10
-158.537165
20
376.710050
30
0.0
11
-159.839955
21
376.575170
31
0.0
0
LINE
8
0
6
CONTINUOUS
10
-157.688965
20
376.130680
30
0.0
11
-158.537165
21
376.710050
31
0.0
0
LINE
8
0
6
CONTINUOUS
10
-158.143545
20
375.416340
30
0.0
11
-157.688965
21
376.130680
31
0.0
0
LINE
8
0
6
CONTINUOUS
10
-159.446315
20
375.281530
30
0.0
11
-158.143545
21
375.416340
31
0.0
0
LINE
8
0
6
CONTINUOUS
10
-160.294535
20
375.860900
30
0.0
11
-159.446315
21
375.281530
31
0.0
0
LINE
8
0
6
CONTINUOUS
10
-159.839955
20
376.575170
30
0.0
11
-160.294535
21
375.860900
31
0.0
0
LINE
8
0
6
CONTINUOUS
10
-152.589325
20
373.941960
30
0.0
11
-151.286525
21
374.076840
31
0.0
0
LINE
8
0
6
CONTINUOUS
10
-150.438335
20
373.497470
30
0.0
11
-150.450395
21
374.386573
31
0.0
0
LINE
8
0
6
CONTINUOUS
10
-151.286525
20
374.076840
30
0.0
11
-150.438335
21
373.497470
31
0.0
0
LINE
8
0
6
CONTINUOUS
10
-151.298674
20
374.972034
30
0.0
11
-151.286525
21
374.076840
31
0.0
0
LINE
8
0
6
CONTINUOUS
10
-152.589325
20
373.941960
30
0.0
11
-152.600812
21
374.788514
31
0.0
0
LINE
8
0
6
CONTINUOUS
10
-153.043905
20
373.227690
30
0.0
11
-152.589325
21
373.941960
31
0.0
0
LINE
8
0
6
CONTINUOUS
10
-153.054489
20
374.007762
30
0.0
11
-153.043905
21
373.227690
31
0.0
0
LINE
8
0
6
CONTINUOUS
10
-151.286525
20
374.076840
30
0.0
11
-152.589325
21
373.941960
31
0.0
0
LINE
8
0
6
CONTINUOUS
10
-150.438335
20
373.497470
30
0.0
11
-151.286525
21
374.076840
31
0.0
0
LINE
8
0
6
CONTINUOUS
10
-150.892915
20
372.783130
30
0.0
11
-150.438335
21
373.497470
31
0.0
0
LINE
8
0
6
CONTINUOUS
10
-152.195685
20
372.648240
30
0.0
11
-150.892915
21
372.783130
31
0.0
0
LINE
8
0
6
CONTINUOUS
10
-153.043905
20
373.227690
30
0.0
11
-152.195685
21
372.648240
31
0.0
0
LINE
8
0
6
CONTINUOUS
10
-152.589325
20
373.941960
30
0.0
11
-153.043905
21
373.227690
31
0.0
0
LINE
8
0
6
CONTINUOUS
10
-155.068285
20
380.042570
30
0.0
11
-153.745845
21
380.050890
31
0.0
0
LINE
8
0
6
CONTINUOUS
10
-153.078845
20
379.397740
30
0.0
11
-153.090668
21
380.286278
31
0.0
0
LINE
8
0
6
CONTINUOUS
10
-153.745845
20
380.050890
30
0.0
11
-153.078845
21
379.397740
31
0.0
0
LINE
8
0
6
CONTINUOUS
10
-153.758276
20
380.985103
30
0.0
11
-153.745845
21
380.050890
31
0.0
0
LINE
8
0
6
CONTINUOUS
10
-155.068285
20
380.042570
30
0.0
11
-155.080077
21
380.928460
31
0.0
0
LINE
8
0
6
CONTINUOUS
10
-155.723745
20
379.381100
30
0.0
11
-155.068285
21
380.042570
31
0.0
0
LINE
8
0
6
CONTINUOUS
10
-153.745845
20
380.050890
30
0.0
11
-155.068285
21
380.042570
31
0.0
0
LINE
8
0
6
CONTINUOUS
10
-153.078845
20
379.397740
30
0.0
11
-153.745845
21
380.050890
31
0.0
0
LINE
8
0
6
CONTINUOUS
10
-153.734305
20
378.736340
30
0.0
11
-153.078845
21
379.397740
31
0.0
0
LINE
8
0
6
CONTINUOUS
10
-155.056725
20
378.727950
30
0.0
11
-153.734305
21
378.736340
31
0.0
0
LINE
8
0
6
CONTINUOUS
10
-155.723745
20
379.381100
30
0.0
11
-155.056725
21
378.727950
31
0.0
0
LINE
8
0
6
CONTINUOUS
10
-155.068285
20
380.042570
30
0.0
11
-155.723745
21
379.381100
31
0.0
0
LINE
8
0
6
CONTINUOUS
10
-163.218825
20
381.728290
30
0.0
11
-161.896365
21
381.736600
31
0.0
0
LINE
8
0
6
CONTINUOUS
10
-161.229365
20
381.083530
30
0.0
11
-161.240901
21
381.950642
31
0.0
0
LINE
8
0
6
CONTINUOUS
10
-161.896365
20
381.736600
30
0.0
11
-161.229365
21
381.083530
31
0.0
0
LINE
8
0
6
CONTINUOUS
10
-161.908758
20
382.668143
30
0.0
11
-161.896365
21
381.736600
31
0.0
0
LINE
8
0
6
CONTINUOUS
10
-163.874265
20
381.066820
30
0.0
11
-163.218825
21
381.728290
31
0.0
0
LINE
8
0
6
CONTINUOUS
10
-161.896365
20
381.736600
30
0.0
11
-163.218825
21
381.728290
31
0.0
0
LINE
8
0
6
CONTINUOUS
10
-161.229365
20
381.083530
30
0.0
11
-161.896365
21
381.736600
31
0.0
0
LINE
8
0
6
CONTINUOUS
10
-161.884805
20
380.422060
30
0.0
11
-161.229365
21
381.083530
31
0.0
0
LINE
8
0
6
CONTINUOUS
10
-163.207245
20
380.413740
30
0.0
11
-161.884805
21
380.422060
31
0.0
0
LINE
8
0
6
CONTINUOUS
10
-163.874265
20
381.066820
30
0.0
11
-163.207245
21
380.413740
31
0.0
0
LINE
8
0
6
CONTINUOUS
10
-163.218825
20
381.728290
30
0.0
11
-163.874265
21
381.066820
31
0.0
0
LINE
8
0
6
CONTINUOUS
10
-171.693105
20
382.349630
30
0.0
11
-170.370655
21
382.358020
31
0.0
0
LINE
8
0
6
CONTINUOUS
10
-170.370655
20
382.358020
30
0.0
11
-169.703655
21
381.704940
31
0.0
0
LINE
8
0
6
CONTINUOUS
10
-172.348565
20
381.688230
30
0.0
11
-171.693105
21
382.349630
31
0.0
0
LINE
8
0
6
CONTINUOUS
10
-170.370655
20
382.358020
30
0.0
11
-171.693105
21
382.349630
31
0.0
0
LINE
8
0
6
CONTINUOUS
10
-169.703655
20
381.704940
30
0.0
11
-170.370655
21
382.358020
31
0.0
0
LINE
8
0
6
CONTINUOUS
10
-170.359115
20
381.043470
30
0.0
11
-169.703655
21
381.704940
31
0.0
0
LINE
8
0
6
CONTINUOUS
10
-171.681545
20
381.035080
30
0.0
11
-170.359115
21
381.043470
31
0.0
0
LINE
8
0
6
CONTINUOUS
10
-172.348565
20
381.688230
30
0.0
11
-171.681545
21
381.035080
31
0.0
0
LINE
8
0
6
CONTINUOUS
10
-171.693105
20
382.349630
30
0.0
11
-172.348565
21
381.688230
31
0.0
0
LINE
8
0
6
CONTINUOUS
10
-154.869735
20
363.374100
30
0.0
11
-154.854915
21
362.460790
31
0.0
0
LINE
8
0
6
CONTINUOUS
10
-156.255445
20
363.818670
30
0.0
11
-154.869735
21
363.374100
31
0.0
0
LINE
8
0
6
CONTINUOUS
10
-157.626345
20
363.349920
30
0.0
11
-156.255445
21
363.818670
31
0.0
0
LINE
8
0
6
CONTINUOUS
10
-156.225815
20
361.992040
30
0.0
11
-154.854915
21
362.460790
31
0.0
0
LINE
8
0
6
CONTINUOUS
10
-157.611545
20
362.436680
30
0.0
11
-156.225815
21
361.992040
31
0.0
0
LINE
8
0
6
CONTINUOUS
10
-157.626345
20
363.349920
30
0.0
11
-157.611545
21
362.436680
31
0.0
0
LINE
8
0
6
CONTINUOUS
10
-156.255445
20
363.818670
30
0.0
11
-157.626345
21
363.349920
31
0.0
0
LINE
8
0
6
CONTINUOUS
10
-154.869735
20
363.374100
30
0.0
11
-156.255445
21
363.818670
31
0.0
0
LINE
8
0
6
CONTINUOUS
10
-154.854915
20
362.460790
30
0.0
11
-154.869735
21
363.374100
31
0.0
0
LINE
8
0
6
CONTINUOUS
10
-127.614975
20
367.957000
30
0.0
11
-130.912865
21
373.350980
31
0.0
0
LINE
8
0
6
CONTINUOUS
10
-143.323995
20
382.139050
30
0.0
11
-151.762855
21
385.153500
31
0.0
0
LINE
8
0
6
CONTINUOUS
10
-151.762855
20
385.153500
30
0.0
11
-161.170815
21
387.009430
31
0.0
0
LINE
8
0
6
CONTINUOUS
10
-161.170815
20
387.009430
30
0.0
11
-171.075215
21
387.697220
31
0.0
0
LINE
8
0
6
CONTINUOUS
10
-171.075215
20
387.697220
30
0.0
11
-180.978645
21
386.939850
31
0.0
0
LINE
8
0
6
CONTINUOUS
10
-180.978645
20
386.939850
30
0.0
11
-190.441595
21
385.175480
31
0.0
0
LINE
8
0
6
CONTINUOUS
10
-205.868365
20
377.874680
30
0.0
11
-211.168735
21
373.012850
31
0.0
0
LINE
8
0
6
CONTINUOUS
10
-211.168735
20
373.012850
30
0.0
11
-214.458625
21
367.602540
31
0.0
0
LINE
8
0
6
CONTINUOUS
10
-214.458625
20
367.602540
30
0.0
11
-215.572575
21
361.914980
31
0.0
0
LINE
8
0
6
CONTINUOUS
10
-205.958845
20
346.067510
30
0.0
11
-198.851245
21
342.020870
31
0.0
0
LINE
8
0
6
CONTINUOUS
10
-198.851245
20
342.020870
30
0.0
11
-190.401715
21
339.001690
31
0.0
0
LINE
8
0
6
CONTINUOUS
10
-190.401715
20
339.001690
30
0.0
11
-180.990775
21
337.151870
31
0.0
0
LINE
8
0
6
CONTINUOUS
10
-180.990775
20
337.151870
30
0.0
11
-171.057975
21
336.536330
31
0.0
0
LINE
8
0
6
CONTINUOUS
10
-171.057975
20
336.536330
30
0.0
11
-161.146145
21
337.211920
31
0.0
0
LINE
8
0
6
CONTINUOUS
10
-161.146145
20
337.211920
30
0.0
11
-151.723695
21
339.136200
31
0.0
0
LINE
8
0
6
CONTINUOUS
10
-198.822125
20
381.943740
30
0.0
11
-205.868365
21
377.874680
31
0.0
0
LINE
8
0
6
CONTINUOUS
10
-126.560175
20
362.228090
30
0.0
11
-127.614975
21
367.957000
31
0.0
0
LINE
8
0
6
CONTINUOUS
10
-130.912865
20
373.350980
30
0.0
11
-136.224065
21
378.181310
31
0.0
0
LINE
8
0
6
CONTINUOUS
10
-136.224065
20
378.181310
30
0.0
11
-143.323995
21
382.139050
31
0.0
0
LINE
8
0
6
CONTINUOUS
10
-215.572575
20
361.914980
30
0.0
11
-214.581585
21
356.308900
31
0.0
0
LINE
8
0
6
CONTINUOUS
10
-214.581585
20
356.308900
30
0.0
11
-211.278405
21
350.905990
31
0.0
0
LINE
8
0
6
CONTINUOUS
10
-211.278405
20
350.905990
30
0.0
11
-205.958845
21
346.067510
31
0.0
0
LINE
8
0
6
CONTINUOUS
10
-151.723695
20
339.136200
30
0.0
11
-143.273185
21
342.214360
31
0.0
0
LINE
8
0
6
CONTINUOUS
10
-143.273185
20
342.214360
30
0.0
11
-136.163965
21
346.313100
31
0.0
0
LINE
8
0
6
CONTINUOUS
10
-136.163965
20
346.313100
30
0.0
11
-130.906855
21
351.157070
31
0.0
0
LINE
8
0
6
CONTINUOUS
10
-130.906855
20
351.157070
30
0.0
11
-127.611835
21
356.574630
31
0.0
0
LINE
8
0
6
CONTINUOUS
10
-127.611835
20
356.574630
30
0.0
11
-126.560175
21
362.228090
31
0.0
0
LINE
8
0
6
CONTINUOUS
10
-190.441595
20
385.175480
30
0.0
11
-198.822125
21
381.943740
31
0.0
0
LINE
8
0
6
CONTINUOUS
10
-158.098375
20
334.879690
30
0.0
11
-158.083677
21
337.837346
31
0.0
0
LINE
8
0
6
CONTINUOUS
10
-159.351755
20
333.208010
30
0.0
11
-159.353122
21
337.578096
31
0.0
0
LINE
8
0
6
CONTINUOUS
10
-157.896085
20
329.837880
30
0.0
11
-157.892235
21
329.522170
31
0.0
0
LINE
8
0
6
CONTINUOUS
10
-156.504555
20
332.076260
30
0.0
11
-156.505285
21
332.395400
31
0.0
0
LINE
8
0
6
CONTINUOUS
10
-156.819905
20
241.484380
30
0.0
11
-156.298645
21
243.136370
31
0.0
0
LINE
8
0
6
CONTINUOUS
10
-156.298645
20
243.136370
30
0.0
11
-156.300095
21
243.755340
31
0.0
0
LINE
8
0
6
CONTINUOUS
10
-159.292495
20
240.350570
30
0.0
11
-156.819905
21
241.484380
31
0.0
0
LINE
8
0
6
CONTINUOUS
10
-156.819905
20
241.484380
30
0.0
11
-156.827475
21
242.097630
31
0.0
0
LINE
8
0
6
CONTINUOUS
10
-162.970645
20
239.493410
30
0.0
11
-159.791015
21
240.234450
31
0.0
0
LINE
8
0
6
CONTINUOUS
10
-170.897675
20
238.764800
30
0.0
11
-166.859725
21
238.936080
31
0.0
0
LINE
8
0
6
CONTINUOUS
10
-166.859725
20
238.936080
30
0.0
11
-162.970645
21
239.493410
31
0.0
0
LINE
8
0
6
CONTINUOUS
10
-156.507615
20
333.398130
30
0.0
11
-157.908275
21
330.838320
31
0.0
0
LINE
8
0
6
CONTINUOUS
10
-156.505285
20
332.395400
30
0.0
11
-156.507615
21
333.398130
31
0.0
0
LINE
8
0
6
CONTINUOUS
10
-157.908275
20
330.838320
30
0.0
11
-160.889475
21
329.475860
31
0.0
0
LINE
8
0
6
CONTINUOUS
10
-157.896085
20
329.837880
30
0.0
11
-157.908275
21
330.838320
31
0.0
0
LINE
8
0
6
CONTINUOUS
10
-160.889475
20
329.475860
30
0.0
11
-161.340315
21
329.367300
31
0.0
0
LINE
8
0
6
CONTINUOUS
10
-164.215875
20
328.674930
30
0.0
11
-167.612385
21
328.112410
31
0.0
0
LINE
8
0
6
CONTINUOUS
10
-167.979225
20
331.105200
30
0.0
11
-164.799195
21
331.489490
31
0.0
0
LINE
8
0
6
CONTINUOUS
10
-159.351655
20
332.865980
30
0.0
11
-158.100095
21
334.532400
31
0.0
0
LINE
8
0
6
CONTINUOUS
10
-158.100095
20
334.532400
30
0.0
11
-158.098375
21
334.879690
31
0.0
0
LINE
8
0
6
CONTINUOUS
10
-168.501960
20
331.079385
30
0.0
11
-167.979225
21
331.105200
31
0.0
0
LINE
8
0
6
CONTINUOUS
10
-161.561205
20
332.099080
30
0.0
11
-159.351655
21
332.865980
31
0.0
0
LINE
8
0
6
CONTINUOUS
10
-159.351655
20
332.865980
30
0.0
11
-159.351755
21
333.208010
31
0.0
0
LINE
8
0
6
CONTINUOUS
10
-156.507615
20
333.398130
30
0.0
11
-156.540875
21
333.994220
31
0.0
0
LINE
8
0
6
CONTINUOUS
10
-156.540875
20
333.994220
30
0.0
11
-156.770258
21
338.105576
31
0.0
0
LINE
8
0
6
CONTINUOUS
10
-162.000045
20
332.016450
30
0.0
11
-164.799195
21
331.489490
31
0.0
0
LINE
8
0
6
CONTINUOUS
10
-159.791015
20
240.234450
30
0.0
11
-159.292495
21
240.350570
31
0.0
0
LINE
8
0
6
CONTINUOUS
10
-161.340315
20
329.367300
30
0.0
11
-164.215875
21
328.674930
31
0.0
0
LINE
8
0
6
CONTINUOUS
10
-162.000045
20
332.016450
30
0.0
11
-161.561205
21
332.099080
31
0.0
0
LINE
8
0
6
CONTINUOUS
10
-157.892235
20
329.522170
30
0.0
11
-156.827475
21
242.097630
31
0.0
0
LINE
8
0
6
CONTINUOUS
10
-156.300095
20
243.755340
30
0.0
11
-156.504555
21
332.076260
31
0.0
0
LINE
8
0
6
CONTINUOUS
10
-159.303635
20
240.961380
30
0.0
11
-160.865885
21
328.157810
31
0.0
0
LINE
8
0
6
CONTINUOUS
10
-157.863735
20
334.393540
30
0.0
11
-159.072005
21
332.608260
31
0.0
0
LINE
8
0
6
CONTINUOUS
10
-159.072005
20
332.608260
30
0.0
11
-161.375245
21
331.558380
31
0.0
0
LINE
8
0
6
CONTINUOUS
10
-168.500935
20
328.059387
30
0.0
11
-167.612385
21
328.112410
31
0.0
0
LINE
8
0
6
CONTINUOUS
10
-184.125517
20
337.768037
30
0.0
11
-184.101355
21
334.788060
31
0.0
0
LINE
8
0
6
CONTINUOUS
10
-182.842963
20
337.515937
30
0.0
11
-182.831025
21
333.125310
31
0.0
0
LINE
8
0
6
CONTINUOUS
10
-185.682645
20
332.292630
30
0.0
11
-185.682205
21
331.973500
31
0.0
0
LINE
8
0
6
CONTINUOUS
10
-184.268535
20
329.429250
30
0.0
11
-184.265845
21
329.745030
31
0.0
0
LINE
8
0
6
CONTINUOUS
10
-185.561525
20
243.652270
30
0.0
11
-185.560665
21
243.033300
31
0.0
0
LINE
8
0
6
CONTINUOUS
10
-185.560665
20
243.033300
30
0.0
11
-185.015075
21
241.385120
31
0.0
0
LINE
8
0
6
CONTINUOUS
10
-185.009765
20
241.998370
30
0.0
11
-185.015075
21
241.385120
31
0.0
0
LINE
8
0
6
CONTINUOUS
10
-185.015075
20
241.385120
30
0.0
11
-182.525845
21
240.268780
31
0.0
0
LINE
8
0
6
CONTINUOUS
10
-182.025645
20
240.156100
30
0.0
11
-178.835185
21
239.437490
31
0.0
0
LINE
8
0
6
CONTINUOUS
10
-174.938015
20
238.907620
30
0.0
11
-170.897675
21
238.764800
31
0.0
0
LINE
8
0
6
CONTINUOUS
10
-178.835185
20
239.437490
30
0.0
11
-174.938015
21
238.907620
31
0.0
0
LINE
8
0
6
CONTINUOUS
10
-185.684015
20
333.295370
30
0.0
11
-185.682645
21
332.292630
31
0.0
0
LINE
8
0
6
CONTINUOUS
10
-184.257375
20
330.745470
30
0.0
11
-185.684015
21
333.295370
31
0.0
0
LINE
8
0
6
CONTINUOUS
10
-184.257375
20
330.745470
30
0.0
11
-184.265845
21
329.745030
31
0.0
0
LINE
8
0
6
CONTINUOUS
10
-181.262425
20
329.404070
30
0.0
11
-184.257375
21
330.745470
31
0.0
0
LINE
8
0
6
CONTINUOUS
10
-180.810495
20
329.298710
30
0.0
11
-181.262425
21
329.404070
31
0.0
0
LINE
8
0
6
CONTINUOUS
10
-174.525895
20
328.088070
30
0.0
11
-177.927995
21
328.626630
31
0.0
0
LINE
8
0
6
CONTINUOUS
10
-177.368795
20
331.445240
30
0.0
11
-174.184995
21
331.083300
31
0.0
0
LINE
8
0
6
CONTINUOUS
10
-184.101355
20
334.788060
30
0.0
11
-184.098555
21
334.440770
31
0.0
0
LINE
8
0
6
CONTINUOUS
10
-184.098555
20
334.440770
30
0.0
11
-182.830105
21
332.783280
31
0.0
0
LINE
8
0
6
CONTINUOUS
10
-174.184995
20
331.083300
30
0.0
11
-173.601155
21
331.058600
31
0.0
0
LINE
8
0
6
CONTINUOUS
10
-182.831025
20
333.125310
30
0.0
11
-182.830105
21
332.783280
31
0.0
0
LINE
8
0
6
CONTINUOUS
10
-182.830105
20
332.783280
30
0.0
11
-180.612855
21
332.031940
31
0.0
0
LINE
8
0
6
CONTINUOUS
10
-185.656815
20
333.891600
30
0.0
11
-185.684015
21
333.295370
31
0.0
0
LINE
8
0
6
CONTINUOUS
10
-185.468048
20
338.031925
30
0.0
11
-185.656815
21
333.891600
31
0.0
0
LINE
8
0
6
CONTINUOUS
10
-177.368795
20
331.445240
30
0.0
11
-180.173175
21
331.952440
31
0.0
0
LINE
8
0
6
CONTINUOUS
10
-182.525845
20
240.268780
30
0.0
11
-182.025645
21
240.156100
31
0.0
0
LINE
8
0
6
CONTINUOUS
10
-177.927995
20
328.626630
30
0.0
11
-180.810495
21
329.298710
31
0.0
0
LINE
8
0
6
CONTINUOUS
10
-180.612855
20
332.031940
30
0.0
11
-180.173175
21
331.952440
31
0.0
0
LINE
8
0
6
CONTINUOUS
10
-185.682205
20
331.973500
30
0.0
11
-185.561525
21
243.652270
31
0.0
0
LINE
8
0
6
CONTINUOUS
10
-185.009765
20
241.998370
30
0.0
11
-184.268535
21
329.429250
31
0.0
0
LINE
8
0
6
CONTINUOUS
10
-181.281075
20
328.085860
30
0.0
11
-182.516632
21
240.905198
31
0.0
0
LINE
8
0
6
CONTINUOUS
10
-183.107115
20
332.523580
30
0.0
11
-184.333955
21
334.300310
31
0.0
0
LINE
8
0
6
CONTINUOUS
10
-180.793285
20
331.490020
30
0.0
11
-183.107115
21
332.523580
31
0.0
0
LINE
8
0
6
CONTINUOUS
10
-151.762855
20
385.153730
30
0.0
11
-143.323995
21
382.139360
31
0.0
0
LINE
8
0
6
CONTINUOUS
10
-161.170815
20
387.009660
30
0.0
11
-151.762855
21
385.153730
31
0.0
0
LINE
8
0
6
CONTINUOUS
10
-171.075215
20
387.697370
30
0.0
11
-161.170815
21
387.009660
31
0.0
0
LINE
8
0
6
CONTINUOUS
10
-180.978645
20
386.940000
30
0.0
11
-171.075215
21
387.697370
31
0.0
0
LINE
8
0
6
CONTINUOUS
10
-190.441595
20
385.175550
30
0.0
11
-180.978645
21
386.940000
31
0.0
0
LINE
8
0
6
CONTINUOUS
10
-211.168735
20
373.012850
30
0.0
11
-205.868365
21
377.874760
31
0.0
0
LINE
8
0
6
CONTINUOUS
10
-214.458625
20
367.602540
30
0.0
11
-211.168735
21
373.012850
31
0.0
0
LINE
8
0
6
CONTINUOUS
10
-215.572595
20
361.914900
30
0.0
11
-214.458625
21
367.602540
31
0.0
0
LINE
8
0
6
CONTINUOUS
10
-126.560155
20
362.228470
30
0.0
11
-127.611835
21
356.574940
31
0.0
0
LINE
8
0
6
CONTINUOUS
10
-220.897985
20
375.275270
30
0.0
11
-221.124725
21
369.695360
31
0.0
0
LINE
8
0
6
CONTINUOUS
10
-121.831495
20
378.311770
30
0.0
11
-123.070115
21
384.605410
31
0.0
0
LINE
8
0
6
CONTINUOUS
10
-121.370855
20
375.625920
30
0.0
11
-121.831495
21
378.311770
31
0.0
0
LINE
8
0
6
CONTINUOUS
10
-123.699665
20
387.205120
30
0.0
11
-124.526355
21
389.746550
31
0.0
0
LINE
8
0
6
CONTINUOUS
10
-141.962055
20
406.569900
30
0.0
11
-142.020265
21
406.597210
31
0.0
0
LINE
8
0
6
CONTINUOUS
10
-142.446465
20
406.757200
30
0.0
11
-151.190035
21
409.879080
31
0.0
0
LINE
8
0
6
CONTINUOUS
10
-142.020265
20
406.597210
30
0.0
11
-142.446465
21
406.757200
31
0.0
0
LINE
8
0
6
CONTINUOUS
10
-151.335915
20
409.910740
30
0.0
11
-161.011695
21
411.819610
31
0.0
0
LINE
8
0
6
CONTINUOUS
10
-151.190035
20
409.879080
30
0.0
11
-151.335915
21
409.910740
31
0.0
0
LINE
8
0
6
CONTINUOUS
10
-161.011695
20
411.819610
30
0.0
11
-171.197835
21
412.442400
31
0.0
0
LINE
8
0
6
CONTINUOUS
10
-171.197835
20
412.442400
30
0.0
11
-181.383485
21
411.747820
31
0.0
0
LINE
8
0
6
CONTINUOUS
10
-191.057975
20
409.770810
30
0.0
11
-191.201885
21
409.738080
31
0.0
0
LINE
8
0
6
CONTINUOUS
10
-181.383485
20
411.747820
30
0.0
11
-191.057975
21
409.770810
31
0.0
0
LINE
8
0
6
CONTINUOUS
10
-200.364995
20
406.391600
30
0.0
11
-200.422515
21
406.363910
31
0.0
0
LINE
8
0
6
CONTINUOUS
10
-199.943335
20
406.554640
30
0.0
11
-200.364995
21
406.391600
31
0.0
0
LINE
8
0
6
CONTINUOUS
10
-191.201885
20
409.738080
30
0.0
11
-199.943335
21
406.554640
31
0.0
0
LINE
8
0
6
CONTINUOUS
10
-217.828235
20
389.417880
30
0.0
11
-218.628025
21
386.870730
31
0.0
0
LINE
8
0
6
CONTINUOUS
10
-220.464675
20
377.964330
30
0.0
11
-220.897985
21
375.275270
31
0.0
0
LINE
8
0
6
CONTINUOUS
10
-219.230335
20
384.266660
30
0.0
11
-220.464675
21
377.964330
31
0.0
0
LINE
8
0
6
CONTINUOUS
10
-121.087345
20
370.047760
30
0.0
11
-121.370855
21
375.625920
31
0.0
0
LINE
8
0
6
CONTINUOUS
10
-123.070115
20
384.605410
30
0.0
11
-123.699665
21
387.205120
31
0.0
0
LINE
8
0
6
CONTINUOUS
10
-218.628025
20
386.870730
30
0.0
11
-219.230335
21
384.266660
31
0.0
0
LINE
8
0
6
CONTINUOUS
10
-121.086315
20
369.847340
30
0.0
11
-121.087345
21
370.047760
31
0.0
0
LINE
8
0
6
CONTINUOUS
10
-221.124725
20
369.695360
30
0.0
11
-221.123695
21
369.495010
31
0.0
0
LINE
8
0
6
CONTINUOUS
10
-121.080785
20
368.756640
30
0.0
11
-121.084885
21
369.565200
31
0.0
0
LINE
8
0
6
CONTINUOUS
10
-221.122265
20
369.212800
30
0.0
11
-221.118145
21
368.404310
31
0.0
0
LINE
8
0
6
CONTINUOUS
10
-127.614975
20
367.957310
30
0.0
11
-126.560155
21
362.228470
31
0.0
0
LINE
8
0
6
CONTINUOUS
10
-126.935275
20
356.974340
30
0.0
11
-130.281295
21
351.471630
31
0.0
0
LINE
8
0
6
CONTINUOUS
10
-198.913708
20
342.056433
30
0.0
11
-199.285515
21
342.189180
31
0.0
0
LINE
8
0
6
CONTINUOUS
10
-191.515585
20
339.311070
30
0.0
11
-190.701625
21
339.124450
31
0.0
0
LINE
8
0
6
CONTINUOUS
10
-200.452805
20
342.501980
30
0.0
11
-191.515585
21
339.311070
31
0.0
0
LINE
8
0
6
CONTINUOUS
10
-215.731605
20
354.402010
30
0.0
11
-214.732385
21
352.815320
31
0.0
0
LINE
8
0
6
CONTINUOUS
10
-219.398465
20
360.399860
30
0.0
11
-215.731605
21
354.402010
31
0.0
0
LINE
8
0
6
CONTINUOUS
10
-208.958005
20
347.563170
30
0.0
11
-207.916895
21
346.758580
31
0.0
0
LINE
8
0
6
CONTINUOUS
10
-214.732385
20
352.815320
30
0.0
11
-208.958005
21
347.563170
31
0.0
0
LINE
8
0
6
CONTINUOUS
10
-134.221485
20
347.018200
30
0.0
11
-133.193095
21
347.830050
31
0.0
0
LINE
8
0
6
CONTINUOUS
10
-133.193095
20
347.830050
30
0.0
11
-127.422265
21
353.122940
31
0.0
0
LINE
8
0
6
CONTINUOUS
10
-127.422265
20
353.122940
30
0.0
11
-126.441825
21
354.716650
31
0.0
0
LINE
8
0
6
CONTINUOUS
10
-126.441825
20
354.716650
30
0.0
11
-122.779065
21
360.740280
31
0.0
0
LINE
8
0
6
CONTINUOUS
10
-221.118145
20
368.404310
30
0.0
11
-219.861915
21
362.021030
31
0.0
0
LINE
8
0
6
CONTINUOUS
10
-219.861915
20
362.021030
30
0.0
11
-219.398465
21
360.399860
31
0.0
0
LINE
8
0
6
CONTINUOUS
10
-202.297805
20
391.824420
30
0.0
11
-210.216315
21
387.251280
31
0.0
0
LINE
8
0
6
CONTINUOUS
10
-126.043015
20
382.104950
30
0.0
11
-132.003925
21
387.526780
31
0.0
0
LINE
8
0
6
CONTINUOUS
10
-159.983315
20
397.516560
30
0.0
11
-171.113785
21
398.197100
31
0.0
0
LINE
8
0
6
CONTINUOUS
10
-149.410495
20
395.430760
30
0.0
11
-159.983315
21
397.516560
31
0.0
0
LINE
8
0
6
CONTINUOUS
10
-192.815075
20
395.277860
30
0.0
11
-202.297805
21
391.824420
31
0.0
0
LINE
8
0
6
CONTINUOUS
10
-221.122785
20
369.315030
30
0.0
11
-221.122265
21
369.212800
31
0.0
0
LINE
8
0
6
CONTINUOUS
10
-219.870855
20
375.707090
30
0.0
11
-221.122785
21
369.315030
31
0.0
0
LINE
8
0
6
CONTINUOUS
10
-122.341635
20
376.050640
30
0.0
11
-126.043015
21
382.104950
31
0.0
0
LINE
8
0
6
CONTINUOUS
10
-121.084885
20
369.565200
30
0.0
11
-121.085395
21
369.667440
31
0.0
0
LINE
8
0
6
CONTINUOUS
10
-121.085395
20
369.667440
30
0.0
11
-122.341635
21
376.050640
31
0.0
0
LINE
8
0
6
CONTINUOUS
10
-139.925505
20
392.044220
30
0.0
11
-149.410495
21
395.430760
31
0.0
0
LINE
8
0
6
CONTINUOUS
10
-182.243715
20
397.438200
30
0.0
11
-192.815075
21
395.277860
31
0.0
0
LINE
8
0
6
CONTINUOUS
10
-216.173575
20
381.787490
30
0.0
11
-219.870855
21
375.707090
31
0.0
0
LINE
8
0
6
CONTINUOUS
10
-132.003925
20
387.526780
30
0.0
11
-139.925505
21
392.044220
31
0.0
0
LINE
8
0
6
CONTINUOUS
10
-171.113785
20
398.197100
30
0.0
11
-182.243715
21
397.438200
31
0.0
0
LINE
8
0
6
CONTINUOUS
10
-210.216315
20
387.251280
30
0.0
11
-216.173575
21
381.787490
31
0.0
0
LINE
8
0
6
CONTINUOUS
10
-121.086315
20
369.847340
30
0.0
11
-122.342555
21
376.230620
31
0.0
0
LINE
8
0
6
CONTINUOUS
10
-122.342555
20
376.230620
30
0.0
11
-126.043935
21
382.284930
31
0.0
0
LINE
8
0
6
CONTINUOUS
10
-126.043935
20
382.284930
30
0.0
11
-132.004835
21
387.706760
31
0.0
0
LINE
8
0
6
CONTINUOUS
10
-132.004835
20
387.706760
30
0.0
11
-139.926415
21
392.224200
31
0.0
0
LINE
8
0
6
CONTINUOUS
10
-139.926415
20
392.224200
30
0.0
11
-149.411415
21
395.610660
31
0.0
0
LINE
8
0
6
CONTINUOUS
10
-149.411415
20
395.610660
30
0.0
11
-159.984235
21
397.696530
31
0.0
0
LINE
8
0
6
CONTINUOUS
10
-159.984235
20
397.696530
30
0.0
11
-171.114695
21
398.377000
31
0.0
0
LINE
8
0
6
CONTINUOUS
10
-171.114695
20
398.377000
30
0.0
11
-182.244625
21
397.618100
31
0.0
0
LINE
8
0
6
CONTINUOUS
10
-182.244625
20
397.618100
30
0.0
11
-192.815995
21
395.457760
31
0.0
0
LINE
8
0
6
CONTINUOUS
10
-192.815995
20
395.457760
30
0.0
11
-202.298705
21
392.004400
31
0.0
0
LINE
8
0
6
CONTINUOUS
10
-202.298705
20
392.004400
30
0.0
11
-210.217235
21
387.431260
31
0.0
0
LINE
8
0
6
CONTINUOUS
10
-210.217235
20
387.431260
30
0.0
11
-216.174495
21
381.967390
31
0.0
0
LINE
8
0
6
CONTINUOUS
10
-216.174495
20
381.967390
30
0.0
11
-219.871775
21
375.886990
31
0.0
0
LINE
8
0
6
CONTINUOUS
10
-219.871775
20
375.886990
30
0.0
11
-221.123695
21
369.495010
31
0.0
0
LINE
8
0
6
CONTINUOUS
10
-221.123695
20
369.495010
30
0.0
11
-221.105572
21
369.402918
31
0.0
0
LINE
8
0
6
CONTINUOUS
10
-121.103516
20
369.759517
30
0.0
11
-121.086315
21
369.847340
31
0.0
0
LINE
8
0
6
CONTINUOUS
10
-128.950215
20
397.254030
30
0.0
11
-134.537305
21
402.335740
31
0.0
0
LINE
8
0
6
CONTINUOUS
10
-128.509545
20
396.550680
30
0.0
11
-128.950215
21
397.254030
31
0.0
0
LINE
8
0
6
CONTINUOUS
10
-134.537305
20
402.335740
30
0.0
11
-141.962055
21
406.569900
31
0.0
0
LINE
8
0
6
CONTINUOUS
10
-200.422515
20
406.363910
30
0.0
11
-207.844415
21
402.077560
31
0.0
0
LINE
8
0
6
CONTINUOUS
10
-213.428045
20
396.956410
30
0.0
11
-213.860405
21
396.250000
31
0.0
0
LINE
8
0
6
CONTINUOUS
10
-207.844415
20
402.077560
30
0.0
11
-213.428045
21
396.956410
31
0.0
0
LINE
8
0
6
CONTINUOUS
10
-217.361625
20
390.492100
30
0.0
11
-217.828235
21
389.417880
31
0.0
0
LINE
8
0
6
CONTINUOUS
10
-213.860405
20
396.250000
30
0.0
11
-217.361625
21
390.492100
31
0.0
0
LINE
8
0
6
CONTINUOUS
10
-125.004465
20
390.817410
30
0.0
11
-128.509545
21
396.550680
31
0.0
0
LINE
8
0
6
CONTINUOUS
10
-124.526355
20
389.746550
30
0.0
11
-125.004465
21
390.817410
31
0.0
0
LINE
8
0
6
CONTINUOUS
10
-130.288925
20
374.015050
30
0.0
11
-135.683525
21
378.921810
31
0.0
0
LINE
8
0
6
CONTINUOUS
10
-206.465425
20
378.672410
30
0.0
11
-211.856735
21
373.727720
31
0.0
0
LINE
8
0
6
CONTINUOUS
10
-211.401405
20
374.015350
30
0.0
11
-206.082919
21
378.893320
31
0.0
0
LINE
8
0
6
CONTINUOUS
10
-211.849125
20
351.184240
30
0.0
11
-206.454495
21
346.277540
31
0.0
0
LINE
8
0
6
CONTINUOUS
10
-143.200047
20
342.256527
30
0.0
11
-142.838805
21
342.388080
31
0.0
0
LINE
8
0
6
CONTINUOUS
10
-142.838805
20
342.388080
30
0.0
11
-135.672595
21
346.526870
31
0.0
0
LINE
8
0
6
CONTINUOUS
10
-136.224065
20
378.181610
30
0.0
11
-130.912845
21
373.351290
31
0.0
0
LINE
8
0
6
CONTINUOUS
10
-130.748355
20
374.299470
30
0.0
11
-136.077044
21
379.146219
31
0.0
0
LINE
8
0
6
CONTINUOUS
10
-143.323995
20
382.139360
30
0.0
11
-136.224065
21
378.181610
31
0.0
0
LINE
8
0
6
CONTINUOUS
10
-198.822125
20
381.943740
30
0.0
11
-190.441595
21
385.175550
31
0.0
0
LINE
8
0
6
CONTINUOUS
10
-205.868365
20
377.874760
30
0.0
11
-198.822125
21
381.943740
31
0.0
0
LINE
8
0
6
CONTINUOUS
10
-151.420615
20
339.262850
30
0.0
11
-150.617715
21
339.455190
31
0.0
0
LINE
8
0
6
CONTINUOUS
10
-142.838805
20
342.388080
30
0.0
11
-143.200047
21
342.256527
31
0.0
0
LINE
8
0
6
CONTINUOUS
10
-150.617715
20
339.455190
30
0.0
11
-141.682685
21
342.709120
31
0.0
0
LINE
8
0
6
CONTINUOUS
10
-142.852535
20
383.010030
30
0.0
11
-135.683525
21
378.921810
31
0.0
0
LINE
8
0
6
CONTINUOUS
10
-211.849125
20
351.184240
30
0.0
11
-215.188853
21
356.646984
31
0.0
0
LINE
8
0
6
CONTINUOUS
10
-211.856735
20
373.727720
30
0.0
11
-206.465425
21
378.672410
31
0.0
0
LINE
8
0
6
CONTINUOUS
10
-181.150345
20
387.891540
30
0.0
11
-171.077785
21
388.578340
31
0.0
0
LINE
8
0
6
CONTINUOUS
10
-135.672595
20
346.526870
30
0.0
11
-142.838805
21
342.388080
31
0.0
0
LINE
8
0
6
CONTINUOUS
10
-141.682685
20
342.709120
30
0.0
11
-134.221485
21
347.018200
31
0.0
0
LINE
8
0
6
CONTINUOUS
10
-206.454495
20
346.277540
30
0.0
11
-211.849125
21
351.184240
31
0.0
0
LINE
8
0
6
CONTINUOUS
10
-190.717395
20
385.936510
30
0.0
11
-181.150345
21
387.891540
31
0.0
0
LINE
8
0
6
CONTINUOUS
10
-151.436405
20
386.074830
30
0.0
11
-142.852535
21
383.010030
31
0.0
0
LINE
8
0
6
CONTINUOUS
10
-126.939185
20
368.535920
30
0.0
11
-125.802315
21
362.759100
31
0.0
0
LINE
8
0
6
CONTINUOUS
10
-215.202755
20
368.225020
30
0.0
11
-211.856735
21
373.727720
31
0.0
0
LINE
8
0
6
CONTINUOUS
10
-130.281295
20
351.471630
30
0.0
11
-135.672595
21
346.526870
31
0.0
0
LINE
8
0
6
CONTINUOUS
10
-199.285515
20
342.189180
30
0.0
11
-206.454495
21
346.277540
31
0.0
0
LINE
8
0
6
CONTINUOUS
10
-207.916895
20
346.758580
30
0.0
11
-200.452805
21
342.501980
31
0.0
0
LINE
8
0
6
CONTINUOUS
10
-216.335755
20
362.440190
30
0.0
11
-215.202755
21
368.225020
31
0.0
0
LINE
8
0
6
CONTINUOUS
10
-199.299205
20
382.811130
30
0.0
11
-190.717395
21
385.936510
31
0.0
0
LINE
8
0
6
CONTINUOUS
10
-161.004775
20
387.962490
30
0.0
11
-151.436405
21
386.074830
31
0.0
0
LINE
8
0
6
CONTINUOUS
10
-130.288925
20
374.015050
30
0.0
11
-126.939185
21
368.535920
31
0.0
0
LINE
8
0
6
CONTINUOUS
10
-215.198865
20
356.663360
30
0.0
11
-216.335755
21
362.440190
31
0.0
0
LINE
8
0
6
CONTINUOUS
10
-206.465425
20
378.672410
30
0.0
11
-199.299205
21
382.811130
31
0.0
0
LINE
8
0
6
CONTINUOUS
10
-171.077785
20
388.578340
30
0.0
11
-161.004775
21
387.962490
31
0.0
0
LINE
8
0
6
CONTINUOUS
10
-135.683525
20
378.921810
30
0.0
11
-130.288925
21
374.015050
31
0.0
0
LINE
8
0
6
CONTINUOUS
10
-126.939185
20
368.535920
30
0.0
11
-130.288925
21
374.015050
31
0.0
0
LINE
8
0
6
CONTINUOUS
10
-211.856735
20
373.727720
30
0.0
11
-215.202755
21
368.225020
31
0.0
0
LINE
8
0
6
CONTINUOUS
10
-214.709935
20
368.574370
30
0.0
11
-211.401405
21
374.015350
31
0.0
0
LINE
8
0
6
CONTINUOUS
10
-215.202755
20
368.225020
30
0.0
11
-216.335755
21
362.440190
31
0.0
0
LINE
8
0
6
CONTINUOUS
10
-215.830195
20
362.854460
30
0.0
11
-214.709935
21
368.574370
31
0.0
0
LINE
8
0
6
CONTINUOUS
10
-216.335755
20
362.440190
30
0.0
11
-215.198865
21
356.663360
31
0.0
0
LINE
8
0
6
CONTINUOUS
10
-214.706065
20
357.142410
30
0.0
11
-215.830195
21
362.854460
31
0.0
0
LINE
8
0
6
CONTINUOUS
10
-215.198865
20
356.663360
30
0.0
11
-211.849125
21
351.184240
31
0.0
0
LINE
8
0
6
CONTINUOUS
10
-206.454495
20
346.277540
30
0.0
11
-199.285515
21
342.189180
31
0.0
0
LINE
8
0
6
CONTINUOUS
10
-199.285515
20
342.189180
30
0.0
11
-198.913708
21
342.056433
31
0.0
0
LINE
8
0
6
CONTINUOUS
10
-135.672595
20
346.526870
30
0.0
11
-130.281295
21
351.471630
31
0.0
0
LINE
8
0
6
CONTINUOUS
10
-130.281295
20
351.471630
30
0.0
11
-126.935275
21
356.974340
31
0.0
0
LINE
8
0
6
CONTINUOUS
10
-126.935275
20
356.974340
30
0.0
11
-125.802315
21
362.759100
31
0.0
0
LINE
8
0
6
CONTINUOUS
10
-126.312055
20
363.169790
30
0.0
11
-127.432315
21
357.449880
31
0.0
0
LINE
8
0
6
CONTINUOUS
10
-125.802315
20
362.759100
30
0.0
11
-126.935275
21
356.974340
31
0.0
0
LINE
8
0
6
CONTINUOUS
10
-125.802315
20
362.759100
30
0.0
11
-126.939185
21
368.535920
31
0.0
0
LINE
8
0
6
CONTINUOUS
10
-127.436185
20
368.881760
30
0.0
11
-126.312055
21
363.169790
31
0.0
0
LINE
8
0
6
CONTINUOUS
10
-122.332695
20
362.364580
30
0.0
11
-121.080785
21
368.756640
31
0.0
0
LINE
8
0
6
CONTINUOUS
10
-122.779065
20
360.740280
30
0.0
11
-122.332695
21
362.364580
31
0.0
0
LINE
8
0
6
CONTINUOUS
10
-130.912845
20
373.351290
30
0.0
11
-127.614975
21
367.957310
31
0.0
0
LINE
8
0
6
CONTINUOUS
10
-127.436185
20
368.881760
30
0.0
11
-130.748355
21
374.299470
31
0.0
0
LINE
8
0
6
CONTINUOUS
10
-168.501975
20
331.122670
30
0.0
11
-168.502185
21
331.735690
31
0.0
0
LINE
8
0
6
CONTINUOUS
10
-173.591965
20
328.734670
30
0.0
11
-173.583375
21
326.733170
31
0.0
0
LINE
8
0
6
CONTINUOUS
10
-173.608615
20
332.944950
30
0.0
11
-173.591965
21
328.734670
31
0.0
0
LINE
8
0
6
CONTINUOUS
10
-173.621981
20
336.695223
30
0.0
11
-173.608615
21
332.944950
31
0.0
0
LINE
8
0
6
CONTINUOUS
10
-172.401455
20
329.295880
30
0.0
11
-172.372235
21
328.677450
31
0.0
0
LINE
8
0
6
CONTINUOUS
10
-171.031825
20
329.040380
30
0.0
11
-171.031615
21
328.422930
31
0.0
0
LINE
8
0
6
CONTINUOUS
10
-169.785655
20
329.305040
30
0.0
11
-169.785445
21
328.686520
31
0.0
0
LINE
8
0
6
CONTINUOUS
10
-168.731195
20
329.428250
30
0.0
11
-168.731405
21
330.050050
31
0.0
0
LINE
8
0
6
CONTINUOUS
10
-173.582785
20
326.595380
30
0.0
11
-173.338985
21
324.838490
31
0.0
0
LINE
8
0
6
CONTINUOUS
10
-168.500675
20
327.294310
30
0.0
11
-168.501975
21
331.122670
31
0.0
0
LINE
8
0
6
CONTINUOUS
10
-171.031615
20
328.422930
30
0.0
11
-171.030315
21
324.567260
31
0.0
0
LINE
8
0
6
CONTINUOUS
10
-169.785445
20
328.686520
30
0.0
11
-169.784145
21
324.823760
31
0.0
0
LINE
8
0
6
CONTINUOUS
10
-168.729905
20
325.545500
30
0.0
11
-168.731195
21
329.428250
31
0.0
0
LINE
8
0
6
CONTINUOUS
10
-173.340535
20
329.412080
30
0.0
11
-173.340725
21
330.033800
31
0.0
0
LINE
8
0
6
CONTINUOUS
10
-173.339215
20
325.529250
30
0.0
11
-173.340535
21
329.412080
31
0.0
0
LINE
8
0
6
CONTINUOUS
10
-168.500445
20
326.613240
30
0.0
11
-168.500675
21
327.294310
31
0.0
0
LINE
8
0
6
CONTINUOUS
10
-168.729675
20
324.854740
30
0.0
11
-168.500445
21
326.613240
31
0.0
0
LINE
8
0
6
CONTINUOUS
10
-173.339215
20
325.529250
30
0.0
11
-173.338985
21
324.838490
31
0.0
0
LINE
8
0
6
CONTINUOUS
10
-173.338985
20
324.838490
30
0.0
11
-172.157195
21
324.128270
31
0.0
0
LINE
8
0
6
CONTINUOUS
10
-172.157195
20
324.128270
30
0.0
11
-171.030085
21
323.881300
31
0.0
0
LINE
8
0
6
CONTINUOUS
10
-171.030315
20
324.567260
30
0.0
11
-171.030085
21
323.881300
31
0.0
0
LINE
8
0
6
CONTINUOUS
10
-171.030085
20
323.881300
30
0.0
11
-169.783925
21
324.136580
31
0.0
0
LINE
8
0
6
CONTINUOUS
10
-169.784145
20
324.823760
30
0.0
11
-169.783925
21
324.136580
31
0.0
0
LINE
8
0
6
CONTINUOUS
10
-168.729675
20
324.854740
30
0.0
11
-168.729905
21
325.545500
31
0.0
0
LINE
8
0
6
CONTINUOUS
10
-169.783925
20
324.136580
30
0.0
11
-168.729675
21
324.854740
31
0.0
0
LINE
8
0
6
CONTINUOUS
10
-168.502775
20
331.901400
30
0.0
11
-168.511495
21
334.307790
31
0.0
0
LINE
8
0
6
CONTINUOUS
10
-168.511495
20
334.307790
30
0.0
11
-168.515435
21
335.506590
31
0.0
0
LINE
8
0
6
CONTINUOUS
10
-173.597755
20
335.488740
30
0.0
11
-173.593815
21
334.289930
31
0.0
0
LINE
8
0
6
CONTINUOUS
10
-168.515435
20
335.506590
30
0.0
11
-168.519365
21
336.656500
31
0.0
0
LINE
8
0
6
CONTINUOUS
10
-173.601685
20
336.638640
30
0.0
11
-173.597755
21
335.488740
31
0.0
0
LINE
8
0
6
CONTINUOUS
10
-173.340725
20
330.033800
30
0.0
11
-172.401455
21
329.295880
31
0.0
0
LINE
8
0
6
CONTINUOUS
10
-172.401455
20
329.295880
30
0.0
11
-171.031825
21
329.040380
31
0.0
0
LINE
8
0
6
CONTINUOUS
10
-171.031825
20
329.040380
30
0.0
11
-169.785655
21
329.305040
31
0.0
0
LINE
8
0
6
CONTINUOUS
10
-169.785655
20
329.305040
30
0.0
11
-168.731405
21
330.050050
31
0.0
0
LINE
8
0
6
CONTINUOUS
10
-173.584505
20
331.717840
30
0.0
11
-173.340725
21
330.033800
31
0.0
0
LINE
8
0
6
CONTINUOUS
10
-168.731405
20
330.050050
30
0.0
11
-168.502185
21
331.735690
31
0.0
0
LINE
8
0
6
CONTINUOUS
10
-173.601861
20
336.693976
30
0.0
11
-173.601685
21
336.638640
31
0.0
0
LINE
8
0
6
CONTINUOUS
10
-173.584505
20
331.717840
30
0.0
11
-173.585095
21
331.883470
31
0.0
0
LINE
8
0
6
CONTINUOUS
10
-168.502185
20
331.735690
30
0.0
11
-168.502775
21
331.901400
31
0.0
0
LINE
8
0
6
CONTINUOUS
10
-173.593815
20
334.289930
30
0.0
11
-173.585095
21
331.883470
31
0.0
0
LINE
8
0
6
CONTINUOUS
10
-168.519365
20
336.656500
30
0.0
11
-168.519534
21
336.709350
31
0.0
0
LINE
8
0
6
CONTINUOUS
10
-182.476010
20
240.257554
30
0.0
11
-182.392105
21
238.919859
31
0.0
0
LINE
8
0
6
CONTINUOUS
10
-160.743435
20
219.117360
30
0.0
11
-159.414038
21
240.322259
31
0.0
0
LINE
8
0
6
CONTINUOUS
10
-162.099025
20
216.136320
30
0.0
11
-161.099035
21
217.370760
31
0.0
0
LINE
8
0
6
CONTINUOUS
10
-160.770035
20
218.693010
30
0.0
11
-160.743435
21
219.117360
31
0.0
0
LINE
8
0
6
CONTINUOUS
10
-161.099035
20
217.370760
30
0.0
11
-160.770035
21
218.693010
31
0.0
0
LINE
8
0
6
CONTINUOUS
10
-163.620455
20
203.822670
30
0.0
11
-163.620456
21
205.292170
31
0.0
0
LINE
8
0
6
CONTINUOUS
10
-164.692255
20
202.026480
30
0.0
11
-164.692255
21
205.292170
31
0.0
0
LINE
8
0
6
CONTINUOUS
10
-167.620455
20
200.711560
30
0.0
11
-167.620455
21
205.273572
31
0.0
0
LINE
8
0
6
CONTINUOUS
10
-171.620445
20
200.230290
30
0.0
11
-171.620450
21
205.233415
31
0.0
0
LINE
8
0
6
CONTINUOUS
10
-175.620465
20
200.711560
30
0.0
11
-175.620465
21
205.257665
31
0.0
0
LINE
8
0
6
CONTINUOUS
10
-178.548665
20
202.026440
30
0.0
11
-178.548665
21
205.284640
31
0.0
0
LINE
8
0
6
CONTINUOUS
10
-179.620465
20
205.292170
30
0.0
11
-179.620465
21
203.822630
31
0.0
0
LINE
8
0
6
CONTINUOUS
10
-163.620455
20
185.215110
30
0.0
11
-163.620455
21
203.822670
31
0.0
0
LINE
8
0
6
CONTINUOUS
10
-164.692255
20
183.647730
30
0.0
11
-164.692255
21
202.026480
31
0.0
0
LINE
8
0
6
CONTINUOUS
10
-167.620455
20
182.500340
30
0.0
11
-167.620455
21
200.711560
31
0.0
0
LINE
8
0
6
CONTINUOUS
10
-171.620445
20
182.080350
30
0.0
11
-171.620445
21
200.230290
31
0.0
0
LINE
8
0
6
CONTINUOUS
10
-175.620445
20
182.500340
30
0.0
11
-175.620465
21
200.711560
31
0.0
0
LINE
8
0
6
CONTINUOUS
10
-178.548665
20
183.647690
30
0.0
11
-178.548665
21
202.026440
31
0.0
0
LINE
8
0
6
CONTINUOUS
10
-179.620465
20
203.822630
30
0.0
11
-179.620465
21
185.215070
31
0.0
0
LINE
8
0
6
CONTINUOUS
10
-163.620455
20
167.890210
30
0.0
11
-163.620455
21
185.215110
31
0.0
0
LINE
8
0
6
CONTINUOUS
10
-164.692255
20
166.594200
30
0.0
11
-164.692255
21
183.647730
31
0.0
0
LINE
8
0
6
CONTINUOUS
10
-167.620455
20
165.645490
30
0.0
11
-167.620455
21
182.500340
31
0.0
0
LINE
8
0
6
CONTINUOUS
10
-171.620445
20
165.298270
30
0.0
11
-171.620445
21
182.080350
31
0.0
0
LINE
8
0
6
CONTINUOUS
10
-175.620445
20
165.645490
30
0.0
11
-175.620445
21
182.500340
31
0.0
0
LINE
8
0
6
CONTINUOUS
10
-178.548665
20
166.594160
30
0.0
11
-178.548665
21
183.647690
31
0.0
0
LINE
8
0
6
CONTINUOUS
10
-179.620465
20
185.215070
30
0.0
11
-179.620465
21
167.890170
31
0.0
0
LINE
8
0
6
CONTINUOUS
10
-163.620475
20
151.430550
30
0.0
11
-163.620455
21
167.890210
31
0.0
0
LINE
8
0
6
CONTINUOUS
10
-164.692275
20
150.433920
30
0.0
11
-164.692255
21
166.594200
31
0.0
0
LINE
8
0
6
CONTINUOUS
10
-167.620455
20
149.704400
30
0.0
11
-167.620455
21
165.645490
31
0.0
0
LINE
8
0
6
CONTINUOUS
10
-171.620445
20
149.437330
30
0.0
11
-171.620445
21
165.298270
31
0.0
0
LINE
8
0
6
CONTINUOUS
10
-175.620445
20
149.704400
30
0.0
11
-175.620445
21
165.645490
31
0.0
0
LINE
8
0
6
CONTINUOUS
10
-178.548665
20
150.433920
30
0.0
11
-178.548665
21
166.594160
31
0.0
0
LINE
8
0
6
CONTINUOUS
10
-179.620465
20
167.890170
30
0.0
11
-179.620475
21
151.430510
31
0.0
0
LINE
8
0
6
CONTINUOUS
10
-163.620455
20
135.418850
30
0.0
11
-163.620475
21
151.430550
31
0.0
0
LINE
8
0
6
CONTINUOUS
10
-164.692255
20
134.723240
30
0.0
11
-164.692275
21
150.433920
31
0.0
0
LINE
8
0
6
CONTINUOUS
10
-167.620455
20
134.213980
30
0.0
11
-167.620455
21
149.704400
31
0.0
0
LINE
8
0
6
CONTINUOUS
10
-171.620465
20
134.027600
30
0.0
11
-171.620445
21
149.437330
31
0.0
0
LINE
8
0
6
CONTINUOUS
10
-175.620465
20
134.213980
30
0.0
11
-175.620445
21
149.704400
31
0.0
0
LINE
8
0
6
CONTINUOUS
10
-178.548665
20
134.723210
30
0.0
11
-178.548665
21
150.433920
31
0.0
0
LINE
8
0
6
CONTINUOUS
10
-179.620475
20
151.430510
30
0.0
11
-179.620465
21
135.418820
31
0.0
0
LINE
8
0
6
CONTINUOUS
10
-163.620455
20
119.437680
30
0.0
11
-163.620455
21
135.418850
31
0.0
0
LINE
8
0
6
CONTINUOUS
10
-164.692255
20
119.013250
30
0.0
11
-164.692255
21
134.723240
31
0.0
0
LINE
8
0
6
CONTINUOUS
10
-167.620455
20
118.702580
30
0.0
11
-167.620455
21
134.213980
31
0.0
0
LINE
8
0
6
CONTINUOUS
10
-171.620445
20
118.588910
30
0.0
11
-171.620465
21
134.027600
31
0.0
0
LINE
8
0
6
CONTINUOUS
10
-175.620445
20
118.702620
30
0.0
11
-175.620465
21
134.213980
31
0.0
0
LINE
8
0
6
CONTINUOUS
10
-178.548665
20
119.013250
30
0.0
11
-178.548665
21
134.723210
31
0.0
0
LINE
8
0
6
CONTINUOUS
10
-179.620465
20
135.418820
30
0.0
11
-179.620465
21
119.437640
31
0.0
0
LINE
8
0
6
CONTINUOUS
10
-163.620455
20
103.069650
30
0.0
11
-163.620455
21
119.437680
31
0.0
0
LINE
8
0
6
CONTINUOUS
10
-164.692255
20
102.860570
30
0.0
11
-164.692255
21
119.013250
31
0.0
0
LINE
8
0
6
CONTINUOUS
10
-167.620455
20
102.707520
30
0.0
11
-167.620455
21
118.702580
31
0.0
0
LINE
8
0
6
CONTINUOUS
10
-171.620445
20
102.651480
30
0.0
11
-171.620445
21
118.588910
31
0.0
0
LINE
8
0
6
CONTINUOUS
10
-175.620445
20
102.707520
30
0.0
11
-175.620445
21
118.702620
31
0.0
0
LINE
8
0
6
CONTINUOUS
10
-178.548645
20
102.860570
30
0.0
11
-178.548665
21
119.013250
31
0.0
0
LINE
8
0
6
CONTINUOUS
10
-179.620465
20
119.437640
30
0.0
11
-179.620465
21
103.069610
31
0.0
0
LINE
8
0
6
CONTINUOUS
10
-163.620455
20
85.897410
30
0.0
11
-163.620455
21
103.069650
31
0.0
0
LINE
8
0
6
CONTINUOUS
10
-164.692255
20
85.897410
30
0.0
11
-164.692255
21
102.860570
31
0.0
0
LINE
8
0
6
CONTINUOUS
10
-167.620455
20
85.897410
30
0.0
11
-167.620455
21
102.707520
31
0.0
0
LINE
8
0
6
CONTINUOUS
10
-171.620445
20
85.897410
30
0.0
11
-171.620445
21
102.651480
31
0.0
0
LINE
8
0
6
CONTINUOUS
10
-175.620445
20
85.897410
30
0.0
11
-175.620445
21
102.707520
31
0.0
0
LINE
8
0
6
CONTINUOUS
10
-178.548645
20
85.897370
30
0.0
11
-178.548645
21
102.860570
31
0.0
0
LINE
8
0
6
CONTINUOUS
10
-179.620465
20
103.069610
30
0.0
11
-179.620465
21
85.897370
31
0.0
0
LINE
8
0
6
CONTINUOUS
10
-163.620475
20
-479.500200
30
0.0
11
-163.620455
21
85.897410
31
0.0
0
LINE
8
0
6
CONTINUOUS
10
-164.692295
20
-478.428400
30
0.0
11
-163.620475
21
-479.500200
31
0.0
0
LINE
8
0
6
CONTINUOUS
10
-179.620495
20
-463.500180
30
0.0
11
-178.548685
21
-464.572000
31
0.0
0
LINE
8
0
6
CONTINUOUS
10
-179.620465
20
85.897370
30
0.0
11
-179.620495
21
-463.500180
31
0.0
0
LINE
8
0
6
CONTINUOUS
10
-175.620485
20
-467.500200
30
0.0
11
-171.620485
21
-471.500200
31
0.0
0
LINE
8
0
6
CONTINUOUS
10
-171.620485
20
-471.500200
30
0.0
11
-167.620495
21
-475.500200
31
0.0
0
LINE
8
0
6
CONTINUOUS
10
-171.620445
20
85.897410
30
0.0
11
-171.620485
21
-471.500200
31
0.0
0
LINE
8
0
6
CONTINUOUS
10
-164.692295
20
-478.428400
30
0.0
11
-164.692255
21
85.897410
31
0.0
0
LINE
8
0
6
CONTINUOUS
10
-167.620495
20
-475.500200
30
0.0
11
-164.692295
21
-478.428400
31
0.0
0
LINE
8
0
6
CONTINUOUS
10
-167.620455
20
85.897410
30
0.0
11
-167.620495
21
-475.500200
31
0.0
0
LINE
8
0
6
CONTINUOUS
10
-175.620485
20
-467.500200
30
0.0
11
-175.620445
21
85.897410
31
0.0
0
LINE
8
0
6
CONTINUOUS
10
-178.548685
20
-464.572000
30
0.0
11
-175.620485
21
-467.500200
31
0.0
0
LINE
8
0
6
CONTINUOUS
10
-178.548645
20
85.897370
30
0.0
11
-178.548685
21
-464.572000
31
0.0
0
LINE
8
0
6
CONTINUOUS
10
-213.730935
20
-189.499830
30
0.0
11
-212.630945
21
-189.499830
31
0.0
0
LINE
8
0
6
CONTINUOUS
10
-212.630945
20
-189.499830
30
0.0
11
-210.930945
21
-189.499910
31
0.0
0
LINE
8
0
6
CONTINUOUS
10
-210.930945
20
-189.499910
30
0.0
11
-208.630925
21
-189.499910
31
0.0
0
LINE
8
0
6
CONTINUOUS
10
-214.130935
20
-138.053990
30
0.0
11
-214.130935
21
-188.945710
31
0.0
0
LINE
8
0
6
CONTINUOUS
10
-203.130955
20
-137.499810
30
0.0
11
-205.930945
21
-137.499810
31
0.0
0
LINE
8
0
6
CONTINUOUS
10
-214.130935
20
-189.499830
30
0.0
11
-213.730935
21
-189.499830
31
0.0
0
LINE
8
0
6
CONTINUOUS
10
-214.130935
20
-188.945710
30
0.0
11
-214.130935
21
-189.499830
31
0.0
0
LINE
8
0
6
CONTINUOUS
10
-205.930945
20
-189.499890
30
0.0
11
-203.130935
21
-189.499890
31
0.0
0
LINE
8
0
6
CONTINUOUS
10
-205.930945
20
-137.499810
30
0.0
11
-208.630945
21
-137.499830
31
0.0
0
LINE
8
0
6
CONTINUOUS
10
-208.630945
20
-137.499830
30
0.0
11
-210.930945
21
-137.499830
31
0.0
0
LINE
8
0
6
CONTINUOUS
10
-212.630945
20
-137.499790
30
0.0
11
-213.730945
21
-137.499790
31
0.0
0
LINE
8
0
6
CONTINUOUS
10
-192.130935
20
-189.499890
30
0.0
11
-192.130935
21
-188.945690
31
0.0
0
LINE
8
0
6
CONTINUOUS
10
-192.530945
20
-189.499890
30
0.0
11
-192.130935
21
-189.499890
31
0.0
0
LINE
8
0
6
CONTINUOUS
10
-193.630945
20
-189.499890
30
0.0
11
-192.530945
21
-189.499890
31
0.0
0
LINE
8
0
6
CONTINUOUS
10
-195.330925
20
-189.499890
30
0.0
11
-193.630945
21
-189.499890
31
0.0
0
LINE
8
0
6
CONTINUOUS
10
-197.630945
20
-189.499890
30
0.0
11
-195.330925
21
-189.499890
31
0.0
0
LINE
8
0
6
CONTINUOUS
10
-200.330925
20
-189.499890
30
0.0
11
-197.630945
21
-189.499890
31
0.0
0
LINE
8
0
6
CONTINUOUS
10
-203.130935
20
-189.499890
30
0.0
11
-200.330925
21
-189.499890
31
0.0
0
LINE
8
0
6
CONTINUOUS
10
-213.730945
20
-137.499790
30
0.0
11
-214.130935
21
-137.499790
31
0.0
0
LINE
8
0
6
CONTINUOUS
10
-214.130935
20
-137.499790
30
0.0
11
-214.130935
21
-138.053990
31
0.0
0
LINE
8
0
6
CONTINUOUS
10
-197.930935
20
479.500120
30
0.0
11
-197.630945
21
479.500120
31
0.0
0
LINE
8
0
6
CONTINUOUS
10
-214.130935
20
-136.999830
30
0.0
11
-213.630945
21
-137.499790
31
0.0
0
LINE
8
0
6
CONTINUOUS
10
-213.630945
20
-137.499790
30
0.0
11
-213.230935
21
-137.499790
31
0.0
0
LINE
8
0
6
CONTINUOUS
10
-213.230935
20
-137.499790
30
0.0
11
-212.230955
21
-137.499790
31
0.0
0
LINE
8
0
6
CONTINUOUS
10
-213.630945
20
427.500230
30
0.0
11
-214.130955
21
427.000200
31
0.0
0
LINE
8
0
6
CONTINUOUS
10
-192.630945
20
-137.499810
30
0.0
11
-192.130955
21
-136.999850
31
0.0
0
LINE
8
0
6
CONTINUOUS
10
-192.130955
20
427.000200
30
0.0
11
-192.630945
21
427.500230
31
0.0
0
LINE
8
0
6
CONTINUOUS
10
-192.130955
20
-137.499810
30
0.0
11
-192.530945
21
-137.499810
31
0.0
0
LINE
8
0
6
CONTINUOUS
10
-192.130955
20
-138.053970
30
0.0
11
-192.130955
21
-137.499810
31
0.0
0
LINE
8
0
6
CONTINUOUS
10
-192.130935
20
-188.945690
30
0.0
11
-192.130955
21
-138.053970
31
0.0
0
LINE
8
0
6
CONTINUOUS
10
-192.530945
20
-137.499810
30
0.0
11
-193.630945
21
-137.499810
31
0.0
0
LINE
8
0
6
CONTINUOUS
10
-193.630945
20
-137.499810
30
0.0
11
-195.330945
21
-137.499810
31
0.0
0
LINE
8
0
6
CONTINUOUS
10
-195.330945
20
-137.499810
30
0.0
11
-197.630945
21
-137.499810
31
0.0
0
LINE
8
0
6
CONTINUOUS
10
-197.630945
20
-137.499810
30
0.0
11
-200.330945
21
-137.499810
31
0.0
0
LINE
8
0
6
CONTINUOUS
10
-200.330945
20
-137.499810
30
0.0
11
-203.130955
21
-137.499810
31
0.0
0
LINE
8
0
6
CONTINUOUS
10
-194.030955
20
-137.499810
30
0.0
11
-203.130955
21
-137.499770
31
0.0
0
LINE
8
0
6
CONTINUOUS
10
-212.630945
20
-137.499790
30
0.0
11
-210.930945
21
-137.499830
31
0.0
0
LINE
8
0
6
CONTINUOUS
10
-212.230955
20
-137.499790
30
0.0
11
-212.630945
21
-137.499790
31
0.0
0
LINE
8
0
6
CONTINUOUS
10
-205.930945
20
-189.499890
30
0.0
11
-208.630925
21
-189.499910
31
0.0
0
LINE
8
0
6
CONTINUOUS
10
-192.130935
20
479.500200
30
0.0
11
-192.530945
21
479.500200
31
0.0
0
LINE
8
0
6
CONTINUOUS
10
-192.130935
20
478.791890
30
0.0
11
-192.130935
21
479.500200
31
0.0
0
LINE
8
0
6
CONTINUOUS
10
-192.530945
20
479.500200
30
0.0
11
-193.630945
21
479.500200
31
0.0
0
LINE
8
0
6
CONTINUOUS
10
-193.630945
20
479.500200
30
0.0
11
-195.330925
21
479.500200
31
0.0
0
LINE
8
0
6
CONTINUOUS
10
-195.330925
20
479.500200
30
0.0
11
-197.630945
21
479.500120
31
0.0
0
LINE
8
0
6
CONTINUOUS
10
-197.630945
20
479.500120
30
0.0
11
-200.330925
21
479.500120
31
0.0
0
LINE
8
0
6
CONTINUOUS
10
-200.330925
20
479.500120
30
0.0
11
-203.130935
21
479.500120
31
0.0
0
LINE
8
0
6
CONTINUOUS
10
-214.130935
20
479.500200
30
0.0
11
-214.130935
21
478.791890
31
0.0
0
LINE
8
0
6
CONTINUOUS
10
-213.730945
20
479.500200
30
0.0
11
-214.130935
21
479.500200
31
0.0
0
LINE
8
0
6
CONTINUOUS
10
-212.630945
20
479.500200
30
0.0
11
-213.730945
21
479.500200
31
0.0
0
LINE
8
0
6
CONTINUOUS
10
-210.930945
20
479.500200
30
0.0
11
-212.630945
21
479.500200
31
0.0
0
LINE
8
0
6
CONTINUOUS
10
-208.630945
20
479.500200
30
0.0
11
-210.930945
21
479.500200
31
0.0
0
LINE
8
0
6
CONTINUOUS
10
-205.930945
20
479.500200
30
0.0
11
-208.630945
21
479.500200
31
0.0
0
LINE
8
0
6
CONTINUOUS
10
-203.130935
20
479.500120
30
0.0
11
-205.930945
21
479.500200
31
0.0
0
LINE
8
0
6
CONTINUOUS
10
-214.130955
20
427.000200
30
0.0
11
-214.130955
21
426.687090
31
0.0
0
LINE
8
0
6
CONTINUOUS
10
-213.730945
20
427.000200
30
0.0
11
-214.130955
21
427.000200
31
0.0
0
LINE
8
0
6
CONTINUOUS
10
-212.630945
20
427.000200
30
0.0
11
-213.730945
21
427.000200
31
0.0
0
LINE
8
0
6
CONTINUOUS
10
-210.930945
20
427.000200
30
0.0
11
-212.630945
21
427.000200
31
0.0
0
LINE
8
0
6
CONTINUOUS
10
-208.630945
20
427.000200
30
0.0
11
-210.930945
21
427.000200
31
0.0
0
LINE
8
0
6
CONTINUOUS
10
-205.930945
20
427.000200
30
0.0
11
-208.630945
21
427.000200
31
0.0
0
LINE
8
0
6
CONTINUOUS
10
-203.130955
20
427.000120
30
0.0
11
-205.930945
21
427.000200
31
0.0
0
LINE
8
0
6
CONTINUOUS
10
-192.130955
20
427.000200
30
0.0
11
-192.530945
21
427.000200
31
0.0
0
LINE
8
0
6
CONTINUOUS
10
-192.130955
20
426.687090
30
0.0
11
-192.130955
21
427.000200
31
0.0
0
LINE
8
0
6
CONTINUOUS
10
-192.530945
20
427.000200
30
0.0
11
-193.630945
21
427.000200
31
0.0
0
LINE
8
0
6
CONTINUOUS
10
-193.630945
20
427.000200
30
0.0
11
-195.330945
21
427.000200
31
0.0
0
LINE
8
0
6
CONTINUOUS
10
-195.330945
20
427.000200
30
0.0
11
-197.630945
21
427.000120
31
0.0
0
LINE
8
0
6
CONTINUOUS
10
-197.630945
20
427.000120
30
0.0
11
-200.330945
21
427.000120
31
0.0
0
LINE
8
0
6
CONTINUOUS
10
-200.330945
20
427.000120
30
0.0
11
-203.130955
21
427.000120
31
0.0
0
LINE
8
0
6
CONTINUOUS
10
-192.130955
20
427.500230
30
0.0
11
-192.130955
21
428.207930
31
0.0
0
LINE
8
0
6
CONTINUOUS
10
-192.530945
20
427.500230
30
0.0
11
-192.130955
21
427.500230
31
0.0
0
LINE
8
0
6
CONTINUOUS
10
-192.130955
20
428.207930
30
0.0
11
-192.130935
21
478.791890
31
0.0
0
LINE
8
0
6
CONTINUOUS
10
-193.630945
20
427.500230
30
0.0
11
-192.530945
21
427.500230
31
0.0
0
LINE
8
0
6
CONTINUOUS
10
-195.330945
20
427.500230
30
0.0
11
-193.630945
21
427.500230
31
0.0
0
LINE
8
0
6
CONTINUOUS
10
-197.630945
20
427.500150
30
0.0
11
-195.330945
21
427.500230
31
0.0
0
LINE
8
0
6
CONTINUOUS
10
-200.330945
20
427.500150
30
0.0
11
-197.630945
21
427.500150
31
0.0
0
LINE
8
0
6
CONTINUOUS
10
-203.130955
20
427.500150
30
0.0
11
-200.330945
21
427.500150
31
0.0
0
LINE
8
0
6
CONTINUOUS
10
-214.130935
20
428.207930
30
0.0
11
-214.130955
21
427.500230
31
0.0
0
LINE
8
0
6
CONTINUOUS
10
-214.130955
20
427.500230
30
0.0
11
-213.730945
21
427.500230
31
0.0
0
LINE
8
0
6
CONTINUOUS
10
-214.130935
20
478.791890
30
0.0
11
-214.130935
21
428.207930
31
0.0
0
LINE
8
0
6
CONTINUOUS
10
-213.730945
20
427.500230
30
0.0
11
-212.630945
21
427.500230
31
0.0
0
LINE
8
0
6
CONTINUOUS
10
-212.630945
20
427.500230
30
0.0
11
-210.930945
21
427.500230
31
0.0
0
LINE
8
0
6
CONTINUOUS
10
-210.930945
20
427.500230
30
0.0
11
-208.630945
21
427.500230
31
0.0
0
LINE
8
0
6
CONTINUOUS
10
-208.630945
20
427.500230
30
0.0
11
-205.930945
21
427.500230
31
0.0
0
LINE
8
0
6
CONTINUOUS
10
-205.930945
20
427.500230
30
0.0
11
-203.130955
21
427.500150
31
0.0
0
LINE
8
0
6
CONTINUOUS
10
-214.130955
20
426.687090
30
0.0
11
-214.130955
21
426.145250
31
0.0
0
LINE
8
0
6
CONTINUOUS
10
-192.130955
20
426.145250
30
0.0
11
-192.130955
21
426.687090
31
0.0
0
LINE
8
0
6
CONTINUOUS
10
-214.130955
20
426.145250
30
0.0
11
-214.130954
21
395.805071
31
0.0
0
LINE
8
0
6
CONTINUOUS
10
-214.130952
20
352.268280
30
0.0
11
-214.130948
21
243.186110
31
0.0
0
LINE
8
0
6
CONTINUOUS
10
-214.130947
20
205.292170
30
0.0
11
-214.130935
21
-136.205620
31
0.0
0
LINE
8
0
6
CONTINUOUS
10
-192.130955
20
-136.205600
30
0.0
11
-192.130955
21
205.292170
31
0.0
0
LINE
8
0
6
CONTINUOUS
10
-192.130955
20
243.186110
30
0.0
11
-192.130955
21
339.530779
31
0.0
0
LINE
8
0
6
CONTINUOUS
10
-192.130955
20
409.399734
30
0.0
11
-192.130955
21
426.145250
31
0.0
0
LINE
8
0
6
CONTINUOUS
10
-214.130935
20
-136.205620
30
0.0
11
-214.130935
21
-136.785530
31
0.0
0
LINE
8
0
6
CONTINUOUS
10
-192.130955
20
-136.785540
30
0.0
11
-192.130955
21
-136.205600
31
0.0
0
LINE
8
0
6
CONTINUOUS
10
-203.130935
20
479.500120
30
0.0
11
-197.930935
21
479.500120
31
0.0
0
LINE
8
0
6
CONTINUOUS
10
-195.730935
20
479.500200
30
0.0
11
-203.130935
21
479.500120
31
0.0
0
LINE
8
0
6
CONTINUOUS
10
-195.330945
20
-136.999850
30
0.0
11
-193.630945
21
-136.999850
31
0.0
0
LINE
8
0
6
CONTINUOUS
10
-192.130955
20
-136.999850
30
0.0
11
-192.130955
21
-136.785540
31
0.0
0
LINE
8
0
6
CONTINUOUS
10
-192.530945
20
-136.999850
30
0.0
11
-192.130955
21
-136.999850
31
0.0
0
LINE
8
0
6
CONTINUOUS
10
-208.630945
20
-136.999870
30
0.0
11
-205.930945
21
-136.999850
31
0.0
0
LINE
8
0
6
CONTINUOUS
10
-214.130935
20
-136.999830
30
0.0
11
-213.730945
21
-136.999830
31
0.0
0
LINE
8
0
6
CONTINUOUS
10
-214.130935
20
-136.785530
30
0.0
11
-214.130935
21
-136.999830
31
0.0
0
LINE
8
0
6
CONTINUOUS
10
-203.130955
20
-136.999850
30
0.0
11
-200.330945
21
-136.999850
31
0.0
0
LINE
8
0
6
CONTINUOUS
10
-200.330945
20
-136.999850
30
0.0
11
-197.630945
21
-136.999850
31
0.0
0
LINE
8
0
6
CONTINUOUS
10
-193.630945
20
-136.999850
30
0.0
11
-192.530945
21
-136.999850
31
0.0
0
LINE
8
0
6
CONTINUOUS
10
-205.930945
20
-136.999850
30
0.0
11
-203.130955
21
-136.999850
31
0.0
0
LINE
8
0
6
CONTINUOUS
10
-210.930945
20
-136.999870
30
0.0
11
-208.630945
21
-136.999870
31
0.0
0
LINE
8
0
6
CONTINUOUS
10
-213.730945
20
-136.999830
30
0.0
11
-212.630945
21
-136.999830
31
0.0
0
LINE
8
0
6
CONTINUOUS
10
-212.630945
20
-136.999830
30
0.0
11
-210.930945
21
-136.999870
31
0.0
0
LINE
8
0
6
CONTINUOUS
10
-197.630945
20
-136.999850
30
0.0
11
-195.330945
21
-136.999850
31
0.0
0
LINE
8
0
6
CONTINUOUS
10
-229.000245
20
251.516500
30
0.0
11
-244.641465
21
251.518330
31
0.0
0
LINE
8
0
6
CONTINUOUS
10
-228.887825
20
247.475510
30
0.0
11
-228.887825
21
248.239520
31
0.0
0
LINE
8
0
6
CONTINUOUS
10
-228.887825
20
248.239520
30
0.0
11
-228.887825
21
249.023210
31
0.0
0
LINE
8
0
6
CONTINUOUS
10
-228.887825
20
249.023210
30
0.0
11
-228.887825
21
249.772870
31
0.0
0
LINE
8
0
6
CONTINUOUS
10
-228.887825
20
249.772870
30
0.0
11
-228.887825
21
250.437850
31
0.0
0
LINE
8
0
6
CONTINUOUS
10
-228.887825
20
250.437850
30
0.0
11
-228.887825
21
250.972520
31
0.0
0
LINE
8
0
6
CONTINUOUS
10
-228.887825
20
250.972520
30
0.0
11
-228.887825
21
251.340490
31
0.0
0
LINE
8
0
6
CONTINUOUS
10
-228.887825
20
251.516720
30
0.0
11
-229.000245
21
251.516500
31
0.0
0
LINE
8
0
6
CONTINUOUS
10
-228.887825
20
251.340490
30
0.0
11
-228.887825
21
251.516720
31
0.0
0
LINE
8
0
6
CONTINUOUS
10
-229.000215
20
240.447540
30
0.0
11
-228.887795
21
240.449070
31
0.0
0
LINE
8
0
6
CONTINUOUS
10
-228.887825
20
247.475510
30
0.0
11
-228.887795
21
240.449070
31
0.0
0
LINE
8
0
6
CONTINUOUS
10
-245.354385
20
205.769620
30
0.0
11
-245.354355
21
205.413670
31
0.0
0
LINE
8
0
6
CONTINUOUS
10
-245.354355
20
205.413670
30
0.0
11
-244.641685
21
205.413670
31
0.0
0
LINE
8
0
6
CONTINUOUS
10
-245.354355
20
239.561010
30
0.0
11
-245.354425
21
236.199800
31
0.0
0
LINE
8
0
6
CONTINUOUS
10
-245.354425
20
236.199800
30
0.0
11
-245.354465
21
232.020720
31
0.0
0
LINE
8
0
6
CONTINUOUS
10
-245.354465
20
232.020720
30
0.0
11
-245.354465
21
227.308660
31
0.0
0
LINE
8
0
6
CONTINUOUS
10
-245.354465
20
227.308660
30
0.0
11
-245.354505
21
222.384720
31
0.0
0
LINE
8
0
6
CONTINUOUS
10
-245.354505
20
222.384720
30
0.0
11
-245.354505
21
217.584380
31
0.0
0
LINE
8
0
6
CONTINUOUS
10
-245.354505
20
217.584380
30
0.0
11
-245.354465
21
213.234940
31
0.0
0
LINE
8
0
6
CONTINUOUS
10
-245.354465
20
213.234940
30
0.0
11
-245.354465
21
209.632680
31
0.0
0
LINE
8
0
6
CONTINUOUS
10
-245.354465
20
209.632680
30
0.0
11
-245.354425
21
207.023130
31
0.0
0
LINE
8
0
6
CONTINUOUS
10
-245.354425
20
207.023130
30
0.0
11
-245.354385
21
205.769620
31
0.0
0
LINE
8
0
6
CONTINUOUS
10
-244.641685
20
205.413670
30
0.0
11
-224.380955
21
205.413590
31
0.0
0
LINE
8
0
6
CONTINUOUS
10
-224.090465
20
209.632570
30
0.0
11
-224.090465
21
213.234830
31
0.0
0
LINE
8
0
6
CONTINUOUS
10
-224.090235
20
242.985150
30
0.0
11
-224.380875
21
242.985150
31
0.0
0
LINE
8
0
6
CONTINUOUS
10
-224.380955
20
205.413590
30
0.0
11
-224.090355
21
205.413590
31
0.0
0
LINE
8
0
6
CONTINUOUS
10
-245.354275
20
248.238300
30
0.0
11
-245.354275
21
247.475360
31
0.0
0
LINE
8
0
6
CONTINUOUS
10
-245.354275
20
249.020770
30
0.0
11
-245.354275
21
248.238300
31
0.0
0
LINE
8
0
6
CONTINUOUS
10
-245.354275
20
249.769290
30
0.0
11
-245.354275
21
249.020770
31
0.0
0
LINE
8
0
6
CONTINUOUS
10
-245.354275
20
250.433050
30
0.0
11
-245.354275
21
249.769290
31
0.0
0
LINE
8
0
6
CONTINUOUS
10
-245.354275
20
250.966720
30
0.0
11
-245.354275
21
250.433050
31
0.0
0
LINE
8
0
6
CONTINUOUS
10
-245.354275
20
251.333850
30
0.0
11
-245.354275
21
250.966720
31
0.0
0
LINE
8
0
6
CONTINUOUS
10
-245.354275
20
251.509550
30
0.0
11
-245.354275
21
251.333850
31
0.0
0
LINE
8
0
6
CONTINUOUS
10
-244.641465
20
251.518330
30
0.0
11
-245.354275
21
251.509550
31
0.0
0
LINE
8
0
6
CONTINUOUS
10
-224.090505
20
217.584310
30
0.0
11
-224.090465
21
213.234830
31
0.0
0
LINE
8
0
6
CONTINUOUS
10
-244.641425
20
240.455700
30
0.0
11
-229.000215
21
240.447540
31
0.0
0
LINE
8
0
6
CONTINUOUS
10
-224.380875
20
242.985150
30
0.0
11
-228.887795
21
242.985168
31
0.0
0
LINE
8
0
6
CONTINUOUS
10
-245.354235
20
240.453110
30
0.0
11
-244.641425
21
240.455700
31
0.0
0
LINE
8
0
6
CONTINUOUS
10
-245.354275
20
247.475360
30
0.0
11
-245.354235
21
240.453110
31
0.0
0
LINE
8
0
6
CONTINUOUS
10
-245.354235
20
240.453110
30
0.0
11
-245.354355
21
239.561010
31
0.0
0
LINE
8
0
6
CONTINUOUS
10
-244.641425
20
240.455700
30
0.0
11
-245.354235
21
240.453110
31
0.0
0
LINE
8
0
6
CONTINUOUS
10
-224.090425
20
207.023010
30
0.0
11
-224.090385
21
205.583990
31
0.0
0
LINE
8
0
6
CONTINUOUS
10
-224.090465
20
209.632570
30
0.0
11
-224.090425
21
207.023010
31
0.0
0
LINE
8
0
6
CONTINUOUS
10
-224.090505
20
222.384640
30
0.0
11
-224.090505
21
217.584310
31
0.0
0
LINE
8
0
6
CONTINUOUS
10
-224.090465
20
227.308580
30
0.0
11
-224.090505
21
222.384640
31
0.0
0
LINE
8
0
6
CONTINUOUS
10
-224.090425
20
232.020650
30
0.0
11
-224.090465
21
227.308580
31
0.0
0
LINE
8
0
6
CONTINUOUS
10
-224.090385
20
236.199720
30
0.0
11
-224.090425
21
232.020650
31
0.0
0
LINE
8
0
6
CONTINUOUS
10
-224.090355
20
239.560930
30
0.0
11
-224.090385
21
236.199720
31
0.0
0
LINE
8
0
6
CONTINUOUS
10
-224.090315
20
241.875380
30
0.0
11
-224.090355
21
239.560930
31
0.0
0
LINE
8
0
6
CONTINUOUS
10
-224.090235
20
242.985150
30
0.0
11
-224.090315
21
241.875380
31
0.0
0
LINE
8
0
6
CONTINUOUS
10
-224.090385
20
205.583990
30
0.0
11
-224.090355
21
205.413590
31
0.0
0
LINE
8
0
6
CONTINUOUS
10
-223.509065
20
228.002470
30
0.0
11
-223.509065
21
224.307330
31
0.0
0
LINE
8
0
6
CONTINUOUS
10
-223.509105
20
237.684940
30
0.0
11
-223.509105
21
234.822240
31
0.0
0
LINE
8
0
6
CONTINUOUS
10
-223.509105
20
234.822240
30
0.0
11
-223.509105
21
231.552810
31
0.0
0
LINE
8
0
6
CONTINUOUS
10
-182.199259
20
238.501141
30
0.0
11
-182.724005
21
239.640500
31
0.0
0
LINE
8
0
6
CONTINUOUS
10
-162.701175
20
224.307400
30
0.0
11
-162.701175
21
228.002470
31
0.0
0
LINE
8
0
6
CONTINUOUS
10
-162.701155
20
220.609740
30
0.0
11
-162.701175
21
224.307400
31
0.0
0
LINE
8
0
6
CONTINUOUS
10
-181.930625
20
237.684940
30
0.0
11
-183.011055
21
240.030900
31
0.0
0
LINE
8
0
6
CONTINUOUS
10
-162.701175
20
213.769530
30
0.0
11
-162.701175
21
217.051550
31
0.0
0
LINE
8
0
6
CONTINUOUS
10
-162.701175
20
217.051550
30
0.0
11
-162.701155
21
220.609740
31
0.0
0
LINE
8
0
6
CONTINUOUS
10
-162.701175
20
228.002470
30
0.0
11
-162.701195
21
231.552890
31
0.0
0
LINE
8
0
6
CONTINUOUS
10
-162.701195
20
231.552890
30
0.0
11
-162.701155
21
233.658600
31
0.0
0
LINE
8
0
6
CONTINUOUS
10
-223.509105
20
240.030900
30
0.0
11
-223.509105
21
237.684940
31
0.0
0
LINE
8
0
6
CONTINUOUS
10
-223.509145
20
243.186110
30
0.0
11
-223.509145
21
242.835310
31
0.0
0
LINE
8
0
6
CONTINUOUS
10
-223.189395
20
243.186110
30
0.0
11
-223.509145
21
243.186110
31
0.0
0
LINE
8
0
6
CONTINUOUS
10
-182.463597
20
240.059663
30
0.0
11
-182.724005
21
239.640500
31
0.0
0
LINE
8
0
6
CONTINUOUS
10
-223.509105
20
241.769940
30
0.0
11
-223.509105
21
240.030900
31
0.0
0
LINE
8
0
6
CONTINUOUS
10
-182.659698
20
243.186110
30
0.0
11
-192.130955
21
243.186110
31
0.0
0
LINE
8
0
6
CONTINUOUS
10
-214.107747
20
243.186110
30
0.0
11
-223.189395
21
243.186110
31
0.0
0
LINE
8
0
6
CONTINUOUS
10
-223.509105
20
213.769530
30
0.0
11
-223.509105
21
210.889890
31
0.0
0
LINE
8
0
6
CONTINUOUS
10
-223.509105
20
210.889890
30
0.0
11
-223.509105
21
208.523220
31
0.0
0
LINE
8
0
6
CONTINUOUS
10
-223.509105
20
208.523220
30
0.0
11
-223.509105
21
206.760560
31
0.0
0
LINE
8
0
6
CONTINUOUS
10
-223.509145
20
205.292170
30
0.0
11
-223.189395
21
205.292170
31
0.0
0
LINE
8
0
6
CONTINUOUS
10
-223.509145
20
205.669560
30
0.0
11
-223.509145
21
205.292170
31
0.0
0
LINE
8
0
6
CONTINUOUS
10
-170.878925
20
205.228920
30
0.0
11
-166.263265
21
205.292170
31
0.0
0
LINE
8
0
6
CONTINUOUS
10
-175.787965
20
205.258680
30
0.0
11
-170.878925
21
205.228920
31
0.0
0
LINE
8
0
6
CONTINUOUS
10
-179.349465
20
205.292170
30
0.0
11
-175.787965
21
205.258680
31
0.0
0
LINE
8
0
6
CONTINUOUS
10
-166.263265
20
205.292170
30
0.0
11
-163.101795
21
205.292170
31
0.0
0
LINE
8
0
6
CONTINUOUS
10
-162.701225
20
205.669560
30
0.0
11
-162.701195
21
206.760600
31
0.0
0
LINE
8
0
6
CONTINUOUS
10
-162.701195
20
206.760600
30
0.0
11
-162.701195
21
208.523260
31
0.0
0
LINE
8
0
6
CONTINUOUS
10
-162.701195
20
210.889860
30
0.0
11
-162.701175
21
213.769530
31
0.0
0
LINE
8
0
6
CONTINUOUS
10
-162.701195
20
208.523260
30
0.0
11
-162.701195
21
210.889860
31
0.0
0
LINE
8
0
6
CONTINUOUS
10
-162.701225
20
205.292240
30
0.0
11
-162.701225
21
205.669560
31
0.0
0
LINE
8
0
6
CONTINUOUS
10
-163.101795
20
205.292170
30
0.0
11
-162.701225
21
205.292240
31
0.0
0
LINE
8
0
6
CONTINUOUS
10
-223.189395
20
205.292170
30
0.0
11
-214.130947
21
205.292170
31
0.0
0
LINE
8
0
6
CONTINUOUS
10
-192.130955
20
205.292170
30
0.0
11
-179.349465
21
205.292170
31
0.0
0
LINE
8
0
6
CONTINUOUS
10
-223.509065
20
228.002470
30
0.0
11
-223.509105
21
231.552810
31
0.0
0
LINE
8
0
6
CONTINUOUS
10
-223.509105
20
213.769530
30
0.0
11
-223.509065
21
217.051470
31
0.0
0
LINE
8
0
6
CONTINUOUS
10
-223.509065
20
220.609670
30
0.0
11
-223.509065
21
224.307330
31
0.0
0
LINE
8
0
6
CONTINUOUS
10
-223.509145
20
205.669560
30
0.0
11
-223.509105
21
206.760560
31
0.0
0
LINE
8
0
6
CONTINUOUS
10
-223.509065
20
217.051470
30
0.0
11
-223.509065
21
220.609670
31
0.0
0
LINE
8
0
6
CONTINUOUS
10
-223.509105
20
241.769940
30
0.0
11
-223.509145
21
242.835310
31
0.0
0
LINE
8
0
6
CONTINUOUS
10
-201.817614
20
208.523239
30
0.0
11
-200.330945
21
208.408746
31
0.0
0
LINE
8
0
6
CONTINUOUS
10
-203.130955
20
208.678332
30
0.0
11
-201.817614
21
208.523239
31
0.0
0
LINE
8
0
6
CONTINUOUS
10
-201.030621
20
240.030900
30
0.0
11
-200.330945
21
240.083887
31
0.0
0
LINE
8
0
6
CONTINUOUS
10
-203.130955
20
239.786445
30
0.0
11
-201.030621
21
240.030900
31
0.0
0
LINE
8
0
6
CONTINUOUS
10
-213.730945
20
242.935910
30
0.0
11
-214.107747
21
243.186110
31
0.0
0
LINE
8
0
6
CONTINUOUS
10
-192.530958
20
242.935923
30
0.0
11
-192.154138
21
243.186110
31
0.0
0
LINE
8
0
6
CONTINUOUS
10
-205.930945
20
208.408735
30
0.0
11
-204.444228
21
208.523237
31
0.0
0
LINE
8
0
6
CONTINUOUS
10
-204.444228
20
208.523237
30
0.0
11
-203.130955
21
208.678332
31
0.0
0
LINE
8
0
6
CONTINUOUS
10
-205.930945
20
240.083891
30
0.0
11
-205.231186
21
240.030900
31
0.0
0
LINE
8
0
6
CONTINUOUS
10
-205.231186
20
240.030900
30
0.0
11
-203.130955
21
239.786445
31
0.0
0
LINE
8
0
6
CONTINUOUS
10
-212.630945
20
206.132765
30
0.0
11
-213.245078
21
205.669567
31
0.0
0
LINE
8
0
6
CONTINUOUS
10
-213.299097
20
242.835328
30
0.0
11
-213.730945
21
242.935910
31
0.0
0
LINE
8
0
6
CONTINUOUS
10
-210.930945
20
206.899127
30
0.0
11
-211.120900
21
206.760560
31
0.0
0
LINE
8
0
6
CONTINUOUS
10
-193.630945
20
206.132788
30
0.0
11
-193.016799
21
205.669581
31
0.0
0
LINE
8
0
6
CONTINUOUS
10
-192.962781
20
242.835365
30
0.0
11
-192.530958
21
242.935923
31
0.0
0
LINE
8
0
6
CONTINUOUS
10
-195.330945
20
206.899159
30
0.0
11
-195.140957
21
206.760560
31
0.0
0
LINE
8
0
6
CONTINUOUS
10
-178.933120
20
233.722016
30
0.0
11
-176.536705
21
231.923248
31
0.0
0
LINE
8
0
6
CONTINUOUS
10
-176.189383
20
231.782455
30
0.0
11
-175.839660
21
231.640693
31
0.0
0
LINE
8
0
6
CONTINUOUS
10
-175.839660
20
231.640693
30
0.0
11
-175.319492
21
231.429860
31
0.0
0
LINE
8
0
6
CONTINUOUS
10
-176.536705
20
231.923248
30
0.0
11
-176.189383
21
231.782455
31
0.0
0
LINE
8
0
6
CONTINUOUS
10
-166.263205
20
231.552890
30
0.0
11
-165.219669
21
231.999530
31
0.0
0
LINE
8
0
6
CONTINUOUS
10
-179.593552
20
234.554097
30
0.0
11
-179.806378
21
234.822240
31
0.0
0
LINE
8
0
6
CONTINUOUS
10
-179.806378
20
234.822240
30
0.0
11
-180.808664
21
235.847681
31
0.0
0
LINE
8
0
6
CONTINUOUS
10
-180.808664
20
235.847681
30
0.0
11
-181.209182
21
236.589499
31
0.0
0
LINE
8
0
6
CONTINUOUS
10
-173.790919
20
230.810276
30
0.0
11
-170.879015
21
230.446902
31
0.0
0
LINE
8
0
6
CONTINUOUS
10
-165.219669
20
231.999530
30
0.0
11
-163.405937
21
233.398726
31
0.0
0
LINE
8
0
6
CONTINUOUS
10
-153.758276
20
380.985103
30
0.0
11
-153.090668
21
380.286278
31
0.0
0
LINE
8
0
6
CONTINUOUS
10
88.031070
20
-442.178846
30
0.0
11
87.779508
21
-442.340027
31
0.0
0
LINE
8
0
6
CONTINUOUS
10
-151.744659
20
343.920461
30
0.0
11
-150.644439
21
344.343499
31
0.0
0
LINE
8
0
6
CONTINUOUS
10
-152.600812
20
374.788514
30
0.0
11
-151.705519
21
374.912525
31
0.0
0
LINE
8
0
6
CONTINUOUS
10
-151.298674
20
374.972034
30
0.0
11
-150.450395
21
374.386573
31
0.0
0
LINE
8
0
6
CONTINUOUS
10
102.867539
20
-441.525807
30
0.0
11
105.707050
21
-442.183306
31
0.0
0
LINE
8
0
6
CONTINUOUS
10
90.870579
20
-441.522780
30
0.0
11
88.031070
21
-442.178846
31
0.0
0
LINE
8
0
6
CONTINUOUS
10
105.707050
20
-442.183306
30
0.0
11
105.958507
21
-442.344543
31
0.0
0
LINE
8
0
6
CONTINUOUS
10
90.870579
20
-441.522780
30
0.0
11
93.239023
21
-441.303758
31
0.0
0
LINE
8
0
6
CONTINUOUS
10
100.497829
20
-441.305472
30
0.0
11
102.867539
21
-441.525807
31
0.0
0
LINE
8
0
6
CONTINUOUS
10
93.239023
20
-441.303758
30
0.0
11
94.747268
21
-440.986679
31
0.0
0
LINE
8
0
6
CONTINUOUS
10
94.747268
20
-440.986679
30
0.0
11
98.990848
21
-440.987836
31
0.0
0
LINE
8
0
6
CONTINUOUS
10
98.990848
20
-440.987836
30
0.0
11
100.497829
21
-441.305472
31
0.0
0
ENDSEC
0
EOF
