999
Erzeugt mit innoplus bad 
0
SECTION
2
HEADER
9
$ACADVER
1
AC1009
9
$DWGCODEPAGE
3
ISO8859-1
0
ENDSEC
0
SECTION
2
TABLES
0
TABLE
2
LAYER
70
1
0
LAYER
2
0
70
0
62
7
6
CONTINUOUS
0
ENDTAB
0
ENDSEC
0
SECTION
2
ENTITIES
0
LINE
8
0
6
CONTINUOUS
10
12.048465
20
-14.211185
30
0.0
11
12.048465
21
-13.294865
31
0.0
0
LINE
8
0
6
CONTINUOUS
10
25.184265
20
-14.211185
30
0.0
11
25.184265
21
-13.395685
31
0.0
0
LINE
8
0
6
CONTINUOUS
10
20.963945
20
-14.211180
30
0.0
11
20.963945
21
-13.286813
31
0.0
0
LINE
8
0
6
CONTINUOUS
10
13.774485
20
-12.517157
30
0.0
11
13.774485
21
-14.211185
31
0.0
0
LINE
8
0
6
CONTINUOUS
10
16.928075
20
-14.211185
30
0.0
11
16.928075
21
-13.249213
31
0.0
0
LINE
8
0
6
CONTINUOUS
10
25.590865
20
-14.211175
30
0.0
11
20.826385
21
-14.211175
31
0.0
0
LINE
8
0
6
CONTINUOUS
10
16.270165
20
-14.211175
30
0.0
11
12.709975
21
-14.211185
31
0.0
0
LINE
8
0
6
CONTINUOUS
10
25.590865
20
-14.211175
30
0.0
11
25.590865
21
-15.591645
31
0.0
0
LINE
8
0
6
CONTINUOUS
10
26.351712
20
-14.211177
30
0.0
11
25.590865
21
-14.211175
31
0.0
0
LINE
8
0
6
CONTINUOUS
10
16.270165
20
-14.211175
30
0.0
11
16.270165
21
-15.591645
31
0.0
0
LINE
8
0
6
CONTINUOUS
10
20.826385
20
-14.211175
30
0.0
11
16.270165
21
-14.211175
31
0.0
0
LINE
8
0
6
CONTINUOUS
10
20.826385
20
-15.591645
30
0.0
11
20.826385
21
-14.211175
31
0.0
0
LINE
8
0
6
CONTINUOUS
10
10.761405
20
-14.211185
30
0.0
11
10.761405
21
-15.591645
31
0.0
0
LINE
8
0
6
CONTINUOUS
10
12.709975
20
-14.211185
30
0.0
11
10.761405
21
-14.211185
31
0.0
0
LINE
8
0
6
CONTINUOUS
10
12.709975
20
-15.591645
30
0.0
11
12.709975
21
-14.211185
31
0.0
0
LINE
8
0
6
CONTINUOUS
10
11.943055
20
-36.859125
30
0.0
11
13.687295
21
-36.859115
31
0.0
0
LINE
8
0
6
CONTINUOUS
10
11.901795
20
-36.116395
30
0.0
11
11.943055
21
-36.859125
31
0.0
0
LINE
8
0
6
CONTINUOUS
10
13.687295
20
-36.859115
30
0.0
11
16.874185
21
-36.859115
31
0.0
0
LINE
8
0
6
CONTINUOUS
10
13.653165
20
-36.116395
30
0.0
11
13.687295
21
-36.859115
31
0.0
0
LINE
8
0
6
CONTINUOUS
10
16.874185
20
-36.859115
30
0.0
11
20.952675
21
-36.859115
31
0.0
0
LINE
8
0
6
CONTINUOUS
10
16.853085
20
-36.116395
30
0.0
11
16.874185
21
-36.859115
31
0.0
0
LINE
8
0
6
CONTINUOUS
10
20.952675
20
-36.859115
30
0.0
11
25.217565
21
-36.859115
31
0.0
0
LINE
8
0
6
CONTINUOUS
10
20.948255
20
-36.116395
30
0.0
11
20.952675
21
-36.859115
31
0.0
0
LINE
8
0
6
CONTINUOUS
10
25.217565
20
-36.859115
30
0.0
11
28.931405
21
-36.859115
31
0.0
0
LINE
8
0
6
CONTINUOUS
10
25.230605
20
-36.116395
30
0.0
11
25.217565
21
-36.859115
31
0.0
0
LINE
8
0
6
CONTINUOUS
10
28.931405
20
-36.859115
30
0.0
11
31.452045
21
-36.859115
31
0.0
0
LINE
8
0
6
CONTINUOUS
10
28.959625
20
-36.116395
30
0.0
11
28.931405
21
-36.859115
31
0.0
0
LINE
8
0
6
CONTINUOUS
10
31.452045
20
-36.859115
30
0.0
11
32.343655
21
-36.859125
31
0.0
0
LINE
8
0
6
CONTINUOUS
10
31.490585
20
-36.116395
30
0.0
11
31.452045
21
-36.859115
31
0.0
0
LINE
8
0
6
CONTINUOUS
10
32.343655
20
-36.859125
30
0.0
11
32.385845
21
-36.116405
31
0.0
0
LINE
8
0
6
CONTINUOUS
10
10.761405
20
-15.591645
30
0.0
11
11.901795
21
-36.116395
31
0.0
0
LINE
8
0
6
CONTINUOUS
10
12.709975
20
-15.591645
30
0.0
11
13.653165
21
-36.116395
31
0.0
0
LINE
8
0
6
CONTINUOUS
10
16.270165
20
-15.591645
30
0.0
11
16.853085
21
-36.116395
31
0.0
0
LINE
8
0
6
CONTINUOUS
10
20.826385
20
-15.591645
30
0.0
11
20.948255
21
-36.116395
31
0.0
0
LINE
8
0
6
CONTINUOUS
10
25.590865
20
-15.591645
30
0.0
11
25.230605
21
-36.116395
31
0.0
0
LINE
8
0
6
CONTINUOUS
10
29.673449
20
-17.335888
30
0.0
11
28.959625
21
-36.116395
31
0.0
0
LINE
8
0
6
CONTINUOUS
10
32.555645
20
-15.591645
30
0.0
11
31.490585
21
-36.116395
31
0.0
0
LINE
8
0
6
CONTINUOUS
10
32.385845
20
-36.116405
30
0.0
11
33.551705
21
-15.591655
31
0.0
0
LINE
8
0
6
CONTINUOUS
10
36.186435
20
21.024495
30
0.0
11
34.319045
21
22.883115
31
0.0
0
LINE
8
0
6
CONTINUOUS
10
33.168285
20
23.910045
30
0.0
11
32.290465
21
24.628095
31
0.0
0
LINE
8
0
6
CONTINUOUS
10
52.880365
20
8.932345
30
0.0
11
52.880365
21
10.951085
31
0.0
0
LINE
8
0
6
CONTINUOUS
10
36.610815
20
20.629305
30
0.0
11
33.872785
21
23.242255
31
0.0
0
LINE
8
0
6
CONTINUOUS
10
37.019385
20
-13.637035
30
0.0
11
38.075515
21
-13.626615
31
0.0
0
LINE
8
0
6
CONTINUOUS
10
35.967025
20
-13.635795
30
0.0
11
37.019385
21
-13.637035
31
0.0
0
LINE
8
0
6
CONTINUOUS
10
23.077495
20
-12.959225
30
0.0
11
25.802835
21
-13.471545
31
0.0
0
LINE
8
0
6
CONTINUOUS
10
23.077125
20
-12.957185
30
0.0
11
25.734525
21
-13.510195
31
0.0
0
LINE
8
0
6
CONTINUOUS
10
25.734525
20
-13.510195
30
0.0
11
25.932034
21
-13.513376
31
0.0
0
LINE
8
0
6
CONTINUOUS
10
38.075515
20
-13.626615
30
0.0
11
38.785235
21
-13.621505
31
0.0
0
LINE
8
0
6
CONTINUOUS
10
52.880365
20
16.918845
30
0.0
11
52.880365
21
18.535165
31
0.0
0
LINE
8
0
6
CONTINUOUS
10
52.880365
20
19.137405
30
0.0
11
52.385995
21
19.213045
31
0.0
0
LINE
8
0
6
CONTINUOUS
10
52.880365
20
18.535165
30
0.0
11
52.880365
21
19.137405
31
0.0
0
LINE
8
0
6
CONTINUOUS
10
52.880365
20
14.341165
30
0.0
11
52.880365
21
16.918845
31
0.0
0
LINE
8
0
6
CONTINUOUS
10
39.450535
20
17.110405
30
0.0
11
41.939535
21
13.831755
31
0.0
0
LINE
8
0
6
CONTINUOUS
10
52.880365
20
10.951085
30
0.0
11
52.880365
21
14.341165
31
0.0
0
LINE
8
0
6
CONTINUOUS
10
52.880365
20
6.913615
30
0.0
11
52.880365
21
8.932345
31
0.0
0
LINE
8
0
6
CONTINUOUS
10
52.880365
20
2.697555
30
0.0
11
52.880365
21
6.913615
31
0.0
0
LINE
8
0
6
CONTINUOUS
10
52.880365
20
-1.515765
30
0.0
11
52.880365
21
2.697555
31
0.0
0
LINE
8
0
6
CONTINUOUS
10
52.880365
20
-5.421885
30
0.0
11
52.880365
21
-1.515765
31
0.0
0
LINE
8
0
6
CONTINUOUS
10
52.880365
20
-8.766075
30
0.0
11
52.880365
21
-5.421885
31
0.0
0
LINE
8
0
6
CONTINUOUS
10
52.880355
20
-11.335025
30
0.0
11
52.880355
21
-12.281865
31
0.0
0
LINE
8
0
6
CONTINUOUS
10
52.880355
20
-12.281865
30
0.0
11
52.880355
21
-12.944655
31
0.0
0
LINE
8
0
6
CONTINUOUS
10
52.385925
20
-13.527475
30
0.0
11
52.880365
21
-13.524015
31
0.0
0
LINE
8
0
6
CONTINUOUS
10
52.880355
20
-12.944655
30
0.0
11
52.880365
21
-13.524015
31
0.0
0
LINE
8
0
6
CONTINUOUS
10
41.009535
20
5.056065
30
0.0
11
41.452795
21
8.791435
31
0.0
0
LINE
8
0
6
CONTINUOUS
10
37.315245
20
-4.949965
30
0.0
11
39.596635
21
-0.311125
31
0.0
0
LINE
8
0
6
CONTINUOUS
10
41.009535
20
5.056065
30
0.0
11
39.596635
21
-0.311125
31
0.0
0
LINE
8
0
6
CONTINUOUS
10
41.452795
20
8.791435
30
0.0
11
41.444535
21
11.632015
31
0.0
0
LINE
8
0
6
CONTINUOUS
10
52.880355
20
-11.335025
30
0.0
11
52.880365
21
-10.046545
31
0.0
0
LINE
8
0
6
CONTINUOUS
10
23.077655
20
-12.960115
30
0.0
11
25.536611
21
-12.855902
31
0.0
0
LINE
8
0
6
CONTINUOUS
10
23.077845
20
-12.961135
30
0.0
11
25.283940
21
-12.435785
31
0.0
0
LINE
8
0
6
CONTINUOUS
10
39.450535
20
17.110405
30
0.0
11
35.960055
21
20.805595
31
0.0
0
LINE
8
0
6
CONTINUOUS
10
41.253275
20
14.012725
30
0.0
11
39.450535
21
17.110405
31
0.0
0
LINE
8
0
6
CONTINUOUS
10
34.382251
20
-8.257509
30
0.0
11
35.596185
21
-7.961815
31
0.0
0
LINE
8
0
6
CONTINUOUS
10
41.444535
20
11.632015
30
0.0
11
41.253275
21
14.012725
31
0.0
0
LINE
8
0
6
CONTINUOUS
10
52.880365
20
-10.046545
30
0.0
11
52.880365
21
-8.766075
31
0.0
0
LINE
8
0
6
CONTINUOUS
10
38.021215
20
-4.971495
30
0.0
11
37.315245
21
-4.949965
31
0.0
0
LINE
8
0
6
CONTINUOUS
10
35.794145
20
21.428285
30
0.0
11
37.053645
21
20.243335
31
0.0
0
LINE
8
0
6
CONTINUOUS
10
52.385995
20
19.213045
30
0.0
11
35.794145
21
21.428285
31
0.0
0
LINE
8
0
6
CONTINUOUS
10
41.939535
20
13.831755
30
0.0
11
52.390725
21
11.075625
31
0.0
0
LINE
8
0
6
CONTINUOUS
10
39.949365
20
16.732055
30
0.0
11
41.939535
21
13.831755
31
0.0
0
LINE
8
0
6
CONTINUOUS
10
37.053645
20
20.243335
30
0.0
11
38.622685
21
18.696735
31
0.0
0
LINE
8
0
6
CONTINUOUS
10
39.949365
20
16.732055
30
0.0
11
52.388325
21
14.447815
31
0.0
0
LINE
8
0
6
CONTINUOUS
10
38.622685
20
18.696735
30
0.0
11
39.949365
21
16.732055
31
0.0
0
LINE
8
0
6
CONTINUOUS
10
38.785235
20
-13.621505
30
0.0
11
52.385925
21
-13.527475
31
0.0
0
LINE
8
0
6
CONTINUOUS
10
38.021215
20
-4.971495
30
0.0
11
52.387815
21
-5.409655
31
0.0
0
LINE
8
0
6
CONTINUOUS
10
35.967025
20
-13.635865
30
0.0
11
37.019385
21
-13.637115
31
0.0
0
LINE
8
0
6
CONTINUOUS
10
38.075515
20
-13.626615
30
0.0
11
38.785235
21
-13.621505
31
0.0
0
LINE
8
0
6
CONTINUOUS
10
40.825225
20
9.720425
30
0.0
11
40.332955
21
10.816875
31
0.0
0
LINE
8
0
6
CONTINUOUS
10
23.078265
20
-12.963455
30
0.0
11
23.168626
21
-12.935405
31
0.0
0
LINE
8
0
6
CONTINUOUS
10
33.891734
20
-7.441925
30
0.0
11
36.649615
21
-4.640865
31
0.0
0
LINE
8
0
6
CONTINUOUS
10
36.497095
20
-4.582575
30
0.0
11
33.868965
21
-7.404068
31
0.0
0
LINE
8
0
6
CONTINUOUS
10
-68.117705
20
-27.162125
30
0.0
11
-68.117686
21
-19.195635
31
0.0
0
LINE
8
0
6
CONTINUOUS
10
-68.621685
20
-27.162115
30
0.0
11
-68.117705
21
-27.162125
31
0.0
0
LINE
8
0
6
CONTINUOUS
10
-69.965565
20
-27.162165
30
0.0
11
-68.621685
21
-27.162115
31
0.0
0
LINE
8
0
6
CONTINUOUS
10
-70.301635
20
-27.495495
30
0.0
11
-72.485585
21
-27.495475
31
0.0
0
LINE
8
0
6
CONTINUOUS
10
-68.957625
20
-27.495505
30
0.0
11
-70.301635
21
-27.495495
31
0.0
0
LINE
8
0
6
CONTINUOUS
10
-72.205515
20
-27.162085
30
0.0
11
-69.965565
21
-27.162165
31
0.0
0
LINE
8
0
6
CONTINUOUS
10
-75.173515
20
-27.162145
30
0.0
11
-72.205515
21
-27.162085
31
0.0
0
LINE
8
0
6
CONTINUOUS
10
-78.533375
20
-27.162105
30
0.0
11
-75.173515
21
-27.162145
31
0.0
0
LINE
8
0
6
CONTINUOUS
10
-82.117295
20
-27.162115
30
0.0
11
-78.533375
21
-27.162105
31
0.0
0
LINE
8
0
6
CONTINUOUS
10
-96.116855
20
-19.195618
30
0.0
11
-96.116855
21
-27.162195
31
0.0
0
LINE
8
0
6
CONTINUOUS
10
-96.116855
20
-27.162195
30
0.0
11
-95.612875
21
-27.162125
31
0.0
0
LINE
8
0
6
CONTINUOUS
10
-95.612875
20
-27.162125
30
0.0
11
-94.268905
21
-27.162145
31
0.0
0
LINE
8
0
6
CONTINUOUS
10
-94.268905
20
-27.162145
30
0.0
11
-92.028985
21
-27.162115
31
0.0
0
LINE
8
0
6
CONTINUOUS
10
-92.028985
20
-27.162115
30
0.0
11
-89.061095
21
-27.162105
31
0.0
0
LINE
8
0
6
CONTINUOUS
10
-89.061095
20
-27.162105
30
0.0
11
-85.701185
21
-27.162115
31
0.0
0
LINE
8
0
6
CONTINUOUS
10
-85.701185
20
-27.162115
30
0.0
11
-82.117295
21
-27.162115
31
0.0
0
LINE
8
0
6
CONTINUOUS
10
-72.485585
20
-27.495475
30
0.0
11
-75.341425
21
-27.495465
31
0.0
0
LINE
8
0
6
CONTINUOUS
10
-75.341425
20
-27.495465
30
0.0
11
-78.589315
21
-27.495445
31
0.0
0
LINE
8
0
6
CONTINUOUS
10
-85.645165
20
-27.495445
30
0.0
11
-88.893075
21
-27.495435
31
0.0
0
LINE
8
0
6
CONTINUOUS
10
-68.957625
20
-27.495505
30
0.0
11
-68.453665
21
-27.495425
31
0.0
0
LINE
8
0
6
CONTINUOUS
10
-88.893075
20
-27.495435
30
0.0
11
-91.748985
21
-27.495445
31
0.0
0
LINE
8
0
6
CONTINUOUS
10
-91.748985
20
-27.495445
30
0.0
11
-93.932885
21
-27.495505
31
0.0
0
LINE
8
0
6
CONTINUOUS
10
-65.792335
20
-19.195635
30
0.0
11
-67.479585
21
-19.195595
31
0.0
0
LINE
8
0
6
CONTINUOUS
10
-67.479585
20
-19.195595
30
0.0
11
-70.160775
21
-19.195545
31
0.0
0
LINE
8
0
6
CONTINUOUS
10
-64.373935
20
-15.954025
30
0.0
11
-63.772075
21
-14.596595
31
0.0
0
LINE
8
0
6
CONTINUOUS
10
-49.619635
20
-12.543885
30
0.0
11
12.048465
21
-13.594757
31
0.0
0
LINE
8
0
6
CONTINUOUS
10
5.834174
20
25.105550
30
0.0
11
-49.619635
21
24.152795
31
0.0
0
LINE
8
0
6
CONTINUOUS
10
-80.678315
20
16.684005
30
0.0
11
-85.793505
21
12.702825
31
0.0
0
LINE
8
0
6
CONTINUOUS
10
-93.755925
20
2.520745
30
0.0
11
-96.473705
21
-3.363875
31
0.0
0
LINE
8
0
6
CONTINUOUS
10
-90.165755
20
7.917575
30
0.0
11
-93.755925
21
2.520745
31
0.0
0
LINE
8
0
6
CONTINUOUS
10
-85.793505
20
12.702825
30
0.0
11
-90.165755
21
7.917575
31
0.0
0
LINE
8
0
6
CONTINUOUS
10
-49.619635
20
24.152795
30
0.0
11
-56.098205
21
23.944735
31
0.0
0
LINE
8
0
6
CONTINUOUS
10
-56.098205
20
23.944735
30
0.0
11
-62.546165
21
23.282295
31
0.0
0
LINE
8
0
6
CONTINUOUS
10
-75.000085
20
19.810145
30
0.0
11
-80.678315
21
16.684005
31
0.0
0
LINE
8
0
6
CONTINUOUS
10
-54.079955
20
-12.453275
30
0.0
11
-52.593185
21
-12.483185
31
0.0
0
LINE
8
0
6
CONTINUOUS
10
-68.900845
20
22.004355
30
0.0
11
-75.000085
21
19.810145
31
0.0
0
LINE
8
0
6
CONTINUOUS
10
-62.546165
20
23.282295
30
0.0
11
-68.900845
21
22.004355
31
0.0
0
LINE
8
0
6
CONTINUOUS
10
-96.473705
20
-3.363875
30
0.0
11
-98.345235
21
-9.569715
31
0.0
0
LINE
8
0
6
CONTINUOUS
10
-98.345235
20
-9.569715
30
0.0
11
-99.373935
21
-15.969465
31
0.0
0
LINE
8
0
6
CONTINUOUS
10
-58.539685
20
-12.342915
30
0.0
11
-57.052805
21
-12.366685
31
0.0
0
LINE
8
0
6
CONTINUOUS
10
-55.566655
20
-12.419615
30
0.0
11
-54.079955
21
-12.453275
31
0.0
0
LINE
8
0
6
CONTINUOUS
10
-57.052805
20
-12.366685
30
0.0
11
-55.566655
21
-12.419615
31
0.0
0
LINE
8
0
6
CONTINUOUS
10
-60.021775
20
-12.464955
30
0.0
11
-58.539685
21
-12.342915
31
0.0
0
LINE
8
0
6
CONTINUOUS
10
-67.080065
20
-17.899595
30
0.0
11
-65.387165
21
-17.899585
31
0.0
0
LINE
8
0
6
CONTINUOUS
10
-73.662005
20
-19.195615
30
0.0
11
-77.741365
21
-19.195585
31
0.0
0
LINE
8
0
6
CONTINUOUS
10
-94.073705
20
-19.195585
30
0.0
11
-96.754945
21
-19.195665
31
0.0
0
LINE
8
0
6
CONTINUOUS
10
-62.775205
20
-13.493965
30
0.0
11
-61.477805
21
-12.767335
31
0.0
0
LINE
8
0
6
CONTINUOUS
10
-69.813105
20
-17.899565
30
0.0
11
-67.080065
21
-17.899595
31
0.0
0
LINE
8
0
6
CONTINUOUS
10
-73.421525
20
-17.899625
30
0.0
11
-69.813105
21
-17.899565
31
0.0
0
LINE
8
0
6
CONTINUOUS
10
-77.625265
20
-17.899585
30
0.0
11
-73.421525
21
-17.899625
31
0.0
0
LINE
8
0
6
CONTINUOUS
10
-82.117265
20
-17.899595
30
0.0
11
-77.625265
21
-17.899585
31
0.0
0
LINE
8
0
6
CONTINUOUS
10
-86.609255
20
-17.899615
30
0.0
11
-82.117265
21
-17.899595
31
0.0
0
LINE
8
0
6
CONTINUOUS
10
-90.812995
20
-17.899555
30
0.0
11
-86.609255
21
-17.899615
31
0.0
0
LINE
8
0
6
CONTINUOUS
10
-94.421395
20
-17.899595
30
0.0
11
-90.812995
21
-17.899555
31
0.0
0
LINE
8
0
6
CONTINUOUS
10
-97.154435
20
-17.899565
30
0.0
11
-94.421395
21
-17.899595
31
0.0
0
LINE
8
0
6
CONTINUOUS
10
-98.847395
20
-17.899615
30
0.0
11
-97.154435
21
-17.899565
31
0.0
0
LINE
8
0
6
CONTINUOUS
10
-99.480355
20
-17.899615
30
0.0
11
-98.847395
21
-17.899615
31
0.0
0
LINE
8
0
6
CONTINUOUS
10
-99.373935
20
-15.969465
30
0.0
11
-99.480355
21
-17.899615
31
0.0
0
LINE
8
0
6
CONTINUOUS
10
-63.772075
20
-14.596595
30
0.0
11
-62.775205
21
-13.493965
31
0.0
0
LINE
8
0
6
CONTINUOUS
10
-61.477805
20
-12.767335
30
0.0
11
-60.021775
21
-12.464955
31
0.0
0
LINE
8
0
6
CONTINUOUS
10
-65.387165
20
-17.899585
30
0.0
11
-64.754165
21
-17.899565
31
0.0
0
LINE
8
0
6
CONTINUOUS
10
-64.754165
20
-17.899565
30
0.0
11
-64.373935
21
-15.954025
31
0.0
0
LINE
8
0
6
CONTINUOUS
10
-51.106405
20
-12.513505
30
0.0
11
-49.619635
21
-12.543885
31
0.0
0
LINE
8
0
6
CONTINUOUS
10
-52.593185
20
-12.483185
30
0.0
11
-51.106405
21
-12.513505
31
0.0
0
LINE
8
0
6
CONTINUOUS
10
-92.028985
20
-27.162115
30
0.0
11
-94.268905
21
-27.162145
31
0.0
0
LINE
8
0
6
CONTINUOUS
10
-93.932885
20
-27.495505
30
0.0
11
-91.748985
21
-27.495445
31
0.0
0
LINE
8
0
6
CONTINUOUS
10
-89.061095
20
-27.162105
30
0.0
11
-92.028985
21
-27.162115
31
0.0
0
LINE
8
0
6
CONTINUOUS
10
-91.748985
20
-27.495445
30
0.0
11
-88.893075
21
-27.495435
31
0.0
0
LINE
8
0
6
CONTINUOUS
10
-68.453665
20
-27.495425
30
0.0
11
-68.117705
21
-27.162125
31
0.0
0
LINE
8
0
6
CONTINUOUS
10
-68.957625
20
-27.495505
30
0.0
11
-68.453665
21
-27.495425
31
0.0
0
LINE
8
0
6
CONTINUOUS
10
-68.117705
20
-27.162125
30
0.0
11
-68.621685
21
-27.162115
31
0.0
0
LINE
8
0
6
CONTINUOUS
10
-70.301635
20
-27.495495
30
0.0
11
-68.957625
21
-27.495505
31
0.0
0
LINE
8
0
6
CONTINUOUS
10
-68.621685
20
-27.162115
30
0.0
11
-69.965565
21
-27.162165
31
0.0
0
LINE
8
0
6
CONTINUOUS
10
-72.485585
20
-27.495475
30
0.0
11
-70.301635
21
-27.495495
31
0.0
0
LINE
8
0
6
CONTINUOUS
10
-69.965565
20
-27.162165
30
0.0
11
-72.205515
21
-27.162085
31
0.0
0
LINE
8
0
6
CONTINUOUS
10
-75.341425
20
-27.495465
30
0.0
11
-72.485585
21
-27.495475
31
0.0
0
LINE
8
0
6
CONTINUOUS
10
-72.205515
20
-27.162085
30
0.0
11
-75.173515
21
-27.162145
31
0.0
0
LINE
8
0
6
CONTINUOUS
10
-78.589315
20
-27.495445
30
0.0
11
-75.341425
21
-27.495465
31
0.0
0
LINE
8
0
6
CONTINUOUS
10
-75.173515
20
-27.162145
30
0.0
11
-78.533375
21
-27.162105
31
0.0
0
LINE
8
0
6
CONTINUOUS
10
-82.117265
20
-27.495505
30
0.0
11
-78.589315
21
-27.495445
31
0.0
0
LINE
8
0
6
CONTINUOUS
10
-78.533375
20
-27.162105
30
0.0
11
-82.117295
21
-27.162115
31
0.0
0
LINE
8
0
6
CONTINUOUS
10
-96.116855
20
-27.162195
30
0.0
11
-95.780855
21
-27.495465
31
0.0
0
LINE
8
0
6
CONTINUOUS
10
-95.612875
20
-27.162125
30
0.0
11
-96.116855
21
-27.162195
31
0.0
0
LINE
8
0
6
CONTINUOUS
10
-95.780855
20
-27.495465
30
0.0
11
-95.276855
21
-27.495485
31
0.0
0
LINE
8
0
6
CONTINUOUS
10
-94.268905
20
-27.162145
30
0.0
11
-95.612875
21
-27.162125
31
0.0
0
LINE
8
0
6
CONTINUOUS
10
-95.276855
20
-27.495485
30
0.0
11
-93.932885
21
-27.495505
31
0.0
0
LINE
8
0
6
CONTINUOUS
10
-85.701185
20
-27.162115
30
0.0
11
-89.061095
21
-27.162105
31
0.0
0
LINE
8
0
6
CONTINUOUS
10
-88.893075
20
-27.495435
30
0.0
11
-85.645165
21
-27.495445
31
0.0
0
LINE
8
0
6
CONTINUOUS
10
-82.117295
20
-27.162115
30
0.0
11
-85.701185
21
-27.162115
31
0.0
0
LINE
8
0
6
CONTINUOUS
10
-85.645165
20
-27.495445
30
0.0
11
-82.117265
21
-27.495505
31
0.0
0
LINE
8
0
6
CONTINUOUS
10
-77.741365
20
-19.195585
30
0.0
11
-73.662005
21
-19.195615
31
0.0
0
LINE
8
0
6
CONTINUOUS
10
-73.421525
20
-17.899625
30
0.0
11
-77.625265
21
-17.899585
31
0.0
0
LINE
8
0
6
CONTINUOUS
10
-67.479585
20
-19.195595
30
0.0
11
-65.792335
21
-19.195635
31
0.0
0
LINE
8
0
6
CONTINUOUS
10
-65.387165
20
-17.899585
30
0.0
11
-67.080065
21
-17.899595
31
0.0
0
LINE
8
0
6
CONTINUOUS
10
-70.160775
20
-19.195545
30
0.0
11
-67.479585
21
-19.195595
31
0.0
0
LINE
8
0
6
CONTINUOUS
10
-67.080065
20
-17.899595
30
0.0
11
-69.813105
21
-17.899565
31
0.0
0
LINE
8
0
6
CONTINUOUS
10
-73.662005
20
-19.195615
30
0.0
11
-70.160775
21
-19.195545
31
0.0
0
LINE
8
0
6
CONTINUOUS
10
-69.813105
20
-17.899565
30
0.0
11
-73.421525
21
-17.899625
31
0.0
0
LINE
8
0
6
CONTINUOUS
10
-82.117245
20
-19.195635
30
0.0
11
-77.741365
21
-19.195585
31
0.0
0
LINE
8
0
6
CONTINUOUS
10
-77.625265
20
-17.899585
30
0.0
11
-82.117265
21
-17.899595
31
0.0
0
LINE
8
0
6
CONTINUOUS
10
-99.480355
20
-17.899615
30
0.0
11
-99.063675
21
-19.195615
31
0.0
0
LINE
8
0
6
CONTINUOUS
10
-98.847395
20
-17.899615
30
0.0
11
-99.480355
21
-17.899615
31
0.0
0
LINE
8
0
6
CONTINUOUS
10
-99.063675
20
-19.195615
30
0.0
11
-98.442145
21
-19.195615
31
0.0
0
LINE
8
0
6
CONTINUOUS
10
-98.442145
20
-19.195615
30
0.0
11
-96.754945
21
-19.195665
31
0.0
0
LINE
8
0
6
CONTINUOUS
10
-94.421395
20
-17.899595
30
0.0
11
-97.154435
21
-17.899565
31
0.0
0
LINE
8
0
6
CONTINUOUS
10
-96.754945
20
-19.195665
30
0.0
11
-94.073705
21
-19.195585
31
0.0
0
LINE
8
0
6
CONTINUOUS
10
-90.812995
20
-17.899555
30
0.0
11
-94.421395
21
-17.899595
31
0.0
0
LINE
8
0
6
CONTINUOUS
10
-94.073705
20
-19.195585
30
0.0
11
-90.572495
21
-19.195635
31
0.0
0
LINE
8
0
6
CONTINUOUS
10
-86.609255
20
-17.899615
30
0.0
11
-90.812995
21
-17.899555
31
0.0
0
LINE
8
0
6
CONTINUOUS
10
-90.572495
20
-19.195635
30
0.0
11
-86.493135
21
-19.195655
31
0.0
0
LINE
8
0
6
CONTINUOUS
10
-82.117265
20
-17.899595
30
0.0
11
-86.609255
21
-17.899615
31
0.0
0
LINE
8
0
6
CONTINUOUS
10
-86.493135
20
-19.195655
30
0.0
11
-82.117245
21
-19.195635
31
0.0
0
LINE
8
0
6
CONTINUOUS
10
-65.170815
20
-19.195625
30
0.0
11
-64.754165
21
-17.899565
31
0.0
0
LINE
8
0
6
CONTINUOUS
10
-65.792335
20
-19.195635
30
0.0
11
-65.170815
21
-19.195625
31
0.0
0
LINE
8
0
6
CONTINUOUS
10
-64.754165
20
-17.899565
30
0.0
11
-65.387165
21
-17.899585
31
0.0
0
LINE
8
0
6
CONTINUOUS
10
58.586675
20
18.008195
30
0.0
11
58.224925
21
18.008195
31
0.0
0
LINE
8
0
6
CONTINUOUS
10
57.480145
20
11.642085
30
0.0
11
57.480145
21
9.244855
31
0.0
0
LINE
8
0
6
CONTINUOUS
10
58.224925
20
18.008195
30
0.0
11
58.152905
21
18.008195
31
0.0
0
LINE
8
0
6
CONTINUOUS
10
58.302095
20
15.340665
30
0.0
11
58.224925
21
18.008195
31
0.0
0
LINE
8
0
6
CONTINUOUS
10
58.656215
20
15.340665
30
0.0
11
58.302095
21
15.340665
31
0.0
0
LINE
8
0
6
CONTINUOUS
10
58.302095
20
15.340665
30
0.0
11
58.222635
21
14.983145
31
0.0
0
LINE
8
0
6
CONTINUOUS
10
57.480155
20
18.008195
30
0.0
11
57.480145
21
11.642085
31
0.0
0
LINE
8
0
6
CONTINUOUS
10
58.152905
20
18.008195
30
0.0
11
57.480155
21
18.008195
31
0.0
0
LINE
8
0
6
CONTINUOUS
10
57.480145
20
11.642085
30
0.0
11
58.222635
21
14.983145
31
0.0
0
LINE
8
0
6
CONTINUOUS
10
58.656215
20
15.340665
30
0.0
11
65.019745
21
15.340665
31
0.0
0
LINE
8
0
6
CONTINUOUS
10
65.019745
20
18.008195
30
0.0
11
58.586675
21
18.008195
31
0.0
0
LINE
8
0
6
CONTINUOUS
10
58.302095
20
-12.259365
30
0.0
11
58.656215
21
-12.259365
31
0.0
0
LINE
8
0
6
CONTINUOUS
10
58.302095
20
-12.259365
30
0.0
11
58.224925
21
-9.421685
31
0.0
0
LINE
8
0
6
CONTINUOUS
10
58.222645
20
-12.259365
30
0.0
11
58.302095
21
-12.259365
31
0.0
0
LINE
8
0
6
CONTINUOUS
10
58.152905
20
-9.080575
30
0.0
11
58.224925
21
-9.421685
31
0.0
0
LINE
8
0
6
CONTINUOUS
10
58.224925
20
-9.421685
30
0.0
11
58.586675
21
-9.421685
31
0.0
0
LINE
8
0
6
CONTINUOUS
10
57.480145
20
-5.893165
30
0.0
11
57.480155
21
-12.259365
31
0.0
0
LINE
8
0
6
CONTINUOUS
10
58.152905
20
-9.080575
30
0.0
11
57.480145
21
-5.893165
31
0.0
0
LINE
8
0
6
CONTINUOUS
10
57.480155
20
-12.259365
30
0.0
11
58.222645
21
-12.259365
31
0.0
0
LINE
8
0
6
CONTINUOUS
10
58.656215
20
-12.259365
30
0.0
11
65.019745
21
-12.259365
31
0.0
0
LINE
8
0
6
CONTINUOUS
10
65.019745
20
-9.421685
30
0.0
11
58.586675
21
-9.421685
31
0.0
0
LINE
8
0
6
CONTINUOUS
10
58.302095
20
0.205475
30
0.0
11
58.224925
21
5.710695
31
0.0
0
LINE
8
0
6
CONTINUOUS
10
58.152905
20
6.051805
30
0.0
11
58.224925
21
5.710695
31
0.0
0
LINE
8
0
6
CONTINUOUS
10
58.224925
20
5.710695
30
0.0
11
58.586675
21
5.710695
31
0.0
0
LINE
8
0
6
CONTINUOUS
10
58.656215
20
0.205475
30
0.0
11
58.302095
21
0.205475
31
0.0
0
LINE
8
0
6
CONTINUOUS
10
58.302095
20
0.205475
30
0.0
11
58.222635
21
-0.152035
31
0.0
0
LINE
8
0
6
CONTINUOUS
10
58.656215
20
0.205475
30
0.0
11
65.019745
21
0.205475
31
0.0
0
LINE
8
0
6
CONTINUOUS
10
65.019745
20
5.710695
30
0.0
11
58.586675
21
5.710695
31
0.0
0
LINE
8
0
6
CONTINUOUS
10
57.915565
20
18.011055
30
0.0
11
57.480155
21
18.011055
31
0.0
0
LINE
8
0
6
CONTINUOUS
10
57.480155
20
18.008195
30
0.0
11
57.915565
21
18.008195
31
0.0
0
LINE
8
0
6
CONTINUOUS
10
65.019745
20
18.011055
30
0.0
11
57.915565
21
18.011055
31
0.0
0
LINE
8
0
6
CONTINUOUS
10
57.915565
20
18.008195
30
0.0
11
65.019745
21
18.008195
31
0.0
0
LINE
8
0
6
CONTINUOUS
10
57.480145
20
-3.493105
30
0.0
11
57.480145
21
-5.893165
31
0.0
0
LINE
8
0
6
CONTINUOUS
10
57.480145
20
9.244855
30
0.0
11
57.480145
21
-3.493105
31
0.0
0
LINE
8
0
6
CONTINUOUS
10
58.152905
20
6.051805
30
0.0
11
57.480145
21
9.244855
31
0.0
0
LINE
8
0
6
CONTINUOUS
10
57.480145
20
-3.493105
30
0.0
11
58.222635
21
-0.152035
31
0.0
0
LINE
8
0
6
CONTINUOUS
10
71.814565
20
18.008195
30
0.0
11
71.452815
21
18.008195
31
0.0
0
LINE
8
0
6
CONTINUOUS
10
72.559345
20
9.244855
30
0.0
11
72.559345
21
11.642085
31
0.0
0
LINE
8
0
6
CONTINUOUS
10
71.814565
20
18.008195
30
0.0
11
71.737395
21
15.340665
31
0.0
0
LINE
8
0
6
CONTINUOUS
10
71.886585
20
18.008195
30
0.0
11
71.814565
21
18.008195
31
0.0
0
LINE
8
0
6
CONTINUOUS
10
71.816855
20
14.983145
30
0.0
11
71.737395
21
15.340665
31
0.0
0
LINE
8
0
6
CONTINUOUS
10
71.737395
20
15.340665
30
0.0
11
71.383275
21
15.340665
31
0.0
0
LINE
8
0
6
CONTINUOUS
10
71.816855
20
14.983145
30
0.0
11
72.559345
21
11.642085
31
0.0
0
LINE
8
0
6
CONTINUOUS
10
72.559345
20
18.008195
30
0.0
11
71.886585
21
18.008195
31
0.0
0
LINE
8
0
6
CONTINUOUS
10
72.559345
20
11.642085
30
0.0
11
72.559345
21
18.008195
31
0.0
0
LINE
8
0
6
CONTINUOUS
10
71.452815
20
18.008195
30
0.0
11
65.019745
21
18.008195
31
0.0
0
LINE
8
0
6
CONTINUOUS
10
65.019745
20
15.340665
30
0.0
11
71.383275
21
15.340665
31
0.0
0
LINE
8
0
6
CONTINUOUS
10
71.383275
20
-12.259365
30
0.0
11
71.737395
21
-12.259365
31
0.0
0
LINE
8
0
6
CONTINUOUS
10
71.737395
20
-12.259365
30
0.0
11
71.816855
21
-12.259365
31
0.0
0
LINE
8
0
6
CONTINUOUS
10
71.814565
20
-9.421685
30
0.0
11
71.737474
21
-12.256475
31
0.0
0
LINE
8
0
6
CONTINUOUS
10
71.452815
20
-9.421685
30
0.0
11
71.814565
21
-9.421685
31
0.0
0
LINE
8
0
6
CONTINUOUS
10
71.814565
20
-9.421685
30
0.0
11
71.886585
21
-9.080575
31
0.0
0
LINE
8
0
6
CONTINUOUS
10
71.816855
20
-12.259365
30
0.0
11
72.559345
21
-12.259365
31
0.0
0
LINE
8
0
6
CONTINUOUS
10
72.559345
20
-5.893165
30
0.0
11
71.886585
21
-9.080575
31
0.0
0
LINE
8
0
6
CONTINUOUS
10
72.559345
20
-12.259365
30
0.0
11
72.559345
21
-5.893165
31
0.0
0
LINE
8
0
6
CONTINUOUS
10
71.452815
20
-9.421685
30
0.0
11
65.019745
21
-9.421685
31
0.0
0
LINE
8
0
6
CONTINUOUS
10
65.019745
20
-12.259365
30
0.0
11
71.383275
21
-12.259365
31
0.0
0
LINE
8
0
6
CONTINUOUS
10
71.814555
20
5.710695
30
0.0
11
71.737385
21
0.205475
31
0.0
0
LINE
8
0
6
CONTINUOUS
10
71.452815
20
5.710695
30
0.0
11
71.814555
21
5.710695
31
0.0
0
LINE
8
0
6
CONTINUOUS
10
71.814555
20
5.710695
30
0.0
11
71.886575
21
6.051805
31
0.0
0
LINE
8
0
6
CONTINUOUS
10
71.816845
20
-0.152035
30
0.0
11
71.737385
21
0.205475
31
0.0
0
LINE
8
0
6
CONTINUOUS
10
71.737385
20
0.205475
30
0.0
11
71.383265
21
0.205475
31
0.0
0
LINE
8
0
6
CONTINUOUS
10
71.452815
20
5.710695
30
0.0
11
65.019745
21
5.710695
31
0.0
0
LINE
8
0
6
CONTINUOUS
10
65.019745
20
0.205475
30
0.0
11
71.383265
21
0.205475
31
0.0
0
LINE
8
0
6
CONTINUOUS
10
72.123935
20
18.008195
30
0.0
11
72.559345
21
18.008195
31
0.0
0
LINE
8
0
6
CONTINUOUS
10
72.559345
20
18.011055
30
0.0
11
72.123935
21
18.011055
31
0.0
0
LINE
8
0
6
CONTINUOUS
10
65.019745
20
18.008195
30
0.0
11
72.123935
21
18.008195
31
0.0
0
LINE
8
0
6
CONTINUOUS
10
72.123935
20
18.011055
30
0.0
11
65.019745
21
18.011055
31
0.0
0
LINE
8
0
6
CONTINUOUS
10
72.559345
20
-5.893165
30
0.0
11
72.559345
21
-3.493105
31
0.0
0
LINE
8
0
6
CONTINUOUS
10
71.816845
20
-0.152035
30
0.0
11
72.559345
21
-3.493105
31
0.0
0
LINE
8
0
6
CONTINUOUS
10
72.559345
20
9.244855
30
0.0
11
71.886575
21
6.051805
31
0.0
0
LINE
8
0
6
CONTINUOUS
10
72.559345
20
-3.493105
30
0.0
11
72.559345
21
9.244855
31
0.0
0
LINE
8
0
6
CONTINUOUS
10
77.499915
20
-31.045535
30
0.0
11
78.141845
21
-31.045535
31
0.0
0
LINE
8
0
6
CONTINUOUS
10
78.141775
20
36.859135
30
0.0
11
77.499835
21
36.859135
31
0.0
0
LINE
8
0
6
CONTINUOUS
10
76.541045
20
-30.735855
30
0.0
11
77.499915
21
-31.045535
31
0.0
0
LINE
8
0
6
CONTINUOUS
10
77.499865
20
21.591135
30
0.0
11
77.499865
21
26.834665
31
0.0
0
LINE
8
0
6
CONTINUOUS
10
77.499865
20
26.834665
30
0.0
11
77.499835
21
31.051195
31
0.0
0
LINE
8
0
6
CONTINUOUS
10
77.499835
20
31.051195
30
0.0
11
77.499835
21
34.221965
31
0.0
0
LINE
8
0
6
CONTINUOUS
10
77.499835
20
34.221965
30
0.0
11
77.499835
21
36.243135
31
0.0
0
LINE
8
0
6
CONTINUOUS
10
77.499835
20
36.859135
30
0.0
11
76.323345
21
36.231765
31
0.0
0
LINE
8
0
6
CONTINUOUS
10
77.499835
20
36.243135
30
0.0
11
77.499835
21
36.859135
31
0.0
0
LINE
8
0
6
CONTINUOUS
10
52.984605
20
7.704245
30
0.0
11
52.984605
21
2.699745
31
0.0
0
LINE
8
0
6
CONTINUOUS
10
52.984605
20
-2.304755
30
0.0
11
52.984605
21
-6.547385
31
0.0
0
LINE
8
0
6
CONTINUOUS
10
52.984565
20
-10.377655
30
0.0
11
57.480152
21
-10.434410
31
0.0
0
LINE
8
0
6
CONTINUOUS
10
72.559345
20
-10.624777
30
0.0
11
74.818483
21
-10.653297
31
0.0
0
LINE
8
0
6
CONTINUOUS
10
52.984565
20
-9.382165
30
0.0
11
52.984565
21
-10.377655
31
0.0
0
LINE
8
0
6
CONTINUOUS
10
52.984565
20
15.777095
30
0.0
11
52.984605
21
14.781725
31
0.0
0
LINE
8
0
6
CONTINUOUS
10
74.818371
20
16.432848
30
0.0
11
72.559345
21
16.365001
31
0.0
0
LINE
8
0
6
CONTINUOUS
10
57.480155
20
15.912115
30
0.0
11
52.984565
21
15.777095
31
0.0
0
LINE
8
0
6
CONTINUOUS
10
52.984605
20
11.946875
30
0.0
11
52.984605
21
7.704245
31
0.0
0
LINE
8
0
6
CONTINUOUS
10
52.984605
20
2.699745
30
0.0
11
52.984605
21
-2.304755
31
0.0
0
LINE
8
0
6
CONTINUOUS
10
52.984605
20
-6.547385
30
0.0
11
52.984565
21
-9.382165
31
0.0
0
LINE
8
0
6
CONTINUOUS
10
76.541045
20
-30.735855
30
0.0
11
76.548185
21
-30.085745
31
0.0
0
LINE
8
0
6
CONTINUOUS
10
76.405665
20
-29.157335
30
0.0
11
76.541045
21
-30.735855
31
0.0
0
LINE
8
0
6
CONTINUOUS
10
76.548185
20
-30.085745
30
0.0
11
76.527235
21
-28.205245
31
0.0
0
LINE
8
0
6
CONTINUOUS
10
76.527235
20
-28.205245
30
0.0
11
76.536165
21
-25.105265
31
0.0
0
LINE
8
0
6
CONTINUOUS
10
76.536165
20
-25.105265
30
0.0
11
76.532995
21
-20.949305
31
0.0
0
LINE
8
0
6
CONTINUOUS
10
76.532995
20
-20.949305
30
0.0
11
76.503125
21
-15.899175
31
0.0
0
LINE
8
0
6
CONTINUOUS
10
76.503125
20
-15.899175
30
0.0
11
76.496225
21
-10.115785
31
0.0
0
LINE
8
0
6
CONTINUOUS
10
76.496225
20
-10.115785
30
0.0
11
76.486875
21
-3.835345
31
0.0
0
LINE
8
0
6
CONTINUOUS
10
76.486875
20
-3.835345
30
0.0
11
76.453225
21
2.702055
31
0.0
0
LINE
8
0
6
CONTINUOUS
10
76.453225
20
2.702055
30
0.0
11
76.433505
21
9.241595
31
0.0
0
LINE
8
0
6
CONTINUOUS
10
76.433505
20
9.241595
30
0.0
11
76.424965
21
15.543695
31
0.0
0
LINE
8
0
6
CONTINUOUS
10
76.424965
20
15.543695
30
0.0
11
76.364915
21
21.321815
31
0.0
0
LINE
8
0
6
CONTINUOUS
10
76.364915
20
21.321815
30
0.0
11
76.346305
21
26.401995
31
0.0
0
LINE
8
0
6
CONTINUOUS
10
76.346305
20
26.401995
30
0.0
11
76.346495
21
30.572905
31
0.0
0
LINE
8
0
6
CONTINUOUS
10
76.346495
20
30.572905
30
0.0
11
76.334745
21
33.675935
31
0.0
0
LINE
8
0
6
CONTINUOUS
10
76.334745
20
33.675935
30
0.0
11
76.312895
21
35.590215
31
0.0
0
LINE
8
0
6
CONTINUOUS
10
76.323345
20
36.231765
30
0.0
11
76.202835
21
34.646605
31
0.0
0
LINE
8
0
6
CONTINUOUS
10
76.312895
20
35.590215
30
0.0
11
76.323345
21
36.231765
31
0.0
0
LINE
8
0
6
CONTINUOUS
10
52.984605
20
14.781725
30
0.0
11
52.984605
21
11.946875
31
0.0
0
LINE
8
0
6
CONTINUOUS
10
78.141845
20
-31.045535
30
0.0
11
98.413425
21
-31.045605
31
0.0
0
LINE
8
0
6
CONTINUOUS
10
98.413345
20
36.859135
30
0.0
11
78.141775
21
36.859135
31
0.0
0
LINE
8
0
6
CONTINUOUS
10
74.818483
20
-10.653297
30
0.0
11
76.405665
21
-29.157335
31
0.0
0
LINE
8
0
6
CONTINUOUS
10
76.202835
20
34.646605
30
0.0
11
74.818371
21
16.432848
31
0.0
0
LINE
8
0
6
CONTINUOUS
10
98.413425
20
-31.045605
30
0.0
11
99.480345
21
-31.045605
31
0.0
0
LINE
8
0
6
CONTINUOUS
10
99.480345
20
-31.045605
30
0.0
11
99.480345
21
-30.386045
31
0.0
0
LINE
8
0
6
CONTINUOUS
10
99.480345
20
-30.386045
30
0.0
11
99.480345
21
-28.524535
31
0.0
0
LINE
8
0
6
CONTINUOUS
10
99.480345
20
-28.524535
30
0.0
11
99.480345
21
-25.349635
31
0.0
0
LINE
8
0
6
CONTINUOUS
10
99.480345
20
-25.349635
30
0.0
11
99.480345
21
-21.176735
31
0.0
0
LINE
8
0
6
CONTINUOUS
10
99.480305
20
-16.125315
30
0.0
11
99.480305
21
-10.214125
31
0.0
0
LINE
8
0
6
CONTINUOUS
10
99.480305
20
-10.214125
30
0.0
11
99.480305
21
-3.902715
31
0.0
0
LINE
8
0
6
CONTINUOUS
10
99.480305
20
-3.902715
30
0.0
11
99.480305
21
2.669255
31
0.0
0
LINE
8
0
6
CONTINUOUS
10
99.480305
20
2.669255
30
0.0
11
99.480305
21
9.363125
31
0.0
0
LINE
8
0
6
CONTINUOUS
10
99.480305
20
9.363125
30
0.0
11
99.480305
21
15.708725
31
0.0
0
LINE
8
0
6
CONTINUOUS
10
99.480305
20
15.708725
30
0.0
11
99.480305
21
21.591135
31
0.0
0
LINE
8
0
6
CONTINUOUS
10
99.480305
20
21.591135
30
0.0
11
99.480305
21
26.834665
31
0.0
0
LINE
8
0
6
CONTINUOUS
10
99.480305
20
26.834665
30
0.0
11
99.480265
21
31.051275
31
0.0
0
LINE
8
0
6
CONTINUOUS
10
99.480275
20
36.859135
30
0.0
11
98.413345
21
36.859135
31
0.0
0
LINE
8
0
6
CONTINUOUS
10
99.480275
20
36.243135
30
0.0
11
99.480275
21
36.859135
31
0.0
0
LINE
8
0
6
CONTINUOUS
10
99.480305
20
34.221965
30
0.0
11
99.480275
21
36.243135
31
0.0
0
LINE
8
0
6
CONTINUOUS
10
99.480305
20
-16.125315
30
0.0
11
99.480345
21
-21.176735
31
0.0
0
LINE
8
0
6
CONTINUOUS
10
99.480305
20
34.221965
30
0.0
11
99.480265
21
31.051275
31
0.0
0
LINE
8
0
6
CONTINUOUS
10
76.541045
20
-30.735855
30
0.0
11
77.499915
21
-31.045535
31
0.0
0
LINE
8
0
6
CONTINUOUS
10
76.323345
20
36.231765
30
0.0
11
76.202835
21
34.646605
31
0.0
0
LINE
8
0
6
CONTINUOUS
10
76.202835
20
34.646605
30
0.0
11
74.818371
21
16.432848
31
0.0
0
LINE
8
0
6
CONTINUOUS
10
74.818483
20
-10.653297
30
0.0
11
76.405665
21
-29.157335
31
0.0
0
LINE
8
0
6
CONTINUOUS
10
25.245737
20
-12.372265
30
0.0
11
28.356465
21
-17.544495
31
0.0
0
LINE
8
0
6
CONTINUOUS
10
36.883395
20
-12.416165
30
0.0
11
33.864288
21
-7.396291
31
0.0
0
LINE
8
0
6
CONTINUOUS
10
36.558845
20
-12.611355
30
0.0
11
33.574646
21
-7.649505
31
0.0
0
LINE
8
0
6
CONTINUOUS
10
35.634645
20
-13.167195
30
0.0
11
32.712345
21
-8.308264
31
0.0
0
LINE
8
0
6
CONTINUOUS
10
29.605205
20
-16.793475
30
0.0
11
26.613133
21
-11.818535
31
0.0
0
LINE
8
0
6
CONTINUOUS
10
25.576759
20
-12.187879
30
0.0
11
28.680995
21
-17.349315
31
0.0
0
LINE
8
0
6
CONTINUOUS
10
37.141095
20
-12.844635
30
0.0
11
36.883395
21
-12.416165
31
0.0
0
LINE
8
0
6
CONTINUOUS
10
36.816545
20
-13.039825
30
0.0
11
37.141095
21
-12.844635
31
0.0
0
LINE
8
0
6
CONTINUOUS
10
36.816545
20
-13.039825
30
0.0
11
36.558845
21
-12.611355
31
0.0
0
LINE
8
0
6
CONTINUOUS
10
36.816545
20
-13.039825
30
0.0
11
35.892345
21
-13.595665
31
0.0
0
LINE
8
0
6
CONTINUOUS
10
35.892345
20
-13.595665
30
0.0
11
35.634645
21
-13.167195
31
0.0
0
LINE
8
0
6
CONTINUOUS
10
35.892345
20
-13.595665
30
0.0
11
34.509175
21
-14.427545
31
0.0
0
LINE
8
0
6
CONTINUOUS
10
32.877625
20
-15.408805
30
0.0
11
34.509175
21
-14.427545
31
0.0
0
LINE
8
0
6
CONTINUOUS
10
32.877625
20
-15.408805
30
0.0
11
31.246065
21
-16.390075
31
0.0
0
LINE
8
0
6
CONTINUOUS
10
29.862905
20
-17.221945
30
0.0
11
31.246065
21
-16.390075
31
0.0
0
LINE
8
0
6
CONTINUOUS
10
29.862905
20
-17.221945
30
0.0
11
29.605205
21
-16.793475
31
0.0
0
LINE
8
0
6
CONTINUOUS
10
28.938705
20
-17.777785
30
0.0
11
29.862905
21
-17.221945
31
0.0
0
LINE
8
0
6
CONTINUOUS
10
28.938705
20
-17.777785
30
0.0
11
28.680995
21
-17.349315
31
0.0
0
LINE
8
0
6
CONTINUOUS
10
28.614165
20
-17.972975
30
0.0
11
28.938705
21
-17.777785
31
0.0
0
LINE
8
0
6
CONTINUOUS
10
28.356465
20
-17.544495
30
0.0
11
28.614165
21
-17.972975
31
0.0
0
LINE
8
0
6
CONTINUOUS
10
7.178805
20
23.662985
30
0.0
11
9.190105
21
25.340915
31
0.0
0
LINE
8
0
6
CONTINUOUS
10
11.637435
20
27.114065
30
0.0
11
11.621415
21
26.311065
31
0.0
0
LINE
8
0
6
CONTINUOUS
10
11.621415
20
26.311065
30
0.0
11
11.637435
21
27.114065
31
0.0
0
LINE
8
0
6
CONTINUOUS
10
11.637435
20
27.114065
30
0.0
11
7.990915
21
33.327555
31
0.0
0
LINE
8
0
6
CONTINUOUS
10
11.637435
20
27.114065
30
0.0
11
13.885545
21
28.005935
31
0.0
0
LINE
8
0
6
CONTINUOUS
10
6.466735
20
24.028045
30
0.0
11
7.178805
21
23.662985
31
0.0
0
LINE
8
0
6
CONTINUOUS
10
9.190105
20
25.340915
30
0.0
11
11.621415
21
26.311065
31
0.0
0
LINE
8
0
6
CONTINUOUS
10
6.466735
20
24.028045
30
0.0
11
2.723515
21
30.406075
31
0.0
0
LINE
8
0
6
CONTINUOUS
10
6.466735
20
24.028045
30
0.0
11
4.572255
21
22.445675
31
0.0
0
LINE
8
0
6
CONTINUOUS
10
7.178805
20
23.662985
30
0.0
11
6.466735
21
24.028045
31
0.0
0
LINE
8
0
6
CONTINUOUS
10
7.990915
20
33.327555
30
0.0
11
6.919965
21
34.429165
31
0.0
0
LINE
8
0
6
CONTINUOUS
10
2.723515
20
30.406075
30
0.0
11
2.347485
21
31.893075
31
0.0
0
LINE
8
0
6
CONTINUOUS
10
2.347485
20
31.893075
30
0.0
11
2.767025
21
33.367005
31
0.0
0
LINE
8
0
6
CONTINUOUS
10
2.767025
20
33.367005
30
0.0
11
3.869805
21
34.433055
31
0.0
0
LINE
8
0
6
CONTINUOUS
10
5.441165
20
34.850235
30
0.0
11
6.919965
21
34.429165
31
0.0
0
LINE
8
0
6
CONTINUOUS
10
3.869805
20
34.433055
30
0.0
11
5.441165
21
34.850235
31
0.0
0
LINE
8
0
6
CONTINUOUS
10
33.864288
20
-7.396291
30
0.0
11
34.465495
21
-6.920325
31
0.0
0
LINE
8
0
6
CONTINUOUS
10
25.157745
20
-12.507065
30
0.0
11
25.291850
21
-12.448937
31
0.0
0
LINE
8
0
6
CONTINUOUS
10
19.652035
20
-13.530735
30
0.0
11
25.157745
21
-12.507065
31
0.0
0
LINE
8
0
6
CONTINUOUS
10
14.291915
20
-12.976765
30
0.0
11
19.652035
21
-13.530735
31
0.0
0
LINE
8
0
6
CONTINUOUS
10
9.096115
20
-10.986905
30
0.0
11
14.291915
21
-12.976765
31
0.0
0
LINE
8
0
6
CONTINUOUS
10
4.563625
20
-7.663465
30
0.0
11
9.096115
21
-10.986905
31
0.0
0
LINE
8
0
6
CONTINUOUS
10
-2.057595
20
7.516205
30
0.0
11
-1.218285
21
1.916535
31
0.0
0
LINE
8
0
6
CONTINUOUS
10
0.738945
20
18.342665
30
0.0
11
-1.402325
21
13.084785
31
0.0
0
LINE
8
0
6
CONTINUOUS
10
4.165305
20
22.853995
30
0.0
11
0.738945
21
18.342665
31
0.0
0
LINE
8
0
6
CONTINUOUS
10
6.206938
20
24.470424
30
0.0
11
4.165305
21
22.853995
31
0.0
0
LINE
8
0
6
CONTINUOUS
10
13.786855
20
28.483575
30
0.0
11
11.404304
21
27.511309
31
0.0
0
LINE
8
0
6
CONTINUOUS
10
19.372905
20
29.176095
30
0.0
11
13.786855
21
28.483575
31
0.0
0
LINE
8
0
6
CONTINUOUS
10
24.924095
20
28.406255
30
0.0
11
19.372905
21
29.176095
31
0.0
0
LINE
8
0
6
CONTINUOUS
10
30.084945
20
26.280665
30
0.0
11
24.924095
21
28.406255
31
0.0
0
LINE
8
0
6
CONTINUOUS
10
34.487375
20
22.888785
30
0.0
11
30.084945
21
26.280665
31
0.0
0
LINE
8
0
6
CONTINUOUS
10
37.810665
20
18.494825
30
0.0
11
34.487375
21
22.888785
31
0.0
0
LINE
8
0
6
CONTINUOUS
10
39.884175
20
13.458245
30
0.0
11
37.810665
21
18.494825
31
0.0
0
LINE
8
0
6
CONTINUOUS
10
39.803305
20
2.648155
30
0.0
11
40.626785
21
8.011245
31
0.0
0
LINE
8
0
6
CONTINUOUS
10
34.332195
20
-6.734925
30
0.0
11
37.546705
21
-2.404715
31
0.0
0
LINE
8
0
6
CONTINUOUS
10
30.112755
20
-10.109375
30
0.0
11
34.332195
21
-6.734925
31
0.0
0
LINE
8
0
6
CONTINUOUS
10
25.158565
20
-12.302255
30
0.0
11
30.112755
21
-10.109375
31
0.0
0
LINE
8
0
6
CONTINUOUS
10
19.830605
20
-13.133325
30
0.0
11
25.158565
21
-12.302255
31
0.0
0
LINE
8
0
6
CONTINUOUS
10
14.409815
20
-12.515875
30
0.0
11
19.830605
21
-13.133325
31
0.0
0
LINE
8
0
6
CONTINUOUS
10
9.325505
20
-10.513465
30
0.0
11
14.409815
21
-12.515875
31
0.0
0
LINE
8
0
6
CONTINUOUS
10
4.925505
20
-7.258225
30
0.0
11
9.325505
21
-10.513465
31
0.0
0
LINE
8
0
6
CONTINUOUS
10
1.513505
20
-2.966925
30
0.0
11
4.925505
21
-7.258225
31
0.0
0
LINE
8
0
6
CONTINUOUS
10
-0.672245
20
2.070535
30
0.0
11
1.513505
21
-2.966925
31
0.0
0
LINE
8
0
6
CONTINUOUS
10
-1.461605
20
7.494505
30
0.0
11
-0.672245
21
2.070535
31
0.0
0
LINE
8
0
6
CONTINUOUS
10
-0.799625
20
12.956465
30
0.0
11
-1.461605
21
7.494505
31
0.0
0
LINE
8
0
6
CONTINUOUS
10
1.259515
20
18.057135
30
0.0
11
-0.799625
21
12.956465
31
0.0
0
LINE
8
0
6
CONTINUOUS
10
4.572255
20
22.445675
30
0.0
11
1.259515
21
18.057135
31
0.0
0
LINE
8
0
6
CONTINUOUS
10
19.380345
20
28.666225
30
0.0
11
13.885545
21
28.005935
31
0.0
0
LINE
8
0
6
CONTINUOUS
10
24.804675
20
27.959815
30
0.0
11
19.380345
21
28.666225
31
0.0
0
LINE
8
0
6
CONTINUOUS
10
29.853395
20
25.886915
30
0.0
11
24.804675
21
27.959815
31
0.0
0
LINE
8
0
6
CONTINUOUS
10
34.169535
20
22.564275
30
0.0
11
29.853395
21
25.886915
31
0.0
0
LINE
8
0
6
CONTINUOUS
10
37.436475
20
18.295475
30
0.0
11
34.169535
21
22.564275
31
0.0
0
LINE
8
0
6
CONTINUOUS
10
39.498725
20
13.294745
30
0.0
11
37.436475
21
18.295475
31
0.0
0
LINE
8
0
6
CONTINUOUS
10
40.217315
20
7.945895
30
0.0
11
39.498725
21
13.294745
31
0.0
0
LINE
8
0
6
CONTINUOUS
10
39.551325
20
2.597195
30
0.0
11
40.217315
21
7.945895
31
0.0
0
LINE
8
0
6
CONTINUOUS
10
37.546705
20
-2.404715
30
0.0
11
39.551325
21
2.597195
31
0.0
0
LINE
8
0
6
CONTINUOUS
10
9.190105
20
25.340915
30
0.0
11
7.178805
21
23.662985
31
0.0
0
LINE
8
0
6
CONTINUOUS
10
11.621415
20
26.311065
30
0.0
11
9.190105
21
25.340915
31
0.0
0
LINE
8
0
6
CONTINUOUS
10
12.048465
20
-13.294865
30
0.0
11
13.333870
21
-12.908513
31
0.0
0
ENDSEC
0
EOF
