999
Erzeugt mit innoplus bad 
0
SECTION
2
HEADER
9
$ACADVER
1
AC1009
9
$DWGCODEPAGE
3
ISO8859-1
0
ENDSEC
0
SECTION
2
TABLES
0
TABLE
2
LAYER
70
1
0
LAYER
2
0
70
0
62
7
6
CONTINUOUS
0
ENDTAB
0
ENDSEC
0
SECTION
2
ENTITIES
0
LINE
8
0
6
CONTINUOUS
10
-12.524945
20
21.024495
30
0.0
11
-14.392335
21
22.883115
31
0.0
0
LINE
8
0
6
CONTINUOUS
10
-15.543095
20
23.910045
30
0.0
11
-16.420915
21
24.628095
31
0.0
0
LINE
8
0
6
CONTINUOUS
10
4.168985
20
8.932345
30
0.0
11
4.168985
21
10.951085
31
0.0
0
LINE
8
0
6
CONTINUOUS
10
-12.100565
20
20.629305
30
0.0
11
-14.838595
21
23.242255
31
0.0
0
LINE
8
0
6
CONTINUOUS
10
-11.691995
20
-13.637035
30
0.0
11
-10.635865
21
-13.626615
31
0.0
0
LINE
8
0
6
CONTINUOUS
10
-12.744355
20
-13.635795
30
0.0
11
-11.691995
21
-13.637035
31
0.0
0
LINE
8
0
6
CONTINUOUS
10
-25.633885
20
-12.959225
30
0.0
11
-22.908545
21
-13.471545
31
0.0
0
LINE
8
0
6
CONTINUOUS
10
-25.634255
20
-12.957185
30
0.0
11
-22.976855
21
-13.510195
31
0.0
0
LINE
8
0
6
CONTINUOUS
10
-22.976855
20
-13.510195
30
0.0
11
-22.779346
21
-13.513376
31
0.0
0
LINE
8
0
6
CONTINUOUS
10
-10.635865
20
-13.626615
30
0.0
11
-9.926145
21
-13.621505
31
0.0
0
LINE
8
0
6
CONTINUOUS
10
4.168985
20
16.918845
30
0.0
11
4.168985
21
18.535165
31
0.0
0
LINE
8
0
6
CONTINUOUS
10
4.168985
20
19.137405
30
0.0
11
3.674615
21
19.213045
31
0.0
0
LINE
8
0
6
CONTINUOUS
10
4.168985
20
18.535165
30
0.0
11
4.168985
21
19.137405
31
0.0
0
LINE
8
0
6
CONTINUOUS
10
4.168985
20
14.341165
30
0.0
11
4.168985
21
16.918845
31
0.0
0
LINE
8
0
6
CONTINUOUS
10
-9.260845
20
17.110405
30
0.0
11
-6.771845
21
13.831755
31
0.0
0
LINE
8
0
6
CONTINUOUS
10
4.168985
20
10.951085
30
0.0
11
4.168985
21
14.341165
31
0.0
0
LINE
8
0
6
CONTINUOUS
10
4.168985
20
6.913615
30
0.0
11
4.168985
21
8.932345
31
0.0
0
LINE
8
0
6
CONTINUOUS
10
4.168985
20
2.697555
30
0.0
11
4.168985
21
6.913615
31
0.0
0
LINE
8
0
6
CONTINUOUS
10
4.168985
20
-1.515765
30
0.0
11
4.168985
21
2.697555
31
0.0
0
LINE
8
0
6
CONTINUOUS
10
4.168985
20
-5.421885
30
0.0
11
4.168985
21
-1.515765
31
0.0
0
LINE
8
0
6
CONTINUOUS
10
4.168985
20
-8.766075
30
0.0
11
4.168985
21
-5.421885
31
0.0
0
LINE
8
0
6
CONTINUOUS
10
4.168975
20
-11.335025
30
0.0
11
4.168975
21
-12.281865
31
0.0
0
LINE
8
0
6
CONTINUOUS
10
4.168975
20
-12.281865
30
0.0
11
4.168975
21
-12.944655
31
0.0
0
LINE
8
0
6
CONTINUOUS
10
3.674545
20
-13.527475
30
0.0
11
4.168985
21
-13.524015
31
0.0
0
LINE
8
0
6
CONTINUOUS
10
4.168975
20
-12.944655
30
0.0
11
4.168985
21
-13.524015
31
0.0
0
LINE
8
0
6
CONTINUOUS
10
-7.701845
20
5.056065
30
0.0
11
-7.258585
21
8.791435
31
0.0
0
LINE
8
0
6
CONTINUOUS
10
-11.396135
20
-4.949965
30
0.0
11
-9.114745
21
-0.311125
31
0.0
0
LINE
8
0
6
CONTINUOUS
10
-7.701845
20
5.056065
30
0.0
11
-9.114745
21
-0.311125
31
0.0
0
LINE
8
0
6
CONTINUOUS
10
-7.258585
20
8.791435
30
0.0
11
-7.266845
21
11.632015
31
0.0
0
LINE
8
0
6
CONTINUOUS
10
4.168975
20
-11.335025
30
0.0
11
4.168985
21
-10.046545
31
0.0
0
LINE
8
0
6
CONTINUOUS
10
-25.633725
20
-12.960115
30
0.0
11
-23.174769
21
-12.855902
31
0.0
0
LINE
8
0
6
CONTINUOUS
10
-25.633535
20
-12.961135
30
0.0
11
-23.427440
21
-12.435785
31
0.0
0
LINE
8
0
6
CONTINUOUS
10
-9.260845
20
17.110405
30
0.0
11
-12.751325
21
20.805595
31
0.0
0
LINE
8
0
6
CONTINUOUS
10
-7.458105
20
14.012725
30
0.0
11
-9.260845
21
17.110405
31
0.0
0
LINE
8
0
6
CONTINUOUS
10
-14.329129
20
-8.257509
30
0.0
11
-13.115195
21
-7.961815
31
0.0
0
LINE
8
0
6
CONTINUOUS
10
-7.266845
20
11.632015
30
0.0
11
-7.458105
21
14.012725
31
0.0
0
LINE
8
0
6
CONTINUOUS
10
4.168985
20
-10.046545
30
0.0
11
4.168985
21
-8.766075
31
0.0
0
LINE
8
0
6
CONTINUOUS
10
-10.690165
20
-4.971495
30
0.0
11
-11.396135
21
-4.949965
31
0.0
0
LINE
8
0
6
CONTINUOUS
10
-12.917235
20
21.428285
30
0.0
11
-11.657735
21
20.243335
31
0.0
0
LINE
8
0
6
CONTINUOUS
10
3.674615
20
19.213045
30
0.0
11
-12.917235
21
21.428285
31
0.0
0
LINE
8
0
6
CONTINUOUS
10
-6.771845
20
13.831755
30
0.0
11
3.679345
21
11.075625
31
0.0
0
LINE
8
0
6
CONTINUOUS
10
-8.762015
20
16.732055
30
0.0
11
-6.771845
21
13.831755
31
0.0
0
LINE
8
0
6
CONTINUOUS
10
-11.657735
20
20.243335
30
0.0
11
-10.088695
21
18.696735
31
0.0
0
LINE
8
0
6
CONTINUOUS
10
-8.762015
20
16.732055
30
0.0
11
3.676945
21
14.447815
31
0.0
0
LINE
8
0
6
CONTINUOUS
10
-10.088695
20
18.696735
30
0.0
11
-8.762015
21
16.732055
31
0.0
0
LINE
8
0
6
CONTINUOUS
10
-9.926145
20
-13.621505
30
0.0
11
3.674545
21
-13.527475
31
0.0
0
LINE
8
0
6
CONTINUOUS
10
-10.690165
20
-4.971495
30
0.0
11
3.676435
21
-5.409655
31
0.0
0
LINE
8
0
6
CONTINUOUS
10
-12.744355
20
-13.635865
30
0.0
11
-11.691995
21
-13.637115
31
0.0
0
LINE
8
0
6
CONTINUOUS
10
-10.635865
20
-13.626615
30
0.0
11
-9.926145
21
-13.621505
31
0.0
0
LINE
8
0
6
CONTINUOUS
10
-7.886155
20
9.720425
30
0.0
11
-8.378425
21
10.816875
31
0.0
0
LINE
8
0
6
CONTINUOUS
10
-25.633115
20
-12.963455
30
0.0
11
-25.542754
21
-12.935405
31
0.0
0
LINE
8
0
6
CONTINUOUS
10
-14.819646
20
-7.441925
30
0.0
11
-12.061765
21
-4.640865
31
0.0
0
LINE
8
0
6
CONTINUOUS
10
-12.214285
20
-4.582575
30
0.0
11
-14.842415
21
-7.404068
31
0.0
0
LINE
8
0
6
CONTINUOUS
10
9.875295
20
18.008195
30
0.0
11
9.513545
21
18.008195
31
0.0
0
LINE
8
0
6
CONTINUOUS
10
8.768765
20
11.642085
30
0.0
11
8.768765
21
9.244855
31
0.0
0
LINE
8
0
6
CONTINUOUS
10
9.513545
20
18.008195
30
0.0
11
9.441525
21
18.008195
31
0.0
0
LINE
8
0
6
CONTINUOUS
10
9.590715
20
15.340665
30
0.0
11
9.513545
21
18.008195
31
0.0
0
LINE
8
0
6
CONTINUOUS
10
9.944835
20
15.340665
30
0.0
11
9.590715
21
15.340665
31
0.0
0
LINE
8
0
6
CONTINUOUS
10
9.590715
20
15.340665
30
0.0
11
9.511255
21
14.983145
31
0.0
0
LINE
8
0
6
CONTINUOUS
10
8.768775
20
18.008195
30
0.0
11
8.768765
21
11.642085
31
0.0
0
LINE
8
0
6
CONTINUOUS
10
9.441525
20
18.008195
30
0.0
11
8.768775
21
18.008195
31
0.0
0
LINE
8
0
6
CONTINUOUS
10
8.768765
20
11.642085
30
0.0
11
9.511255
21
14.983145
31
0.0
0
LINE
8
0
6
CONTINUOUS
10
9.944835
20
15.340665
30
0.0
11
16.308365
21
15.340665
31
0.0
0
LINE
8
0
6
CONTINUOUS
10
16.308365
20
18.008195
30
0.0
11
9.875295
21
18.008195
31
0.0
0
LINE
8
0
6
CONTINUOUS
10
9.590715
20
-12.259365
30
0.0
11
9.944835
21
-12.259365
31
0.0
0
LINE
8
0
6
CONTINUOUS
10
9.590715
20
-12.259365
30
0.0
11
9.513545
21
-9.421685
31
0.0
0
LINE
8
0
6
CONTINUOUS
10
9.511265
20
-12.259365
30
0.0
11
9.590715
21
-12.259365
31
0.0
0
LINE
8
0
6
CONTINUOUS
10
9.441525
20
-9.080575
30
0.0
11
9.513545
21
-9.421685
31
0.0
0
LINE
8
0
6
CONTINUOUS
10
9.513545
20
-9.421685
30
0.0
11
9.875295
21
-9.421685
31
0.0
0
LINE
8
0
6
CONTINUOUS
10
8.768765
20
-5.893165
30
0.0
11
8.768775
21
-12.259365
31
0.0
0
LINE
8
0
6
CONTINUOUS
10
9.441525
20
-9.080575
30
0.0
11
8.768765
21
-5.893165
31
0.0
0
LINE
8
0
6
CONTINUOUS
10
8.768775
20
-12.259365
30
0.0
11
9.511265
21
-12.259365
31
0.0
0
LINE
8
0
6
CONTINUOUS
10
9.944835
20
-12.259365
30
0.0
11
16.308365
21
-12.259365
31
0.0
0
LINE
8
0
6
CONTINUOUS
10
16.308365
20
-9.421685
30
0.0
11
9.875295
21
-9.421685
31
0.0
0
LINE
8
0
6
CONTINUOUS
10
9.590715
20
0.205475
30
0.0
11
9.513545
21
5.710695
31
0.0
0
LINE
8
0
6
CONTINUOUS
10
9.441525
20
6.051805
30
0.0
11
9.513545
21
5.710695
31
0.0
0
LINE
8
0
6
CONTINUOUS
10
9.513545
20
5.710695
30
0.0
11
9.875295
21
5.710695
31
0.0
0
LINE
8
0
6
CONTINUOUS
10
9.944835
20
0.205475
30
0.0
11
9.590715
21
0.205475
31
0.0
0
LINE
8
0
6
CONTINUOUS
10
9.590715
20
0.205475
30
0.0
11
9.511255
21
-0.152035
31
0.0
0
LINE
8
0
6
CONTINUOUS
10
9.944835
20
0.205475
30
0.0
11
16.308365
21
0.205475
31
0.0
0
LINE
8
0
6
CONTINUOUS
10
16.308365
20
5.710695
30
0.0
11
9.875295
21
5.710695
31
0.0
0
LINE
8
0
6
CONTINUOUS
10
9.204185
20
18.011055
30
0.0
11
8.768775
21
18.011055
31
0.0
0
LINE
8
0
6
CONTINUOUS
10
8.768775
20
18.008195
30
0.0
11
9.204185
21
18.008195
31
0.0
0
LINE
8
0
6
CONTINUOUS
10
16.308365
20
18.011055
30
0.0
11
9.204185
21
18.011055
31
0.0
0
LINE
8
0
6
CONTINUOUS
10
9.204185
20
18.008195
30
0.0
11
16.308365
21
18.008195
31
0.0
0
LINE
8
0
6
CONTINUOUS
10
8.768765
20
-3.493105
30
0.0
11
8.768765
21
-5.893165
31
0.0
0
LINE
8
0
6
CONTINUOUS
10
8.768765
20
9.244855
30
0.0
11
8.768765
21
-3.493105
31
0.0
0
LINE
8
0
6
CONTINUOUS
10
9.441525
20
6.051805
30
0.0
11
8.768765
21
9.244855
31
0.0
0
LINE
8
0
6
CONTINUOUS
10
8.768765
20
-3.493105
30
0.0
11
9.511255
21
-0.152035
31
0.0
0
LINE
8
0
6
CONTINUOUS
10
23.103185
20
18.008195
30
0.0
11
22.741435
21
18.008195
31
0.0
0
LINE
8
0
6
CONTINUOUS
10
23.847965
20
9.244855
30
0.0
11
23.847965
21
11.642085
31
0.0
0
LINE
8
0
6
CONTINUOUS
10
23.103185
20
18.008195
30
0.0
11
23.026015
21
15.340665
31
0.0
0
LINE
8
0
6
CONTINUOUS
10
23.175205
20
18.008195
30
0.0
11
23.103185
21
18.008195
31
0.0
0
LINE
8
0
6
CONTINUOUS
10
23.105475
20
14.983145
30
0.0
11
23.026015
21
15.340665
31
0.0
0
LINE
8
0
6
CONTINUOUS
10
23.026015
20
15.340665
30
0.0
11
22.671895
21
15.340665
31
0.0
0
LINE
8
0
6
CONTINUOUS
10
23.105475
20
14.983145
30
0.0
11
23.847965
21
11.642085
31
0.0
0
LINE
8
0
6
CONTINUOUS
10
23.847965
20
18.008195
30
0.0
11
23.175205
21
18.008195
31
0.0
0
LINE
8
0
6
CONTINUOUS
10
23.847965
20
11.642085
30
0.0
11
23.847965
21
18.008195
31
0.0
0
LINE
8
0
6
CONTINUOUS
10
22.741435
20
18.008195
30
0.0
11
16.308365
21
18.008195
31
0.0
0
LINE
8
0
6
CONTINUOUS
10
16.308365
20
15.340665
30
0.0
11
22.671895
21
15.340665
31
0.0
0
LINE
8
0
6
CONTINUOUS
10
22.671895
20
-12.259365
30
0.0
11
23.026015
21
-12.259365
31
0.0
0
LINE
8
0
6
CONTINUOUS
10
23.026015
20
-12.259365
30
0.0
11
23.105475
21
-12.259365
31
0.0
0
LINE
8
0
6
CONTINUOUS
10
23.103185
20
-9.421685
30
0.0
11
23.026094
21
-12.256475
31
0.0
0
LINE
8
0
6
CONTINUOUS
10
22.741435
20
-9.421685
30
0.0
11
23.103185
21
-9.421685
31
0.0
0
LINE
8
0
6
CONTINUOUS
10
23.103185
20
-9.421685
30
0.0
11
23.175205
21
-9.080575
31
0.0
0
LINE
8
0
6
CONTINUOUS
10
23.105475
20
-12.259365
30
0.0
11
23.847965
21
-12.259365
31
0.0
0
LINE
8
0
6
CONTINUOUS
10
23.847965
20
-5.893165
30
0.0
11
23.175205
21
-9.080575
31
0.0
0
LINE
8
0
6
CONTINUOUS
10
23.847965
20
-12.259365
30
0.0
11
23.847965
21
-5.893165
31
0.0
0
LINE
8
0
6
CONTINUOUS
10
22.741435
20
-9.421685
30
0.0
11
16.308365
21
-9.421685
31
0.0
0
LINE
8
0
6
CONTINUOUS
10
16.308365
20
-12.259365
30
0.0
11
22.671895
21
-12.259365
31
0.0
0
LINE
8
0
6
CONTINUOUS
10
23.103175
20
5.710695
30
0.0
11
23.026005
21
0.205475
31
0.0
0
LINE
8
0
6
CONTINUOUS
10
22.741435
20
5.710695
30
0.0
11
23.103175
21
5.710695
31
0.0
0
LINE
8
0
6
CONTINUOUS
10
23.103175
20
5.710695
30
0.0
11
23.175195
21
6.051805
31
0.0
0
LINE
8
0
6
CONTINUOUS
10
23.105465
20
-0.152035
30
0.0
11
23.026005
21
0.205475
31
0.0
0
LINE
8
0
6
CONTINUOUS
10
23.026005
20
0.205475
30
0.0
11
22.671885
21
0.205475
31
0.0
0
LINE
8
0
6
CONTINUOUS
10
22.741435
20
5.710695
30
0.0
11
16.308365
21
5.710695
31
0.0
0
LINE
8
0
6
CONTINUOUS
10
16.308365
20
0.205475
30
0.0
11
22.671885
21
0.205475
31
0.0
0
LINE
8
0
6
CONTINUOUS
10
23.412555
20
18.008195
30
0.0
11
23.847965
21
18.008195
31
0.0
0
LINE
8
0
6
CONTINUOUS
10
23.847965
20
18.011055
30
0.0
11
23.412555
21
18.011055
31
0.0
0
LINE
8
0
6
CONTINUOUS
10
16.308365
20
18.008195
30
0.0
11
23.412555
21
18.008195
31
0.0
0
LINE
8
0
6
CONTINUOUS
10
23.412555
20
18.011055
30
0.0
11
16.308365
21
18.011055
31
0.0
0
LINE
8
0
6
CONTINUOUS
10
23.847965
20
-5.893165
30
0.0
11
23.847965
21
-3.493105
31
0.0
0
LINE
8
0
6
CONTINUOUS
10
23.105465
20
-0.152035
30
0.0
11
23.847965
21
-3.493105
31
0.0
0
LINE
8
0
6
CONTINUOUS
10
23.847965
20
9.244855
30
0.0
11
23.175195
21
6.051805
31
0.0
0
LINE
8
0
6
CONTINUOUS
10
23.847965
20
-3.493105
30
0.0
11
23.847965
21
9.244855
31
0.0
0
LINE
8
0
6
CONTINUOUS
10
28.788535
20
-31.045535
30
0.0
11
29.430465
21
-31.045535
31
0.0
0
LINE
8
0
6
CONTINUOUS
10
29.430395
20
36.859135
30
0.0
11
28.788455
21
36.859135
31
0.0
0
LINE
8
0
6
CONTINUOUS
10
27.829665
20
-30.735855
30
0.0
11
28.788535
21
-31.045535
31
0.0
0
LINE
8
0
6
CONTINUOUS
10
28.788485
20
21.591135
30
0.0
11
28.788485
21
26.834665
31
0.0
0
LINE
8
0
6
CONTINUOUS
10
28.788485
20
26.834665
30
0.0
11
28.788455
21
31.051195
31
0.0
0
LINE
8
0
6
CONTINUOUS
10
28.788455
20
31.051195
30
0.0
11
28.788455
21
34.221965
31
0.0
0
LINE
8
0
6
CONTINUOUS
10
28.788455
20
34.221965
30
0.0
11
28.788455
21
36.243135
31
0.0
0
LINE
8
0
6
CONTINUOUS
10
28.788455
20
36.859135
30
0.0
11
27.611965
21
36.231765
31
0.0
0
LINE
8
0
6
CONTINUOUS
10
28.788455
20
36.243135
30
0.0
11
28.788455
21
36.859135
31
0.0
0
LINE
8
0
6
CONTINUOUS
10
4.273225
20
7.704245
30
0.0
11
4.273225
21
2.699745
31
0.0
0
LINE
8
0
6
CONTINUOUS
10
4.273225
20
-2.304755
30
0.0
11
4.273225
21
-6.547385
31
0.0
0
LINE
8
0
6
CONTINUOUS
10
4.273185
20
-10.377655
30
0.0
11
8.768772
21
-10.434410
31
0.0
0
LINE
8
0
6
CONTINUOUS
10
23.847965
20
-10.624777
30
0.0
11
26.107103
21
-10.653297
31
0.0
0
LINE
8
0
6
CONTINUOUS
10
4.273185
20
-9.382165
30
0.0
11
4.273185
21
-10.377655
31
0.0
0
LINE
8
0
6
CONTINUOUS
10
4.273185
20
15.777095
30
0.0
11
4.273225
21
14.781725
31
0.0
0
LINE
8
0
6
CONTINUOUS
10
26.106991
20
16.432848
30
0.0
11
23.847965
21
16.365001
31
0.0
0
LINE
8
0
6
CONTINUOUS
10
8.768775
20
15.912115
30
0.0
11
4.273185
21
15.777095
31
0.0
0
LINE
8
0
6
CONTINUOUS
10
4.273225
20
11.946875
30
0.0
11
4.273225
21
7.704245
31
0.0
0
LINE
8
0
6
CONTINUOUS
10
4.273225
20
2.699745
30
0.0
11
4.273225
21
-2.304755
31
0.0
0
LINE
8
0
6
CONTINUOUS
10
4.273225
20
-6.547385
30
0.0
11
4.273185
21
-9.382165
31
0.0
0
LINE
8
0
6
CONTINUOUS
10
27.829665
20
-30.735855
30
0.0
11
27.836805
21
-30.085745
31
0.0
0
LINE
8
0
6
CONTINUOUS
10
27.694285
20
-29.157335
30
0.0
11
27.829665
21
-30.735855
31
0.0
0
LINE
8
0
6
CONTINUOUS
10
27.836805
20
-30.085745
30
0.0
11
27.815855
21
-28.205245
31
0.0
0
LINE
8
0
6
CONTINUOUS
10
27.815855
20
-28.205245
30
0.0
11
27.824785
21
-25.105265
31
0.0
0
LINE
8
0
6
CONTINUOUS
10
27.824785
20
-25.105265
30
0.0
11
27.821615
21
-20.949305
31
0.0
0
LINE
8
0
6
CONTINUOUS
10
27.821615
20
-20.949305
30
0.0
11
27.791745
21
-15.899175
31
0.0
0
LINE
8
0
6
CONTINUOUS
10
27.791745
20
-15.899175
30
0.0
11
27.784845
21
-10.115785
31
0.0
0
LINE
8
0
6
CONTINUOUS
10
27.784845
20
-10.115785
30
0.0
11
27.775495
21
-3.835345
31
0.0
0
LINE
8
0
6
CONTINUOUS
10
27.775495
20
-3.835345
30
0.0
11
27.741845
21
2.702055
31
0.0
0
LINE
8
0
6
CONTINUOUS
10
27.741845
20
2.702055
30
0.0
11
27.722125
21
9.241595
31
0.0
0
LINE
8
0
6
CONTINUOUS
10
27.722125
20
9.241595
30
0.0
11
27.713585
21
15.543695
31
0.0
0
LINE
8
0
6
CONTINUOUS
10
27.713585
20
15.543695
30
0.0
11
27.653535
21
21.321815
31
0.0
0
LINE
8
0
6
CONTINUOUS
10
27.653535
20
21.321815
30
0.0
11
27.634925
21
26.401995
31
0.0
0
LINE
8
0
6
CONTINUOUS
10
27.634925
20
26.401995
30
0.0
11
27.635115
21
30.572905
31
0.0
0
LINE
8
0
6
CONTINUOUS
10
27.635115
20
30.572905
30
0.0
11
27.623365
21
33.675935
31
0.0
0
LINE
8
0
6
CONTINUOUS
10
27.623365
20
33.675935
30
0.0
11
27.601515
21
35.590215
31
0.0
0
LINE
8
0
6
CONTINUOUS
10
27.611965
20
36.231765
30
0.0
11
27.491455
21
34.646605
31
0.0
0
LINE
8
0
6
CONTINUOUS
10
27.601515
20
35.590215
30
0.0
11
27.611965
21
36.231765
31
0.0
0
LINE
8
0
6
CONTINUOUS
10
4.273225
20
14.781725
30
0.0
11
4.273225
21
11.946875
31
0.0
0
LINE
8
0
6
CONTINUOUS
10
29.430465
20
-31.045535
30
0.0
11
49.702045
21
-31.045605
31
0.0
0
LINE
8
0
6
CONTINUOUS
10
49.701965
20
36.859135
30
0.0
11
29.430395
21
36.859135
31
0.0
0
LINE
8
0
6
CONTINUOUS
10
26.107103
20
-10.653297
30
0.0
11
27.694285
21
-29.157335
31
0.0
0
LINE
8
0
6
CONTINUOUS
10
27.491455
20
34.646605
30
0.0
11
26.106991
21
16.432848
31
0.0
0
LINE
8
0
6
CONTINUOUS
10
49.702045
20
-31.045605
30
0.0
11
50.768965
21
-31.045605
31
0.0
0
LINE
8
0
6
CONTINUOUS
10
50.768965
20
-31.045605
30
0.0
11
50.768965
21
-30.386045
31
0.0
0
LINE
8
0
6
CONTINUOUS
10
50.768965
20
-30.386045
30
0.0
11
50.768965
21
-28.524535
31
0.0
0
LINE
8
0
6
CONTINUOUS
10
50.768965
20
-28.524535
30
0.0
11
50.768965
21
-25.349635
31
0.0
0
LINE
8
0
6
CONTINUOUS
10
50.768965
20
-25.349635
30
0.0
11
50.768965
21
-21.176735
31
0.0
0
LINE
8
0
6
CONTINUOUS
10
50.768925
20
-16.125315
30
0.0
11
50.768925
21
-10.214125
31
0.0
0
LINE
8
0
6
CONTINUOUS
10
50.768925
20
-10.214125
30
0.0
11
50.768925
21
-3.902715
31
0.0
0
LINE
8
0
6
CONTINUOUS
10
50.768925
20
-3.902715
30
0.0
11
50.768925
21
2.669255
31
0.0
0
LINE
8
0
6
CONTINUOUS
10
50.768925
20
2.669255
30
0.0
11
50.768925
21
9.363125
31
0.0
0
LINE
8
0
6
CONTINUOUS
10
50.768925
20
9.363125
30
0.0
11
50.768925
21
15.708725
31
0.0
0
LINE
8
0
6
CONTINUOUS
10
50.768925
20
15.708725
30
0.0
11
50.768925
21
21.591135
31
0.0
0
LINE
8
0
6
CONTINUOUS
10
50.768925
20
21.591135
30
0.0
11
50.768925
21
26.834665
31
0.0
0
LINE
8
0
6
CONTINUOUS
10
50.768925
20
26.834665
30
0.0
11
50.768885
21
31.051275
31
0.0
0
LINE
8
0
6
CONTINUOUS
10
50.768895
20
36.859135
30
0.0
11
49.701965
21
36.859135
31
0.0
0
LINE
8
0
6
CONTINUOUS
10
50.768895
20
36.243135
30
0.0
11
50.768895
21
36.859135
31
0.0
0
LINE
8
0
6
CONTINUOUS
10
50.768925
20
34.221965
30
0.0
11
50.768895
21
36.243135
31
0.0
0
LINE
8
0
6
CONTINUOUS
10
50.768925
20
-16.125315
30
0.0
11
50.768965
21
-21.176735
31
0.0
0
LINE
8
0
6
CONTINUOUS
10
50.768925
20
34.221965
30
0.0
11
50.768885
21
31.051275
31
0.0
0
LINE
8
0
6
CONTINUOUS
10
27.829665
20
-30.735855
30
0.0
11
28.788535
21
-31.045535
31
0.0
0
LINE
8
0
6
CONTINUOUS
10
27.611965
20
36.231765
30
0.0
11
27.491455
21
34.646605
31
0.0
0
LINE
8
0
6
CONTINUOUS
10
27.491455
20
34.646605
30
0.0
11
26.106991
21
16.432848
31
0.0
0
LINE
8
0
6
CONTINUOUS
10
26.107103
20
-10.653297
30
0.0
11
27.694285
21
-29.157335
31
0.0
0
LINE
8
0
6
CONTINUOUS
10
-23.465643
20
-12.372265
30
0.0
11
-20.354915
21
-17.544495
31
0.0
0
LINE
8
0
6
CONTINUOUS
10
-11.827985
20
-12.416165
30
0.0
11
-14.847092
21
-7.396291
31
0.0
0
LINE
8
0
6
CONTINUOUS
10
-12.152535
20
-12.611355
30
0.0
11
-15.136734
21
-7.649505
31
0.0
0
LINE
8
0
6
CONTINUOUS
10
-13.076735
20
-13.167195
30
0.0
11
-15.999035
21
-8.308264
31
0.0
0
LINE
8
0
6
CONTINUOUS
10
-19.106175
20
-16.793475
30
0.0
11
-22.098247
21
-11.818535
31
0.0
0
LINE
8
0
6
CONTINUOUS
10
-23.134621
20
-12.187879
30
0.0
11
-20.030385
21
-17.349315
31
0.0
0
LINE
8
0
6
CONTINUOUS
10
-11.570285
20
-12.844635
30
0.0
11
-11.827985
21
-12.416165
31
0.0
0
LINE
8
0
6
CONTINUOUS
10
-11.894835
20
-13.039825
30
0.0
11
-11.570285
21
-12.844635
31
0.0
0
LINE
8
0
6
CONTINUOUS
10
-11.894835
20
-13.039825
30
0.0
11
-12.152535
21
-12.611355
31
0.0
0
LINE
8
0
6
CONTINUOUS
10
-11.894835
20
-13.039825
30
0.0
11
-12.819035
21
-13.595665
31
0.0
0
LINE
8
0
6
CONTINUOUS
10
-12.819035
20
-13.595665
30
0.0
11
-13.076735
21
-13.167195
31
0.0
0
LINE
8
0
6
CONTINUOUS
10
-12.819035
20
-13.595665
30
0.0
11
-14.202205
21
-14.427545
31
0.0
0
LINE
8
0
6
CONTINUOUS
10
-15.833755
20
-15.408805
30
0.0
11
-14.202205
21
-14.427545
31
0.0
0
LINE
8
0
6
CONTINUOUS
10
-15.833755
20
-15.408805
30
0.0
11
-17.465315
21
-16.390075
31
0.0
0
LINE
8
0
6
CONTINUOUS
10
-18.848475
20
-17.221945
30
0.0
11
-17.465315
21
-16.390075
31
0.0
0
LINE
8
0
6
CONTINUOUS
10
-18.848475
20
-17.221945
30
0.0
11
-19.106175
21
-16.793475
31
0.0
0
LINE
8
0
6
CONTINUOUS
10
-19.772675
20
-17.777785
30
0.0
11
-18.848475
21
-17.221945
31
0.0
0
LINE
8
0
6
CONTINUOUS
10
-19.772675
20
-17.777785
30
0.0
11
-20.030385
21
-17.349315
31
0.0
0
LINE
8
0
6
CONTINUOUS
10
-20.097215
20
-17.972975
30
0.0
11
-19.772675
21
-17.777785
31
0.0
0
LINE
8
0
6
CONTINUOUS
10
-20.354915
20
-17.544495
30
0.0
11
-20.097215
21
-17.972975
31
0.0
0
LINE
8
0
6
CONTINUOUS
10
-41.532575
20
23.662985
30
0.0
11
-39.521275
21
25.340915
31
0.0
0
LINE
8
0
6
CONTINUOUS
10
-37.073945
20
27.114065
30
0.0
11
-37.089965
21
26.311065
31
0.0
0
LINE
8
0
6
CONTINUOUS
10
-37.089965
20
26.311065
30
0.0
11
-37.073945
21
27.114065
31
0.0
0
LINE
8
0
6
CONTINUOUS
10
-37.073945
20
27.114065
30
0.0
11
-40.720465
21
33.327555
31
0.0
0
LINE
8
0
6
CONTINUOUS
10
-37.073945
20
27.114065
30
0.0
11
-34.825835
21
28.005935
31
0.0
0
LINE
8
0
6
CONTINUOUS
10
-42.244645
20
24.028045
30
0.0
11
-41.532575
21
23.662985
31
0.0
0
LINE
8
0
6
CONTINUOUS
10
-39.521275
20
25.340915
30
0.0
11
-37.089965
21
26.311065
31
0.0
0
LINE
8
0
6
CONTINUOUS
10
-42.244645
20
24.028045
30
0.0
11
-45.987865
21
30.406075
31
0.0
0
LINE
8
0
6
CONTINUOUS
10
-42.244645
20
24.028045
30
0.0
11
-44.139125
21
22.445675
31
0.0
0
LINE
8
0
6
CONTINUOUS
10
-41.532575
20
23.662985
30
0.0
11
-42.244645
21
24.028045
31
0.0
0
LINE
8
0
6
CONTINUOUS
10
-40.720465
20
33.327555
30
0.0
11
-41.791415
21
34.429165
31
0.0
0
LINE
8
0
6
CONTINUOUS
10
-45.987865
20
30.406075
30
0.0
11
-46.363895
21
31.893075
31
0.0
0
LINE
8
0
6
CONTINUOUS
10
-46.363895
20
31.893075
30
0.0
11
-45.944355
21
33.367005
31
0.0
0
LINE
8
0
6
CONTINUOUS
10
-45.944355
20
33.367005
30
0.0
11
-44.841575
21
34.433055
31
0.0
0
LINE
8
0
6
CONTINUOUS
10
-43.270215
20
34.850235
30
0.0
11
-41.791415
21
34.429165
31
0.0
0
LINE
8
0
6
CONTINUOUS
10
-44.841575
20
34.433055
30
0.0
11
-43.270215
21
34.850235
31
0.0
0
LINE
8
0
6
CONTINUOUS
10
-14.847092
20
-7.396291
30
0.0
11
-14.245885
21
-6.920325
31
0.0
0
LINE
8
0
6
CONTINUOUS
10
-23.553635
20
-12.507065
30
0.0
11
-23.419530
21
-12.448937
31
0.0
0
LINE
8
0
6
CONTINUOUS
10
-29.059345
20
-13.530735
30
0.0
11
-23.553635
21
-12.507065
31
0.0
0
LINE
8
0
6
CONTINUOUS
10
-34.419465
20
-12.976765
30
0.0
11
-29.059345
21
-13.530735
31
0.0
0
LINE
8
0
6
CONTINUOUS
10
-39.615265
20
-10.986905
30
0.0
11
-34.419465
21
-12.976765
31
0.0
0
LINE
8
0
6
CONTINUOUS
10
-44.147755
20
-7.663465
30
0.0
11
-39.615265
21
-10.986905
31
0.0
0
LINE
8
0
6
CONTINUOUS
10
-50.768975
20
7.516205
30
0.0
11
-49.929665
21
1.916535
31
0.0
0
LINE
8
0
6
CONTINUOUS
10
-47.972435
20
18.342665
30
0.0
11
-50.113705
21
13.084785
31
0.0
0
LINE
8
0
6
CONTINUOUS
10
-44.546075
20
22.853995
30
0.0
11
-47.972435
21
18.342665
31
0.0
0
LINE
8
0
6
CONTINUOUS
10
-42.504442
20
24.470424
30
0.0
11
-44.546075
21
22.853995
31
0.0
0
LINE
8
0
6
CONTINUOUS
10
-34.924525
20
28.483575
30
0.0
11
-37.307076
21
27.511309
31
0.0
0
LINE
8
0
6
CONTINUOUS
10
-29.338475
20
29.176095
30
0.0
11
-34.924525
21
28.483575
31
0.0
0
LINE
8
0
6
CONTINUOUS
10
-23.787285
20
28.406255
30
0.0
11
-29.338475
21
29.176095
31
0.0
0
LINE
8
0
6
CONTINUOUS
10
-18.626435
20
26.280665
30
0.0
11
-23.787285
21
28.406255
31
0.0
0
LINE
8
0
6
CONTINUOUS
10
-14.224005
20
22.888785
30
0.0
11
-18.626435
21
26.280665
31
0.0
0
LINE
8
0
6
CONTINUOUS
10
-10.900715
20
18.494825
30
0.0
11
-14.224005
21
22.888785
31
0.0
0
LINE
8
0
6
CONTINUOUS
10
-8.827205
20
13.458245
30
0.0
11
-10.900715
21
18.494825
31
0.0
0
LINE
8
0
6
CONTINUOUS
10
-8.908075
20
2.648155
30
0.0
11
-8.084595
21
8.011245
31
0.0
0
LINE
8
0
6
CONTINUOUS
10
-14.379185
20
-6.734925
30
0.0
11
-11.164675
21
-2.404715
31
0.0
0
LINE
8
0
6
CONTINUOUS
10
-18.598625
20
-10.109375
30
0.0
11
-14.379185
21
-6.734925
31
0.0
0
LINE
8
0
6
CONTINUOUS
10
-23.552815
20
-12.302255
30
0.0
11
-18.598625
21
-10.109375
31
0.0
0
LINE
8
0
6
CONTINUOUS
10
-28.880775
20
-13.133325
30
0.0
11
-23.552815
21
-12.302255
31
0.0
0
LINE
8
0
6
CONTINUOUS
10
-34.301565
20
-12.515875
30
0.0
11
-28.880775
21
-13.133325
31
0.0
0
LINE
8
0
6
CONTINUOUS
10
-39.385875
20
-10.513465
30
0.0
11
-34.301565
21
-12.515875
31
0.0
0
LINE
8
0
6
CONTINUOUS
10
-43.785875
20
-7.258225
30
0.0
11
-39.385875
21
-10.513465
31
0.0
0
LINE
8
0
6
CONTINUOUS
10
-47.197875
20
-2.966925
30
0.0
11
-43.785875
21
-7.258225
31
0.0
0
LINE
8
0
6
CONTINUOUS
10
-49.383625
20
2.070535
30
0.0
11
-47.197875
21
-2.966925
31
0.0
0
LINE
8
0
6
CONTINUOUS
10
-50.172985
20
7.494505
30
0.0
11
-49.383625
21
2.070535
31
0.0
0
LINE
8
0
6
CONTINUOUS
10
-49.511005
20
12.956465
30
0.0
11
-50.172985
21
7.494505
31
0.0
0
LINE
8
0
6
CONTINUOUS
10
-47.451865
20
18.057135
30
0.0
11
-49.511005
21
12.956465
31
0.0
0
LINE
8
0
6
CONTINUOUS
10
-44.139125
20
22.445675
30
0.0
11
-47.451865
21
18.057135
31
0.0
0
LINE
8
0
6
CONTINUOUS
10
-29.331035
20
28.666225
30
0.0
11
-34.825835
21
28.005935
31
0.0
0
LINE
8
0
6
CONTINUOUS
10
-23.906705
20
27.959815
30
0.0
11
-29.331035
21
28.666225
31
0.0
0
LINE
8
0
6
CONTINUOUS
10
-18.857985
20
25.886915
30
0.0
11
-23.906705
21
27.959815
31
0.0
0
LINE
8
0
6
CONTINUOUS
10
-14.541845
20
22.564275
30
0.0
11
-18.857985
21
25.886915
31
0.0
0
LINE
8
0
6
CONTINUOUS
10
-11.274905
20
18.295475
30
0.0
11
-14.541845
21
22.564275
31
0.0
0
LINE
8
0
6
CONTINUOUS
10
-9.212655
20
13.294745
30
0.0
11
-11.274905
21
18.295475
31
0.0
0
LINE
8
0
6
CONTINUOUS
10
-8.494065
20
7.945895
30
0.0
11
-9.212655
21
13.294745
31
0.0
0
LINE
8
0
6
CONTINUOUS
10
-9.160055
20
2.597195
30
0.0
11
-8.494065
21
7.945895
31
0.0
0
LINE
8
0
6
CONTINUOUS
10
-11.164675
20
-2.404715
30
0.0
11
-9.160055
21
2.597195
31
0.0
0
LINE
8
0
6
CONTINUOUS
10
-39.521275
20
25.340915
30
0.0
11
-41.532575
21
23.662985
31
0.0
0
LINE
8
0
6
CONTINUOUS
10
-37.089965
20
26.311065
30
0.0
11
-39.521275
21
25.340915
31
0.0
0
LINE
8
0
6
CONTINUOUS
10
-42.504442
20
24.470424
30
0.0
11
-44.546075
21
22.853995
31
0.0
0
LINE
8
0
6
CONTINUOUS
10
-36.662915
20
-14.211185
30
0.0
11
-36.662915
21
-12.117580
31
0.0
0
LINE
8
0
6
CONTINUOUS
10
-23.527115
20
-14.211185
30
0.0
11
-23.527115
21
-13.395685
31
0.0
0
LINE
8
0
6
CONTINUOUS
10
-27.747435
20
-14.211180
30
0.0
11
-27.747435
21
-13.286813
31
0.0
0
LINE
8
0
6
CONTINUOUS
10
-34.936895
20
-12.778602
30
0.0
11
-34.936895
21
-14.211182
31
0.0
0
LINE
8
0
6
CONTINUOUS
10
-31.783305
20
-14.211185
30
0.0
11
-31.783305
21
-13.249213
31
0.0
0
LINE
8
0
6
CONTINUOUS
10
-23.120515
20
-14.211175
30
0.0
11
-27.884995
21
-14.211175
31
0.0
0
LINE
8
0
6
CONTINUOUS
10
-32.441215
20
-14.211175
30
0.0
11
-36.001405
21
-14.211185
31
0.0
0
LINE
8
0
6
CONTINUOUS
10
-23.120515
20
-14.211175
30
0.0
11
-23.120515
21
-15.591645
31
0.0
0
LINE
8
0
6
CONTINUOUS
10
-22.359668
20
-14.211177
30
0.0
11
-23.120515
21
-14.211175
31
0.0
0
LINE
8
0
6
CONTINUOUS
10
-32.441215
20
-14.211175
30
0.0
11
-32.441215
21
-15.591645
31
0.0
0
LINE
8
0
6
CONTINUOUS
10
-27.884995
20
-14.211175
30
0.0
11
-32.441215
21
-14.211175
31
0.0
0
LINE
8
0
6
CONTINUOUS
10
-27.884995
20
-15.591645
30
0.0
11
-27.884995
21
-14.211175
31
0.0
0
LINE
8
0
6
CONTINUOUS
10
-37.949975
20
-14.211185
30
0.0
11
-37.949975
21
-15.591645
31
0.0
0
LINE
8
0
6
CONTINUOUS
10
-36.001405
20
-14.211185
30
0.0
11
-37.949975
21
-14.211185
31
0.0
0
LINE
8
0
6
CONTINUOUS
10
-36.001405
20
-15.591645
30
0.0
11
-36.001405
21
-14.211185
31
0.0
0
LINE
8
0
6
CONTINUOUS
10
-36.768325
20
-36.859125
30
0.0
11
-35.024085
21
-36.859115
31
0.0
0
LINE
8
0
6
CONTINUOUS
10
-36.809585
20
-36.116395
30
0.0
11
-36.768325
21
-36.859125
31
0.0
0
LINE
8
0
6
CONTINUOUS
10
-35.024085
20
-36.859115
30
0.0
11
-31.837195
21
-36.859115
31
0.0
0
LINE
8
0
6
CONTINUOUS
10
-35.058215
20
-36.116395
30
0.0
11
-35.024085
21
-36.859115
31
0.0
0
LINE
8
0
6
CONTINUOUS
10
-31.837195
20
-36.859115
30
0.0
11
-27.758705
21
-36.859115
31
0.0
0
LINE
8
0
6
CONTINUOUS
10
-31.858295
20
-36.116395
30
0.0
11
-31.837195
21
-36.859115
31
0.0
0
LINE
8
0
6
CONTINUOUS
10
-27.758705
20
-36.859115
30
0.0
11
-23.493815
21
-36.859115
31
0.0
0
LINE
8
0
6
CONTINUOUS
10
-27.763125
20
-36.116395
30
0.0
11
-27.758705
21
-36.859115
31
0.0
0
LINE
8
0
6
CONTINUOUS
10
-23.493815
20
-36.859115
30
0.0
11
-19.779975
21
-36.859115
31
0.0
0
LINE
8
0
6
CONTINUOUS
10
-23.480775
20
-36.116395
30
0.0
11
-23.493815
21
-36.859115
31
0.0
0
LINE
8
0
6
CONTINUOUS
10
-19.779975
20
-36.859115
30
0.0
11
-17.259335
21
-36.859115
31
0.0
0
LINE
8
0
6
CONTINUOUS
10
-19.751755
20
-36.116395
30
0.0
11
-19.779975
21
-36.859115
31
0.0
0
LINE
8
0
6
CONTINUOUS
10
-17.259335
20
-36.859115
30
0.0
11
-16.367725
21
-36.859125
31
0.0
0
LINE
8
0
6
CONTINUOUS
10
-17.220795
20
-36.116395
30
0.0
11
-17.259335
21
-36.859115
31
0.0
0
LINE
8
0
6
CONTINUOUS
10
-16.367725
20
-36.859125
30
0.0
11
-16.325535
21
-36.116405
31
0.0
0
LINE
8
0
6
CONTINUOUS
10
-37.949975
20
-15.591645
30
0.0
11
-36.809585
21
-36.116395
31
0.0
0
LINE
8
0
6
CONTINUOUS
10
-36.001405
20
-15.591645
30
0.0
11
-35.058215
21
-36.116395
31
0.0
0
LINE
8
0
6
CONTINUOUS
10
-32.441215
20
-15.591645
30
0.0
11
-31.858295
21
-36.116395
31
0.0
0
LINE
8
0
6
CONTINUOUS
10
-27.884995
20
-15.591645
30
0.0
11
-27.763125
21
-36.116395
31
0.0
0
LINE
8
0
6
CONTINUOUS
10
-23.120515
20
-15.591645
30
0.0
11
-23.480775
21
-36.116395
31
0.0
0
LINE
8
0
6
CONTINUOUS
10
-19.037931
20
-17.335888
30
0.0
11
-19.751755
21
-36.116395
31
0.0
0
LINE
8
0
6
CONTINUOUS
10
-16.155735
20
-15.591645
30
0.0
11
-17.220795
21
-36.116395
31
0.0
0
LINE
8
0
6
CONTINUOUS
10
-16.325535
20
-36.116405
30
0.0
11
-15.159675
21
-15.591655
31
0.0
0
ENDSEC
0
EOF
