999
Erzeugt mit innoplus bad 
0
SECTION
2
HEADER
9
$ACADVER
1
AC1009
9
$DWGCODEPAGE
3
ISO8859-1
0
ENDSEC
0
SECTION
2
TABLES
0
TABLE
2
LAYER
70
1
0
LAYER
2
0
70
0
62
7
6
CONTINUOUS
0
ENDTAB
0
ENDSEC
0
SECTION
2
ENTITIES
0
LINE
8
0
6
CONTINUOUS
10
78.444390
20
28.826635
30
0.0
11
74.727590
21
28.825705
31
0.0
0
LINE
8
0
6
CONTINUOUS
10
66.404400
20
-13.239625
30
0.0
11
74.728410
21
-13.241695
31
0.0
0
LINE
8
0
6
CONTINUOUS
10
74.727590
20
28.825705
30
0.0
11
66.406260
21
28.823645
31
0.0
0
LINE
8
0
6
CONTINUOUS
10
74.728410
20
-13.241695
30
0.0
11
78.446740
21
-13.242615
31
0.0
0
LINE
8
0
6
CONTINUOUS
10
65.900020
20
-13.634555
30
0.0
11
68.838740
21
-13.635795
31
0.0
0
LINE
8
0
6
CONTINUOUS
10
71.777410
20
-13.637035
30
0.0
11
74.714150
21
-13.626615
31
0.0
0
LINE
8
0
6
CONTINUOUS
10
71.777410
20
-13.637035
30
0.0
11
76.119450
21
-13.462355
31
0.0
0
LINE
8
0
6
CONTINUOUS
10
68.838740
20
-13.635795
30
0.0
11
71.777410
21
-13.637035
31
0.0
0
LINE
8
0
6
CONTINUOUS
10
76.119450
20
-13.462355
30
0.0
11
78.934690
21
-13.090685
31
0.0
0
LINE
8
0
6
CONTINUOUS
10
75.768730
20
-13.471545
30
0.0
11
76.119450
21
-13.462355
31
0.0
0
LINE
8
0
6
CONTINUOUS
10
70.535030
20
-13.510195
30
0.0
11
75.768730
21
-13.471545
31
0.0
0
LINE
8
0
6
CONTINUOUS
10
66.406260
20
28.823645
30
0.0
11
-66.406160
21
28.790655
31
0.0
0
LINE
8
0
6
CONTINUOUS
10
-66.404300
20
-13.206635
30
0.0
11
-9.089527
21
-13.220872
31
0.0
0
LINE
8
0
6
CONTINUOUS
10
9.089472
20
-13.225388
30
0.0
11
66.404400
21
-13.239625
31
0.0
0
LINE
8
0
6
CONTINUOUS
10
-65.900020
20
-13.634615
30
0.0
11
-10.149265
21
-13.634590
31
0.0
0
LINE
8
0
6
CONTINUOUS
10
10.149355
20
-13.634580
30
0.0
11
65.900020
21
-13.634555
31
0.0
0
LINE
8
0
6
CONTINUOUS
10
82.687450
20
28.827685
30
0.0
11
78.444390
21
28.826635
31
0.0
0
LINE
8
0
6
CONTINUOUS
10
78.446740
20
-13.242615
30
0.0
11
82.688260
21
-13.243665
31
0.0
0
LINE
8
0
6
CONTINUOUS
10
86.929750
20
-13.244725
30
0.0
11
90.960790
21
-13.245725
31
0.0
0
LINE
8
0
6
CONTINUOUS
10
82.688260
20
-13.243665
30
0.0
11
86.929750
21
-13.244725
31
0.0
0
LINE
8
0
6
CONTINUOUS
10
90.960940
20
28.829735
30
0.0
11
86.928350
21
28.828735
31
0.0
0
LINE
8
0
6
CONTINUOUS
10
86.928350
20
28.828735
30
0.0
11
82.687450
21
28.827685
31
0.0
0
LINE
8
0
6
CONTINUOUS
10
91.999990
20
-2.573155
30
0.0
11
91.999990
21
2.283085
31
0.0
0
LINE
8
0
6
CONTINUOUS
10
91.999990
20
-6.788995
30
0.0
11
91.999990
21
-2.573155
31
0.0
0
LINE
8
0
6
CONTINUOUS
10
-74.727480
20
28.788585
30
0.0
11
-78.446230
21
28.787665
31
0.0
0
LINE
8
0
6
CONTINUOUS
10
-74.728330
20
-13.204575
30
0.0
11
-66.404300
21
-13.206635
31
0.0
0
LINE
8
0
6
CONTINUOUS
10
-66.406160
20
28.790655
30
0.0
11
-74.727480
21
28.788585
31
0.0
0
LINE
8
0
6
CONTINUOUS
10
-78.446260
20
-13.203645
30
0.0
11
-74.728330
21
-13.204575
31
0.0
0
LINE
8
0
6
CONTINUOUS
10
-68.838720
20
-13.635865
30
0.0
11
-65.900020
21
-13.634615
31
0.0
0
LINE
8
0
6
CONTINUOUS
10
-74.714130
20
-13.626615
30
0.0
11
-71.777380
21
-13.637115
31
0.0
0
LINE
8
0
6
CONTINUOUS
10
-71.777380
20
-13.637115
30
0.0
11
-68.838720
21
-13.635865
31
0.0
0
LINE
8
0
6
CONTINUOUS
10
-76.119450
20
-13.462375
30
0.0
11
-71.777380
21
-13.637115
31
0.0
0
LINE
8
0
6
CONTINUOUS
10
-78.934660
20
-13.090655
30
0.0
11
-76.119450
21
-13.462375
31
0.0
0
LINE
8
0
6
CONTINUOUS
10
-76.119450
20
-13.462375
30
0.0
11
-75.768720
21
-13.471555
31
0.0
0
LINE
8
0
6
CONTINUOUS
10
-75.768720
20
-13.471555
30
0.0
11
-70.535020
21
-13.510225
31
0.0
0
LINE
8
0
6
CONTINUOUS
10
-78.446230
20
28.787665
30
0.0
11
-82.689650
21
28.786605
31
0.0
0
LINE
8
0
6
CONTINUOUS
10
-82.687720
20
-13.202595
30
0.0
11
-78.446260
21
-13.203645
31
0.0
0
LINE
8
0
6
CONTINUOUS
10
-90.960200
20
-13.200535
30
0.0
11
-86.929220
21
-13.201535
31
0.0
0
LINE
8
0
6
CONTINUOUS
10
-86.929220
20
-13.201535
30
0.0
11
-82.687720
21
-13.202595
31
0.0
0
LINE
8
0
6
CONTINUOUS
10
-86.929270
20
28.785555
30
0.0
11
-90.961020
21
28.784555
31
0.0
0
LINE
8
0
6
CONTINUOUS
10
-82.689650
20
28.786605
30
0.0
11
-86.929270
21
28.785555
31
0.0
0
LINE
8
0
6
CONTINUOUS
10
-91.999970
20
28.784295
30
0.0
11
-91.999970
21
27.720615
31
0.0
0
LINE
8
0
6
CONTINUOUS
10
-90.961020
20
28.784555
30
0.0
11
-91.999970
21
28.784295
31
0.0
0
LINE
8
0
6
CONTINUOUS
10
-91.999970
20
27.720615
30
0.0
11
-91.999970
21
25.569965
31
0.0
0
LINE
8
0
6
CONTINUOUS
10
91.999990
20
28.829995
30
0.0
11
90.960940
21
28.829735
31
0.0
0
LINE
8
0
6
CONTINUOUS
10
91.999990
20
27.763995
30
0.0
11
91.999990
21
28.829995
31
0.0
0
LINE
8
0
6
CONTINUOUS
10
91.999990
20
18.112975
30
0.0
11
91.999990
21
22.250645
31
0.0
0
LINE
8
0
6
CONTINUOUS
10
90.960790
20
-13.245725
30
0.0
11
91.999990
21
-13.245985
31
0.0
0
LINE
8
0
6
CONTINUOUS
10
91.999990
20
-13.245985
30
0.0
11
91.999990
21
-12.207175
31
0.0
0
LINE
8
0
6
CONTINUOUS
10
91.999990
20
2.283085
30
0.0
11
91.999990
21
7.705145
31
0.0
0
LINE
8
0
6
CONTINUOUS
10
91.999990
20
22.250645
30
0.0
11
91.999990
21
25.608665
31
0.0
0
LINE
8
0
6
CONTINUOUS
10
91.999990
20
-12.207175
30
0.0
11
91.999990
21
-10.056355
31
0.0
0
LINE
8
0
6
CONTINUOUS
10
91.999990
20
7.705145
30
0.0
11
91.999990
21
13.048635
31
0.0
0
LINE
8
0
6
CONTINUOUS
10
91.999990
20
25.608665
30
0.0
11
91.999990
21
27.763995
31
0.0
0
LINE
8
0
6
CONTINUOUS
10
91.999990
20
-10.056355
30
0.0
11
91.999990
21
-6.788995
31
0.0
0
LINE
8
0
6
CONTINUOUS
10
91.999990
20
13.048635
30
0.0
11
91.999990
21
18.112975
31
0.0
0
LINE
8
0
6
CONTINUOUS
10
-91.999970
20
2.295055
30
0.0
11
-91.999970
21
-2.550635
31
0.0
0
LINE
8
0
6
CONTINUOUS
10
-91.999970
20
22.219235
30
0.0
11
-91.999970
21
18.090555
31
0.0
0
LINE
8
0
6
CONTINUOUS
10
-91.999970
20
-12.163735
30
0.0
11
-91.999970
21
-13.200285
31
0.0
0
LINE
8
0
6
CONTINUOUS
10
-91.999970
20
-13.200285
30
0.0
11
-90.960200
21
-13.200535
31
0.0
0
LINE
8
0
6
CONTINUOUS
10
-91.999970
20
7.705335
30
0.0
11
-91.999970
21
2.295055
31
0.0
0
LINE
8
0
6
CONTINUOUS
10
-91.999970
20
25.569965
30
0.0
11
-91.999970
21
22.219235
31
0.0
0
LINE
8
0
6
CONTINUOUS
10
-91.999970
20
-10.017585
30
0.0
11
-91.999970
21
-12.163735
31
0.0
0
LINE
8
0
6
CONTINUOUS
10
-91.999970
20
13.037215
30
0.0
11
-91.999970
21
7.705335
31
0.0
0
LINE
8
0
6
CONTINUOUS
10
-91.999970
20
-2.550635
30
0.0
11
-91.999970
21
-6.757315
31
0.0
0
LINE
8
0
6
CONTINUOUS
10
-91.999970
20
-6.757315
30
0.0
11
-91.999970
21
-10.017585
31
0.0
0
LINE
8
0
6
CONTINUOUS
10
-91.999970
20
18.090555
30
0.0
11
-91.999970
21
13.037215
31
0.0
0
LINE
8
0
6
CONTINUOUS
10
75.235680
20
36.859135
30
0.0
11
68.594940
21
36.204635
31
0.0
0
LINE
8
0
6
CONTINUOUS
10
68.594940
20
36.204635
30
0.0
11
62.192960
21
34.303385
31
0.0
0
LINE
8
0
6
CONTINUOUS
10
62.192960
20
34.303385
30
0.0
11
56.254490
21
31.094075
31
0.0
0
LINE
8
0
6
CONTINUOUS
10
56.254490
20
31.094075
30
0.0
11
53.516969
21
28.820443
31
0.0
0
LINE
8
0
6
CONTINUOUS
10
45.735528
20
-13.634564
30
0.0
11
47.069710
21
-16.099725
31
0.0
0
LINE
8
0
6
CONTINUOUS
10
47.069710
20
-16.099725
30
0.0
11
51.291460
21
-21.265585
31
0.0
0
LINE
8
0
6
CONTINUOUS
10
51.291460
20
-21.265585
30
0.0
11
56.483920
21
-25.417115
31
0.0
0
LINE
8
0
6
CONTINUOUS
10
56.483920
20
-25.417115
30
0.0
11
62.307180
21
-28.495035
31
0.0
0
LINE
8
0
6
CONTINUOUS
10
62.307180
20
-28.495035
30
0.0
11
68.601030
21
-30.439915
31
0.0
0
LINE
8
0
6
CONTINUOUS
10
68.601030
20
-30.439915
30
0.0
11
75.276180
21
-31.045535
31
0.0
0
LINE
8
0
6
CONTINUOUS
10
75.276180
20
-31.045535
30
0.0
11
81.818160
21
-30.386045
31
0.0
0
LINE
8
0
6
CONTINUOUS
10
81.818160
20
-30.386045
30
0.0
11
88.129720
21
-28.524535
31
0.0
0
LINE
8
0
6
CONTINUOUS
10
88.129720
20
-28.524535
30
0.0
11
94.032250
21
-25.349635
31
0.0
0
LINE
8
0
6
CONTINUOUS
10
94.032250
20
-25.349635
30
0.0
11
99.119430
21
-21.176815
31
0.0
0
LINE
8
0
6
CONTINUOUS
10
99.119430
20
-21.176815
30
0.0
11
103.350500
21
-16.125385
31
0.0
0
LINE
8
0
6
CONTINUOUS
10
103.350500
20
-16.125385
30
0.0
11
104.787305
21
-13.450342
31
0.0
0
LINE
8
0
6
CONTINUOUS
10
96.503503
20
29.149951
30
0.0
11
94.180530
21
31.051195
31
0.0
0
LINE
8
0
6
CONTINUOUS
10
94.180530
20
31.051195
30
0.0
11
88.322770
21
34.221965
31
0.0
0
LINE
8
0
6
CONTINUOUS
10
88.322770
20
34.221965
30
0.0
11
81.892880
21
36.243135
31
0.0
0
LINE
8
0
6
CONTINUOUS
10
81.892880
20
36.243135
30
0.0
11
75.235680
21
36.859135
31
0.0
0
LINE
8
0
6
CONTINUOUS
10
75.252800
20
36.231765
30
0.0
11
68.708280
21
35.587345
31
0.0
0
LINE
8
0
6
CONTINUOUS
10
68.708280
20
35.587345
30
0.0
11
62.413760
21
33.681435
31
0.0
0
LINE
8
0
6
CONTINUOUS
10
62.413760
20
33.681435
30
0.0
11
56.623170
21
30.582065
31
0.0
0
LINE
8
0
6
CONTINUOUS
10
56.623170
20
30.582065
30
0.0
11
54.479811
21
28.820683
31
0.0
0
LINE
8
0
6
CONTINUOUS
10
46.159774
20
-13.634564
30
0.0
11
47.390030
21
-15.918455
31
0.0
0
LINE
8
0
6
CONTINUOUS
10
47.390030
20
-15.918455
30
0.0
11
51.554900
21
-21.001835
31
0.0
0
LINE
8
0
6
CONTINUOUS
10
51.554900
20
-21.001835
30
0.0
11
56.656720
21
-25.128725
31
0.0
0
LINE
8
0
6
CONTINUOUS
10
56.656720
20
-25.128725
30
0.0
11
62.449570
21
-28.205735
31
0.0
0
LINE
8
0
6
CONTINUOUS
10
62.449570
20
-28.205735
30
0.0
11
68.722830
21
-30.121545
31
0.0
0
LINE
8
0
6
CONTINUOUS
10
68.722830
20
-30.121545
30
0.0
11
75.251630
21
-30.735855
31
0.0
0
LINE
8
0
6
CONTINUOUS
10
75.251630
20
-30.735855
30
0.0
11
81.772030
21
-30.085745
31
0.0
0
LINE
8
0
6
CONTINUOUS
10
81.772030
20
-30.085745
30
0.0
11
88.051780
21
-28.205245
31
0.0
0
LINE
8
0
6
CONTINUOUS
10
88.051780
20
-28.205245
30
0.0
11
93.830300
21
-25.105265
31
0.0
0
LINE
8
0
6
CONTINUOUS
10
93.830300
20
-25.105265
30
0.0
11
98.899770
21
-20.949305
31
0.0
0
LINE
8
0
6
CONTINUOUS
10
98.899770
20
-20.949305
30
0.0
11
103.087330
21
-15.899175
31
0.0
0
LINE
8
0
6
CONTINUOUS
10
103.087330
20
-15.899175
30
0.0
11
104.398430
21
-13.453159
31
0.0
0
LINE
8
0
6
CONTINUOUS
10
95.600122
20
29.158346
30
0.0
11
93.876700
21
30.572905
31
0.0
0
LINE
8
0
6
CONTINUOUS
10
93.876700
20
30.572905
30
0.0
11
88.080380
21
33.675935
31
0.0
0
LINE
8
0
6
CONTINUOUS
10
88.080380
20
33.675935
30
0.0
11
81.798100
21
35.590215
31
0.0
0
LINE
8
0
6
CONTINUOUS
10
81.798100
20
35.590215
30
0.0
11
75.252800
21
36.231765
31
0.0
0
LINE
8
0
6
CONTINUOUS
10
75.276180
20
-31.045535
30
0.0
11
68.601030
21
-30.439915
31
0.0
0
LINE
8
0
6
CONTINUOUS
10
68.601010
20
-30.439915
30
0.0
11
75.276170
21
-31.045605
31
0.0
0
LINE
8
0
6
CONTINUOUS
10
-68.594920
20
36.204635
30
0.0
11
-75.235660
21
36.859135
31
0.0
0
LINE
8
0
6
CONTINUOUS
10
-62.192940
20
34.303385
30
0.0
11
-68.594920
21
36.204635
31
0.0
0
LINE
8
0
6
CONTINUOUS
10
-56.254470
20
31.094075
30
0.0
11
-62.192940
21
34.303385
31
0.0
0
LINE
8
0
6
CONTINUOUS
10
-53.484948
20
28.793865
30
0.0
11
-56.254470
21
31.094075
31
0.0
0
LINE
8
0
6
CONTINUOUS
10
-47.069690
20
-16.099725
30
0.0
11
-45.735531
21
-13.634606
31
0.0
0
LINE
8
0
6
CONTINUOUS
10
-51.291440
20
-21.265585
30
0.0
11
-47.069690
21
-16.099725
31
0.0
0
LINE
8
0
6
CONTINUOUS
10
-56.483900
20
-25.417115
30
0.0
11
-51.291440
21
-21.265585
31
0.0
0
LINE
8
0
6
CONTINUOUS
10
-62.307160
20
-28.495035
30
0.0
11
-56.483900
21
-25.417115
31
0.0
0
LINE
8
0
6
CONTINUOUS
10
-68.601010
20
-30.439915
30
0.0
11
-62.307160
21
-28.495035
31
0.0
0
LINE
8
0
6
CONTINUOUS
10
-75.276160
20
-31.045535
30
0.0
11
-68.601010
21
-30.439915
31
0.0
0
LINE
8
0
6
CONTINUOUS
10
-81.818140
20
-30.386045
30
0.0
11
-75.276160
21
-31.045535
31
0.0
0
LINE
8
0
6
CONTINUOUS
10
-88.129700
20
-28.524535
30
0.0
11
-81.818140
21
-30.386045
31
0.0
0
LINE
8
0
6
CONTINUOUS
10
-94.032230
20
-25.349635
30
0.0
11
-88.129700
21
-28.524535
31
0.0
0
LINE
8
0
6
CONTINUOUS
10
-99.119410
20
-21.176815
30
0.0
11
-94.032230
21
-25.349635
31
0.0
0
LINE
8
0
6
CONTINUOUS
10
-103.350480
20
-16.125385
30
0.0
11
-99.119410
21
-21.176815
31
0.0
0
LINE
8
0
6
CONTINUOUS
10
-104.787285
20
-13.450343
30
0.0
11
-103.350480
21
-16.125385
31
0.0
0
LINE
8
0
6
CONTINUOUS
10
-94.180510
20
31.051195
30
0.0
11
-96.503482
21
29.149952
31
0.0
0
LINE
8
0
6
CONTINUOUS
10
-88.322750
20
34.221965
30
0.0
11
-94.180510
21
31.051195
31
0.0
0
LINE
8
0
6
CONTINUOUS
10
-81.892860
20
36.243135
30
0.0
11
-88.322750
21
34.221965
31
0.0
0
LINE
8
0
6
CONTINUOUS
10
-75.235660
20
36.859135
30
0.0
11
-81.892860
21
36.243135
31
0.0
0
LINE
8
0
6
CONTINUOUS
10
-68.708260
20
35.587345
30
0.0
11
-75.252780
21
36.231765
31
0.0
0
LINE
8
0
6
CONTINUOUS
10
-62.413740
20
33.681435
30
0.0
11
-68.708260
21
35.587345
31
0.0
0
LINE
8
0
6
CONTINUOUS
10
-56.623150
20
30.582065
30
0.0
11
-62.413740
21
33.681435
31
0.0
0
LINE
8
0
6
CONTINUOUS
10
-54.446866
20
28.793626
30
0.0
11
-56.623150
21
30.582065
31
0.0
0
LINE
8
0
6
CONTINUOUS
10
-47.390010
20
-15.918455
30
0.0
11
-46.159777
21
-13.634606
31
0.0
0
LINE
8
0
6
CONTINUOUS
10
-51.554880
20
-21.001835
30
0.0
11
-47.390010
21
-15.918455
31
0.0
0
LINE
8
0
6
CONTINUOUS
10
-56.656700
20
-25.128725
30
0.0
11
-51.554880
21
-21.001835
31
0.0
0
LINE
8
0
6
CONTINUOUS
10
-62.449550
20
-28.205735
30
0.0
11
-56.656700
21
-25.128725
31
0.0
0
LINE
8
0
6
CONTINUOUS
10
-68.722810
20
-30.121545
30
0.0
11
-62.449550
21
-28.205735
31
0.0
0
LINE
8
0
6
CONTINUOUS
10
-75.251610
20
-30.735855
30
0.0
11
-68.722810
21
-30.121545
31
0.0
0
LINE
8
0
6
CONTINUOUS
10
-81.772010
20
-30.085745
30
0.0
11
-75.251610
21
-30.735855
31
0.0
0
LINE
8
0
6
CONTINUOUS
10
-88.051760
20
-28.205245
30
0.0
11
-81.772010
21
-30.085745
31
0.0
0
LINE
8
0
6
CONTINUOUS
10
-93.830280
20
-25.105265
30
0.0
11
-88.051760
21
-28.205245
31
0.0
0
LINE
8
0
6
CONTINUOUS
10
-98.899750
20
-20.949305
30
0.0
11
-93.830280
21
-25.105265
31
0.0
0
LINE
8
0
6
CONTINUOUS
10
-103.087310
20
-15.899175
30
0.0
11
-98.899750
21
-20.949305
31
0.0
0
LINE
8
0
6
CONTINUOUS
10
-104.398410
20
-13.453159
30
0.0
11
-103.087310
21
-15.899175
31
0.0
0
LINE
8
0
6
CONTINUOUS
10
-93.876680
20
30.572905
30
0.0
11
-95.600101
21
29.158346
31
0.0
0
LINE
8
0
6
CONTINUOUS
10
-88.080360
20
33.675935
30
0.0
11
-93.876680
21
30.572905
31
0.0
0
LINE
8
0
6
CONTINUOUS
10
-81.798080
20
35.590215
30
0.0
11
-88.080360
21
33.675935
31
0.0
0
LINE
8
0
6
CONTINUOUS
10
-75.252780
20
36.231765
30
0.0
11
-81.798080
21
35.590215
31
0.0
0
LINE
8
0
6
CONTINUOUS
10
-75.276150
20
-31.045605
30
0.0
11
-68.600990
21
-30.439915
31
0.0
0
LINE
8
0
6
CONTINUOUS
10
-68.601010
20
-30.439915
30
0.0
11
-75.276160
21
-31.045535
31
0.0
0
LINE
8
0
6
CONTINUOUS
10
111.940640
20
-13.398537
30
0.0
11
111.940640
21
-14.980335
31
0.0
0
LINE
8
0
6
CONTINUOUS
10
121.855840
20
-14.980335
30
0.0
11
121.855840
21
-13.326731
31
0.0
0
LINE
8
0
6
CONTINUOUS
10
120.403790
20
-16.793475
30
0.0
11
120.403790
21
-13.337247
31
0.0
0
LINE
8
0
6
CONTINUOUS
10
118.795420
20
-13.348895
30
0.0
11
118.795420
21
-17.349315
31
0.0
0
LINE
8
0
6
CONTINUOUS
10
115.001050
20
-17.777785
30
0.0
11
116.898230
21
-17.972975
31
0.0
0
LINE
8
0
6
CONTINUOUS
10
115.001050
20
-17.777785
30
0.0
11
115.001050
21
-17.349315
31
0.0
0
LINE
8
0
6
CONTINUOUS
10
113.392690
20
-17.221945
30
0.0
11
115.001050
21
-17.777785
31
0.0
0
LINE
8
0
6
CONTINUOUS
10
112.318020
20
-16.390075
30
0.0
11
113.392690
21
-17.221945
31
0.0
0
LINE
8
0
6
CONTINUOUS
10
111.940640
20
-15.408805
30
0.0
11
112.318020
21
-16.390075
31
0.0
0
LINE
8
0
6
CONTINUOUS
10
111.940640
20
-14.980335
30
0.0
11
111.940640
21
-15.408805
31
0.0
0
LINE
8
0
6
CONTINUOUS
10
121.855840
20
-15.408805
30
0.0
11
121.855840
21
-14.980335
31
0.0
0
LINE
8
0
6
CONTINUOUS
10
121.478440
20
-16.390075
30
0.0
11
121.855840
21
-15.408805
31
0.0
0
LINE
8
0
6
CONTINUOUS
10
120.403790
20
-17.221945
30
0.0
11
121.478440
21
-16.390075
31
0.0
0
LINE
8
0
6
CONTINUOUS
10
120.403790
20
-17.221945
30
0.0
11
120.403790
21
-16.793475
31
0.0
0
LINE
8
0
6
CONTINUOUS
10
118.795420
20
-17.777785
30
0.0
11
120.403790
21
-17.221945
31
0.0
0
LINE
8
0
6
CONTINUOUS
10
118.795420
20
-17.777785
30
0.0
11
118.795420
21
-17.349315
31
0.0
0
LINE
8
0
6
CONTINUOUS
10
116.898230
20
-17.972975
30
0.0
11
118.795420
21
-17.777785
31
0.0
0
LINE
8
0
6
CONTINUOUS
10
116.898230
20
-17.544495
30
0.0
11
116.898230
21
-17.972975
31
0.0
0
LINE
8
0
6
CONTINUOUS
10
116.898230
20
-17.544495
30
0.0
11
116.898230
21
-13.362634
31
0.0
0
LINE
8
0
6
CONTINUOUS
10
115.001050
20
-13.376374
30
0.0
11
115.001050
21
-17.349315
31
0.0
0
LINE
8
0
6
CONTINUOUS
10
147.565860
20
24.029195
30
0.0
11
148.485410
21
24.028045
31
0.0
0
LINE
8
0
6
CONTINUOUS
10
148.485410
20
24.028045
30
0.0
11
148.485470
21
30.406075
31
0.0
0
LINE
8
0
6
CONTINUOUS
10
148.485410
20
24.028045
30
0.0
11
147.565860
21
24.029195
31
0.0
0
LINE
8
0
6
CONTINUOUS
10
148.485410
20
22.445675
30
0.0
11
148.485410
21
24.028045
31
0.0
0
LINE
8
0
6
CONTINUOUS
10
127.272400
20
34.427865
30
0.0
11
127.263710
21
33.326255
31
0.0
0
LINE
8
0
6
CONTINUOUS
10
127.503200
20
34.431685
30
0.0
11
147.621480
21
34.433135
31
0.0
0
LINE
8
0
6
CONTINUOUS
10
147.619310
20
34.850305
30
0.0
11
127.501050
21
34.848855
31
0.0
0
LINE
8
0
6
CONTINUOUS
10
127.494140
20
31.890755
30
0.0
11
147.612430
21
31.894145
31
0.0
0
LINE
8
0
6
CONTINUOUS
10
147.618960
20
33.367575
30
0.0
11
127.500680
21
33.365165
31
0.0
0
LINE
8
0
6
CONTINUOUS
10
148.485470
20
30.406075
30
0.0
11
148.485460
21
31.893075
31
0.0
0
LINE
8
0
6
CONTINUOUS
10
148.485460
20
31.893075
30
0.0
11
148.485460
21
33.367005
31
0.0
0
LINE
8
0
6
CONTINUOUS
10
147.612430
20
31.894145
30
0.0
11
148.485460
21
31.893075
31
0.0
0
LINE
8
0
6
CONTINUOUS
10
148.485460
20
33.367005
30
0.0
11
148.485460
21
34.433055
31
0.0
0
LINE
8
0
6
CONTINUOUS
10
147.618960
20
33.367575
30
0.0
11
148.485460
21
33.367005
31
0.0
0
LINE
8
0
6
CONTINUOUS
10
148.485460
20
34.850235
30
0.0
11
147.619310
21
34.850305
31
0.0
0
LINE
8
0
6
CONTINUOUS
10
148.485460
20
34.433055
30
0.0
11
148.485460
21
34.850235
31
0.0
0
LINE
8
0
6
CONTINUOUS
10
147.621480
20
34.433135
30
0.0
11
148.485460
21
34.433055
31
0.0
0
LINE
8
0
6
CONTINUOUS
10
127.271800
20
31.891815
30
0.0
11
127.263000
21
30.404775
31
0.0
0
LINE
8
0
6
CONTINUOUS
10
127.271800
20
31.891815
30
0.0
11
127.494140
21
31.890755
31
0.0
0
LINE
8
0
6
CONTINUOUS
10
127.278300
20
33.365745
30
0.0
11
127.271800
21
31.891815
31
0.0
0
LINE
8
0
6
CONTINUOUS
10
127.278300
20
33.365745
30
0.0
11
127.500680
21
33.365165
31
0.0
0
LINE
8
0
6
CONTINUOUS
10
127.280820
20
34.431755
30
0.0
11
127.278300
21
33.365745
31
0.0
0
LINE
8
0
6
CONTINUOUS
10
127.280820
20
34.431755
30
0.0
11
127.503200
21
34.431685
31
0.0
0
LINE
8
0
6
CONTINUOUS
10
127.278670
20
34.848935
30
0.0
11
127.280820
21
34.431755
31
0.0
0
LINE
8
0
6
CONTINUOUS
10
127.501050
20
34.848855
30
0.0
11
127.278670
21
34.848935
31
0.0
0
LINE
8
0
6
CONTINUOUS
10
127.263710
20
33.326255
30
0.0
11
127.227660
21
27.237585
31
0.0
0
LINE
8
0
6
CONTINUOUS
10
93.860510
20
-13.529475
30
0.0
11
146.428350
21
-13.148775
31
0.0
0
LINE
8
0
6
CONTINUOUS
10
127.237292
20
28.864358
30
0.0
11
93.862280
21
29.174495
31
0.0
0
LINE
8
0
6
CONTINUOUS
10
93.498730
20
-13.530735
30
0.0
11
93.860510
21
-13.529475
31
0.0
0
LINE
8
0
6
CONTINUOUS
10
93.499200
20
-12.976765
30
0.0
11
93.498730
21
-13.530735
31
0.0
0
LINE
8
0
6
CONTINUOUS
10
93.499780
20
-10.986905
30
0.0
11
93.499200
21
-12.976765
31
0.0
0
LINE
8
0
6
CONTINUOUS
10
93.500350
20
-7.663465
30
0.0
11
93.499780
21
-10.986905
31
0.0
0
LINE
8
0
6
CONTINUOUS
10
93.500980
20
-3.259435
30
0.0
11
93.500350
21
-7.663465
31
0.0
0
LINE
8
0
6
CONTINUOUS
10
93.501520
20
1.916535
30
0.0
11
93.500980
21
-3.259435
31
0.0
0
LINE
8
0
6
CONTINUOUS
10
93.501810
20
7.516205
30
0.0
11
93.501520
21
1.916535
31
0.0
0
LINE
8
0
6
CONTINUOUS
10
93.501760
20
13.084785
30
0.0
11
93.501810
21
7.516205
31
0.0
0
LINE
8
0
6
CONTINUOUS
10
93.501660
20
18.342665
30
0.0
11
93.501760
21
13.084785
31
0.0
0
LINE
8
0
6
CONTINUOUS
10
93.501430
20
22.853995
30
0.0
11
93.501660
21
18.342665
31
0.0
0
LINE
8
0
6
CONTINUOUS
10
93.506870
20
26.368895
30
0.0
11
93.501430
21
22.853995
31
0.0
0
LINE
8
0
6
CONTINUOUS
10
93.862280
20
29.174495
30
0.0
11
93.500010
21
29.176095
31
0.0
0
LINE
8
0
6
CONTINUOUS
10
148.485420
20
18.057135
30
0.0
11
148.485410
21
22.445675
31
0.0
0
LINE
8
0
6
CONTINUOUS
10
148.485410
20
12.956465
30
0.0
11
148.485420
21
18.057135
31
0.0
0
LINE
8
0
6
CONTINUOUS
10
148.485420
20
7.494505
30
0.0
11
148.485410
21
12.956465
31
0.0
0
LINE
8
0
6
CONTINUOUS
10
148.485410
20
2.070535
30
0.0
11
148.485420
21
7.494505
31
0.0
0
LINE
8
0
6
CONTINUOUS
10
148.485420
20
-2.966925
30
0.0
11
148.485410
21
2.070535
31
0.0
0
LINE
8
0
6
CONTINUOUS
10
148.485410
20
-7.258225
30
0.0
11
148.485420
21
-2.966925
31
0.0
0
LINE
8
0
6
CONTINUOUS
10
148.485420
20
-12.515875
30
0.0
11
148.485420
21
-10.513465
31
0.0
0
LINE
8
0
6
CONTINUOUS
10
147.567050
20
-13.140455
30
0.0
11
148.485410
21
-13.133325
31
0.0
0
LINE
8
0
6
CONTINUOUS
10
148.485410
20
-13.133325
30
0.0
11
148.485420
21
-12.515875
31
0.0
0
LINE
8
0
6
CONTINUOUS
10
148.485410
20
-7.258225
30
0.0
11
148.485420
21
-10.513465
31
0.0
0
LINE
8
0
6
CONTINUOUS
10
127.225900
20
24.138675
30
0.0
11
127.263000
21
30.404775
31
0.0
0
LINE
8
0
6
CONTINUOUS
10
146.428350
20
-13.148775
30
0.0
11
147.567050
21
-13.140455
31
0.0
0
LINE
8
0
6
CONTINUOUS
10
93.506870
20
26.368895
30
0.0
11
93.501780
21
28.483575
31
0.0
0
LINE
8
0
6
CONTINUOUS
10
93.501780
20
28.483575
30
0.0
11
93.500010
21
29.176095
31
0.0
0
LINE
8
0
6
CONTINUOUS
10
91.999220
20
-12.241675
30
0.0
11
93.501010
21
-12.241675
31
0.0
0
LINE
8
0
6
CONTINUOUS
10
93.501790
20
27.885355
30
0.0
11
92.000000
21
27.885355
31
0.0
0
LINE
8
0
6
CONTINUOUS
10
-111.940640
20
-14.980335
30
0.0
11
-111.940640
21
-13.398537
31
0.0
0
LINE
8
0
6
CONTINUOUS
10
-121.855840
20
-13.326731
30
0.0
11
-121.855840
21
-14.980335
31
0.0
0
LINE
8
0
6
CONTINUOUS
10
-118.795420
20
-17.349315
30
0.0
11
-118.795420
21
-13.348895
31
0.0
0
LINE
8
0
6
CONTINUOUS
10
-120.403790
20
-13.337247
30
0.0
11
-120.403790
21
-16.793475
31
0.0
0
LINE
8
0
6
CONTINUOUS
10
-116.898230
20
-17.972975
30
0.0
11
-115.001050
21
-17.777785
31
0.0
0
LINE
8
0
6
CONTINUOUS
10
-115.001050
20
-17.777785
30
0.0
11
-113.392690
21
-17.221945
31
0.0
0
LINE
8
0
6
CONTINUOUS
10
-115.001050
20
-17.349315
30
0.0
11
-115.001050
21
-17.777785
31
0.0
0
LINE
8
0
6
CONTINUOUS
10
-113.392690
20
-17.221945
30
0.0
11
-112.318020
21
-16.390075
31
0.0
0
LINE
8
0
6
CONTINUOUS
10
-111.940640
20
-15.408805
30
0.0
11
-111.940640
21
-14.980335
31
0.0
0
LINE
8
0
6
CONTINUOUS
10
-112.318020
20
-16.390075
30
0.0
11
-111.940640
21
-15.408805
31
0.0
0
LINE
8
0
6
CONTINUOUS
10
-121.855840
20
-15.408805
30
0.0
11
-121.478440
21
-16.390075
31
0.0
0
LINE
8
0
6
CONTINUOUS
10
-121.855840
20
-14.980335
30
0.0
11
-121.855840
21
-15.408805
31
0.0
0
LINE
8
0
6
CONTINUOUS
10
-121.478440
20
-16.390075
30
0.0
11
-120.403790
21
-17.221945
31
0.0
0
LINE
8
0
6
CONTINUOUS
10
-120.403790
20
-17.221945
30
0.0
11
-118.795420
21
-17.777785
31
0.0
0
LINE
8
0
6
CONTINUOUS
10
-120.403790
20
-16.793475
30
0.0
11
-120.403790
21
-17.221945
31
0.0
0
LINE
8
0
6
CONTINUOUS
10
-116.898230
20
-17.972975
30
0.0
11
-116.898230
21
-17.544495
31
0.0
0
LINE
8
0
6
CONTINUOUS
10
-118.795420
20
-17.777785
30
0.0
11
-116.898230
21
-17.972975
31
0.0
0
LINE
8
0
6
CONTINUOUS
10
-118.795420
20
-17.349315
30
0.0
11
-118.795420
21
-17.777785
31
0.0
0
LINE
8
0
6
CONTINUOUS
10
-115.001050
20
-17.349315
30
0.0
11
-115.001050
21
-13.376374
31
0.0
0
LINE
8
0
6
CONTINUOUS
10
-116.898230
20
-13.362634
30
0.0
11
-116.898230
21
-17.544495
31
0.0
0
LINE
8
0
6
CONTINUOUS
10
-148.485470
20
30.406075
30
0.0
11
-148.485410
21
24.028045
31
0.0
0
LINE
8
0
6
CONTINUOUS
10
-148.485410
20
24.028045
30
0.0
11
-147.565860
21
24.029195
31
0.0
0
LINE
8
0
6
CONTINUOUS
10
-148.485410
20
24.028045
30
0.0
11
-148.485410
21
22.445675
31
0.0
0
LINE
8
0
6
CONTINUOUS
10
-147.565860
20
24.029195
30
0.0
11
-148.485410
21
24.028045
31
0.0
0
LINE
8
0
6
CONTINUOUS
10
-127.263710
20
33.326255
30
0.0
11
-127.272400
21
34.427865
31
0.0
0
LINE
8
0
6
CONTINUOUS
10
-127.501050
20
34.848855
30
0.0
11
-147.619310
21
34.850305
31
0.0
0
LINE
8
0
6
CONTINUOUS
10
-147.621480
20
34.433135
30
0.0
11
-127.503200
21
34.431685
31
0.0
0
LINE
8
0
6
CONTINUOUS
10
-127.500680
20
33.365165
30
0.0
11
-147.618960
21
33.367575
31
0.0
0
LINE
8
0
6
CONTINUOUS
10
-147.612430
20
31.894145
30
0.0
11
-127.494140
21
31.890755
31
0.0
0
LINE
8
0
6
CONTINUOUS
10
-148.485460
20
31.893075
30
0.0
11
-148.485470
21
30.406075
31
0.0
0
LINE
8
0
6
CONTINUOUS
10
-148.485460
20
31.893075
30
0.0
11
-147.612430
21
31.894145
31
0.0
0
LINE
8
0
6
CONTINUOUS
10
-148.485460
20
33.367005
30
0.0
11
-148.485460
21
31.893075
31
0.0
0
LINE
8
0
6
CONTINUOUS
10
-148.485460
20
33.367005
30
0.0
11
-147.618960
21
33.367575
31
0.0
0
LINE
8
0
6
CONTINUOUS
10
-148.485460
20
34.433055
30
0.0
11
-148.485460
21
33.367005
31
0.0
0
LINE
8
0
6
CONTINUOUS
10
-148.485460
20
34.433055
30
0.0
11
-147.621480
21
34.433135
31
0.0
0
LINE
8
0
6
CONTINUOUS
10
-148.485460
20
34.850235
30
0.0
11
-148.485460
21
34.433055
31
0.0
0
LINE
8
0
6
CONTINUOUS
10
-147.619310
20
34.850305
30
0.0
11
-148.485460
21
34.850235
31
0.0
0
LINE
8
0
6
CONTINUOUS
10
-127.263000
20
30.404775
30
0.0
11
-127.271790
21
31.891815
31
0.0
0
LINE
8
0
6
CONTINUOUS
10
-127.271790
20
31.891815
30
0.0
11
-127.278300
21
33.365745
31
0.0
0
LINE
8
0
6
CONTINUOUS
10
-127.494140
20
31.890755
30
0.0
11
-127.271790
21
31.891815
31
0.0
0
LINE
8
0
6
CONTINUOUS
10
-127.278300
20
33.365745
30
0.0
11
-127.280820
21
34.431755
31
0.0
0
LINE
8
0
6
CONTINUOUS
10
-127.500680
20
33.365165
30
0.0
11
-127.278300
21
33.365745
31
0.0
0
LINE
8
0
6
CONTINUOUS
10
-127.278670
20
34.848935
30
0.0
11
-127.501050
21
34.848855
31
0.0
0
LINE
8
0
6
CONTINUOUS
10
-127.280820
20
34.431755
30
0.0
11
-127.278670
21
34.848935
31
0.0
0
LINE
8
0
6
CONTINUOUS
10
-127.503200
20
34.431685
30
0.0
11
-127.280820
21
34.431755
31
0.0
0
LINE
8
0
6
CONTINUOUS
10
-127.227660
20
27.237585
30
0.0
11
-127.263710
21
33.326255
31
0.0
0
LINE
8
0
6
CONTINUOUS
10
-146.428350
20
-13.148775
30
0.0
11
-93.860510
21
-13.529475
31
0.0
0
LINE
8
0
6
CONTINUOUS
10
-93.862280
20
29.174495
30
0.0
11
-127.237292
21
28.864358
31
0.0
0
LINE
8
0
6
CONTINUOUS
10
-93.498730
20
-13.530735
30
0.0
11
-93.499200
21
-12.976765
31
0.0
0
LINE
8
0
6
CONTINUOUS
10
-93.860510
20
-13.529475
30
0.0
11
-93.498730
21
-13.530735
31
0.0
0
LINE
8
0
6
CONTINUOUS
10
-93.499200
20
-12.976765
30
0.0
11
-93.499780
21
-10.986905
31
0.0
0
LINE
8
0
6
CONTINUOUS
10
-93.499780
20
-10.986905
30
0.0
11
-93.500350
21
-7.663465
31
0.0
0
LINE
8
0
6
CONTINUOUS
10
-93.500350
20
-7.663465
30
0.0
11
-93.500980
21
-3.259435
31
0.0
0
LINE
8
0
6
CONTINUOUS
10
-93.500980
20
-3.259435
30
0.0
11
-93.501520
21
1.916535
31
0.0
0
LINE
8
0
6
CONTINUOUS
10
-93.501520
20
1.916535
30
0.0
11
-93.501810
21
7.516205
31
0.0
0
LINE
8
0
6
CONTINUOUS
10
-93.501810
20
7.516205
30
0.0
11
-93.501760
21
13.084785
31
0.0
0
LINE
8
0
6
CONTINUOUS
10
-93.501760
20
13.084785
30
0.0
11
-93.501660
21
18.342665
31
0.0
0
LINE
8
0
6
CONTINUOUS
10
-93.501660
20
18.342665
30
0.0
11
-93.501420
21
22.853995
31
0.0
0
LINE
8
0
6
CONTINUOUS
10
-93.501420
20
22.853995
30
0.0
11
-93.506870
21
26.368895
31
0.0
0
LINE
8
0
6
CONTINUOUS
10
-93.500010
20
29.176095
30
0.0
11
-93.862280
21
29.174495
31
0.0
0
LINE
8
0
6
CONTINUOUS
10
-148.485410
20
22.445675
30
0.0
11
-148.485420
21
18.057135
31
0.0
0
LINE
8
0
6
CONTINUOUS
10
-148.485420
20
18.057135
30
0.0
11
-148.485410
21
12.956465
31
0.0
0
LINE
8
0
6
CONTINUOUS
10
-148.485410
20
12.956465
30
0.0
11
-148.485420
21
7.494505
31
0.0
0
LINE
8
0
6
CONTINUOUS
10
-148.485420
20
7.494505
30
0.0
11
-148.485410
21
2.070535
31
0.0
0
LINE
8
0
6
CONTINUOUS
10
-148.485410
20
2.070535
30
0.0
11
-148.485420
21
-2.966925
31
0.0
0
LINE
8
0
6
CONTINUOUS
10
-148.485420
20
-2.966925
30
0.0
11
-148.485410
21
-7.258225
31
0.0
0
LINE
8
0
6
CONTINUOUS
10
-148.485420
20
-10.513465
30
0.0
11
-148.485420
21
-12.515875
31
0.0
0
LINE
8
0
6
CONTINUOUS
10
-148.485420
20
-12.515875
30
0.0
11
-148.485410
21
-13.133325
31
0.0
0
LINE
8
0
6
CONTINUOUS
10
-148.485410
20
-13.133325
30
0.0
11
-147.567050
21
-13.140455
31
0.0
0
LINE
8
0
6
CONTINUOUS
10
-148.485420
20
-10.513465
30
0.0
11
-148.485410
21
-7.258225
31
0.0
0
LINE
8
0
6
CONTINUOUS
10
-127.263000
20
30.404775
30
0.0
11
-127.225890
21
24.138675
31
0.0
0
LINE
8
0
6
CONTINUOUS
10
-147.567050
20
-13.140455
30
0.0
11
-146.428350
21
-13.148775
31
0.0
0
LINE
8
0
6
CONTINUOUS
10
-93.501780
20
28.483575
30
0.0
11
-93.506870
21
26.368895
31
0.0
0
LINE
8
0
6
CONTINUOUS
10
-93.500010
20
29.176095
30
0.0
11
-93.501780
21
28.483575
31
0.0
0
LINE
8
0
6
CONTINUOUS
10
-93.501000
20
-12.241675
30
0.0
11
-91.999220
21
-12.241675
31
0.0
0
LINE
8
0
6
CONTINUOUS
10
-92.000000
20
27.885355
30
0.0
11
-93.501790
21
27.885355
31
0.0
0
LINE
8
0
6
CONTINUOUS
10
2.121816
20
-14.211185
30
0.0
11
2.121813
21
-11.868681
31
0.0
0
LINE
8
0
6
CONTINUOUS
10
-2.121764
20
-14.211195
30
0.0
11
-2.121767
21
-11.867524
31
0.0
0
LINE
8
0
6
CONTINUOUS
10
10.149356
20
-14.211180
30
0.0
11
10.149355
21
-13.225651
31
0.0
0
LINE
8
0
6
CONTINUOUS
10
-5.998454
20
-14.211195
30
0.0
11
-5.998456
21
-12.403625
31
0.0
0
LINE
8
0
6
CONTINUOUS
10
5.998504
20
-12.406652
30
0.0
11
5.998506
21
-14.211185
31
0.0
0
LINE
8
0
6
CONTINUOUS
10
8.838016
20
-14.211185
30
0.0
11
8.838015
21
-13.064151
31
0.0
0
LINE
8
0
6
CONTINUOUS
10
5.998500
20
-14.211185
30
0.0
11
2.121820
21
-14.211185
31
0.0
0
LINE
8
0
6
CONTINUOUS
10
-10.149265
20
-13.220609
30
0.0
11
-10.149264
21
-14.211195
31
0.0
0
LINE
8
0
6
CONTINUOUS
10
-8.837964
20
-14.211195
30
0.0
11
-8.837965
21
-13.059691
31
0.0
0
LINE
8
0
6
CONTINUOUS
10
10.957150
20
-14.211175
30
0.0
11
11.457950
21
-14.211175
31
0.0
0
LINE
8
0
6
CONTINUOUS
10
-2.395320
20
-14.211195
30
0.0
11
-6.771840
21
-14.211195
31
0.0
0
LINE
8
0
6
CONTINUOUS
10
9.977540
20
-14.211175
30
0.0
11
6.771930
21
-14.211185
31
0.0
0
LINE
8
0
6
CONTINUOUS
10
-9.977490
20
-14.211195
30
0.0
11
-11.457890
21
-14.211195
31
0.0
0
LINE
8
0
6
CONTINUOUS
10
-2.395320
20
-14.211195
30
0.0
11
-2.395320
21
-15.591655
31
0.0
0
LINE
8
0
6
CONTINUOUS
10
2.395370
20
-14.211185
30
0.0
11
-2.395320
21
-14.211195
31
0.0
0
LINE
8
0
6
CONTINUOUS
10
9.977540
20
-14.211175
30
0.0
11
9.977540
21
-15.591645
31
0.0
0
LINE
8
0
6
CONTINUOUS
10
11.457950
20
-14.211175
30
0.0
11
9.977540
21
-14.211175
31
0.0
0
LINE
8
0
6
CONTINUOUS
10
11.457950
20
-15.591645
30
0.0
11
11.457950
21
-14.211175
31
0.0
0
LINE
8
0
6
CONTINUOUS
10
-9.977490
20
-14.211195
30
0.0
11
-9.977490
21
-15.591665
31
0.0
0
LINE
8
0
6
CONTINUOUS
10
-6.771840
20
-14.211195
30
0.0
11
-9.977490
21
-14.211195
31
0.0
0
LINE
8
0
6
CONTINUOUS
10
-6.771840
20
-15.591655
30
0.0
11
-6.771840
21
-14.211195
31
0.0
0
LINE
8
0
6
CONTINUOUS
10
2.395370
20
-14.211185
30
0.0
11
2.395370
21
-15.591645
31
0.0
0
LINE
8
0
6
CONTINUOUS
10
6.771930
20
-14.211185
30
0.0
11
2.395370
21
-14.211185
31
0.0
0
LINE
8
0
6
CONTINUOUS
10
6.771930
20
-15.591645
30
0.0
11
6.771930
21
-14.211185
31
0.0
0
LINE
8
0
6
CONTINUOUS
10
-11.457890
20
-15.591665
30
0.0
11
-11.457890
21
-14.211195
31
0.0
0
LINE
8
0
6
CONTINUOUS
10
-10.256440
20
-36.859135
30
0.0
11
-8.931290
21
-36.859135
31
0.0
0
LINE
8
0
6
CONTINUOUS
10
-10.298400
20
-36.116415
30
0.0
11
-10.256440
21
-36.859135
31
0.0
0
LINE
8
0
6
CONTINUOUS
10
-8.931290
20
-36.859135
30
0.0
11
-6.061790
21
-36.859125
31
0.0
0
LINE
8
0
6
CONTINUOUS
10
-8.967790
20
-36.116405
30
0.0
11
-8.931290
21
-36.859135
31
0.0
0
LINE
8
0
6
CONTINUOUS
10
-6.061790
20
-36.859125
30
0.0
11
-2.144180
21
-36.859125
31
0.0
0
LINE
8
0
6
CONTINUOUS
10
-6.086590
20
-36.116405
30
0.0
11
-6.061790
21
-36.859125
31
0.0
0
LINE
8
0
6
CONTINUOUS
10
-2.144180
20
-36.859125
30
0.0
11
2.144230
21
-36.859125
31
0.0
0
LINE
8
0
6
CONTINUOUS
10
-2.152950
20
-36.116405
30
0.0
11
-2.144180
21
-36.859125
31
0.0
0
LINE
8
0
6
CONTINUOUS
10
2.144230
20
-36.859125
30
0.0
11
6.061850
21
-36.859115
31
0.0
0
LINE
8
0
6
CONTINUOUS
10
2.153000
20
-36.116395
30
0.0
11
2.144230
21
-36.859125
31
0.0
0
LINE
8
0
6
CONTINUOUS
10
6.061850
20
-36.859115
30
0.0
11
8.931340
21
-36.859115
31
0.0
0
LINE
8
0
6
CONTINUOUS
10
6.086640
20
-36.116395
30
0.0
11
6.061850
21
-36.859115
31
0.0
0
LINE
8
0
6
CONTINUOUS
10
8.931340
20
-36.859115
30
0.0
11
10.256530
21
-36.859115
31
0.0
0
LINE
8
0
6
CONTINUOUS
10
8.967880
20
-36.116395
30
0.0
11
8.931340
21
-36.859115
31
0.0
0
LINE
8
0
6
CONTINUOUS
10
10.298490
20
-36.116395
30
0.0
11
10.256530
21
-36.859115
31
0.0
0
LINE
8
0
6
CONTINUOUS
10
-11.457890
20
-15.591665
30
0.0
11
-10.298400
21
-36.116415
31
0.0
0
LINE
8
0
6
CONTINUOUS
10
-9.977490
20
-15.591665
30
0.0
11
-8.967790
21
-36.116405
31
0.0
0
LINE
8
0
6
CONTINUOUS
10
-6.771840
20
-15.591655
30
0.0
11
-6.086590
21
-36.116405
31
0.0
0
LINE
8
0
6
CONTINUOUS
10
-2.395320
20
-15.591655
30
0.0
11
-2.152950
21
-36.116405
31
0.0
0
LINE
8
0
6
CONTINUOUS
10
2.395370
20
-15.591645
30
0.0
11
2.153000
21
-36.116395
31
0.0
0
LINE
8
0
6
CONTINUOUS
10
6.771930
20
-15.591645
30
0.0
11
6.086640
21
-36.116395
31
0.0
0
LINE
8
0
6
CONTINUOUS
10
9.977540
20
-15.591645
30
0.0
11
8.967880
21
-36.116395
31
0.0
0
LINE
8
0
6
CONTINUOUS
10
11.457950
20
-15.591645
30
0.0
11
10.298490
21
-36.116395
31
0.0
0
LINE
8
0
6
CONTINUOUS
10
-8.837965
20
-13.059691
30
0.0
11
-9.089527
21
-13.220872
31
0.0
0
LINE
8
0
6
CONTINUOUS
10
5.998504
20
-12.406652
30
0.0
11
8.838015
21
-13.064151
31
0.0
0
LINE
8
0
6
CONTINUOUS
10
-5.998456
20
-12.403625
30
0.0
11
-8.837965
21
-13.059691
31
0.0
0
LINE
8
0
6
CONTINUOUS
10
8.838015
20
-13.064151
30
0.0
11
9.089472
21
-13.225388
31
0.0
0
LINE
8
0
6
CONTINUOUS
10
-5.998456
20
-12.403625
30
0.0
11
-3.630012
21
-12.184603
31
0.0
0
LINE
8
0
6
CONTINUOUS
10
3.628794
20
-12.186317
30
0.0
11
5.998504
21
-12.406652
31
0.0
0
LINE
8
0
6
CONTINUOUS
10
-3.630012
20
-12.184603
30
0.0
11
-2.121767
21
-11.867524
31
0.0
0
LINE
8
0
6
CONTINUOUS
10
-2.121767
20
-11.867524
30
0.0
11
2.121813
21
-11.868681
31
0.0
0
LINE
8
0
6
CONTINUOUS
10
2.121813
20
-11.868681
30
0.0
11
3.628794
21
-12.186317
31
0.0
0
ENDSEC
0
EOF
