999
Erzeugt mit innoplus bad 
0
SECTION
2
HEADER
9
$ACADVER
1
AC1009
9
$DWGCODEPAGE
3
ISO8859-1
0
ENDSEC
0
SECTION
2
TABLES
0
TABLE
2
LAYER
70
1
0
LAYER
2
0
70
0
62
7
6
CONTINUOUS
0
ENDTAB
0
ENDSEC
0
SECTION
2
ENTITIES
0
LINE
8
0
6
CONTINUOUS
10
-4.084120
20
53.854625
30
0.0
11
-8.326630
21
52.585145
31
0.0
0
LINE
8
0
6
CONTINUOUS
10
-10.507610
20
4.397905
30
0.0
11
-10.768060
21
-1.740026
31
0.0
0
LINE
8
0
6
CONTINUOUS
10
0.313700
20
54.346975
30
0.0
11
-4.084120
21
53.854625
31
0.0
0
LINE
8
0
6
CONTINUOUS
10
-10.770910
20
4.812355
30
0.0
11
-12.637540
21
1.808995
31
0.0
0
LINE
8
0
6
CONTINUOUS
10
-11.931360
20
6.483935
30
0.0
11
-11.932060
21
6.640825
31
0.0
0
LINE
8
0
6
CONTINUOUS
10
-8.326630
20
52.585145
30
0.0
11
-12.127970
21
50.381325
31
0.0
0
LINE
8
0
6
CONTINUOUS
10
-12.126540
20
50.078005
30
0.0
11
-12.127970
21
50.381325
31
0.0
0
LINE
8
0
6
CONTINUOUS
10
-12.127970
20
50.381325
30
0.0
11
-13.795990
21
46.772355
31
0.0
0
LINE
8
0
6
CONTINUOUS
10
-14.306530
20
38.203725
30
0.0
11
-14.307770
21
37.915785
31
0.0
0
LINE
8
0
6
CONTINUOUS
10
-14.261330
20
38.962315
30
0.0
11
-14.306530
21
38.203725
31
0.0
0
LINE
8
0
6
CONTINUOUS
10
-4.040560
20
7.837245
30
0.0
11
0.078780
21
8.095025
31
0.0
0
LINE
8
0
6
CONTINUOUS
10
-8.079500
20
7.167955
30
0.0
11
-4.040560
21
7.837245
31
0.0
0
LINE
8
0
6
CONTINUOUS
10
-11.929220
20
6.006685
30
0.0
11
-8.079500
21
7.167955
31
0.0
0
LINE
8
0
6
CONTINUOUS
10
-10.980910
20
5.028885
30
0.0
11
-11.929220
21
6.006685
31
0.0
0
LINE
8
0
6
CONTINUOUS
10
-11.929220
20
6.006685
30
0.0
11
-11.931360
21
6.483935
31
0.0
0
LINE
8
0
6
CONTINUOUS
10
-14.157660
20
2.520945
30
0.0
11
-11.929220
21
6.006685
31
0.0
0
LINE
8
0
6
CONTINUOUS
10
-14.157660
20
2.520945
30
0.0
11
-14.153730
21
3.001285
31
0.0
0
LINE
8
0
6
CONTINUOUS
10
-14.185690
20
1.983255
30
0.0
11
-14.157660
21
2.520945
31
0.0
0
LINE
8
0
6
CONTINUOUS
10
-10.498590
20
4.610395
30
0.0
11
-12.637540
21
1.808995
31
0.0
0
LINE
8
0
6
CONTINUOUS
10
-10.498590
20
4.610395
30
0.0
11
-10.507610
21
4.397905
31
0.0
0
LINE
8
0
6
CONTINUOUS
10
-7.552940
20
5.558845
30
0.0
11
-10.498590
21
4.610395
31
0.0
0
LINE
8
0
6
CONTINUOUS
10
-3.834010
20
6.193955
30
0.0
11
-7.552940
21
5.558845
31
0.0
0
LINE
8
0
6
CONTINUOUS
10
0.079370
20
6.504735
30
0.0
11
-3.834010
21
6.193955
31
0.0
0
LINE
8
0
6
CONTINUOUS
10
-13.839440
20
46.043035
30
0.0
11
-14.261330
21
38.962315
31
0.0
0
LINE
8
0
6
CONTINUOUS
10
-12.828415
20
-2.201425
30
0.0
11
-12.659930
21
1.338635
31
0.0
0
LINE
8
0
6
CONTINUOUS
10
-14.422481
20
-2.558403
30
0.0
11
-14.185690
21
1.983255
31
0.0
0
LINE
8
0
6
CONTINUOUS
10
-12.654282
20
-2.162429
30
0.0
11
-12.638420
21
1.602145
31
0.0
0
LINE
8
0
6
CONTINUOUS
10
-14.153730
20
3.001285
30
0.0
11
-14.152450
21
3.157795
31
0.0
0
LINE
8
0
6
CONTINUOUS
10
-13.795990
20
46.772355
30
0.0
11
-13.839440
21
46.043035
31
0.0
0
LINE
8
0
6
CONTINUOUS
10
-12.638420
20
1.602145
30
0.0
11
-12.637540
21
1.808995
31
0.0
0
LINE
8
0
6
CONTINUOUS
10
-12.637540
20
1.808995
30
0.0
11
-12.659930
21
1.338635
31
0.0
0
LINE
8
0
6
CONTINUOUS
10
-14.307770
20
37.915785
30
0.0
11
-14.481761
21
-2.571678
31
0.0
0
LINE
8
0
6
CONTINUOUS
10
-11.932060
20
6.640825
30
0.0
11
-12.126540
21
50.078005
31
0.0
0
LINE
8
0
6
CONTINUOUS
10
-3.862810
20
6.375045
30
0.0
11
0.079150
21
6.620445
31
0.0
0
LINE
8
0
6
CONTINUOUS
10
-7.633660
20
5.753655
30
0.0
11
-3.862810
21
6.375045
31
0.0
0
LINE
8
0
6
CONTINUOUS
10
-10.770910
20
4.812355
30
0.0
11
-7.633660
21
5.753655
31
0.0
0
LINE
8
0
6
CONTINUOUS
10
-10.770910
20
4.812355
30
0.0
11
-10.980910
21
5.028885
31
0.0
0
LINE
8
0
6
CONTINUOUS
10
8.956460
20
52.586745
30
0.0
11
4.712210
21
53.855445
31
0.0
0
LINE
8
0
6
CONTINUOUS
10
10.882638
20
-1.743991
30
0.0
11
10.671750
21
4.399865
31
0.0
0
LINE
8
0
6
CONTINUOUS
10
4.712210
20
53.855445
30
0.0
11
0.313700
21
54.346975
31
0.0
0
LINE
8
0
6
CONTINUOUS
10
10.936000
20
4.814365
30
0.0
11
12.814040
21
1.811355
31
0.0
0
LINE
8
0
6
CONTINUOUS
10
12.104110
20
6.643045
30
0.0
11
12.101750
21
6.486145
31
0.0
0
LINE
8
0
6
CONTINUOUS
10
12.760790
20
50.383615
30
0.0
11
8.956460
21
52.586745
31
0.0
0
LINE
8
0
6
CONTINUOUS
10
14.433650
20
46.774965
30
0.0
11
12.760790
21
50.383615
31
0.0
0
LINE
8
0
6
CONTINUOUS
10
12.760790
20
50.383615
30
0.0
11
12.756160
21
50.080305
31
0.0
0
LINE
8
0
6
CONTINUOUS
10
14.955680
20
38.206425
30
0.0
11
14.909460
21
38.965015
31
0.0
0
LINE
8
0
6
CONTINUOUS
10
14.953850
20
37.918495
30
0.0
11
14.955680
21
38.206425
31
0.0
0
LINE
8
0
6
CONTINUOUS
10
0.078780
20
8.095025
30
0.0
11
4.199060
21
7.838005
31
0.0
0
LINE
8
0
6
CONTINUOUS
10
4.199060
20
7.838005
30
0.0
11
8.240500
21
7.169455
31
0.0
0
LINE
8
0
6
CONTINUOUS
10
8.240500
20
7.169455
30
0.0
11
12.094590
21
6.008905
31
0.0
0
LINE
8
0
6
CONTINUOUS
10
12.094590
20
6.008905
30
0.0
11
11.146050
21
5.030935
31
0.0
0
LINE
8
0
6
CONTINUOUS
10
12.094590
20
6.008905
30
0.0
11
14.336240
21
2.523585
31
0.0
0
LINE
8
0
6
CONTINUOUS
10
12.101750
20
6.486145
30
0.0
11
12.094590
21
6.008905
31
0.0
0
LINE
8
0
6
CONTINUOUS
10
14.336240
20
2.523585
30
0.0
11
14.366310
21
1.985885
31
0.0
0
LINE
8
0
6
CONTINUOUS
10
14.337300
20
3.003905
30
0.0
11
14.336240
21
2.523585
31
0.0
0
LINE
8
0
6
CONTINUOUS
10
12.814040
20
1.811355
30
0.0
11
10.664460
21
4.612355
31
0.0
0
LINE
8
0
6
CONTINUOUS
10
10.664460
20
4.612355
30
0.0
11
7.715220
21
5.560265
31
0.0
0
LINE
8
0
6
CONTINUOUS
10
10.671750
20
4.399865
30
0.0
11
10.664460
21
4.612355
31
0.0
0
LINE
8
0
6
CONTINUOUS
10
7.715220
20
5.560265
30
0.0
11
3.993910
21
6.194665
31
0.0
0
LINE
8
0
6
CONTINUOUS
10
3.993910
20
6.194665
30
0.0
11
0.079370
21
6.504735
31
0.0
0
LINE
8
0
6
CONTINUOUS
10
14.909460
20
38.965015
30
0.0
11
14.478080
21
46.045655
31
0.0
0
LINE
8
0
6
CONTINUOUS
10
12.838210
20
1.340985
30
0.0
11
13.021388
21
-2.223085
31
0.0
0
LINE
8
0
6
CONTINUOUS
10
14.366310
20
1.985885
30
0.0
11
14.621774
21
-2.581583
31
0.0
0
LINE
8
0
6
CONTINUOUS
10
12.813170
20
1.604485
30
0.0
11
12.797254
21
-2.172878
31
0.0
0
LINE
8
0
6
CONTINUOUS
10
14.337640
20
3.160425
30
0.0
11
14.337300
21
3.003905
31
0.0
0
LINE
8
0
6
CONTINUOUS
10
14.478080
20
46.045655
30
0.0
11
14.433650
21
46.774965
31
0.0
0
LINE
8
0
6
CONTINUOUS
10
12.838210
20
1.340985
30
0.0
11
12.814040
21
1.811355
31
0.0
0
LINE
8
0
6
CONTINUOUS
10
12.814040
20
1.811355
30
0.0
11
12.813170
21
1.604485
31
0.0
0
LINE
8
0
6
CONTINUOUS
10
14.697135
20
-2.598464
30
0.0
11
14.953850
21
37.918495
31
0.0
0
LINE
8
0
6
CONTINUOUS
10
12.756160
20
50.080305
30
0.0
11
12.104110
21
6.643045
31
0.0
0
LINE
8
0
6
CONTINUOUS
10
0.079150
20
6.620445
30
0.0
11
4.022020
21
6.375775
31
0.0
0
LINE
8
0
6
CONTINUOUS
10
4.022020
20
6.375775
30
0.0
11
7.795200
21
5.755085
31
0.0
0
LINE
8
0
6
CONTINUOUS
10
7.795200
20
5.755085
30
0.0
11
10.936000
21
4.814365
31
0.0
0
LINE
8
0
6
CONTINUOUS
10
11.146050
20
5.030935
30
0.0
11
10.936000
21
4.814365
31
0.0
0
LINE
8
0
6
CONTINUOUS
10
50.017850
20
-45.505765
30
0.0
11
49.752790
21
-40.271535
31
0.0
0
LINE
8
0
6
CONTINUOUS
10
-49.332750
20
-37.759295
30
0.0
11
-49.774940
21
-40.280725
31
0.0
0
LINE
8
0
6
CONTINUOUS
10
49.752790
20
-40.271535
30
0.0
11
48.522870
21
-33.183675
31
0.0
0
LINE
8
0
6
CONTINUOUS
10
48.522870
20
-33.183675
30
0.0
11
48.082150
21
-30.725985
31
0.0
0
LINE
8
0
6
CONTINUOUS
10
47.461220
20
-28.299245
30
0.0
11
46.642970
21
-25.931165
31
0.0
0
LINE
8
0
6
CONTINUOUS
10
42.242960
20
-17.888155
30
0.0
11
36.671830
21
-12.198935
31
0.0
0
LINE
8
0
6
CONTINUOUS
10
36.671830
20
-12.198935
30
0.0
11
29.260360
21
-7.448085
31
0.0
0
LINE
8
0
6
CONTINUOUS
10
29.260360
20
-7.448085
30
0.0
11
20.380220
21
-3.873805
31
0.0
0
LINE
8
0
6
CONTINUOUS
10
20.380220
20
-3.873805
30
0.0
11
20.339690
21
-3.862435
31
0.0
0
LINE
8
0
6
CONTINUOUS
10
20.339690
20
-3.862435
30
0.0
11
10.455750
21
-1.648365
31
0.0
0
LINE
8
0
6
CONTINUOUS
10
10.455750
20
-1.648365
30
0.0
11
10.302570
21
-1.634935
31
0.0
0
LINE
8
0
6
CONTINUOUS
10
10.302570
20
-1.634935
30
0.0
11
0.044210
21
-0.895925
31
0.0
0
LINE
8
0
6
CONTINUOUS
10
0.044210
20
-0.895925
30
0.0
11
-10.217970
21
-1.636835
31
0.0
0
LINE
8
0
6
CONTINUOUS
10
-10.367370
20
-1.650295
30
0.0
11
-20.262410
21
-3.866205
31
0.0
0
LINE
8
0
6
CONTINUOUS
10
-10.217970
20
-1.636835
30
0.0
11
-10.367370
21
-1.650295
31
0.0
0
LINE
8
0
6
CONTINUOUS
10
-20.302420
20
-3.877585
30
0.0
11
-29.200480
21
-7.453515
31
0.0
0
LINE
8
0
6
CONTINUOUS
10
-20.262410
20
-3.866205
30
0.0
11
-20.302420
21
-3.877585
31
0.0
0
LINE
8
0
6
CONTINUOUS
10
-29.200480
20
-7.453515
30
0.0
11
-36.635750
21
-12.205755
31
0.0
0
LINE
8
0
6
CONTINUOUS
10
-36.635750
20
-12.205755
30
0.0
11
-42.235400
21
-17.896025
31
0.0
0
LINE
8
0
6
CONTINUOUS
10
-46.659510
20
-25.939855
30
0.0
11
-47.467740
21
-28.308075
31
0.0
0
LINE
8
0
6
CONTINUOUS
10
-49.774940
20
-40.280725
30
0.0
11
-50.020150
21
-45.515015
31
0.0
0
LINE
8
0
6
CONTINUOUS
10
48.082150
20
-30.725985
30
0.0
11
47.461220
21
-28.299245
31
0.0
0
LINE
8
0
6
CONTINUOUS
10
-48.078670
20
-30.734935
30
0.0
11
-49.332750
21
-37.759295
31
0.0
0
LINE
8
0
6
CONTINUOUS
10
-47.467740
20
-28.308075
30
0.0
11
-48.078670
21
-30.734935
31
0.0
0
LINE
8
0
6
CONTINUOUS
10
-45.101170
20
-59.593825
30
0.0
11
-39.157270
21
-65.663745
31
0.0
0
LINE
8
0
6
CONTINUOUS
10
-11.209310
20
-76.912855
30
0.0
11
-0.081030
21
-77.714545
31
0.0
0
LINE
8
0
6
CONTINUOUS
10
31.122800
20
-70.726735
30
0.0
11
39.022655
21
-65.677545
31
0.0
0
LINE
8
0
6
CONTINUOUS
10
21.629320
20
-74.541935
30
0.0
11
31.122800
21
-70.726735
31
0.0
0
LINE
8
0
6
CONTINUOUS
10
-48.783560
20
-52.827135
30
0.0
11
-45.101170
21
-59.593825
31
0.0
0
LINE
8
0
6
CONTINUOUS
10
-50.019790
20
-45.702995
30
0.0
11
-48.783560
21
-52.827135
31
0.0
0
LINE
8
0
6
CONTINUOUS
10
-50.020150
20
-45.515015
30
0.0
11
-50.019790
21
-45.702995
31
0.0
0
LINE
8
0
6
CONTINUOUS
10
50.018210
20
-45.693745
30
0.0
11
50.017850
21
-45.505765
31
0.0
0
LINE
8
0
6
CONTINUOUS
10
48.746270
20
-52.818115
30
0.0
11
50.018210
21
-45.693745
31
0.0
0
LINE
8
0
6
CONTINUOUS
10
-21.775530
20
-74.545945
30
0.0
11
-11.209310
21
-76.912855
31
0.0
0
LINE
8
0
6
CONTINUOUS
10
45.029950
20
-59.585485
30
0.0
11
48.746270
21
-52.818115
31
0.0
0
LINE
8
0
6
CONTINUOUS
10
-31.249880
20
-70.732515
30
0.0
11
-21.775530
21
-74.545945
31
0.0
0
LINE
8
0
6
CONTINUOUS
10
11.051230
20
-76.910795
30
0.0
11
21.629320
21
-74.541935
31
0.0
0
LINE
8
0
6
CONTINUOUS
10
-0.081030
20
-77.714545
30
0.0
11
11.051230
21
-76.910795
31
0.0
0
LINE
8
0
6
CONTINUOUS
10
39.055590
20
-65.656495
30
0.0
11
45.029950
21
-59.585485
31
0.0
0
LINE
8
0
6
CONTINUOUS
10
-39.157270
20
-65.663745
30
0.0
11
-31.249880
21
-70.732515
31
0.0
0
LINE
8
0
6
CONTINUOUS
10
-50.017850
20
-46.726285
30
0.0
11
-48.781620
21
-53.850435
31
0.0
0
LINE
8
0
6
CONTINUOUS
10
-50.019290
20
-45.967725
30
0.0
11
-50.017850
21
-46.726285
31
0.0
0
LINE
8
0
6
CONTINUOUS
10
50.020150
20
-46.717045
30
0.0
11
50.018710
21
-45.958475
31
0.0
0
LINE
8
0
6
CONTINUOUS
10
48.748210
20
-53.841405
30
0.0
11
50.020150
21
-46.717045
31
0.0
0
LINE
8
0
6
CONTINUOUS
10
-36.885330
20
-70.063485
30
0.0
11
-29.434620
21
-74.839515
31
0.0
0
LINE
8
0
6
CONTINUOUS
10
-37.923690
20
-69.389205
30
0.0
11
-36.885330
21
-70.063485
31
0.0
0
LINE
8
0
6
CONTINUOUS
10
43.629050
20
-63.501155
30
0.0
11
44.614800
21
-62.057585
31
0.0
0
LINE
8
0
6
CONTINUOUS
10
37.841650
20
-69.382195
30
0.0
11
43.629050
21
-63.501155
31
0.0
0
LINE
8
0
6
CONTINUOUS
10
-0.065860
20
-81.418305
30
0.0
11
10.423480
21
-80.660995
31
0.0
0
LINE
8
0
6
CONTINUOUS
10
10.423480
20
-80.660995
30
0.0
11
20.390650
21
-78.428935
31
0.0
0
LINE
8
0
6
CONTINUOUS
10
-29.434620
20
-74.839515
30
0.0
11
-20.507450
21
-78.432705
31
0.0
0
LINE
8
0
6
CONTINUOUS
10
48.296450
20
-55.353335
30
0.0
11
48.748210
21
-53.841405
31
0.0
0
LINE
8
0
6
CONTINUOUS
10
44.614800
20
-62.057585
30
0.0
11
48.296450
21
-55.353335
31
0.0
0
LINE
8
0
6
CONTINUOUS
10
20.390650
20
-78.428935
30
0.0
11
29.335850
21
-74.834075
31
0.0
0
LINE
8
0
6
CONTINUOUS
10
-48.323550
20
-55.362275
30
0.0
11
-44.675510
21
-62.065855
31
0.0
0
LINE
8
0
6
CONTINUOUS
10
-48.781620
20
-53.850435
30
0.0
11
-48.323550
21
-55.362275
31
0.0
0
LINE
8
0
6
CONTINUOUS
10
-20.507450
20
-78.432705
30
0.0
11
-10.551460
21
-80.662905
31
0.0
0
LINE
8
0
6
CONTINUOUS
10
36.810500
20
-70.056675
30
0.0
11
37.841650
21
-69.382195
31
0.0
0
LINE
8
0
6
CONTINUOUS
10
29.335850
20
-74.834075
30
0.0
11
36.810500
21
-70.056675
31
0.0
0
LINE
8
0
6
CONTINUOUS
10
-43.681590
20
-63.509235
30
0.0
11
-37.923690
21
-69.389205
31
0.0
0
LINE
8
0
6
CONTINUOUS
10
-44.675510
20
-62.065855
30
0.0
11
-43.681590
21
-63.509235
31
0.0
0
LINE
8
0
6
CONTINUOUS
10
-10.551460
20
-80.662905
30
0.0
11
-0.065860
21
-81.418305
31
0.0
0
LINE
8
0
6
CONTINUOUS
10
50.018710
20
-45.958475
30
0.0
11
50.018530
21
-45.862575
31
0.0
0
LINE
8
0
6
CONTINUOUS
10
-50.019470
20
-45.871825
30
0.0
11
-50.019290
21
-45.967725
31
0.0
0
LINE
8
0
6
CONTINUOUS
10
-50.019470
20
-45.871825
30
0.0
11
-48.783240
21
-52.995965
31
0.0
0
LINE
8
0
6
CONTINUOUS
10
-48.783240
20
-52.995965
30
0.0
11
-45.100850
21
-59.762655
31
0.0
0
LINE
8
0
6
CONTINUOUS
10
-45.100850
20
-59.762655
30
0.0
11
-39.156940
21
-65.832575
31
0.0
0
LINE
8
0
6
CONTINUOUS
10
-39.156940
20
-65.832575
30
0.0
11
-31.249560
21
-70.901335
31
0.0
0
LINE
8
0
6
CONTINUOUS
10
-31.249560
20
-70.901335
30
0.0
11
-21.775210
21
-74.714765
31
0.0
0
LINE
8
0
6
CONTINUOUS
10
-21.775210
20
-74.714765
30
0.0
11
-11.208990
21
-77.081685
31
0.0
0
LINE
8
0
6
CONTINUOUS
10
-11.208990
20
-77.081685
30
0.0
11
-0.080710
21
-77.883355
31
0.0
0
LINE
8
0
6
CONTINUOUS
10
-0.080710
20
-77.883355
30
0.0
11
11.051550
21
-77.079625
31
0.0
0
LINE
8
0
6
CONTINUOUS
10
11.051550
20
-77.079625
30
0.0
11
21.629640
21
-74.710765
31
0.0
0
LINE
8
0
6
CONTINUOUS
10
21.629640
20
-74.710765
30
0.0
11
31.123120
21
-70.895565
31
0.0
0
LINE
8
0
6
CONTINUOUS
10
31.123120
20
-70.895565
30
0.0
11
39.055920
21
-65.825325
31
0.0
0
LINE
8
0
6
CONTINUOUS
10
39.055920
20
-65.825325
30
0.0
11
45.030270
21
-59.754315
31
0.0
0
LINE
8
0
6
CONTINUOUS
10
45.030270
20
-59.754315
30
0.0
11
48.746590
21
-52.986945
31
0.0
0
LINE
8
0
6
CONTINUOUS
10
48.746590
20
-52.986945
30
0.0
11
50.018530
21
-45.862575
31
0.0
0
LINE
8
0
6
CONTINUOUS
10
50.018530
20
-45.862575
30
0.0
11
50.003516
21
-45.776050
31
0.0
0
LINE
8
0
6
CONTINUOUS
10
-50.004776
20
-45.789519
30
0.0
11
-50.019470
21
-45.871825
31
0.0
0
LINE
8
0
6
CONTINUOUS
10
-45.805430
20
-30.221575
30
0.0
11
-44.674090
21
-36.741275
31
0.0
0
LINE
8
0
6
CONTINUOUS
10
-44.674090
20
-36.741275
30
0.0
11
-41.304110
21
-42.933855
31
0.0
0
LINE
8
0
6
CONTINUOUS
10
-41.304110
20
-42.933855
30
0.0
11
-35.864510
21
-48.488795
31
0.0
0
LINE
8
0
6
CONTINUOUS
10
-35.864510
20
-48.488795
30
0.0
11
-28.627980
21
-53.127525
31
0.0
0
LINE
8
0
6
CONTINUOUS
10
-28.627980
20
-53.127525
30
0.0
11
-19.957480
21
-56.617395
31
0.0
0
LINE
8
0
6
CONTINUOUS
10
-19.957480
20
-56.617395
30
0.0
11
-10.287710
21
-58.783505
31
0.0
0
LINE
8
0
6
CONTINUOUS
10
-10.287710
20
-58.783505
30
0.0
11
-0.103570
21
-59.517165
31
0.0
0
LINE
8
0
6
CONTINUOUS
10
-0.103570
20
-59.517165
30
0.0
11
10.084200
21
-58.781635
31
0.0
0
LINE
8
0
6
CONTINUOUS
10
10.084200
20
-58.781635
30
0.0
11
19.764820
21
-56.613745
31
0.0
0
LINE
8
0
6
CONTINUOUS
10
19.764820
20
-56.613745
30
0.0
11
28.452840
21
-53.122235
31
0.0
0
LINE
8
0
6
CONTINUOUS
10
28.452840
20
-53.122235
30
0.0
11
35.712600
21
-48.482175
31
0.0
0
LINE
8
0
6
CONTINUOUS
10
35.712600
20
-48.482175
30
0.0
11
41.180080
21
-42.926225
31
0.0
0
LINE
8
0
6
CONTINUOUS
10
41.180080
20
-42.926225
30
0.0
11
44.581100
21
-36.733015
31
0.0
0
LINE
8
0
6
CONTINUOUS
10
44.581100
20
-36.733015
30
0.0
11
45.745130
21
-30.213105
31
0.0
0
LINE
8
0
6
CONTINUOUS
10
45.745130
20
-30.213105
30
0.0
11
44.613780
21
-23.693345
31
0.0
0
LINE
8
0
6
CONTINUOUS
10
44.613780
20
-23.693345
30
0.0
11
41.243800
21
-17.500745
31
0.0
0
LINE
8
0
6
CONTINUOUS
10
41.243800
20
-17.500745
30
0.0
11
35.804170
21
-11.945825
31
0.0
0
LINE
8
0
6
CONTINUOUS
10
35.804170
20
-11.945825
30
0.0
11
28.567670
21
-7.307105
31
0.0
0
LINE
8
0
6
CONTINUOUS
10
28.567670
20
-7.307105
30
0.0
11
19.897130
21
-3.817205
31
0.0
0
LINE
8
0
6
CONTINUOUS
10
19.897130
20
-3.817205
30
0.0
11
10.227370
21
-1.651105
31
0.0
0
LINE
8
0
6
CONTINUOUS
10
10.227370
20
-1.651105
30
0.0
11
0.043310
21
-0.917445
31
0.0
0
LINE
8
0
6
CONTINUOUS
10
0.043310
20
-0.917445
30
0.0
11
-10.144550
21
-1.652995
31
0.0
0
LINE
8
0
6
CONTINUOUS
10
-10.144550
20
-1.652995
30
0.0
11
-19.825180
21
-3.820895
31
0.0
0
LINE
8
0
6
CONTINUOUS
10
-19.825180
20
-3.820895
30
0.0
11
-28.513190
21
-7.312415
31
0.0
0
LINE
8
0
6
CONTINUOUS
10
-28.513190
20
-7.312415
30
0.0
11
-35.772950
21
-11.952485
31
0.0
0
LINE
8
0
6
CONTINUOUS
10
-35.772950
20
-11.952485
30
0.0
11
-41.240420
21
-17.508435
31
0.0
0
LINE
8
0
6
CONTINUOUS
10
-41.240420
20
-17.508435
30
0.0
11
-44.641420
21
-23.701655
31
0.0
0
LINE
8
0
6
CONTINUOUS
10
-44.641420
20
-23.701655
30
0.0
11
-45.805430
21
-30.221575
31
0.0
0
LINE
8
0
6
CONTINUOUS
10
46.168420
20
-24.935885
30
0.0
11
42.681280
21
-18.528045
31
0.0
0
LINE
8
0
6
CONTINUOUS
10
42.681280
20
-18.528045
30
0.0
11
42.242960
21
-17.888155
31
0.0
0
LINE
8
0
6
CONTINUOUS
10
-42.670120
20
-18.535995
30
0.0
11
-46.189340
21
-24.944505
31
0.0
0
LINE
8
0
6
CONTINUOUS
10
-42.235400
20
-17.896025
30
0.0
11
-42.670120
21
-18.535995
31
0.0
0
LINE
8
0
6
CONTINUOUS
10
-46.189340
20
-24.944505
30
0.0
11
-46.659510
21
-25.939855
31
0.0
0
LINE
8
0
6
CONTINUOUS
10
46.642970
20
-25.931165
30
0.0
11
46.168420
21
-24.935885
31
0.0
0
LINE
8
0
6
CONTINUOUS
10
17.750720
20
65.908745
30
0.0
11
18.083700
21
73.408745
31
0.0
0
LINE
8
0
6
CONTINUOUS
10
17.417730
20
58.408735
30
0.0
11
17.750720
21
65.908745
31
0.0
0
LINE
8
0
6
CONTINUOUS
10
17.084740
20
50.908725
30
0.0
11
17.417730
21
58.408735
31
0.0
0
LINE
8
0
6
CONTINUOUS
10
16.751750
20
43.408715
30
0.0
11
17.084740
21
50.908725
31
0.0
0
LINE
8
0
6
CONTINUOUS
10
17.932130
20
81.412945
30
0.0
11
0.056420
21
81.418205
31
0.0
0
LINE
8
0
6
CONTINUOUS
10
14.941800
20
36.016686
30
0.0
11
14.987040
21
36.097685
31
0.0
0
LINE
8
0
6
CONTINUOUS
10
14.987040
20
36.097685
30
0.0
11
16.292340
21
39.200415
31
0.0
0
LINE
8
0
6
CONTINUOUS
10
16.292340
20
39.200415
30
0.0
11
16.751750
21
43.408715
31
0.0
0
LINE
8
0
6
CONTINUOUS
10
18.083700
20
73.408745
30
0.0
11
18.416690
21
80.908755
31
0.0
0
LINE
8
0
6
CONTINUOUS
10
0.054090
20
54.641605
30
0.0
11
3.063590
21
54.258515
31
0.0
0
LINE
8
0
6
CONTINUOUS
10
18.439070
20
81.412795
30
0.0
11
17.932130
21
81.412945
31
0.0
0
LINE
8
0
6
CONTINUOUS
10
18.416690
20
80.908755
30
0.0
11
18.439070
21
81.412795
31
0.0
0
LINE
8
0
6
CONTINUOUS
10
-17.972260
20
73.411775
30
0.0
11
-17.640570
21
65.911715
31
0.0
0
LINE
8
0
6
CONTINUOUS
10
-17.640570
20
65.911715
30
0.0
11
-17.308890
21
58.411655
31
0.0
0
LINE
8
0
6
CONTINUOUS
10
-17.308890
20
58.411655
30
0.0
11
-16.977210
21
50.911585
31
0.0
0
LINE
8
0
6
CONTINUOUS
10
-16.977210
20
50.911585
30
0.0
11
-16.645520
21
43.411525
31
0.0
0
LINE
8
0
6
CONTINUOUS
10
-16.252720
20
81.418305
30
0.0
11
-16.293390
21
81.418265
31
0.0
0
LINE
8
0
6
CONTINUOUS
10
-15.745740
20
81.418235
30
0.0
11
-16.252720
21
81.418305
31
0.0
0
LINE
8
0
6
CONTINUOUS
10
0.056420
20
81.418205
30
0.0
11
-17.819290
21
81.415945
31
0.0
0
LINE
8
0
6
CONTINUOUS
10
-14.882080
20
36.100205
30
0.0
11
-14.319900
21
35.093244
31
0.0
0
LINE
8
0
6
CONTINUOUS
10
-16.186840
20
39.203145
30
0.0
11
-14.882080
21
36.100205
31
0.0
0
LINE
8
0
6
CONTINUOUS
10
-16.645520
20
43.411525
30
0.0
11
-16.186840
21
39.203145
31
0.0
0
LINE
8
0
6
CONTINUOUS
10
-18.303940
20
80.911835
30
0.0
11
-17.972260
21
73.411775
31
0.0
0
LINE
8
0
6
CONTINUOUS
10
-2.955470
20
54.259015
30
0.0
11
0.054090
21
54.641605
31
0.0
0
LINE
8
0
6
CONTINUOUS
10
-4.636792
20
53.586272
30
0.0
11
-2.955470
21
54.259015
31
0.0
0
LINE
8
0
6
CONTINUOUS
10
-18.326230
20
81.415885
30
0.0
11
-18.303940
21
80.911835
31
0.0
0
LINE
8
0
6
CONTINUOUS
10
-17.819290
20
81.415945
30
0.0
11
-18.326230
21
81.415885
31
0.0
0
ENDSEC
0
EOF
