999
Erzeugt mit innoplus bad 
0
SECTION
2
HEADER
9
$ACADVER
1
AC1009
9
$DWGCODEPAGE
3
ISO8859-1
0
ENDSEC
0
SECTION
2
TABLES
0
TABLE
2
LAYER
70
1
0
LAYER
2
0
70
0
62
7
6
CONTINUOUS
0
ENDTAB
0
ENDSEC
0
SECTION
2
ENTITIES
0
LINE
8
0
6
CONTINUOUS
10
-45.980119
20
-28.642380
30
0.0
11
-61.621319
21
-28.640470
31
0.0
0
LINE
8
0
6
CONTINUOUS
10
-45.867699
20
-31.135630
30
0.0
11
-45.867699
21
-30.385960
31
0.0
0
LINE
8
0
6
CONTINUOUS
10
-45.867699
20
-30.385960
30
0.0
11
-45.867699
21
-29.721020
31
0.0
0
LINE
8
0
6
CONTINUOUS
10
-45.867699
20
-29.721020
30
0.0
11
-45.867699
21
-29.186360
31
0.0
0
LINE
8
0
6
CONTINUOUS
10
-45.867699
20
-29.186360
30
0.0
11
-45.867699
21
-28.818310
31
0.0
0
LINE
8
0
6
CONTINUOUS
10
-45.867699
20
-28.642110
30
0.0
11
-45.980119
21
-28.642380
31
0.0
0
LINE
8
0
6
CONTINUOUS
10
-45.867699
20
-31.919320
30
0.0
11
-45.867689
21
-32.683290
31
0.0
0
LINE
8
0
6
CONTINUOUS
10
-45.867699
20
-31.135630
30
0.0
11
-45.867699
21
-31.919320
31
0.0
0
LINE
8
0
6
CONTINUOUS
10
-45.867699
20
-28.642110
30
0.0
11
-45.867699
21
-28.818310
31
0.0
0
LINE
8
0
6
CONTINUOUS
10
-45.980079
20
-39.711260
30
0.0
11
-45.867659
21
-39.709730
31
0.0
0
LINE
8
0
6
CONTINUOUS
10
-45.867689
20
-32.683290
30
0.0
11
-45.867659
21
-39.709730
31
0.0
0
LINE
8
0
6
CONTINUOUS
10
-62.334269
20
-74.389220
30
0.0
11
-62.334229
21
-74.745170
31
0.0
0
LINE
8
0
6
CONTINUOUS
10
-62.334229
20
-74.745170
30
0.0
11
-61.621579
21
-74.745170
31
0.0
0
LINE
8
0
6
CONTINUOUS
10
-62.334229
20
-40.597790
30
0.0
11
-62.334279
21
-43.959080
31
0.0
0
LINE
8
0
6
CONTINUOUS
10
-62.334279
20
-43.959080
30
0.0
11
-62.334319
21
-48.138110
31
0.0
0
LINE
8
0
6
CONTINUOUS
10
-62.334319
20
-48.138110
30
0.0
11
-62.334339
21
-52.850180
31
0.0
0
LINE
8
0
6
CONTINUOUS
10
-62.334339
20
-52.850180
30
0.0
11
-62.334359
21
-57.774150
31
0.0
0
LINE
8
0
6
CONTINUOUS
10
-62.334359
20
-57.774150
30
0.0
11
-62.334369
21
-62.574420
31
0.0
0
LINE
8
0
6
CONTINUOUS
10
-62.334369
20
-62.574420
30
0.0
11
-62.334349
21
-66.923900
31
0.0
0
LINE
8
0
6
CONTINUOUS
10
-62.334349
20
-66.923900
30
0.0
11
-62.334339
21
-70.526150
31
0.0
0
LINE
8
0
6
CONTINUOUS
10
-62.334339
20
-70.526150
30
0.0
11
-62.334299
21
-73.135710
31
0.0
0
LINE
8
0
6
CONTINUOUS
10
-62.334299
20
-73.135710
30
0.0
11
-62.334269
21
-74.389220
31
0.0
0
LINE
8
0
6
CONTINUOUS
10
-61.621579
20
-74.745170
30
0.0
11
-41.360839
21
-74.745250
31
0.0
0
LINE
8
0
6
CONTINUOUS
10
-41.070269
20
-43.959150
30
0.0
11
-41.070219
21
-40.597910
31
0.0
0
LINE
8
0
6
CONTINUOUS
10
-41.070119
20
-37.173650
30
0.0
11
-41.360759
21
-37.173650
31
0.0
0
LINE
8
0
6
CONTINUOUS
10
-41.360839
20
-74.745250
30
0.0
11
-41.070209
21
-74.745250
31
0.0
0
LINE
8
0
6
CONTINUOUS
10
-62.334149
20
-31.920540
30
0.0
11
-62.334149
21
-32.683520
31
0.0
0
LINE
8
0
6
CONTINUOUS
10
-62.334149
20
-31.138110
30
0.0
11
-62.334149
21
-31.920540
31
0.0
0
LINE
8
0
6
CONTINUOUS
10
-62.334149
20
-30.389590
30
0.0
11
-62.334149
21
-31.138110
31
0.0
0
LINE
8
0
6
CONTINUOUS
10
-62.334149
20
-29.725790
30
0.0
11
-62.334149
21
-30.389590
31
0.0
0
LINE
8
0
6
CONTINUOUS
10
-62.334149
20
-29.192120
30
0.0
11
-62.334149
21
-29.725790
31
0.0
0
LINE
8
0
6
CONTINUOUS
10
-62.334139
20
-28.824990
30
0.0
11
-62.334149
21
-29.192120
31
0.0
0
LINE
8
0
6
CONTINUOUS
10
-62.334139
20
-28.649320
30
0.0
11
-62.334139
21
-28.824990
31
0.0
0
LINE
8
0
6
CONTINUOUS
10
-61.621319
20
-28.640470
30
0.0
11
-62.334139
21
-28.649320
31
0.0
0
LINE
8
0
6
CONTINUOUS
10
-41.070339
20
-66.924010
30
0.0
11
-41.070319
21
-70.526270
31
0.0
0
LINE
8
0
6
CONTINUOUS
10
-41.070359
20
-62.574530
30
0.0
11
-41.070339
21
-66.924010
31
0.0
0
LINE
8
0
6
CONTINUOUS
10
-61.621289
20
-39.703130
30
0.0
11
-45.980079
21
-39.711260
31
0.0
0
LINE
8
0
6
CONTINUOUS
10
-41.360759
20
-37.173650
30
0.0
11
-45.867651
21
-37.173641
31
0.0
0
LINE
8
0
6
CONTINUOUS
10
-62.334109
20
-39.705730
30
0.0
11
-61.621289
21
-39.703130
31
0.0
0
LINE
8
0
6
CONTINUOUS
10
-62.334149
20
-32.683520
30
0.0
11
-62.334109
21
-39.705730
31
0.0
0
LINE
8
0
6
CONTINUOUS
10
-62.334109
20
-39.705730
30
0.0
11
-62.334229
21
-40.597790
31
0.0
0
LINE
8
0
6
CONTINUOUS
10
-61.621289
20
-39.703130
30
0.0
11
-62.334109
21
-39.705730
31
0.0
0
LINE
8
0
6
CONTINUOUS
10
-41.070289
20
-73.135830
30
0.0
11
-41.070259
21
-74.574840
31
0.0
0
LINE
8
0
6
CONTINUOUS
10
-41.070319
20
-70.526270
30
0.0
11
-41.070289
21
-73.135830
31
0.0
0
LINE
8
0
6
CONTINUOUS
10
-41.070359
20
-57.774230
30
0.0
11
-41.070359
21
-62.574530
31
0.0
0
LINE
8
0
6
CONTINUOUS
10
-41.070339
20
-52.850260
30
0.0
11
-41.070359
21
-57.774230
31
0.0
0
LINE
8
0
6
CONTINUOUS
10
-41.070309
20
-48.138190
30
0.0
11
-41.070339
21
-52.850260
31
0.0
0
LINE
8
0
6
CONTINUOUS
10
-41.070269
20
-43.959150
30
0.0
11
-41.070309
21
-48.138190
31
0.0
0
LINE
8
0
6
CONTINUOUS
10
-41.070179
20
-38.283490
30
0.0
11
-41.070219
21
-40.597910
31
0.0
0
LINE
8
0
6
CONTINUOUS
10
-41.070119
20
-37.173650
30
0.0
11
-41.070179
21
-38.283490
31
0.0
0
LINE
8
0
6
CONTINUOUS
10
-41.070259
20
-74.574840
30
0.0
11
-41.070209
21
-74.745250
31
0.0
0
LINE
8
0
6
CONTINUOUS
10
-40.488959
20
-59.549130
30
0.0
11
-40.488959
21
-63.107330
31
0.0
0
LINE
8
0
6
CONTINUOUS
10
-40.488959
20
-55.851470
30
0.0
11
-40.488959
21
-59.549130
31
0.0
0
LINE
8
0
6
CONTINUOUS
10
-40.488959
20
-52.156400
30
0.0
11
-40.488959
21
-55.851470
31
0.0
0
LINE
8
0
6
CONTINUOUS
10
-40.488959
20
-48.605990
30
0.0
11
-40.488959
21
-52.156400
31
0.0
0
LINE
8
0
6
CONTINUOUS
10
-40.488969
20
-42.473940
30
0.0
11
-40.488969
21
-45.336600
31
0.0
0
LINE
8
0
6
CONTINUOUS
10
-40.488969
20
-45.336600
30
0.0
11
-40.488959
21
-48.605990
31
0.0
0
LINE
8
0
6
CONTINUOUS
10
0.875302
20
-41.775887
30
0.0
11
0.296121
21
-40.518330
31
0.0
0
LINE
8
0
6
CONTINUOUS
10
20.318951
20
-46.477080
30
0.0
11
20.106164
21
-46.474696
31
0.0
0
LINE
8
0
6
CONTINUOUS
10
20.318961
20
-55.851430
30
0.0
11
20.318961
21
-52.156360
31
0.0
0
LINE
8
0
6
CONTINUOUS
10
20.318961
20
-59.549130
30
0.0
11
20.318961
21
-55.851430
31
0.0
0
LINE
8
0
6
CONTINUOUS
10
1.089511
20
-42.473900
30
0.0
11
0.009081
21
-40.127940
31
0.0
0
LINE
8
0
6
CONTINUOUS
10
20.318961
20
-66.389310
30
0.0
11
20.318961
21
-63.107290
31
0.0
0
LINE
8
0
6
CONTINUOUS
10
20.318961
20
-63.107290
30
0.0
11
20.318961
21
-59.549130
31
0.0
0
LINE
8
0
6
CONTINUOUS
10
20.318961
20
-52.156360
30
0.0
11
20.318951
21
-48.605950
31
0.0
0
LINE
8
0
6
CONTINUOUS
10
20.318951
20
-48.605950
30
0.0
11
20.318961
21
-46.500240
31
0.0
0
LINE
8
0
6
CONTINUOUS
10
-40.169269
20
-36.972720
30
0.0
11
-40.489019
21
-36.972720
31
0.0
0
LINE
8
0
6
CONTINUOUS
10
0.556502
20
-40.099211
30
0.0
11
0.296121
21
-40.518330
31
0.0
0
LINE
8
0
6
CONTINUOUS
10
0.009081
20
-40.127940
30
0.0
11
0.507860
21
-39.325084
31
0.0
0
LINE
8
0
6
CONTINUOUS
10
-2.500603
20
-36.972720
30
0.0
11
-9.110759
21
-36.972720
31
0.0
0
LINE
8
0
6
CONTINUOUS
10
-31.110759
20
-36.972720
30
0.0
11
-40.169269
21
-36.972720
31
0.0
0
LINE
8
0
6
CONTINUOUS
10
-40.488999
20
-73.398280
30
0.0
11
-40.488999
21
-74.489280
31
0.0
0
LINE
8
0
6
CONTINUOUS
10
-40.489009
20
-74.866670
30
0.0
11
-40.169259
21
-74.866670
31
0.0
0
LINE
8
0
6
CONTINUOUS
10
12.141201
20
-74.929920
30
0.0
11
16.756871
21
-74.866670
31
0.0
0
LINE
8
0
6
CONTINUOUS
10
7.232161
20
-74.900160
30
0.0
11
12.141201
21
-74.929920
31
0.0
0
LINE
8
0
6
CONTINUOUS
10
3.670671
20
-74.866670
30
0.0
11
7.232161
21
-74.900160
31
0.0
0
LINE
8
0
6
CONTINUOUS
10
16.756871
20
-74.866670
30
0.0
11
19.918341
21
-74.866670
31
0.0
0
LINE
8
0
6
CONTINUOUS
10
20.318911
20
-74.489280
30
0.0
11
20.318931
21
-73.398240
31
0.0
0
LINE
8
0
6
CONTINUOUS
10
20.318931
20
-73.398240
30
0.0
11
20.318941
21
-71.635580
31
0.0
0
LINE
8
0
6
CONTINUOUS
10
20.318941
20
-69.268980
30
0.0
11
20.318961
21
-66.389310
31
0.0
0
LINE
8
0
6
CONTINUOUS
10
20.318941
20
-71.635580
30
0.0
11
20.318941
21
-69.268980
31
0.0
0
LINE
8
0
6
CONTINUOUS
10
20.318891
20
-74.866590
30
0.0
11
20.318911
21
-74.489280
31
0.0
0
LINE
8
0
6
CONTINUOUS
10
19.918341
20
-74.866670
30
0.0
11
20.318891
21
-74.866590
31
0.0
0
LINE
8
0
6
CONTINUOUS
10
-40.169259
20
-74.866670
30
0.0
11
-31.110759
21
-74.866670
31
0.0
0
LINE
8
0
6
CONTINUOUS
10
-9.110759
20
-74.866670
30
0.0
11
3.670671
21
-74.866670
31
0.0
0
LINE
8
0
6
CONTINUOUS
10
-40.488959
20
-66.389310
30
0.0
11
-40.488959
21
-63.107330
31
0.0
0
LINE
8
0
6
CONTINUOUS
10
-40.488969
20
-42.473940
30
0.0
11
-40.488979
21
-40.127980
31
0.0
0
LINE
8
0
6
CONTINUOUS
10
-40.488979
20
-69.268940
30
0.0
11
-40.488959
21
-66.389310
31
0.0
0
LINE
8
0
6
CONTINUOUS
10
-40.488979
20
-40.127980
30
0.0
11
-40.488989
21
-38.388850
31
0.0
0
LINE
8
0
6
CONTINUOUS
10
-40.488999
20
-37.323490
30
0.0
11
-40.489019
21
-36.972720
31
0.0
0
LINE
8
0
6
CONTINUOUS
10
-40.489009
20
-74.866670
30
0.0
11
-40.488999
21
-74.489280
31
0.0
0
LINE
8
0
6
CONTINUOUS
10
-40.488979
20
-71.635620
30
0.0
11
-40.488979
21
-69.268940
31
0.0
0
LINE
8
0
6
CONTINUOUS
10
-40.488999
20
-73.398280
30
0.0
11
-40.488979
21
-71.635620
31
0.0
0
LINE
8
0
6
CONTINUOUS
10
-40.488989
20
-38.388850
30
0.0
11
-40.488999
21
-37.323490
31
0.0
0
LINE
8
0
6
CONTINUOUS
10
-9.110759
20
-426.706767
30
0.0
11
-9.110759
21
-426.125957
31
0.0
0
LINE
8
0
6
CONTINUOUS
10
-31.110759
20
-426.125957
30
0.0
11
-31.110759
21
-426.706767
31
0.0
0
LINE
8
0
6
CONTINUOUS
10
-9.110759
20
-426.125957
30
0.0
11
-9.110759
21
-74.789193
31
0.0
0
LINE
8
0
6
CONTINUOUS
10
-9.110759
20
-37.057499
30
0.0
11
-9.110759
21
61.335233
31
0.0
0
LINE
8
0
6
CONTINUOUS
10
-9.110759
20
131.737625
30
0.0
11
-9.110759
21
426.065167
31
0.0
0
LINE
8
0
6
CONTINUOUS
10
-31.110759
20
426.065167
30
0.0
11
-31.110759
21
117.323078
31
0.0
0
LINE
8
0
6
CONTINUOUS
10
-31.110759
20
74.624942
30
0.0
11
-31.110759
21
-37.057493
31
0.0
0
LINE
8
0
6
CONTINUOUS
10
-31.110759
20
-74.789199
30
0.0
11
-31.110759
21
-426.125957
31
0.0
0
LINE
8
0
6
CONTINUOUS
10
-31.110759
20
-426.706767
30
0.0
11
-31.110759
21
-426.921407
31
0.0
0
LINE
8
0
6
CONTINUOUS
10
-9.110759
20
-426.921407
30
0.0
11
-9.110759
21
-426.706767
31
0.0
0
LINE
8
0
6
CONTINUOUS
10
-9.110759
20
426.065167
30
0.0
11
-9.110759
21
426.607847
31
0.0
0
LINE
8
0
6
CONTINUOUS
10
-31.110759
20
426.607847
30
0.0
11
-31.110759
21
426.065167
31
0.0
0
LINE
8
0
6
CONTINUOUS
10
-22.910759
20
427.422207
30
0.0
11
-20.110759
21
427.422207
31
0.0
0
LINE
8
0
6
CONTINUOUS
10
-25.610759
20
427.422207
30
0.0
11
-22.910759
21
427.422207
31
0.0
0
LINE
8
0
6
CONTINUOUS
10
-27.910759
20
427.422207
30
0.0
11
-25.610759
21
427.422207
31
0.0
0
LINE
8
0
6
CONTINUOUS
10
-29.610759
20
427.422207
30
0.0
11
-27.910759
21
427.422207
31
0.0
0
LINE
8
0
6
CONTINUOUS
10
-30.710759
20
427.422207
30
0.0
11
-29.610759
21
427.422207
31
0.0
0
LINE
8
0
6
CONTINUOUS
10
-31.110759
20
478.790620
30
0.0
11
-31.110759
21
428.130977
31
0.0
0
LINE
8
0
6
CONTINUOUS
10
-31.110759
20
428.130977
30
0.0
11
-31.110759
21
427.422207
31
0.0
0
LINE
8
0
6
CONTINUOUS
10
-31.110759
20
427.422207
30
0.0
11
-30.710759
21
427.422207
31
0.0
0
LINE
8
0
6
CONTINUOUS
10
-20.110759
20
427.422207
30
0.0
11
-17.310759
21
427.422207
31
0.0
0
LINE
8
0
6
CONTINUOUS
10
-17.310759
20
427.422207
30
0.0
11
-14.610759
21
427.422207
31
0.0
0
LINE
8
0
6
CONTINUOUS
10
-14.610759
20
427.422207
30
0.0
11
-12.310759
21
427.422207
31
0.0
0
LINE
8
0
6
CONTINUOUS
10
-12.310759
20
427.422207
30
0.0
11
-10.610759
21
427.422207
31
0.0
0
LINE
8
0
6
CONTINUOUS
10
-10.610759
20
427.422207
30
0.0
11
-9.510759
21
427.422207
31
0.0
0
LINE
8
0
6
CONTINUOUS
10
-9.110759
20
428.130977
30
0.0
11
-9.110759
21
478.790620
31
0.0
0
LINE
8
0
6
CONTINUOUS
10
-9.110759
20
427.422207
30
0.0
11
-9.110759
21
428.130977
31
0.0
0
LINE
8
0
6
CONTINUOUS
10
-9.510759
20
427.422207
30
0.0
11
-9.110759
21
427.422207
31
0.0
0
LINE
8
0
6
CONTINUOUS
10
-9.110759
20
426.921417
30
0.0
11
-9.610759
21
427.422207
31
0.0
0
LINE
8
0
6
CONTINUOUS
10
-17.310759
20
426.921417
30
0.0
11
-20.110759
21
426.921417
31
0.0
0
LINE
8
0
6
CONTINUOUS
10
-14.610759
20
426.921417
30
0.0
11
-17.310759
21
426.921417
31
0.0
0
LINE
8
0
6
CONTINUOUS
10
-12.310759
20
426.921417
30
0.0
11
-14.610759
21
426.921417
31
0.0
0
LINE
8
0
6
CONTINUOUS
10
-10.610759
20
426.921417
30
0.0
11
-12.310759
21
426.921417
31
0.0
0
LINE
8
0
6
CONTINUOUS
10
-9.510759
20
426.921417
30
0.0
11
-10.610759
21
426.921417
31
0.0
0
LINE
8
0
6
CONTINUOUS
10
-9.110759
20
426.921417
30
0.0
11
-9.510759
21
426.921417
31
0.0
0
LINE
8
0
6
CONTINUOUS
10
-9.110759
20
426.607847
30
0.0
11
-9.110759
21
426.921417
31
0.0
0
LINE
8
0
6
CONTINUOUS
10
-17.310759
20
-426.921407
30
0.0
11
-20.110759
21
-426.921407
31
0.0
0
LINE
8
0
6
CONTINUOUS
10
-14.610759
20
-426.921407
30
0.0
11
-17.310759
21
-426.921407
31
0.0
0
LINE
8
0
6
CONTINUOUS
10
-12.310759
20
-426.921407
30
0.0
11
-14.610759
21
-426.921407
31
0.0
0
LINE
8
0
6
CONTINUOUS
10
-10.610759
20
-426.921407
30
0.0
11
-12.310759
21
-426.921407
31
0.0
0
LINE
8
0
6
CONTINUOUS
10
-9.510759
20
-426.921407
30
0.0
11
-10.610759
21
-426.921407
31
0.0
0
LINE
8
0
6
CONTINUOUS
10
-9.110759
20
-426.921407
30
0.0
11
-9.510759
21
-426.921407
31
0.0
0
LINE
8
0
6
CONTINUOUS
10
-9.610759
20
-427.422107
30
0.0
11
-9.110759
21
-426.921407
31
0.0
0
LINE
8
0
6
CONTINUOUS
10
-30.610759
20
427.422207
30
0.0
11
-31.110759
21
426.921417
31
0.0
0
LINE
8
0
6
CONTINUOUS
10
-20.110759
20
426.921417
30
0.0
11
-22.910759
21
426.921417
31
0.0
0
LINE
8
0
6
CONTINUOUS
10
-22.910759
20
426.921417
30
0.0
11
-25.610759
21
426.921417
31
0.0
0
LINE
8
0
6
CONTINUOUS
10
-25.610759
20
426.921417
30
0.0
11
-27.910759
21
426.921417
31
0.0
0
LINE
8
0
6
CONTINUOUS
10
-27.910759
20
426.921417
30
0.0
11
-29.610759
21
426.921417
31
0.0
0
LINE
8
0
6
CONTINUOUS
10
-29.610759
20
426.921417
30
0.0
11
-30.710759
21
426.921417
31
0.0
0
LINE
8
0
6
CONTINUOUS
10
-31.110759
20
426.921417
30
0.0
11
-31.110759
21
426.607847
31
0.0
0
LINE
8
0
6
CONTINUOUS
10
-30.710759
20
426.921417
30
0.0
11
-31.110759
21
426.921417
31
0.0
0
LINE
8
0
6
CONTINUOUS
10
-20.110759
20
-426.921407
30
0.0
11
-22.910759
21
-426.921407
31
0.0
0
LINE
8
0
6
CONTINUOUS
10
-22.910759
20
-426.921407
30
0.0
11
-25.610759
21
-426.921407
31
0.0
0
LINE
8
0
6
CONTINUOUS
10
-25.610759
20
-426.921407
30
0.0
11
-27.910759
21
-426.921407
31
0.0
0
LINE
8
0
6
CONTINUOUS
10
-27.910759
20
-426.921407
30
0.0
11
-29.610759
21
-426.921407
31
0.0
0
LINE
8
0
6
CONTINUOUS
10
-29.610759
20
-426.921407
30
0.0
11
-30.710759
21
-426.921407
31
0.0
0
LINE
8
0
6
CONTINUOUS
10
-31.110759
20
-426.921407
30
0.0
11
-30.610759
21
-427.422107
31
0.0
0
LINE
8
0
6
CONTINUOUS
10
-30.710759
20
-426.921407
30
0.0
11
-31.110759
21
-426.921407
31
0.0
0
LINE
8
0
6
CONTINUOUS
10
-20.110759
20
479.500000
30
0.0
11
-22.910759
21
479.500000
31
0.0
0
LINE
8
0
6
CONTINUOUS
10
-22.910759
20
479.500000
30
0.0
11
-25.610759
21
479.500000
31
0.0
0
LINE
8
0
6
CONTINUOUS
10
-25.610759
20
479.500000
30
0.0
11
-27.910759
21
479.500000
31
0.0
0
LINE
8
0
6
CONTINUOUS
10
-27.910759
20
479.500000
30
0.0
11
-29.610759
21
479.500000
31
0.0
0
LINE
8
0
6
CONTINUOUS
10
-29.610759
20
479.500000
30
0.0
11
-30.710759
21
479.500000
31
0.0
0
LINE
8
0
6
CONTINUOUS
10
-31.110759
20
479.500000
30
0.0
11
-31.110759
21
478.790620
31
0.0
0
LINE
8
0
6
CONTINUOUS
10
-30.710759
20
479.500000
30
0.0
11
-31.110759
21
479.500000
31
0.0
0
LINE
8
0
6
CONTINUOUS
10
-17.310759
20
479.500000
30
0.0
11
-20.110759
21
479.500000
31
0.0
0
LINE
8
0
6
CONTINUOUS
10
-14.610759
20
479.500000
30
0.0
11
-17.310759
21
479.500000
31
0.0
0
LINE
8
0
6
CONTINUOUS
10
-12.310759
20
479.500000
30
0.0
11
-14.610759
21
479.500000
31
0.0
0
LINE
8
0
6
CONTINUOUS
10
-10.610759
20
479.500000
30
0.0
11
-12.310759
21
479.500000
31
0.0
0
LINE
8
0
6
CONTINUOUS
10
-9.510759
20
479.500000
30
0.0
11
-10.610759
21
479.500000
31
0.0
0
LINE
8
0
6
CONTINUOUS
10
-9.110759
20
479.500000
30
0.0
11
-9.510759
21
479.500000
31
0.0
0
LINE
8
0
6
CONTINUOUS
10
-9.110759
20
478.790620
30
0.0
11
-9.110759
21
479.500000
31
0.0
0
LINE
8
0
6
CONTINUOUS
10
-22.910769
20
-479.500000
30
0.0
11
-20.110779
21
-479.500000
31
0.0
0
LINE
8
0
6
CONTINUOUS
10
-25.610769
20
-479.500000
30
0.0
11
-22.910769
21
-479.500000
31
0.0
0
LINE
8
0
6
CONTINUOUS
10
-27.910769
20
-479.500000
30
0.0
11
-25.610769
21
-479.500000
31
0.0
0
LINE
8
0
6
CONTINUOUS
10
-29.610789
20
-479.500000
30
0.0
11
-27.910769
21
-479.500000
31
0.0
0
LINE
8
0
6
CONTINUOUS
10
-30.710789
20
-479.500000
30
0.0
11
-29.610789
21
-479.500000
31
0.0
0
LINE
8
0
6
CONTINUOUS
10
-31.110759
20
-428.131477
30
0.0
11
-31.110759
21
-478.791240
31
0.0
0
LINE
8
0
6
CONTINUOUS
10
-31.110759
20
-478.791240
30
0.0
11
-31.110759
21
-479.500000
31
0.0
0
LINE
8
0
6
CONTINUOUS
10
-31.110759
20
-479.500000
30
0.0
11
-30.710789
21
-479.500000
31
0.0
0
LINE
8
0
6
CONTINUOUS
10
-20.110779
20
-479.500000
30
0.0
11
-17.310789
21
-479.500000
31
0.0
0
LINE
8
0
6
CONTINUOUS
10
-17.310789
20
-479.500000
30
0.0
11
-14.610789
21
-479.500000
31
0.0
0
LINE
8
0
6
CONTINUOUS
10
-14.610789
20
-479.500000
30
0.0
11
-12.310789
21
-479.500000
31
0.0
0
LINE
8
0
6
CONTINUOUS
10
-12.310789
20
-479.500000
30
0.0
11
-10.610769
21
-479.500000
31
0.0
0
LINE
8
0
6
CONTINUOUS
10
-10.610769
20
-479.500000
30
0.0
11
-9.510769
21
-479.500000
31
0.0
0
LINE
8
0
6
CONTINUOUS
10
-9.110799
20
-478.791240
30
0.0
11
-9.110799
21
-428.131477
31
0.0
0
LINE
8
0
6
CONTINUOUS
10
-9.110799
20
-479.500000
30
0.0
11
-9.110799
21
-478.791240
31
0.0
0
LINE
8
0
6
CONTINUOUS
10
-9.510769
20
-479.500000
30
0.0
11
-9.110799
21
-479.500000
31
0.0
0
LINE
8
0
6
CONTINUOUS
10
-20.110779
20
-427.422107
30
0.0
11
-22.910769
21
-427.422107
31
0.0
0
LINE
8
0
6
CONTINUOUS
10
-22.910769
20
-427.422107
30
0.0
11
-25.610769
21
-427.422107
31
0.0
0
LINE
8
0
6
CONTINUOUS
10
-25.610769
20
-427.422107
30
0.0
11
-27.910769
21
-427.422107
31
0.0
0
LINE
8
0
6
CONTINUOUS
10
-27.910769
20
-427.422107
30
0.0
11
-29.610789
21
-427.422107
31
0.0
0
LINE
8
0
6
CONTINUOUS
10
-29.610789
20
-427.422107
30
0.0
11
-30.710789
21
-427.422107
31
0.0
0
LINE
8
0
6
CONTINUOUS
10
-31.110759
20
-427.422107
30
0.0
11
-31.110759
21
-428.131477
31
0.0
0
LINE
8
0
6
CONTINUOUS
10
-30.710789
20
-427.422107
30
0.0
11
-31.110759
21
-427.422107
31
0.0
0
LINE
8
0
6
CONTINUOUS
10
-17.310789
20
-427.422107
30
0.0
11
-20.110779
21
-427.422107
31
0.0
0
LINE
8
0
6
CONTINUOUS
10
-14.610789
20
-427.422107
30
0.0
11
-17.310789
21
-427.422107
31
0.0
0
LINE
8
0
6
CONTINUOUS
10
-12.310789
20
-427.422107
30
0.0
11
-14.610789
21
-427.422107
31
0.0
0
LINE
8
0
6
CONTINUOUS
10
-10.610769
20
-427.422107
30
0.0
11
-12.310789
21
-427.422107
31
0.0
0
LINE
8
0
6
CONTINUOUS
10
-9.510769
20
-427.422107
30
0.0
11
-10.610769
21
-427.422107
31
0.0
0
LINE
8
0
6
CONTINUOUS
10
-9.110799
20
-427.422107
30
0.0
11
-9.510769
21
-427.422107
31
0.0
0
LINE
8
0
6
CONTINUOUS
10
-9.110799
20
-428.131477
30
0.0
11
-9.110799
21
-427.422107
31
0.0
0
LINE
8
0
6
CONTINUOUS
10
-12.026684
20
82.797121
30
0.0
11
-12.010298
21
83.702094
31
0.0
0
LINE
8
0
6
CONTINUOUS
10
-12.010298
20
83.702094
30
0.0
11
-10.667103
21
84.146406
31
0.0
0
LINE
8
0
6
CONTINUOUS
10
-9.340283
20
83.685725
30
0.0
11
-9.342471
21
84.425468
31
0.0
0
LINE
8
0
6
CONTINUOUS
10
-10.667103
20
84.146406
30
0.0
11
-9.340283
21
83.685725
31
0.0
0
LINE
8
0
6
CONTINUOUS
10
-25.733833
20
81.028854
30
0.0
11
-25.719773
21
81.805227
31
0.0
0
LINE
8
0
6
CONTINUOUS
10
13.320822
20
82.440140
30
0.0
11
14.769139
21
81.262512
31
0.0
0
LINE
8
0
6
CONTINUOUS
10
10.859183
20
82.292360
30
0.0
11
13.320822
21
82.440140
31
0.0
0
LINE
8
0
6
CONTINUOUS
10
-9.784018
20
87.607642
30
0.0
11
-9.767632
21
88.512625
31
0.0
0
LINE
8
0
6
CONTINUOUS
10
-17.446315
20
87.217490
30
0.0
11
-17.432255
21
87.993844
31
0.0
0
LINE
8
0
6
CONTINUOUS
10
-17.432255
20
87.993844
30
0.0
11
-16.279974
21
88.374984
31
0.0
0
LINE
8
0
6
CONTINUOUS
10
-13.653895
20
91.692971
30
0.0
11
-13.639825
21
92.469345
31
0.0
0
LINE
8
0
6
CONTINUOUS
10
-18.325158
20
96.106641
30
0.0
11
-17.080731
21
96.369577
31
0.0
0
LINE
8
0
6
CONTINUOUS
10
7.273354
20
65.543324
30
0.0
11
8.479866
21
65.225573
31
0.0
0
LINE
8
0
6
CONTINUOUS
10
6.201097
20
65.088722
30
0.0
11
7.273354
21
65.543324
31
0.0
0
LINE
8
0
6
CONTINUOUS
10
6.206297
20
65.888774
30
0.0
11
6.201097
21
65.088722
31
0.0
0
LINE
8
0
6
CONTINUOUS
10
-0.688173
20
63.084364
30
0.0
11
0.518340
21
62.766589
31
0.0
0
LINE
8
0
6
CONTINUOUS
10
-1.760439
20
62.629730
30
0.0
11
-0.688173
21
63.084364
31
0.0
0
LINE
8
0
6
CONTINUOUS
10
-1.755159
20
63.441744
30
0.0
11
-1.760439
21
62.629730
31
0.0
0
LINE
8
0
6
CONTINUOUS
10
0.537331
20
65.966753
30
0.0
11
0.542702
21
66.792801
31
0.0
0
LINE
8
0
6
CONTINUOUS
10
0.403054
20
66.739133
30
0.0
11
0.537331
21
65.966753
31
0.0
0
LINE
8
0
6
CONTINUOUS
10
-0.700135
20
76.712749
30
0.0
11
0.751886
21
76.330317
31
0.0
0
LINE
8
0
6
CONTINUOUS
10
0.913492
20
75.400760
30
0.0
11
0.919798
21
76.202772
31
0.0
0
LINE
8
0
6
CONTINUOUS
10
0.751886
20
76.330317
30
0.0
11
0.913492
21
75.400760
31
0.0
0
LINE
8
0
6
CONTINUOUS
10
-7.514956
20
74.078026
30
0.0
11
-6.265057
21
74.607967
31
0.0
0
LINE
8
0
6
CONTINUOUS
10
-7.508300
20
74.952591
30
0.0
11
-7.514956
21
74.078026
31
0.0
0
LINE
8
0
6
CONTINUOUS
10
-11.167280
20
78.445241
30
0.0
11
-9.917381
21
78.975163
31
0.0
0
LINE
8
0
6
CONTINUOUS
10
-11.160496
20
79.336613
30
0.0
11
-11.167280
21
78.445241
31
0.0
0
LINE
8
0
6
CONTINUOUS
10
-16.824812
20
78.383519
30
0.0
11
-15.618299
21
78.065764
31
0.0
0
LINE
8
0
6
CONTINUOUS
10
-20.881660
20
72.221130
30
0.0
11
-19.695234
21
72.564330
31
0.0
0
LINE
8
0
6
CONTINUOUS
10
-15.804348
20
68.161671
30
0.0
11
-14.617942
21
68.504897
31
0.0
0
LINE
8
0
6
CONTINUOUS
10
-9.417371
20
64.216167
30
0.0
11
-9.330220
21
64.990896
31
0.0
0
LINE
8
0
6
CONTINUOUS
10
-9.412469
20
65.108902
30
0.0
11
-9.417371
21
64.216167
31
0.0
0
LINE
8
0
6
CONTINUOUS
10
-7.044571
20
64.902587
30
0.0
11
-7.040424
21
65.657536
31
0.0
0
LINE
8
0
6
CONTINUOUS
10
-8.143815
20
65.334103
30
0.0
11
-7.044571
21
64.902587
31
0.0
0
LINE
8
0
6
CONTINUOUS
10
-9.330220
20
64.990896
30
0.0
11
-8.143815
21
65.334103
31
0.0
0
LINE
8
0
6
CONTINUOUS
10
17.958796
20
84.849836
30
0.0
11
19.149465
21
85.470020
31
0.0
0
LINE
8
0
6
CONTINUOUS
10
17.966988
20
85.653166
30
0.0
11
17.958796
21
84.849836
31
0.0
0
LINE
8
0
6
CONTINUOUS
10
14.721237
20
76.207881
30
0.0
11
15.900425
21
75.580435
31
0.0
0
LINE
8
0
6
CONTINUOUS
10
15.057395
20
77.121249
30
0.0
11
14.721237
21
76.207881
31
0.0
0
LINE
8
0
6
CONTINUOUS
10
16.572711
20
77.407141
30
0.0
11
15.057395
21
77.121249
31
0.0
0
LINE
8
0
6
CONTINUOUS
10
17.751909
20
76.779683
30
0.0
11
16.572711
21
77.407141
31
0.0
0
LINE
8
0
6
CONTINUOUS
10
17.415761
20
75.866322
30
0.0
11
17.751909
21
76.779683
31
0.0
0
LINE
8
0
6
CONTINUOUS
10
15.900425
20
75.580435
30
0.0
11
17.415761
21
75.866322
31
0.0
0
LINE
8
0
6
CONTINUOUS
10
9.111691
20
77.260469
30
0.0
11
10.043275
21
76.502999
31
0.0
0
LINE
8
0
6
CONTINUOUS
10
31.546544
20
87.437977
30
0.0
11
31.549200
21
88.343000
31
0.0
0
LINE
8
0
6
CONTINUOUS
10
31.549200
20
88.343000
30
0.0
11
32.885609
21
88.794329
31
0.0
0
LINE
8
0
6
CONTINUOUS
10
26.510244
20
91.400329
30
0.0
11
26.512900
21
92.305349
31
0.0
0
LINE
8
0
6
CONTINUOUS
10
26.512900
20
92.305349
30
0.0
11
27.849299
21
92.756678
31
0.0
0
LINE
8
0
6
CONTINUOUS
10
36.783772
20
91.072285
30
0.0
11
36.786051
21
91.848668
31
0.0
0
LINE
8
0
6
CONTINUOUS
10
31.225148
20
94.918432
30
0.0
11
31.227438
21
95.694829
31
0.0
0
LINE
8
0
6
CONTINUOUS
10
34.881122
20
99.495424
30
0.0
11
35.901493
21
99.989478
31
0.0
0
LINE
8
0
6
CONTINUOUS
10
34.883861
20
100.283637
30
0.0
11
34.881122
21
99.495424
31
0.0
0
LINE
8
0
6
CONTINUOUS
10
41.780160
20
96.292666
30
0.0
11
43.018972
21
96.021029
31
0.0
0
LINE
8
0
6
CONTINUOUS
10
14.348887
20
73.037094
30
0.0
11
15.627732
21
72.480944
31
0.0
0
LINE
8
0
6
CONTINUOUS
10
26.237214
20
62.536838
30
0.0
11
26.229124
21
63.708036
31
0.0
0
LINE
8
0
6
CONTINUOUS
10
25.174593
20
62.998947
30
0.0
11
26.237214
21
62.536838
31
0.0
0
LINE
8
0
6
CONTINUOUS
10
22.121414
20
74.797376
30
0.0
11
23.400259
21
74.241243
31
0.0
0
LINE
8
0
6
CONTINUOUS
10
25.534637
20
77.425229
30
0.0
11
25.715772
21
78.353592
31
0.0
0
LINE
8
0
6
CONTINUOUS
10
25.528081
20
78.216419
30
0.0
11
25.534637
21
77.425229
31
0.0
0
LINE
8
0
6
CONTINUOUS
10
29.432207
20
74.305928
30
0.0
11
30.846297
21
74.666462
31
0.0
0
LINE
8
0
6
CONTINUOUS
10
30.846297
20
74.666462
30
0.0
11
32.084966
21
74.127799
31
0.0
0
LINE
8
0
6
CONTINUOUS
10
29.256756
20
73.406742
30
0.0
11
29.432207
21
74.305928
31
0.0
0
LINE
8
0
6
CONTINUOUS
10
29.250538
20
74.181136
30
0.0
11
29.256756
21
73.406742
31
0.0
0
LINE
8
0
6
CONTINUOUS
10
34.757202
20
79.023447
30
0.0
11
35.995871
21
78.484768
31
0.0
0
LINE
8
0
6
CONTINUOUS
10
46.616543
20
76.790706
30
0.0
11
47.724767
21
77.214483
31
0.0
0
LINE
8
0
6
CONTINUOUS
10
46.612130
20
77.536724
30
0.0
11
46.616543
21
76.790706
31
0.0
0
LINE
8
0
6
CONTINUOUS
10
47.724767
20
77.214483
30
0.0
11
48.903879
21
76.862979
31
0.0
0
LINE
8
0
6
CONTINUOUS
10
45.482406
20
72.220383
30
0.0
11
45.553265
21
71.445087
31
0.0
0
LINE
8
0
6
CONTINUOUS
10
43.195069
20
72.148123
30
0.0
11
44.303293
21
72.571899
31
0.0
0
LINE
8
0
6
CONTINUOUS
10
43.190658
20
72.893902
30
0.0
11
43.195069
21
72.148123
31
0.0
0
LINE
8
0
6
CONTINUOUS
10
44.303293
20
72.571899
30
0.0
11
45.482406
21
72.220383
31
0.0
0
LINE
8
0
6
CONTINUOUS
10
38.031438
20
68.059180
30
0.0
11
39.139661
21
68.482963
31
0.0
0
LINE
8
0
6
CONTINUOUS
10
38.027049
20
68.800716
30
0.0
11
38.031438
21
68.059180
31
0.0
0
LINE
8
0
6
CONTINUOUS
10
39.139661
20
68.482963
30
0.0
11
40.318774
21
68.131443
31
0.0
0
LINE
8
0
6
CONTINUOUS
10
33.926938
20
64.080967
30
0.0
11
33.919842
21
65.281153
31
0.0
0
LINE
8
0
6
CONTINUOUS
10
33.856079
20
64.856252
30
0.0
11
33.926938
21
64.080967
31
0.0
0
LINE
8
0
6
CONTINUOUS
10
31.568743
20
64.783991
30
0.0
11
32.676976
21
65.207755
31
0.0
0
LINE
8
0
6
CONTINUOUS
10
31.564338
20
65.528613
30
0.0
11
31.568743
21
64.783991
31
0.0
0
LINE
8
0
6
CONTINUOUS
10
32.676976
20
65.207755
30
0.0
11
33.856079
21
64.856252
31
0.0
0
LINE
8
0
6
CONTINUOUS
10
17.070720
20
90.347321
30
0.0
11
18.093134
21
91.063551
31
0.0
0
LINE
8
0
6
CONTINUOUS
10
17.079012
20
91.163914
30
0.0
11
17.070720
21
90.347321
31
0.0
0
LINE
8
0
6
CONTINUOUS
10
24.957645
20
98.949887
30
0.0
11
26.260145
21
98.815604
31
0.0
0
LINE
8
0
6
CONTINUOUS
10
24.108094
20
98.354781
30
0.0
11
24.957645
21
98.949887
31
0.0
0
LINE
8
0
6
CONTINUOUS
10
24.114927
20
99.167254
30
0.0
11
24.108094
21
98.354781
31
0.0
0
LINE
8
0
6
CONTINUOUS
10
26.260145
20
98.815604
30
0.0
11
26.713093
21
98.086180
31
0.0
0
LINE
8
0
6
CONTINUOUS
10
20.111148
20
95.285439
30
0.0
11
21.629448
21
95.128889
31
0.0
0
LINE
8
0
6
CONTINUOUS
10
19.120855
20
94.591713
30
0.0
11
20.111148
21
95.285439
31
0.0
0
LINE
8
0
6
CONTINUOUS
10
19.128792
20
95.399154
30
0.0
11
19.120855
21
94.591713
31
0.0
0
LINE
8
0
6
CONTINUOUS
10
21.629448
20
95.128889
30
0.0
11
22.157434
21
94.278618
31
0.0
0
LINE
8
0
6
CONTINUOUS
10
20.384395
20
104.435931
30
0.0
11
21.686894
21
104.301617
31
0.0
0
LINE
8
0
6
CONTINUOUS
10
19.534844
20
103.840786
30
0.0
11
20.384395
21
104.435931
31
0.0
0
LINE
8
0
6
CONTINUOUS
10
19.541779
20
104.665376
30
0.0
11
19.534844
21
103.840786
31
0.0
0
LINE
8
0
6
CONTINUOUS
10
0.976637
20
89.118996
30
0.0
11
1.999060
21
89.835210
31
0.0
0
LINE
8
0
6
CONTINUOUS
10
0.985533
20
89.994905
30
0.0
11
0.976637
21
89.118996
31
0.0
0
LINE
8
0
6
CONTINUOUS
10
-2.273231
20
92.546665
30
0.0
11
-1.745245
21
91.696414
31
0.0
0
LINE
8
0
6
CONTINUOUS
10
8.179259
20
100.458508
30
0.0
11
9.481769
21
100.324213
31
0.0
0
LINE
8
0
6
CONTINUOUS
10
7.329708
20
99.863361
30
0.0
11
8.179259
21
100.458508
31
0.0
0
LINE
8
0
6
CONTINUOUS
10
7.336794
20
100.705934
30
0.0
11
7.329708
21
99.863361
31
0.0
0
LINE
8
0
6
CONTINUOUS
10
2.535600
20
103.727865
30
0.0
11
3.204105
21
104.397855
31
0.0
0
LINE
8
0
6
CONTINUOUS
10
2.542583
20
104.585092
30
0.0
11
2.535600
21
103.727865
31
0.0
0
LINE
8
0
6
CONTINUOUS
10
11.679894
20
105.057164
30
0.0
11
13.002339
21
105.052357
31
0.0
0
LINE
8
0
6
CONTINUOUS
10
13.002339
20
105.052357
30
0.0
11
13.656279
21
104.377568
31
0.0
0
LINE
8
0
6
CONTINUOUS
10
-12.010298
20
83.702094
30
0.0
11
-12.026684
21
82.797121
31
0.0
0
LINE
8
0
6
CONTINUOUS
10
-10.667103
20
84.146406
30
0.0
11
-12.010298
21
83.702094
31
0.0
0
LINE
8
0
6
CONTINUOUS
10
-9.340283
20
83.685725
30
0.0
11
-10.667103
21
84.146406
31
0.0
0
LINE
8
0
6
CONTINUOUS
10
-9.356658
20
82.780752
30
0.0
11
-9.340283
21
83.685725
31
0.0
0
LINE
8
0
6
CONTINUOUS
10
-10.699864
20
82.336440
30
0.0
11
-9.356658
21
82.780752
31
0.0
0
LINE
8
0
6
CONTINUOUS
10
-12.026684
20
82.797121
30
0.0
11
-10.699864
21
82.336440
31
0.0
0
LINE
8
0
6
CONTINUOUS
10
-18.832276
20
82.266143
30
0.0
11
-18.818217
21
83.042495
31
0.0
0
LINE
8
0
6
CONTINUOUS
10
-18.818217
20
83.042495
30
0.0
11
-17.665935
21
83.423646
31
0.0
0
LINE
8
0
6
CONTINUOUS
10
-16.527704
20
83.028458
30
0.0
11
-16.529661
21
83.793506
31
0.0
0
LINE
8
0
6
CONTINUOUS
10
-17.665935
20
83.423646
30
0.0
11
-16.527704
21
83.028458
31
0.0
0
LINE
8
0
6
CONTINUOUS
10
-18.818217
20
83.042495
30
0.0
11
-18.832276
21
82.266143
31
0.0
0
LINE
8
0
6
CONTINUOUS
10
-17.665935
20
83.423646
30
0.0
11
-18.818217
21
83.042495
31
0.0
0
LINE
8
0
6
CONTINUOUS
10
-16.527704
20
83.028458
30
0.0
11
-17.665935
21
83.423646
31
0.0
0
LINE
8
0
6
CONTINUOUS
10
-16.541733
20
82.252103
30
0.0
11
-16.527704
21
83.028458
31
0.0
0
LINE
8
0
6
CONTINUOUS
10
-17.694035
20
81.870945
30
0.0
11
-16.541733
21
82.252103
31
0.0
0
LINE
8
0
6
CONTINUOUS
10
-18.832276
20
82.266143
30
0.0
11
-17.694035
21
81.870945
31
0.0
0
LINE
8
0
6
CONTINUOUS
10
-25.719773
20
81.805227
30
0.0
11
-24.567492
21
82.186376
31
0.0
0
LINE
8
0
6
CONTINUOUS
10
-23.429240
20
81.791154
30
0.0
11
-23.431154
21
82.539367
31
0.0
0
LINE
8
0
6
CONTINUOUS
10
-24.567492
20
82.186376
30
0.0
11
-23.429240
21
81.791154
31
0.0
0
LINE
8
0
6
CONTINUOUS
10
-25.719773
20
81.805227
30
0.0
11
-25.733833
21
81.028854
31
0.0
0
LINE
8
0
6
CONTINUOUS
10
-24.567492
20
82.186376
30
0.0
11
-25.719773
21
81.805227
31
0.0
0
LINE
8
0
6
CONTINUOUS
10
-23.429240
20
81.791154
30
0.0
11
-24.567492
21
82.186376
31
0.0
0
LINE
8
0
6
CONTINUOUS
10
-23.443290
20
81.014817
30
0.0
11
-23.429240
21
81.791154
31
0.0
0
LINE
8
0
6
CONTINUOUS
10
-24.595591
20
80.633651
30
0.0
11
-23.443290
21
81.014817
31
0.0
0
LINE
8
0
6
CONTINUOUS
10
-25.733833
20
81.028854
30
0.0
11
-24.595591
21
80.633651
31
0.0
0
LINE
8
0
6
CONTINUOUS
10
9.845891
20
80.966934
30
0.0
11
10.859183
21
82.292360
31
0.0
0
LINE
8
0
6
CONTINUOUS
10
9.835397
20
81.795114
30
0.0
11
9.845891
21
80.966934
31
0.0
0
LINE
8
0
6
CONTINUOUS
10
10.859183
20
82.292360
30
0.0
11
9.845891
21
80.966934
31
0.0
0
LINE
8
0
6
CONTINUOUS
10
13.320822
20
82.440140
30
0.0
11
10.859183
21
82.292360
31
0.0
0
LINE
8
0
6
CONTINUOUS
10
14.769139
20
81.262512
30
0.0
11
13.320822
21
82.440140
31
0.0
0
LINE
8
0
6
CONTINUOUS
10
13.755857
20
79.937066
30
0.0
11
14.769139
21
81.262512
31
0.0
0
LINE
8
0
6
CONTINUOUS
10
11.294248
20
79.789296
30
0.0
11
13.755857
21
79.937066
31
0.0
0
LINE
8
0
6
CONTINUOUS
10
9.845891
20
80.966934
30
0.0
11
11.294248
21
79.789296
31
0.0
0
LINE
8
0
6
CONTINUOUS
10
-9.767632
20
88.512625
30
0.0
11
-8.424437
21
88.956918
31
0.0
0
LINE
8
0
6
CONTINUOUS
10
-7.097617
20
88.496256
30
0.0
11
-7.099902
21
89.268883
31
0.0
0
LINE
8
0
6
CONTINUOUS
10
-8.424437
20
88.956918
30
0.0
11
-7.097617
21
88.496256
31
0.0
0
LINE
8
0
6
CONTINUOUS
10
-9.767632
20
88.512625
30
0.0
11
-9.784018
21
87.607642
31
0.0
0
LINE
8
0
6
CONTINUOUS
10
-8.424437
20
88.956918
30
0.0
11
-9.767632
21
88.512625
31
0.0
0
LINE
8
0
6
CONTINUOUS
10
-7.097617
20
88.496256
30
0.0
11
-8.424437
21
88.956918
31
0.0
0
LINE
8
0
6
CONTINUOUS
10
-7.113993
20
87.591247
30
0.0
11
-7.097617
21
88.496256
31
0.0
0
LINE
8
0
6
CONTINUOUS
10
-8.457198
20
87.146964
30
0.0
11
-7.113993
21
87.591247
31
0.0
0
LINE
8
0
6
CONTINUOUS
10
-9.784018
20
87.607642
30
0.0
11
-8.457198
21
87.146964
31
0.0
0
LINE
8
0
6
CONTINUOUS
10
-15.141732
20
87.979788
30
0.0
11
-15.143715
21
88.755044
31
0.0
0
LINE
8
0
6
CONTINUOUS
10
-16.279974
20
88.374984
30
0.0
11
-15.141732
21
87.979788
31
0.0
0
LINE
8
0
6
CONTINUOUS
10
-17.432255
20
87.993844
30
0.0
11
-17.446315
21
87.217490
31
0.0
0
LINE
8
0
6
CONTINUOUS
10
-16.279974
20
88.374984
30
0.0
11
-17.432255
21
87.993844
31
0.0
0
LINE
8
0
6
CONTINUOUS
10
-15.141732
20
87.979788
30
0.0
11
-16.279974
21
88.374984
31
0.0
0
LINE
8
0
6
CONTINUOUS
10
-15.155772
20
87.203450
30
0.0
11
-15.141732
21
87.979788
31
0.0
0
LINE
8
0
6
CONTINUOUS
10
-16.308073
20
86.822282
30
0.0
11
-15.155772
21
87.203450
31
0.0
0
LINE
8
0
6
CONTINUOUS
10
-17.446315
20
87.217490
30
0.0
11
-16.308073
21
86.822282
31
0.0
0
LINE
8
0
6
CONTINUOUS
10
-13.639825
20
92.469345
30
0.0
11
-12.487544
21
92.850497
31
0.0
0
LINE
8
0
6
CONTINUOUS
10
-11.349292
20
92.455272
30
0.0
11
-11.351309
21
93.242942
31
0.0
0
LINE
8
0
6
CONTINUOUS
10
-12.487544
20
92.850497
30
0.0
11
-11.349292
21
92.455272
31
0.0
0
LINE
8
0
6
CONTINUOUS
10
-13.639825
20
92.469345
30
0.0
11
-13.653895
21
91.692971
31
0.0
0
LINE
8
0
6
CONTINUOUS
10
-12.487544
20
92.850497
30
0.0
11
-13.639825
21
92.469345
31
0.0
0
LINE
8
0
6
CONTINUOUS
10
-11.349292
20
92.455272
30
0.0
11
-12.487544
21
92.850497
31
0.0
0
LINE
8
0
6
CONTINUOUS
10
-11.363342
20
91.678937
30
0.0
11
-11.349292
21
92.455272
31
0.0
0
LINE
8
0
6
CONTINUOUS
10
-12.515643
20
91.297769
30
0.0
11
-11.363342
21
91.678937
31
0.0
0
LINE
8
0
6
CONTINUOUS
10
-13.653895
20
91.692971
30
0.0
11
-12.515643
21
91.297769
31
0.0
0
LINE
8
0
6
CONTINUOUS
10
-12.616828
20
99.034771
30
0.0
11
-12.382297
21
99.798885
31
0.0
0
LINE
8
0
6
CONTINUOUS
10
-12.620204
20
99.897286
30
0.0
11
-12.616828
21
99.034771
31
0.0
0
LINE
8
0
6
CONTINUOUS
10
-12.382297
20
99.798885
30
0.0
11
-11.137860
21
100.061830
31
0.0
0
LINE
8
0
6
CONTINUOUS
10
-10.127954
20
99.560624
30
0.0
11
-10.131041
21
100.349193
31
0.0
0
LINE
8
0
6
CONTINUOUS
10
-11.137860
20
100.061830
30
0.0
11
-10.127954
21
99.560624
31
0.0
0
LINE
8
0
6
CONTINUOUS
10
-12.382297
20
99.798885
30
0.0
11
-12.616828
21
99.034771
31
0.0
0
LINE
8
0
6
CONTINUOUS
10
-11.137860
20
100.061830
30
0.0
11
-12.382297
21
99.798885
31
0.0
0
LINE
8
0
6
CONTINUOUS
10
-10.127954
20
99.560624
30
0.0
11
-11.137860
21
100.061830
31
0.0
0
LINE
8
0
6
CONTINUOUS
10
-10.362465
20
98.796524
30
0.0
11
-10.127954
21
99.560624
31
0.0
0
LINE
8
0
6
CONTINUOUS
10
-11.606912
20
98.533571
30
0.0
11
-10.362465
21
98.796524
31
0.0
0
LINE
8
0
6
CONTINUOUS
10
-12.616828
20
99.034771
30
0.0
11
-11.606912
21
98.533571
31
0.0
0
LINE
8
0
6
CONTINUOUS
10
-18.559698
20
95.342508
30
0.0
11
-18.325158
21
96.106641
31
0.0
0
LINE
8
0
6
CONTINUOUS
10
-18.563112
20
96.214743
30
0.0
11
-18.559698
21
95.342508
31
0.0
0
LINE
8
0
6
CONTINUOUS
10
-16.070825
20
95.868387
30
0.0
11
-16.073844
21
96.639558
31
0.0
0
LINE
8
0
6
CONTINUOUS
10
-17.080731
20
96.369577
30
0.0
11
-16.070825
21
95.868387
31
0.0
0
LINE
8
0
6
CONTINUOUS
10
-18.325158
20
96.106641
30
0.0
11
-18.559698
21
95.342508
31
0.0
0
LINE
8
0
6
CONTINUOUS
10
-17.080731
20
96.369577
30
0.0
11
-18.325158
21
96.106641
31
0.0
0
LINE
8
0
6
CONTINUOUS
10
-16.070825
20
95.868387
30
0.0
11
-17.080731
21
96.369577
31
0.0
0
LINE
8
0
6
CONTINUOUS
10
-16.305336
20
95.104263
30
0.0
11
-16.070825
21
95.868387
31
0.0
0
LINE
8
0
6
CONTINUOUS
10
-17.549783
20
94.841334
30
0.0
11
-16.305336
21
95.104263
31
0.0
0
LINE
8
0
6
CONTINUOUS
10
-18.559698
20
95.342508
30
0.0
11
-17.549783
21
94.841334
31
0.0
0
LINE
8
0
6
CONTINUOUS
10
-22.883723
20
91.006843
30
0.0
11
-22.649193
21
91.770986
31
0.0
0
LINE
8
0
6
CONTINUOUS
10
-22.887190
20
91.892513
30
0.0
11
-22.883723
21
91.006843
31
0.0
0
LINE
8
0
6
CONTINUOUS
10
-22.649193
20
91.770986
30
0.0
11
-21.404756
21
92.033909
31
0.0
0
LINE
8
0
6
CONTINUOUS
10
-20.394850
20
91.532700
30
0.0
11
-20.397824
21
92.292410
31
0.0
0
LINE
8
0
6
CONTINUOUS
10
-21.404756
20
92.033909
30
0.0
11
-20.394850
21
91.532700
31
0.0
0
LINE
8
0
6
CONTINUOUS
10
-22.649193
20
91.770986
30
0.0
11
-22.883723
21
91.006843
31
0.0
0
LINE
8
0
6
CONTINUOUS
10
-21.404756
20
92.033909
30
0.0
11
-22.649193
21
91.770986
31
0.0
0
LINE
8
0
6
CONTINUOUS
10
-20.394850
20
91.532700
30
0.0
11
-21.404756
21
92.033909
31
0.0
0
LINE
8
0
6
CONTINUOUS
10
-20.629361
20
90.768587
30
0.0
11
-20.394850
21
91.532700
31
0.0
0
LINE
8
0
6
CONTINUOUS
10
-21.873817
20
90.505651
30
0.0
11
-20.629361
21
90.768587
31
0.0
0
LINE
8
0
6
CONTINUOUS
10
-22.883723
20
91.006843
30
0.0
11
-21.873817
21
90.505651
31
0.0
0
LINE
8
0
6
CONTINUOUS
10
-25.411081
20
86.148383
30
0.0
11
-25.176541
21
86.912528
31
0.0
0
LINE
8
0
6
CONTINUOUS
10
-25.414603
20
87.048548
30
0.0
11
-25.411081
21
86.148383
31
0.0
0
LINE
8
0
6
CONTINUOUS
10
-25.176541
20
86.912528
30
0.0
11
-23.932114
21
87.175452
31
0.0
0
LINE
8
0
6
CONTINUOUS
10
-22.922198
20
86.674262
30
0.0
11
-22.925126
21
87.422288
31
0.0
0
LINE
8
0
6
CONTINUOUS
10
-23.932114
20
87.175452
30
0.0
11
-22.922198
21
86.674262
31
0.0
0
LINE
8
0
6
CONTINUOUS
10
-25.176541
20
86.912528
30
0.0
11
-25.411081
21
86.148383
31
0.0
0
LINE
8
0
6
CONTINUOUS
10
-23.932114
20
87.175452
30
0.0
11
-25.176541
21
86.912528
31
0.0
0
LINE
8
0
6
CONTINUOUS
10
-22.922198
20
86.674262
30
0.0
11
-23.932114
21
87.175452
31
0.0
0
LINE
8
0
6
CONTINUOUS
10
-23.156709
20
85.910136
30
0.0
11
-22.922198
21
86.674262
31
0.0
0
LINE
8
0
6
CONTINUOUS
10
-24.401166
20
85.647193
30
0.0
11
-23.156709
21
85.910136
31
0.0
0
LINE
8
0
6
CONTINUOUS
10
-25.411081
20
86.148383
30
0.0
11
-24.401166
21
85.647193
31
0.0
0
LINE
8
0
6
CONTINUOUS
10
5.879798
20
73.707764
30
0.0
11
7.331819
21
73.325341
31
0.0
0
LINE
8
0
6
CONTINUOUS
10
4.589355
20
73.160653
30
0.0
11
5.879798
21
73.707764
31
0.0
0
LINE
8
0
6
CONTINUOUS
10
4.595813
20
73.982047
30
0.0
11
4.589355
21
73.160653
31
0.0
0
LINE
8
0
6
CONTINUOUS
10
7.493425
20
72.395777
30
0.0
11
7.499902
21
73.219332
31
0.0
0
LINE
8
0
6
CONTINUOUS
10
7.331819
20
73.325341
30
0.0
11
7.493425
21
72.395777
31
0.0
0
LINE
8
0
6
CONTINUOUS
10
4.750961
20
72.231103
30
0.0
11
6.202991
21
71.848647
31
0.0
0
LINE
8
0
6
CONTINUOUS
10
4.589355
20
73.160653
30
0.0
11
4.750961
21
72.231103
31
0.0
0
LINE
8
0
6
CONTINUOUS
10
5.879798
20
73.707764
30
0.0
11
4.589355
21
73.160653
31
0.0
0
LINE
8
0
6
CONTINUOUS
10
7.331819
20
73.325341
30
0.0
11
5.879798
21
73.707764
31
0.0
0
LINE
8
0
6
CONTINUOUS
10
7.493425
20
72.395777
30
0.0
11
7.331819
21
73.325341
31
0.0
0
LINE
8
0
6
CONTINUOUS
10
6.202991
20
71.848647
30
0.0
11
7.493425
21
72.395777
31
0.0
0
LINE
8
0
6
CONTINUOUS
10
7.723114
20
61.729969
30
0.0
11
8.929637
21
61.412199
31
0.0
0
LINE
8
0
6
CONTINUOUS
10
6.650858
20
61.275351
30
0.0
11
7.723114
21
61.729969
31
0.0
0
LINE
8
0
6
CONTINUOUS
10
6.655993
20
62.065379
30
0.0
11
6.650858
21
61.275351
31
0.0
0
LINE
8
0
6
CONTINUOUS
10
9.063914
20
60.639802
30
0.0
11
9.069438
21
61.489387
31
0.0
0
LINE
8
0
6
CONTINUOUS
10
8.929637
20
61.412199
30
0.0
11
9.063914
21
60.639802
31
0.0
0
LINE
8
0
6
CONTINUOUS
10
6.785135
20
60.502968
30
0.0
11
7.991658
21
60.185184
31
0.0
0
LINE
8
0
6
CONTINUOUS
10
6.650858
20
61.275351
30
0.0
11
6.785135
21
60.502968
31
0.0
0
LINE
8
0
6
CONTINUOUS
10
7.723114
20
61.729969
30
0.0
11
6.650858
21
61.275351
31
0.0
0
LINE
8
0
6
CONTINUOUS
10
8.929637
20
61.412199
30
0.0
11
7.723114
21
61.729969
31
0.0
0
LINE
8
0
6
CONTINUOUS
10
9.063914
20
60.639802
30
0.0
11
8.929637
21
61.412199
31
0.0
0
LINE
8
0
6
CONTINUOUS
10
7.991658
20
60.185184
30
0.0
11
9.063914
21
60.639802
31
0.0
0
LINE
8
0
6
CONTINUOUS
10
8.614153
20
64.453173
30
0.0
11
8.619619
21
65.293840
31
0.0
0
LINE
8
0
6
CONTINUOUS
10
8.479866
20
65.225573
30
0.0
11
8.614153
21
64.453173
31
0.0
0
LINE
8
0
6
CONTINUOUS
10
6.335374
20
64.316356
30
0.0
11
7.541897
21
63.998555
31
0.0
0
LINE
8
0
6
CONTINUOUS
10
6.201097
20
65.088722
30
0.0
11
6.335374
21
64.316356
31
0.0
0
LINE
8
0
6
CONTINUOUS
10
7.273354
20
65.543324
30
0.0
11
6.201097
21
65.088722
31
0.0
0
LINE
8
0
6
CONTINUOUS
10
8.479866
20
65.225573
30
0.0
11
7.273354
21
65.543324
31
0.0
0
LINE
8
0
6
CONTINUOUS
10
8.614153
20
64.453173
30
0.0
11
8.479866
21
65.225573
31
0.0
0
LINE
8
0
6
CONTINUOUS
10
7.541897
20
63.998555
30
0.0
11
8.614153
21
64.453173
31
0.0
0
LINE
8
0
6
CONTINUOUS
10
8.056034
20
69.479846
30
0.0
11
9.462444
21
69.109442
31
0.0
0
LINE
8
0
6
CONTINUOUS
10
6.806125
20
68.949922
30
0.0
11
8.056034
21
69.479846
31
0.0
0
LINE
8
0
6
CONTINUOUS
10
6.812187
20
69.746535
30
0.0
11
6.806125
21
68.949922
31
0.0
0
LINE
8
0
6
CONTINUOUS
10
9.618974
20
68.209077
30
0.0
11
9.625436
21
69.058401
31
0.0
0
LINE
8
0
6
CONTINUOUS
10
9.462444
20
69.109442
30
0.0
11
9.618974
21
68.209077
31
0.0
0
LINE
8
0
6
CONTINUOUS
10
6.962655
20
68.049577
30
0.0
11
8.369065
21
67.679124
31
0.0
0
LINE
8
0
6
CONTINUOUS
10
6.806125
20
68.949922
30
0.0
11
6.962655
21
68.049577
31
0.0
0
LINE
8
0
6
CONTINUOUS
10
8.056034
20
69.479846
30
0.0
11
6.806125
21
68.949922
31
0.0
0
LINE
8
0
6
CONTINUOUS
10
9.462444
20
69.109442
30
0.0
11
8.056034
21
69.479846
31
0.0
0
LINE
8
0
6
CONTINUOUS
10
9.618974
20
68.209077
30
0.0
11
9.462444
21
69.109442
31
0.0
0
LINE
8
0
6
CONTINUOUS
10
8.369065
20
67.679124
30
0.0
11
9.618974
21
68.209077
31
0.0
0
LINE
8
0
6
CONTINUOUS
10
0.652627
20
61.994206
30
0.0
11
0.658015
21
62.822916
31
0.0
0
LINE
8
0
6
CONTINUOUS
10
0.518340
20
62.766589
30
0.0
11
0.652627
21
61.994206
31
0.0
0
LINE
8
0
6
CONTINUOUS
10
-1.626162
20
61.857363
30
0.0
11
-0.419629
21
61.539572
31
0.0
0
LINE
8
0
6
CONTINUOUS
10
-1.760439
20
62.629730
30
0.0
11
-1.626162
21
61.857363
31
0.0
0
LINE
8
0
6
CONTINUOUS
10
-0.688173
20
63.084364
30
0.0
11
-1.760439
21
62.629730
31
0.0
0
LINE
8
0
6
CONTINUOUS
10
0.518340
20
62.766589
30
0.0
11
-0.688173
21
63.084364
31
0.0
0
LINE
8
0
6
CONTINUOUS
10
0.652627
20
61.994206
30
0.0
11
0.518340
21
62.766589
31
0.0
0
LINE
8
0
6
CONTINUOUS
10
-0.419629
20
61.539572
30
0.0
11
0.652627
21
61.994206
31
0.0
0
LINE
8
0
6
CONTINUOUS
10
-0.803469
20
67.056904
30
0.0
11
0.403054
21
66.739133
31
0.0
0
LINE
8
0
6
CONTINUOUS
10
-1.875725
20
66.602288
30
0.0
11
-0.832416
21
67.044631
31
0.0
0
LINE
8
0
6
CONTINUOUS
10
-1.870342
20
67.430556
30
0.0
11
-1.875725
21
66.602288
31
0.0
0
LINE
8
0
6
CONTINUOUS
10
-1.741448
20
65.829905
30
0.0
11
-0.534925
21
65.512118
31
0.0
0
LINE
8
0
6
CONTINUOUS
10
-1.875725
20
66.602288
30
0.0
11
-1.741448
21
65.829905
31
0.0
0
LINE
8
0
6
CONTINUOUS
10
-0.803469
20
67.056904
30
0.0
11
-1.875725
21
66.602288
31
0.0
0
LINE
8
0
6
CONTINUOUS
10
0.403054
20
66.739133
30
0.0
11
-0.803469
21
67.056904
31
0.0
0
LINE
8
0
6
CONTINUOUS
10
0.537331
20
65.966753
30
0.0
11
0.403054
21
66.739133
31
0.0
0
LINE
8
0
6
CONTINUOUS
10
-0.534925
20
65.512118
30
0.0
11
0.537331
21
65.966753
31
0.0
0
LINE
8
0
6
CONTINUOUS
10
0.154009
20
71.293532
30
0.0
11
1.560419
21
70.923112
31
0.0
0
LINE
8
0
6
CONTINUOUS
10
-1.095890
20
70.763581
30
0.0
11
0.154009
21
71.293532
31
0.0
0
LINE
8
0
6
CONTINUOUS
10
-1.089545
20
71.597343
30
0.0
11
-1.095890
21
70.763581
31
0.0
0
LINE
8
0
6
CONTINUOUS
10
1.716949
20
70.022773
30
0.0
11
1.723087
21
70.829208
31
0.0
0
LINE
8
0
6
CONTINUOUS
10
1.560419
20
70.923112
30
0.0
11
1.716949
21
70.022773
31
0.0
0
LINE
8
0
6
CONTINUOUS
10
-0.939360
20
69.863237
30
0.0
11
0.467050
21
69.492815
31
0.0
0
LINE
8
0
6
CONTINUOUS
10
-1.095890
20
70.763581
30
0.0
11
-0.939360
21
69.863237
31
0.0
0
LINE
8
0
6
CONTINUOUS
10
0.154009
20
71.293532
30
0.0
11
-1.095890
21
70.763581
31
0.0
0
LINE
8
0
6
CONTINUOUS
10
1.560419
20
70.923112
30
0.0
11
0.154009
21
71.293532
31
0.0
0
LINE
8
0
6
CONTINUOUS
10
1.716949
20
70.022773
30
0.0
11
1.560419
21
70.923112
31
0.0
0
LINE
8
0
6
CONTINUOUS
10
0.467050
20
69.492815
30
0.0
11
1.716949
21
70.022773
31
0.0
0
LINE
8
0
6
CONTINUOUS
10
-1.990579
20
76.165620
30
0.0
11
-0.700135
21
76.712749
31
0.0
0
LINE
8
0
6
CONTINUOUS
10
-1.983915
20
77.013116
30
0.0
11
-1.990579
21
76.165620
31
0.0
0
LINE
8
0
6
CONTINUOUS
10
-1.828982
20
75.236067
30
0.0
11
-0.376952
21
74.853630
31
0.0
0
LINE
8
0
6
CONTINUOUS
10
-1.990579
20
76.165620
30
0.0
11
-1.828982
21
75.236067
31
0.0
0
LINE
8
0
6
CONTINUOUS
10
-0.700135
20
76.712749
30
0.0
11
-1.990579
21
76.165620
31
0.0
0
LINE
8
0
6
CONTINUOUS
10
0.751886
20
76.330317
30
0.0
11
-0.700135
21
76.712749
31
0.0
0
LINE
8
0
6
CONTINUOUS
10
0.913492
20
75.400760
30
0.0
11
0.751886
21
76.330317
31
0.0
0
LINE
8
0
6
CONTINUOUS
10
-0.376952
20
74.853630
30
0.0
11
0.913492
21
75.400760
31
0.0
0
LINE
8
0
6
CONTINUOUS
10
-3.817266
20
81.224738
30
0.0
11
-2.365245
21
80.842325
31
0.0
0
LINE
8
0
6
CONTINUOUS
10
-5.107710
20
80.677628
30
0.0
11
-3.817266
21
81.224738
31
0.0
0
LINE
8
0
6
CONTINUOUS
10
-5.100776
20
81.559451
30
0.0
11
-5.107710
21
80.677628
31
0.0
0
LINE
8
0
6
CONTINUOUS
10
-2.203629
20
79.912751
30
0.0
11
-2.197469
21
80.696222
31
0.0
0
LINE
8
0
6
CONTINUOUS
10
-2.365245
20
80.842325
30
0.0
11
-2.203629
21
79.912751
31
0.0
0
LINE
8
0
6
CONTINUOUS
10
-4.946103
20
79.748078
30
0.0
11
-3.494073
21
79.365622
31
0.0
0
LINE
8
0
6
CONTINUOUS
10
-5.107710
20
80.677628
30
0.0
11
-4.946103
21
79.748078
31
0.0
0
LINE
8
0
6
CONTINUOUS
10
-3.817266
20
81.224738
30
0.0
11
-5.107710
21
80.677628
31
0.0
0
LINE
8
0
6
CONTINUOUS
10
-2.365245
20
80.842325
30
0.0
11
-3.817266
21
81.224738
31
0.0
0
LINE
8
0
6
CONTINUOUS
10
-2.203629
20
79.912751
30
0.0
11
-2.365245
21
80.842325
31
0.0
0
LINE
8
0
6
CONTINUOUS
10
-3.494073
20
79.365622
30
0.0
11
-2.203629
21
79.912751
31
0.0
0
LINE
8
0
6
CONTINUOUS
10
-6.265057
20
74.607967
30
0.0
11
-4.858637
21
74.237544
31
0.0
0
LINE
8
0
6
CONTINUOUS
10
-4.702117
20
73.337179
30
0.0
11
-4.696206
21
74.113906
31
0.0
0
LINE
8
0
6
CONTINUOUS
10
-4.858637
20
74.237544
30
0.0
11
-4.702117
21
73.337179
31
0.0
0
LINE
8
0
6
CONTINUOUS
10
-7.358436
20
73.177665
30
0.0
11
-5.952016
21
72.807231
31
0.0
0
LINE
8
0
6
CONTINUOUS
10
-7.514956
20
74.078026
30
0.0
11
-7.358436
21
73.177665
31
0.0
0
LINE
8
0
6
CONTINUOUS
10
-6.265057
20
74.607967
30
0.0
11
-7.514956
21
74.078026
31
0.0
0
LINE
8
0
6
CONTINUOUS
10
-4.858637
20
74.237544
30
0.0
11
-6.265057
21
74.607967
31
0.0
0
LINE
8
0
6
CONTINUOUS
10
-4.702117
20
73.337179
30
0.0
11
-4.858637
21
74.237544
31
0.0
0
LINE
8
0
6
CONTINUOUS
10
-5.952016
20
72.807231
30
0.0
11
-4.702117
21
73.337179
31
0.0
0
LINE
8
0
6
CONTINUOUS
10
-9.917381
20
78.975163
30
0.0
11
-8.510971
21
78.604769
31
0.0
0
LINE
8
0
6
CONTINUOUS
10
-8.354441
20
77.704394
30
0.0
11
-8.348734
21
78.454222
31
0.0
0
LINE
8
0
6
CONTINUOUS
10
-8.510971
20
78.604769
30
0.0
11
-8.354441
21
77.704394
31
0.0
0
LINE
8
0
6
CONTINUOUS
10
-11.010750
20
77.544899
30
0.0
11
-9.604340
21
77.174462
31
0.0
0
LINE
8
0
6
CONTINUOUS
10
-11.167280
20
78.445241
30
0.0
11
-11.010750
21
77.544899
31
0.0
0
LINE
8
0
6
CONTINUOUS
10
-9.917381
20
78.975163
30
0.0
11
-11.167280
21
78.445241
31
0.0
0
LINE
8
0
6
CONTINUOUS
10
-8.510971
20
78.604769
30
0.0
11
-9.917381
21
78.975163
31
0.0
0
LINE
8
0
6
CONTINUOUS
10
-8.354441
20
77.704394
30
0.0
11
-8.510971
21
78.604769
31
0.0
0
LINE
8
0
6
CONTINUOUS
10
-9.604340
20
77.174462
30
0.0
11
-8.354441
21
77.704394
31
0.0
0
LINE
8
0
6
CONTINUOUS
10
-7.886149
20
69.956229
30
0.0
11
-6.679616
21
69.638469
31
0.0
0
LINE
8
0
6
CONTINUOUS
10
-8.958405
20
69.501611
30
0.0
11
-7.886149
21
69.956229
31
0.0
0
LINE
8
0
6
CONTINUOUS
10
-8.952914
20
70.346195
30
0.0
11
-8.958405
21
69.501611
31
0.0
0
LINE
8
0
6
CONTINUOUS
10
-6.545340
20
68.866049
30
0.0
11
-6.540159
21
69.662847
31
0.0
0
LINE
8
0
6
CONTINUOUS
10
-6.679616
20
69.638469
30
0.0
11
-6.545340
21
68.866049
31
0.0
0
LINE
8
0
6
CONTINUOUS
10
-8.824129
20
68.729209
30
0.0
11
-7.617596
21
68.411453
31
0.0
0
LINE
8
0
6
CONTINUOUS
10
-8.958405
20
69.501611
30
0.0
11
-8.824129
21
68.729209
31
0.0
0
LINE
8
0
6
CONTINUOUS
10
-7.886149
20
69.956229
30
0.0
11
-8.958405
21
69.501611
31
0.0
0
LINE
8
0
6
CONTINUOUS
10
-6.679616
20
69.638469
30
0.0
11
-7.886149
21
69.956229
31
0.0
0
LINE
8
0
6
CONTINUOUS
10
-6.545340
20
68.866049
30
0.0
11
-6.679616
21
69.638469
31
0.0
0
LINE
8
0
6
CONTINUOUS
10
-7.617596
20
68.411453
30
0.0
11
-6.545340
21
68.866049
31
0.0
0
LINE
8
0
6
CONTINUOUS
10
-13.396712
20
73.796545
30
0.0
11
-12.190190
21
73.478777
31
0.0
0
LINE
8
0
6
CONTINUOUS
10
-14.468968
20
73.341963
30
0.0
11
-13.396712
21
73.796545
31
0.0
0
LINE
8
0
6
CONTINUOUS
10
-14.463392
20
74.199968
30
0.0
11
-14.468968
21
73.341963
31
0.0
0
LINE
8
0
6
CONTINUOUS
10
-12.055903
20
72.706396
30
0.0
11
-12.050810
21
73.489983
31
0.0
0
LINE
8
0
6
CONTINUOUS
10
-12.190190
20
73.478777
30
0.0
11
-12.055903
21
72.706396
31
0.0
0
LINE
8
0
6
CONTINUOUS
10
-14.334692
20
72.569560
30
0.0
11
-13.128169
21
72.251759
31
0.0
0
LINE
8
0
6
CONTINUOUS
10
-14.468968
20
73.341963
30
0.0
11
-14.334692
21
72.569560
31
0.0
0
LINE
8
0
6
CONTINUOUS
10
-13.396712
20
73.796545
30
0.0
11
-14.468968
21
73.341963
31
0.0
0
LINE
8
0
6
CONTINUOUS
10
-12.190190
20
73.478777
30
0.0
11
-13.396712
21
73.796545
31
0.0
0
LINE
8
0
6
CONTINUOUS
10
-12.055903
20
72.706396
30
0.0
11
-12.190190
21
73.478777
31
0.0
0
LINE
8
0
6
CONTINUOUS
10
-13.128169
20
72.251759
30
0.0
11
-12.055903
21
72.706396
31
0.0
0
LINE
8
0
6
CONTINUOUS
10
-17.897068
20
77.928923
30
0.0
11
-16.824812
21
78.383519
31
0.0
0
LINE
8
0
6
CONTINUOUS
10
-17.891417
20
78.798484
30
0.0
11
-17.897068
21
77.928923
31
0.0
0
LINE
8
0
6
CONTINUOUS
10
-15.484012
20
77.293383
30
0.0
11
-15.478991
21
78.065629
31
0.0
0
LINE
8
0
6
CONTINUOUS
10
-15.618299
20
78.065764
30
0.0
11
-15.484012
21
77.293383
31
0.0
0
LINE
8
0
6
CONTINUOUS
10
-17.762791
20
77.156518
30
0.0
11
-16.556268
21
76.838756
31
0.0
0
LINE
8
0
6
CONTINUOUS
10
-17.897068
20
77.928923
30
0.0
11
-17.762791
21
77.156518
31
0.0
0
LINE
8
0
6
CONTINUOUS
10
-16.824812
20
78.383519
30
0.0
11
-17.897068
21
77.928923
31
0.0
0
LINE
8
0
6
CONTINUOUS
10
-15.618299
20
78.065764
30
0.0
11
-16.824812
21
78.383519
31
0.0
0
LINE
8
0
6
CONTINUOUS
10
-15.484012
20
77.293383
30
0.0
11
-15.618299
21
78.065764
31
0.0
0
LINE
8
0
6
CONTINUOUS
10
-16.556268
20
76.838756
30
0.0
11
-15.484012
21
77.293383
31
0.0
0
LINE
8
0
6
CONTINUOUS
10
-24.413409
20
76.068828
30
0.0
11
-24.326258
21
76.843576
31
0.0
0
LINE
8
0
6
CONTINUOUS
10
-24.408419
20
76.977684
30
0.0
11
-24.413409
21
76.068828
31
0.0
0
LINE
8
0
6
CONTINUOUS
10
-22.040599
20
76.755255
30
0.0
11
-22.036517
21
77.498250
31
0.0
0
LINE
8
0
6
CONTINUOUS
10
-23.139843
20
77.186773
30
0.0
11
-22.040599
21
76.755255
31
0.0
0
LINE
8
0
6
CONTINUOUS
10
-24.326258
20
76.843576
30
0.0
11
-23.139843
21
77.186773
31
0.0
0
LINE
8
0
6
CONTINUOUS
10
-24.413409
20
76.068828
30
0.0
11
-23.314165
21
75.637295
31
0.0
0
LINE
8
0
6
CONTINUOUS
10
-24.326258
20
76.843576
30
0.0
11
-24.413409
21
76.068828
31
0.0
0
LINE
8
0
6
CONTINUOUS
10
-23.139843
20
77.186773
30
0.0
11
-24.326258
21
76.843576
31
0.0
0
LINE
8
0
6
CONTINUOUS
10
-22.040599
20
76.755255
30
0.0
11
-23.139843
21
77.186773
31
0.0
0
LINE
8
0
6
CONTINUOUS
10
-22.127750
20
75.980505
30
0.0
11
-22.040599
21
76.755255
31
0.0
0
LINE
8
0
6
CONTINUOUS
10
-23.314165
20
75.637295
30
0.0
11
-22.127750
21
75.980505
31
0.0
0
LINE
8
0
6
CONTINUOUS
10
-20.968801
20
71.446401
30
0.0
11
-20.881660
21
72.221130
31
0.0
0
LINE
8
0
6
CONTINUOUS
10
-20.963818
20
72.353845
30
0.0
11
-20.968801
21
71.446401
31
0.0
0
LINE
8
0
6
CONTINUOUS
10
-18.596001
20
72.132809
30
0.0
11
-18.591912
21
72.877112
31
0.0
0
LINE
8
0
6
CONTINUOUS
10
-19.695234
20
72.564330
30
0.0
11
-18.596001
21
72.132809
31
0.0
0
LINE
8
0
6
CONTINUOUS
10
-20.968801
20
71.446401
30
0.0
11
-19.869567
21
71.014849
31
0.0
0
LINE
8
0
6
CONTINUOUS
10
-20.881660
20
72.221130
30
0.0
11
-20.968801
21
71.446401
31
0.0
0
LINE
8
0
6
CONTINUOUS
10
-19.695234
20
72.564330
30
0.0
11
-20.881660
21
72.221130
31
0.0
0
LINE
8
0
6
CONTINUOUS
10
-18.596001
20
72.132809
30
0.0
11
-19.695234
21
72.564330
31
0.0
0
LINE
8
0
6
CONTINUOUS
10
-18.683152
20
71.358056
30
0.0
11
-18.596001
21
72.132809
31
0.0
0
LINE
8
0
6
CONTINUOUS
10
-19.869567
20
71.014849
30
0.0
11
-18.683152
21
71.358056
31
0.0
0
LINE
8
0
6
CONTINUOUS
10
-15.891509
20
67.386952
30
0.0
11
-15.804348
21
68.161671
31
0.0
0
LINE
8
0
6
CONTINUOUS
10
-15.886547
20
68.290251
30
0.0
11
-15.891509
21
67.386952
31
0.0
0
LINE
8
0
6
CONTINUOUS
10
-13.518699
20
68.073379
30
0.0
11
-13.514598
21
68.819774
31
0.0
0
LINE
8
0
6
CONTINUOUS
10
-14.617942
20
68.504897
30
0.0
11
-13.518699
21
68.073379
31
0.0
0
LINE
8
0
6
CONTINUOUS
10
-15.891509
20
67.386952
30
0.0
11
-14.792265
21
66.955419
31
0.0
0
LINE
8
0
6
CONTINUOUS
10
-15.804348
20
68.161671
30
0.0
11
-15.891509
21
67.386952
31
0.0
0
LINE
8
0
6
CONTINUOUS
10
-14.617942
20
68.504897
30
0.0
11
-15.804348
21
68.161671
31
0.0
0
LINE
8
0
6
CONTINUOUS
10
-13.518699
20
68.073379
30
0.0
11
-14.617942
21
68.504897
31
0.0
0
LINE
8
0
6
CONTINUOUS
10
-13.605850
20
67.298619
30
0.0
11
-13.518699
21
68.073379
31
0.0
0
LINE
8
0
6
CONTINUOUS
10
-14.792265
20
66.955419
30
0.0
11
-13.605850
21
67.298619
31
0.0
0
LINE
8
0
6
CONTINUOUS
10
-9.417371
20
64.216167
30
0.0
11
-8.318127
21
63.784625
31
0.0
0
LINE
8
0
6
CONTINUOUS
10
-9.330220
20
64.990896
30
0.0
11
-9.417371
21
64.216167
31
0.0
0
LINE
8
0
6
CONTINUOUS
10
-8.143815
20
65.334103
30
0.0
11
-9.330220
21
64.990896
31
0.0
0
LINE
8
0
6
CONTINUOUS
10
-7.044571
20
64.902587
30
0.0
11
-8.143815
21
65.334103
31
0.0
0
LINE
8
0
6
CONTINUOUS
10
-7.131722
20
64.127825
30
0.0
11
-7.044571
21
64.902587
31
0.0
0
LINE
8
0
6
CONTINUOUS
10
-8.318127
20
63.784625
30
0.0
11
-7.131722
21
64.127825
31
0.0
0
LINE
8
0
6
CONTINUOUS
10
21.154023
20
80.961766
30
0.0
11
22.531030
21
80.493364
31
0.0
0
LINE
8
0
6
CONTINUOUS
10
19.771528
20
79.561419
30
0.0
11
19.774277
21
80.495774
31
0.0
0
LINE
8
0
6
CONTINUOUS
10
19.774277
20
80.495774
30
0.0
11
21.154023
21
80.961766
31
0.0
0
LINE
8
0
6
CONTINUOUS
10
21.148555
20
79.093003
30
0.0
11
22.528311
21
79.558958
31
0.0
0
LINE
8
0
6
CONTINUOUS
10
19.771528
20
79.561419
30
0.0
11
21.148555
21
79.093003
31
0.0
0
LINE
8
0
6
CONTINUOUS
10
19.774277
20
80.495774
30
0.0
11
19.771528
21
79.561419
31
0.0
0
LINE
8
0
6
CONTINUOUS
10
21.154023
20
80.961766
30
0.0
11
19.774277
21
80.495774
31
0.0
0
LINE
8
0
6
CONTINUOUS
10
22.531030
20
80.493364
30
0.0
11
21.154023
21
80.961766
31
0.0
0
LINE
8
0
6
CONTINUOUS
10
22.528311
20
79.558958
30
0.0
11
22.531030
21
80.493364
31
0.0
0
LINE
8
0
6
CONTINUOUS
10
3.806167
20
84.605598
30
0.0
11
4.749138
21
85.358414
31
0.0
0
LINE
8
0
6
CONTINUOUS
10
3.809219
20
85.472033
30
0.0
11
3.806167
21
84.605598
31
0.0
0
LINE
8
0
6
CONTINUOUS
10
4.749138
20
85.358414
30
0.0
11
6.331050
21
85.255518
31
0.0
0
LINE
8
0
6
CONTINUOUS
10
6.331050
20
85.255518
30
0.0
11
6.969981
21
84.399780
31
0.0
0
LINE
8
0
6
CONTINUOUS
10
6.331050
20
85.255518
30
0.0
11
4.749138
21
85.358414
31
0.0
0
LINE
8
0
6
CONTINUOUS
10
6.969981
20
84.399780
30
0.0
11
6.331050
21
85.255518
31
0.0
0
LINE
8
0
6
CONTINUOUS
10
6.027000
20
83.646949
30
0.0
11
6.969981
21
84.399780
31
0.0
0
LINE
8
0
6
CONTINUOUS
10
4.445088
20
83.749855
30
0.0
11
6.027000
21
83.646949
31
0.0
0
LINE
8
0
6
CONTINUOUS
10
3.806167
20
84.605598
30
0.0
11
4.445088
21
83.749855
31
0.0
0
LINE
8
0
6
CONTINUOUS
10
4.749138
20
85.358414
30
0.0
11
3.806167
21
84.605598
31
0.0
0
LINE
8
0
6
CONTINUOUS
10
20.659438
20
85.174840
30
0.0
11
20.978742
21
84.259447
31
0.0
0
LINE
8
0
6
CONTINUOUS
10
19.149465
20
85.470020
30
0.0
11
20.659438
21
85.174840
31
0.0
0
LINE
8
0
6
CONTINUOUS
10
20.978742
20
84.259447
30
0.0
11
20.659438
21
85.174840
31
0.0
0
LINE
8
0
6
CONTINUOUS
10
19.788053
20
83.639246
30
0.0
11
20.978742
21
84.259447
31
0.0
0
LINE
8
0
6
CONTINUOUS
10
18.278110
20
83.934462
30
0.0
11
19.788053
21
83.639246
31
0.0
0
LINE
8
0
6
CONTINUOUS
10
17.958796
20
84.849836
30
0.0
11
18.278110
21
83.934462
31
0.0
0
LINE
8
0
6
CONTINUOUS
10
19.149465
20
85.470020
30
0.0
11
17.958796
21
84.849836
31
0.0
0
LINE
8
0
6
CONTINUOUS
10
20.659438
20
85.174840
30
0.0
11
19.149465
21
85.470020
31
0.0
0
LINE
8
0
6
CONTINUOUS
10
1.954964
20
79.920046
30
0.0
11
2.606726
21
80.772575
31
0.0
0
LINE
8
0
6
CONTINUOUS
10
1.947814
20
80.789040
30
0.0
11
1.954964
21
79.920046
31
0.0
0
LINE
8
0
6
CONTINUOUS
10
2.606726
20
80.772575
30
0.0
11
4.190112
21
80.867643
31
0.0
0
LINE
8
0
6
CONTINUOUS
10
4.190112
20
80.867643
30
0.0
11
5.121706
21
80.110157
31
0.0
0
LINE
8
0
6
CONTINUOUS
10
2.606726
20
80.772575
30
0.0
11
1.954964
21
79.920046
31
0.0
0
LINE
8
0
6
CONTINUOUS
10
4.190112
20
80.867643
30
0.0
11
2.606726
21
80.772575
31
0.0
0
LINE
8
0
6
CONTINUOUS
10
5.121706
20
80.110157
30
0.0
11
4.190112
21
80.867643
31
0.0
0
LINE
8
0
6
CONTINUOUS
10
4.469944
20
79.257612
30
0.0
11
5.121706
21
80.110157
31
0.0
0
LINE
8
0
6
CONTINUOUS
10
2.886578
20
79.162551
30
0.0
11
4.469944
21
79.257612
31
0.0
0
LINE
8
0
6
CONTINUOUS
10
1.954964
20
79.920046
30
0.0
11
2.886578
21
79.162551
31
0.0
0
LINE
8
0
6
CONTINUOUS
10
14.721237
20
76.207881
30
0.0
11
15.057395
21
77.121249
31
0.0
0
LINE
8
0
6
CONTINUOUS
10
14.713957
20
77.027131
30
0.0
11
14.721237
21
76.207881
31
0.0
0
LINE
8
0
6
CONTINUOUS
10
15.057395
20
77.121249
30
0.0
11
16.572711
21
77.407141
31
0.0
0
LINE
8
0
6
CONTINUOUS
10
16.572711
20
77.407141
30
0.0
11
17.751909
21
76.779683
31
0.0
0
LINE
8
0
6
CONTINUOUS
10
6.876533
20
76.312869
30
0.0
11
7.528305
21
77.165407
31
0.0
0
LINE
8
0
6
CONTINUOUS
10
6.869518
20
77.165443
30
0.0
11
6.876533
21
76.312869
31
0.0
0
LINE
8
0
6
CONTINUOUS
10
7.528305
20
77.165407
30
0.0
11
9.111691
21
77.260469
31
0.0
0
LINE
8
0
6
CONTINUOUS
10
7.528305
20
77.165407
30
0.0
11
6.876533
21
76.312869
31
0.0
0
LINE
8
0
6
CONTINUOUS
10
9.111691
20
77.260469
30
0.0
11
7.528305
21
77.165407
31
0.0
0
LINE
8
0
6
CONTINUOUS
10
10.043275
20
76.502999
30
0.0
11
9.111691
21
77.260469
31
0.0
0
LINE
8
0
6
CONTINUOUS
10
9.391512
20
75.650438
30
0.0
11
10.043275
21
76.502999
31
0.0
0
LINE
8
0
6
CONTINUOUS
10
7.808146
20
75.555392
30
0.0
11
9.391512
21
75.650438
31
0.0
0
LINE
8
0
6
CONTINUOUS
10
6.876533
20
76.312869
30
0.0
11
7.808146
21
75.555392
31
0.0
0
LINE
8
0
6
CONTINUOUS
10
10.769939
20
86.441287
30
0.0
11
11.421711
21
87.293849
31
0.0
0
LINE
8
0
6
CONTINUOUS
10
10.763138
20
87.267836
30
0.0
11
10.769939
21
86.441287
31
0.0
0
LINE
8
0
6
CONTINUOUS
10
11.421711
20
87.293849
30
0.0
11
13.005097
21
87.388891
31
0.0
0
LINE
8
0
6
CONTINUOUS
10
13.005097
20
87.388891
30
0.0
11
13.936690
21
86.631415
31
0.0
0
LINE
8
0
6
CONTINUOUS
10
11.421711
20
87.293849
30
0.0
11
10.769939
21
86.441287
31
0.0
0
LINE
8
0
6
CONTINUOUS
10
13.005097
20
87.388891
30
0.0
11
11.421711
21
87.293849
31
0.0
0
LINE
8
0
6
CONTINUOUS
10
13.936690
20
86.631415
30
0.0
11
13.005097
21
87.388891
31
0.0
0
LINE
8
0
6
CONTINUOUS
10
13.284918
20
85.778870
30
0.0
11
13.936690
21
86.631415
31
0.0
0
LINE
8
0
6
CONTINUOUS
10
11.701562
20
85.683818
30
0.0
11
13.284918
21
85.778870
31
0.0
0
LINE
8
0
6
CONTINUOUS
10
10.769939
20
86.441287
30
0.0
11
11.701562
21
85.683818
31
0.0
0
LINE
8
0
6
CONTINUOUS
10
28.343882
20
83.453092
30
0.0
11
29.720889
21
82.984673
31
0.0
0
LINE
8
0
6
CONTINUOUS
10
26.961387
20
82.052745
30
0.0
11
26.964136
21
82.987122
31
0.0
0
LINE
8
0
6
CONTINUOUS
10
26.964136
20
82.987122
30
0.0
11
28.343882
21
83.453092
31
0.0
0
LINE
8
0
6
CONTINUOUS
10
28.338413
20
81.584312
30
0.0
11
29.718169
21
82.050287
31
0.0
0
LINE
8
0
6
CONTINUOUS
10
26.961387
20
82.052745
30
0.0
11
28.338413
21
81.584312
31
0.0
0
LINE
8
0
6
CONTINUOUS
10
26.964136
20
82.987122
30
0.0
11
26.961387
21
82.052745
31
0.0
0
LINE
8
0
6
CONTINUOUS
10
28.343882
20
83.453092
30
0.0
11
26.964136
21
82.987122
31
0.0
0
LINE
8
0
6
CONTINUOUS
10
29.720889
20
82.984673
30
0.0
11
28.343882
21
83.453092
31
0.0
0
LINE
8
0
6
CONTINUOUS
10
29.718169
20
82.050287
30
0.0
11
29.720889
21
82.984673
31
0.0
0
LINE
8
0
6
CONTINUOUS
10
35.277633
20
83.980662
30
0.0
11
36.611387
21
83.526962
31
0.0
0
LINE
8
0
6
CONTINUOUS
10
33.938579
20
82.624323
30
0.0
11
33.941234
21
83.529343
31
0.0
0
LINE
8
0
6
CONTINUOUS
10
33.941234
20
83.529343
30
0.0
11
35.277633
21
83.980662
31
0.0
0
LINE
8
0
6
CONTINUOUS
10
35.272343
20
82.170599
30
0.0
11
36.608752
21
82.621928
31
0.0
0
LINE
8
0
6
CONTINUOUS
10
33.938579
20
82.624323
30
0.0
11
35.272343
21
82.170599
31
0.0
0
LINE
8
0
6
CONTINUOUS
10
33.941234
20
83.529343
30
0.0
11
33.938579
21
82.624323
31
0.0
0
LINE
8
0
6
CONTINUOUS
10
35.277633
20
83.980662
30
0.0
11
33.941234
21
83.529343
31
0.0
0
LINE
8
0
6
CONTINUOUS
10
36.611387
20
83.526962
30
0.0
11
35.277633
21
83.980662
31
0.0
0
LINE
8
0
6
CONTINUOUS
10
36.608752
20
82.621928
30
0.0
11
36.611387
21
83.526962
31
0.0
0
LINE
8
0
6
CONTINUOUS
10
42.374211
20
82.624374
30
0.0
11
43.518398
21
82.235137
31
0.0
0
LINE
8
0
6
CONTINUOUS
10
41.225466
20
81.460786
30
0.0
11
41.227745
21
82.237171
31
0.0
0
LINE
8
0
6
CONTINUOUS
10
41.227745
20
82.237171
30
0.0
11
42.374211
21
82.624374
31
0.0
0
LINE
8
0
6
CONTINUOUS
10
42.369672
20
81.071558
30
0.0
11
43.516138
21
81.458739
31
0.0
0
LINE
8
0
6
CONTINUOUS
10
41.225466
20
81.460786
30
0.0
11
42.369672
21
81.071558
31
0.0
0
LINE
8
0
6
CONTINUOUS
10
41.227745
20
82.237171
30
0.0
11
41.225466
21
81.460786
31
0.0
0
LINE
8
0
6
CONTINUOUS
10
42.374211
20
82.624374
30
0.0
11
41.227745
21
82.237171
31
0.0
0
LINE
8
0
6
CONTINUOUS
10
43.518398
20
82.235137
30
0.0
11
42.374211
21
82.624374
31
0.0
0
LINE
8
0
6
CONTINUOUS
10
43.516138
20
81.458739
30
0.0
11
43.518398
21
82.235137
31
0.0
0
LINE
8
0
6
CONTINUOUS
10
49.383976
20
80.462411
30
0.0
11
50.530452
21
80.849592
31
0.0
0
LINE
8
0
6
CONTINUOUS
10
50.530452
20
80.849592
30
0.0
11
50.532712
21
81.625994
31
0.0
0
LINE
8
0
6
CONTINUOUS
10
49.214680
20
82.070589
30
0.0
11
50.358866
21
81.681361
31
0.0
0
LINE
8
0
6
CONTINUOUS
10
48.065934
20
80.906994
30
0.0
11
48.068214
21
81.683389
31
0.0
0
LINE
8
0
6
CONTINUOUS
10
48.068214
20
81.683389
30
0.0
11
49.214680
21
82.070589
31
0.0
0
LINE
8
0
6
CONTINUOUS
10
49.210140
20
80.517773
30
0.0
11
50.356606
21
80.904959
31
0.0
0
LINE
8
0
6
CONTINUOUS
10
48.065934
20
80.906994
30
0.0
11
49.210140
21
80.517773
31
0.0
0
LINE
8
0
6
CONTINUOUS
10
48.068214
20
81.683389
30
0.0
11
48.065934
21
80.906994
31
0.0
0
LINE
8
0
6
CONTINUOUS
10
49.214680
20
82.070589
30
0.0
11
48.068214
21
81.683389
31
0.0
0
LINE
8
0
6
CONTINUOUS
10
50.358866
20
81.681361
30
0.0
11
49.214680
21
82.070589
31
0.0
0
LINE
8
0
6
CONTINUOUS
10
50.356606
20
80.904959
30
0.0
11
50.358866
21
81.681361
31
0.0
0
LINE
8
0
6
CONTINUOUS
10
25.173438
20
88.032982
30
0.0
11
26.550445
21
87.564563
31
0.0
0
LINE
8
0
6
CONTINUOUS
10
23.790943
20
86.632619
30
0.0
11
23.793682
21
87.566991
31
0.0
0
LINE
8
0
6
CONTINUOUS
10
23.793682
20
87.566991
30
0.0
11
25.173438
21
88.032982
31
0.0
0
LINE
8
0
6
CONTINUOUS
10
25.167969
20
86.164193
30
0.0
11
26.547725
21
86.630168
31
0.0
0
LINE
8
0
6
CONTINUOUS
10
23.790943
20
86.632619
30
0.0
11
25.167969
21
86.164193
31
0.0
0
LINE
8
0
6
CONTINUOUS
10
23.793682
20
87.566991
30
0.0
11
23.790943
21
86.632619
31
0.0
0
LINE
8
0
6
CONTINUOUS
10
25.173438
20
88.032982
30
0.0
11
23.793682
21
87.566991
31
0.0
0
LINE
8
0
6
CONTINUOUS
10
26.550445
20
87.564563
30
0.0
11
25.173438
21
88.032982
31
0.0
0
LINE
8
0
6
CONTINUOUS
10
26.547725
20
86.630168
30
0.0
11
26.550445
21
87.564563
31
0.0
0
LINE
8
0
6
CONTINUOUS
10
32.885609
20
88.794329
30
0.0
11
34.219352
21
88.340636
31
0.0
0
LINE
8
0
6
CONTINUOUS
10
32.880318
20
86.984273
30
0.0
11
34.216717
21
87.435583
31
0.0
0
LINE
8
0
6
CONTINUOUS
10
31.546544
20
87.437977
30
0.0
11
32.880318
21
86.984273
31
0.0
0
LINE
8
0
6
CONTINUOUS
10
31.549200
20
88.343000
30
0.0
11
31.546544
21
87.437977
31
0.0
0
LINE
8
0
6
CONTINUOUS
10
32.885609
20
88.794329
30
0.0
11
31.549200
21
88.343000
31
0.0
0
LINE
8
0
6
CONTINUOUS
10
34.219352
20
88.340636
30
0.0
11
32.885609
21
88.794329
31
0.0
0
LINE
8
0
6
CONTINUOUS
10
34.216717
20
87.435583
30
0.0
11
34.219352
21
88.340636
31
0.0
0
LINE
8
0
6
CONTINUOUS
10
27.849299
20
92.756678
30
0.0
11
29.183052
21
92.302988
31
0.0
0
LINE
8
0
6
CONTINUOUS
10
27.844008
20
90.946613
30
0.0
11
29.180417
21
91.397952
31
0.0
0
LINE
8
0
6
CONTINUOUS
10
26.510244
20
91.400329
30
0.0
11
27.844008
21
90.946613
31
0.0
0
LINE
8
0
6
CONTINUOUS
10
26.512900
20
92.305349
30
0.0
11
26.510244
21
91.400329
31
0.0
0
LINE
8
0
6
CONTINUOUS
10
27.849299
20
92.756678
30
0.0
11
26.512900
21
92.305349
31
0.0
0
LINE
8
0
6
CONTINUOUS
10
29.183052
20
92.302988
30
0.0
11
27.849299
21
92.756678
31
0.0
0
LINE
8
0
6
CONTINUOUS
10
29.180417
20
91.397952
30
0.0
11
29.183052
21
92.302988
31
0.0
0
LINE
8
0
6
CONTINUOUS
10
41.226902
20
87.593299
30
0.0
11
42.371088
21
87.204078
31
0.0
0
LINE
8
0
6
CONTINUOUS
10
40.078156
20
86.429694
30
0.0
11
40.080436
21
87.206118
31
0.0
0
LINE
8
0
6
CONTINUOUS
10
40.080436
20
87.206118
30
0.0
11
41.226902
21
87.593299
31
0.0
0
LINE
8
0
6
CONTINUOUS
10
41.222362
20
86.040483
30
0.0
11
42.368828
21
86.427686
31
0.0
0
LINE
8
0
6
CONTINUOUS
10
40.078156
20
86.429694
30
0.0
11
41.222362
21
86.040483
31
0.0
0
LINE
8
0
6
CONTINUOUS
10
40.080436
20
87.206118
30
0.0
11
40.078156
21
86.429694
31
0.0
0
LINE
8
0
6
CONTINUOUS
10
41.226902
20
87.593299
30
0.0
11
40.080436
21
87.206118
31
0.0
0
LINE
8
0
6
CONTINUOUS
10
42.371088
20
87.204078
30
0.0
11
41.226902
21
87.593299
31
0.0
0
LINE
8
0
6
CONTINUOUS
10
42.368828
20
86.427686
30
0.0
11
42.371088
21
87.204078
31
0.0
0
LINE
8
0
6
CONTINUOUS
10
37.932517
20
92.235842
30
0.0
11
39.076704
21
91.846650
31
0.0
0
LINE
8
0
6
CONTINUOUS
10
36.786051
20
91.848668
30
0.0
11
37.932517
21
92.235842
31
0.0
0
LINE
8
0
6
CONTINUOUS
10
37.927968
20
90.683047
30
0.0
11
39.074444
21
91.070248
31
0.0
0
LINE
8
0
6
CONTINUOUS
10
36.783772
20
91.072285
30
0.0
11
37.927968
21
90.683047
31
0.0
0
LINE
8
0
6
CONTINUOUS
10
36.786051
20
91.848668
30
0.0
11
36.783772
21
91.072285
31
0.0
0
LINE
8
0
6
CONTINUOUS
10
37.932517
20
92.235842
30
0.0
11
36.786051
21
91.848668
31
0.0
0
LINE
8
0
6
CONTINUOUS
10
39.076704
20
91.846650
30
0.0
11
37.932517
21
92.235842
31
0.0
0
LINE
8
0
6
CONTINUOUS
10
39.074444
20
91.070248
30
0.0
11
39.076704
21
91.846650
31
0.0
0
LINE
8
0
6
CONTINUOUS
10
32.373894
20
96.082013
30
0.0
11
33.518090
21
95.692802
31
0.0
0
LINE
8
0
6
CONTINUOUS
10
31.227438
20
95.694829
30
0.0
11
32.373894
21
96.082013
31
0.0
0
LINE
8
0
6
CONTINUOUS
10
32.369354
20
94.529197
30
0.0
11
33.515830
21
94.916397
31
0.0
0
LINE
8
0
6
CONTINUOUS
10
31.225148
20
94.918432
30
0.0
11
32.369354
21
94.529197
31
0.0
0
LINE
8
0
6
CONTINUOUS
10
31.227438
20
95.694829
30
0.0
11
31.225148
21
94.918432
31
0.0
0
LINE
8
0
6
CONTINUOUS
10
32.373894
20
96.082013
30
0.0
11
31.227438
21
95.694829
31
0.0
0
LINE
8
0
6
CONTINUOUS
10
33.518090
20
95.692802
30
0.0
11
32.373894
21
96.082013
31
0.0
0
LINE
8
0
6
CONTINUOUS
10
33.515830
20
94.916397
30
0.0
11
33.518090
21
95.692802
31
0.0
0
LINE
8
0
6
CONTINUOUS
10
37.140305
20
99.717825
30
0.0
11
37.358765
21
98.952117
31
0.0
0
LINE
8
0
6
CONTINUOUS
10
35.901493
20
99.989478
30
0.0
11
37.140305
21
99.717825
31
0.0
0
LINE
8
0
6
CONTINUOUS
10
36.338394
20
98.458034
30
0.0
11
37.358765
21
98.952117
31
0.0
0
LINE
8
0
6
CONTINUOUS
10
35.099563
20
98.729707
30
0.0
11
36.338394
21
98.458034
31
0.0
0
LINE
8
0
6
CONTINUOUS
10
34.881122
20
99.495424
30
0.0
11
35.099563
21
98.729707
31
0.0
0
LINE
8
0
6
CONTINUOUS
10
35.901493
20
99.989478
30
0.0
11
34.881122
21
99.495424
31
0.0
0
LINE
8
0
6
CONTINUOUS
10
37.140305
20
99.717825
30
0.0
11
35.901493
21
99.989478
31
0.0
0
LINE
8
0
6
CONTINUOUS
10
37.358765
20
98.952117
30
0.0
11
37.140305
21
99.717825
31
0.0
0
LINE
8
0
6
CONTINUOUS
10
43.018972
20
96.021029
30
0.0
11
43.237433
21
95.255295
31
0.0
0
LINE
8
0
6
CONTINUOUS
10
40.759789
20
95.798586
30
0.0
11
41.780160
21
96.292666
31
0.0
0
LINE
8
0
6
CONTINUOUS
10
40.762473
20
96.570674
30
0.0
11
40.759789
21
95.798586
31
0.0
0
LINE
8
0
6
CONTINUOUS
10
42.217052
20
94.761239
30
0.0
11
43.237433
21
95.255295
31
0.0
0
LINE
8
0
6
CONTINUOUS
10
40.978230
20
95.032892
30
0.0
11
42.217052
21
94.761239
31
0.0
0
LINE
8
0
6
CONTINUOUS
10
40.759789
20
95.798586
30
0.0
11
40.978230
21
95.032892
31
0.0
0
LINE
8
0
6
CONTINUOUS
10
41.780160
20
96.292666
30
0.0
11
40.759789
21
95.798586
31
0.0
0
LINE
8
0
6
CONTINUOUS
10
43.018972
20
96.021029
30
0.0
11
41.780160
21
96.292666
31
0.0
0
LINE
8
0
6
CONTINUOUS
10
43.237433
20
95.255295
30
0.0
11
43.018972
21
96.021029
31
0.0
0
LINE
8
0
6
CONTINUOUS
10
47.351968
20
91.609266
30
0.0
11
47.570419
21
90.843573
31
0.0
0
LINE
8
0
6
CONTINUOUS
10
46.113156
20
91.880939
30
0.0
11
47.351968
21
91.609266
31
0.0
0
LINE
8
0
6
CONTINUOUS
10
45.092785
20
91.386880
30
0.0
11
46.113156
21
91.880939
31
0.0
0
LINE
8
0
6
CONTINUOUS
10
45.095424
20
92.146145
30
0.0
11
45.092785
21
91.386880
31
0.0
0
LINE
8
0
6
CONTINUOUS
10
46.550048
20
90.349528
30
0.0
11
47.570419
21
90.843573
31
0.0
0
LINE
8
0
6
CONTINUOUS
10
45.311226
20
90.621182
30
0.0
11
46.550048
21
90.349528
31
0.0
0
LINE
8
0
6
CONTINUOUS
10
45.092785
20
91.386880
30
0.0
11
45.311226
21
90.621182
31
0.0
0
LINE
8
0
6
CONTINUOUS
10
46.113156
20
91.880939
30
0.0
11
45.092785
21
91.386880
31
0.0
0
LINE
8
0
6
CONTINUOUS
10
47.351968
20
91.609266
30
0.0
11
46.113156
21
91.880939
31
0.0
0
LINE
8
0
6
CONTINUOUS
10
47.570419
20
90.843573
30
0.0
11
47.351968
21
91.609266
31
0.0
0
LINE
8
0
6
CONTINUOUS
10
49.896703
20
86.829403
30
0.0
11
50.115164
21
86.063695
31
0.0
0
LINE
8
0
6
CONTINUOUS
10
48.657891
20
87.101040
30
0.0
11
49.896703
21
86.829403
31
0.0
0
LINE
8
0
6
CONTINUOUS
10
47.637520
20
86.606983
30
0.0
11
48.657891
21
87.101040
31
0.0
0
LINE
8
0
6
CONTINUOUS
10
47.640119
20
87.354805
30
0.0
11
47.637520
21
86.606983
31
0.0
0
LINE
8
0
6
CONTINUOUS
10
49.094793
20
85.569629
30
0.0
11
50.115164
21
86.063695
31
0.0
0
LINE
8
0
6
CONTINUOUS
10
47.855961
20
85.841282
30
0.0
11
49.094793
21
85.569629
31
0.0
0
LINE
8
0
6
CONTINUOUS
10
47.637520
20
86.606983
30
0.0
11
47.855961
21
85.841282
31
0.0
0
LINE
8
0
6
CONTINUOUS
10
48.657891
20
87.101040
30
0.0
11
47.637520
21
86.606983
31
0.0
0
LINE
8
0
6
CONTINUOUS
10
49.896703
20
86.829403
30
0.0
11
48.657891
21
87.101040
31
0.0
0
LINE
8
0
6
CONTINUOUS
10
50.115164
20
86.063695
30
0.0
11
49.896703
21
86.829403
31
0.0
0
LINE
8
0
6
CONTINUOUS
10
12.888927
20
72.664883
30
0.0
11
14.348887
21
73.037094
31
0.0
0
LINE
8
0
6
CONTINUOUS
10
12.707803
20
71.736514
30
0.0
11
12.888927
21
72.664883
31
0.0
0
LINE
8
0
6
CONTINUOUS
10
12.700903
20
72.569086
30
0.0
11
12.707803
21
71.736514
31
0.0
0
LINE
8
0
6
CONTINUOUS
10
12.707803
20
71.736514
30
0.0
11
13.986637
21
71.180400
31
0.0
0
LINE
8
0
6
CONTINUOUS
10
12.888927
20
72.664883
30
0.0
11
12.707803
21
71.736514
31
0.0
0
LINE
8
0
6
CONTINUOUS
10
14.348887
20
73.037094
30
0.0
11
12.888927
21
72.664883
31
0.0
0
LINE
8
0
6
CONTINUOUS
10
15.627732
20
72.480944
30
0.0
11
14.348887
21
73.037094
31
0.0
0
LINE
8
0
6
CONTINUOUS
10
15.446607
20
71.552601
30
0.0
11
15.627732
21
72.480944
31
0.0
0
LINE
8
0
6
CONTINUOUS
10
13.986637
20
71.180400
30
0.0
11
15.446607
21
71.552601
31
0.0
0
LINE
8
0
6
CONTINUOUS
10
15.521879
20
61.390410
30
0.0
11
16.734984
21
61.699676
31
0.0
0
LINE
8
0
6
CONTINUOUS
10
17.797606
20
61.237562
30
0.0
11
17.787096
21
62.758536
31
0.0
0
LINE
8
0
6
CONTINUOUS
10
16.734984
20
61.699676
30
0.0
11
17.797606
21
61.237562
31
0.0
0
LINE
8
0
6
CONTINUOUS
10
15.371365
20
60.619014
30
0.0
11
15.521879
21
61.390410
31
0.0
0
LINE
8
0
6
CONTINUOUS
10
15.365499
20
61.467941
30
0.0
11
15.371365
21
60.619014
31
0.0
0
LINE
8
0
6
CONTINUOUS
10
15.371365
20
60.619014
30
0.0
11
16.433986
21
60.156893
31
0.0
0
LINE
8
0
6
CONTINUOUS
10
15.521879
20
61.390410
30
0.0
11
15.371365
21
60.619014
31
0.0
0
LINE
8
0
6
CONTINUOUS
10
16.734984
20
61.699676
30
0.0
11
15.521879
21
61.390410
31
0.0
0
LINE
8
0
6
CONTINUOUS
10
17.797606
20
61.237562
30
0.0
11
16.734984
21
61.699676
31
0.0
0
LINE
8
0
6
CONTINUOUS
10
17.647101
20
60.466190
30
0.0
11
17.797606
21
61.237562
31
0.0
0
LINE
8
0
6
CONTINUOUS
10
16.433986
20
60.156893
30
0.0
11
17.647101
21
60.466190
31
0.0
0
LINE
8
0
6
CONTINUOUS
10
14.723527
20
65.200630
30
0.0
11
15.936633
21
65.509886
31
0.0
0
LINE
8
0
6
CONTINUOUS
10
16.999254
20
65.047772
30
0.0
11
16.992599
21
66.011199
31
0.0
0
LINE
8
0
6
CONTINUOUS
10
15.936633
20
65.509886
30
0.0
11
16.999254
21
65.047772
31
0.0
0
LINE
8
0
6
CONTINUOUS
10
14.573013
20
64.429219
30
0.0
11
14.723527
21
65.200630
31
0.0
0
LINE
8
0
6
CONTINUOUS
10
14.567208
20
65.269331
30
0.0
11
14.573013
21
64.429219
31
0.0
0
LINE
8
0
6
CONTINUOUS
10
14.573013
20
64.429219
30
0.0
11
15.635634
21
63.967119
31
0.0
0
LINE
8
0
6
CONTINUOUS
10
14.723527
20
65.200630
30
0.0
11
14.573013
21
64.429219
31
0.0
0
LINE
8
0
6
CONTINUOUS
10
15.936633
20
65.509886
30
0.0
11
14.723527
21
65.200630
31
0.0
0
LINE
8
0
6
CONTINUOUS
10
16.999254
20
65.047772
30
0.0
11
15.936633
21
65.509886
31
0.0
0
LINE
8
0
6
CONTINUOUS
10
16.848749
20
64.276397
30
0.0
11
16.999254
21
65.047772
31
0.0
0
LINE
8
0
6
CONTINUOUS
10
15.635634
20
63.967119
30
0.0
11
16.848749
21
64.276397
31
0.0
0
LINE
8
0
6
CONTINUOUS
10
15.167882
20
69.091531
30
0.0
11
16.581972
21
69.452051
31
0.0
0
LINE
8
0
6
CONTINUOUS
10
16.581972
20
69.452051
30
0.0
11
17.820641
21
68.913366
31
0.0
0
LINE
8
0
6
CONTINUOUS
10
14.992432
20
68.192347
30
0.0
11
15.167882
21
69.091531
31
0.0
0
LINE
8
0
6
CONTINUOUS
10
14.985618
20
69.040860
30
0.0
11
14.992432
21
68.192347
31
0.0
0
LINE
8
0
6
CONTINUOUS
10
14.992432
20
68.192347
30
0.0
11
16.231101
21
67.653671
31
0.0
0
LINE
8
0
6
CONTINUOUS
10
15.167882
20
69.091531
30
0.0
11
14.992432
21
68.192347
31
0.0
0
LINE
8
0
6
CONTINUOUS
10
16.581972
20
69.452051
30
0.0
11
15.167882
21
69.091531
31
0.0
0
LINE
8
0
6
CONTINUOUS
10
17.820641
20
68.913366
30
0.0
11
16.581972
21
69.452051
31
0.0
0
LINE
8
0
6
CONTINUOUS
10
17.645201
20
68.014199
30
0.0
11
17.820641
21
68.913366
31
0.0
0
LINE
8
0
6
CONTINUOUS
10
16.231101
20
67.653671
30
0.0
11
17.645201
21
68.014199
31
0.0
0
LINE
8
0
6
CONTINUOUS
10
23.961487
20
62.689669
30
0.0
11
25.174593
21
62.998947
31
0.0
0
LINE
8
0
6
CONTINUOUS
10
23.810973
20
61.918284
30
0.0
11
23.961487
21
62.689669
31
0.0
0
LINE
8
0
6
CONTINUOUS
10
23.805255
20
62.745871
30
0.0
11
23.810973
21
61.918284
31
0.0
0
LINE
8
0
6
CONTINUOUS
10
23.810973
20
61.918284
30
0.0
11
24.873594
21
61.456163
31
0.0
0
LINE
8
0
6
CONTINUOUS
10
23.961487
20
62.689669
30
0.0
11
23.810973
21
61.918284
31
0.0
0
LINE
8
0
6
CONTINUOUS
10
25.174593
20
62.998947
30
0.0
11
23.961487
21
62.689669
31
0.0
0
LINE
8
0
6
CONTINUOUS
10
26.237214
20
62.536838
30
0.0
11
25.174593
21
62.998947
31
0.0
0
LINE
8
0
6
CONTINUOUS
10
26.086720
20
61.765446
30
0.0
11
26.237214
21
62.536838
31
0.0
0
LINE
8
0
6
CONTINUOUS
10
24.873594
20
61.456163
30
0.0
11
26.086720
21
61.765446
31
0.0
0
LINE
8
0
6
CONTINUOUS
10
23.163129
20
66.514860
30
0.0
11
24.376245
21
66.824117
31
0.0
0
LINE
8
0
6
CONTINUOUS
10
24.376245
20
66.824117
30
0.0
11
25.438866
21
66.362024
31
0.0
0
LINE
8
0
6
CONTINUOUS
10
23.012625
20
65.743454
30
0.0
11
23.163129
21
66.514860
31
0.0
0
LINE
8
0
6
CONTINUOUS
10
23.006921
20
66.568933
30
0.0
11
23.012625
21
65.743454
31
0.0
0
LINE
8
0
6
CONTINUOUS
10
23.012625
20
65.743454
30
0.0
11
24.075246
21
65.281362
31
0.0
0
LINE
8
0
6
CONTINUOUS
10
23.163129
20
66.514860
30
0.0
11
23.012625
21
65.743454
31
0.0
0
LINE
8
0
6
CONTINUOUS
10
24.376245
20
66.824117
30
0.0
11
23.163129
21
66.514860
31
0.0
0
LINE
8
0
6
CONTINUOUS
10
25.438866
20
66.362024
30
0.0
11
24.376245
21
66.824117
31
0.0
0
LINE
8
0
6
CONTINUOUS
10
25.288362
20
65.590627
30
0.0
11
25.438866
21
66.362024
31
0.0
0
LINE
8
0
6
CONTINUOUS
10
24.075246
20
65.281362
30
0.0
11
25.288362
21
65.590627
31
0.0
0
LINE
8
0
6
CONTINUOUS
10
23.107458
20
70.855578
30
0.0
11
24.521548
21
71.216092
31
0.0
0
LINE
8
0
6
CONTINUOUS
10
24.521548
20
71.216092
30
0.0
11
25.760227
21
70.677430
31
0.0
0
LINE
8
0
6
CONTINUOUS
10
22.932018
20
69.956382
30
0.0
11
23.107458
21
70.855578
31
0.0
0
LINE
8
0
6
CONTINUOUS
10
22.925549
20
70.761972
30
0.0
11
22.932018
21
69.956382
31
0.0
0
LINE
8
0
6
CONTINUOUS
10
22.932018
20
69.956382
30
0.0
11
24.170687
21
69.417712
31
0.0
0
LINE
8
0
6
CONTINUOUS
10
23.107458
20
70.855578
30
0.0
11
22.932018
21
69.956382
31
0.0
0
LINE
8
0
6
CONTINUOUS
10
24.521548
20
71.216092
30
0.0
11
23.107458
21
70.855578
31
0.0
0
LINE
8
0
6
CONTINUOUS
10
25.760227
20
70.677430
30
0.0
11
24.521548
21
71.216092
31
0.0
0
LINE
8
0
6
CONTINUOUS
10
25.584787
20
69.778234
30
0.0
11
25.760227
21
70.677430
31
0.0
0
LINE
8
0
6
CONTINUOUS
10
24.170687
20
69.417712
30
0.0
11
25.584787
21
69.778234
31
0.0
0
LINE
8
0
6
CONTINUOUS
10
20.661455
20
74.425163
30
0.0
11
22.121414
21
74.797376
31
0.0
0
LINE
8
0
6
CONTINUOUS
10
20.480330
20
73.496819
30
0.0
11
20.661455
21
74.425163
31
0.0
0
LINE
8
0
6
CONTINUOUS
10
20.473587
20
74.310521
30
0.0
11
20.480330
21
73.496819
31
0.0
0
LINE
8
0
6
CONTINUOUS
10
20.480330
20
73.496819
30
0.0
11
21.759175
21
72.940660
31
0.0
0
LINE
8
0
6
CONTINUOUS
10
20.661455
20
74.425163
30
0.0
11
20.480330
21
73.496819
31
0.0
0
LINE
8
0
6
CONTINUOUS
10
22.121414
20
74.797376
30
0.0
11
20.661455
21
74.425163
31
0.0
0
LINE
8
0
6
CONTINUOUS
10
23.400259
20
74.241243
30
0.0
11
22.121414
21
74.797376
31
0.0
0
LINE
8
0
6
CONTINUOUS
10
23.219134
20
73.312896
30
0.0
11
23.400259
21
74.241243
31
0.0
0
LINE
8
0
6
CONTINUOUS
10
21.759175
20
72.940660
30
0.0
11
23.219134
21
73.312896
31
0.0
0
LINE
8
0
6
CONTINUOUS
10
25.715772
20
78.353592
30
0.0
11
27.175731
21
78.725817
31
0.0
0
LINE
8
0
6
CONTINUOUS
10
27.175731
20
78.725817
30
0.0
11
28.454576
21
78.169665
31
0.0
0
LINE
8
0
6
CONTINUOUS
10
25.534637
20
77.425229
30
0.0
11
26.813482
21
76.869099
31
0.0
0
LINE
8
0
6
CONTINUOUS
10
25.715772
20
78.353592
30
0.0
11
25.534637
21
77.425229
31
0.0
0
LINE
8
0
6
CONTINUOUS
10
27.175731
20
78.725817
30
0.0
11
25.715772
21
78.353592
31
0.0
0
LINE
8
0
6
CONTINUOUS
10
28.454576
20
78.169665
30
0.0
11
27.175731
21
78.725817
31
0.0
0
LINE
8
0
6
CONTINUOUS
10
28.273451
20
77.241309
30
0.0
11
28.454576
21
78.169665
31
0.0
0
LINE
8
0
6
CONTINUOUS
10
26.813482
20
76.869099
30
0.0
11
28.273451
21
77.241309
31
0.0
0
LINE
8
0
6
CONTINUOUS
10
29.256756
20
73.406742
30
0.0
11
30.495426
21
72.868082
31
0.0
0
LINE
8
0
6
CONTINUOUS
10
29.432207
20
74.305928
30
0.0
11
29.256756
21
73.406742
31
0.0
0
LINE
8
0
6
CONTINUOUS
10
30.846297
20
74.666462
30
0.0
11
29.432207
21
74.305928
31
0.0
0
LINE
8
0
6
CONTINUOUS
10
32.084966
20
74.127799
30
0.0
11
30.846297
21
74.666462
31
0.0
0
LINE
8
0
6
CONTINUOUS
10
31.909535
20
73.228596
30
0.0
11
32.084966
21
74.127799
31
0.0
0
LINE
8
0
6
CONTINUOUS
10
30.495426
20
72.868082
30
0.0
11
31.909535
21
73.228596
31
0.0
0
LINE
8
0
6
CONTINUOUS
10
33.343112
20
78.662933
30
0.0
11
34.757202
21
79.023447
31
0.0
0
LINE
8
0
6
CONTINUOUS
10
33.167671
20
77.763749
30
0.0
11
33.343112
21
78.662933
31
0.0
0
LINE
8
0
6
CONTINUOUS
10
33.161653
20
78.512984
30
0.0
11
33.167671
21
77.763749
31
0.0
0
LINE
8
0
6
CONTINUOUS
10
33.167671
20
77.763749
30
0.0
11
34.406331
21
77.225070
31
0.0
0
LINE
8
0
6
CONTINUOUS
10
33.343112
20
78.662933
30
0.0
11
33.167671
21
77.763749
31
0.0
0
LINE
8
0
6
CONTINUOUS
10
34.757202
20
79.023447
30
0.0
11
33.343112
21
78.662933
31
0.0
0
LINE
8
0
6
CONTINUOUS
10
35.995871
20
78.484768
30
0.0
11
34.757202
21
79.023447
31
0.0
0
LINE
8
0
6
CONTINUOUS
10
35.820430
20
77.585601
30
0.0
11
35.995871
21
78.484768
31
0.0
0
LINE
8
0
6
CONTINUOUS
10
34.406331
20
77.225070
30
0.0
11
35.820430
21
77.585601
31
0.0
0
LINE
8
0
6
CONTINUOUS
10
30.301747
20
69.114565
30
0.0
11
31.514862
21
69.423832
31
0.0
0
LINE
8
0
6
CONTINUOUS
10
31.514862
20
69.423832
30
0.0
11
32.577483
21
68.961708
31
0.0
0
LINE
8
0
6
CONTINUOUS
10
30.151242
20
68.343179
30
0.0
11
30.301747
21
69.114565
31
0.0
0
LINE
8
0
6
CONTINUOUS
10
30.145681
20
69.148093
30
0.0
11
30.151242
21
68.343179
31
0.0
0
LINE
8
0
6
CONTINUOUS
10
30.151242
20
68.343179
30
0.0
11
31.213864
21
67.881048
31
0.0
0
LINE
8
0
6
CONTINUOUS
10
30.301747
20
69.114565
30
0.0
11
30.151242
21
68.343179
31
0.0
0
LINE
8
0
6
CONTINUOUS
10
31.514862
20
69.423832
30
0.0
11
30.301747
21
69.114565
31
0.0
0
LINE
8
0
6
CONTINUOUS
10
32.577483
20
68.961708
30
0.0
11
31.514862
21
69.423832
31
0.0
0
LINE
8
0
6
CONTINUOUS
10
32.426979
20
68.190328
30
0.0
11
32.577483
21
68.961708
31
0.0
0
LINE
8
0
6
CONTINUOUS
10
31.213864
20
67.881048
30
0.0
11
32.426979
21
68.190328
31
0.0
0
LINE
8
0
6
CONTINUOUS
10
36.053478
20
72.797071
30
0.0
11
37.266593
21
73.106349
31
0.0
0
LINE
8
0
6
CONTINUOUS
10
37.266593
20
73.106349
30
0.0
11
38.329214
21
72.644237
31
0.0
0
LINE
8
0
6
CONTINUOUS
10
35.902973
20
72.025686
30
0.0
11
36.053478
21
72.797071
31
0.0
0
LINE
8
0
6
CONTINUOUS
10
35.897562
20
72.808798
30
0.0
11
35.902973
21
72.025686
31
0.0
0
LINE
8
0
6
CONTINUOUS
10
35.902973
20
72.025686
30
0.0
11
36.965594
21
71.563565
31
0.0
0
LINE
8
0
6
CONTINUOUS
10
36.053478
20
72.797071
30
0.0
11
35.902973
21
72.025686
31
0.0
0
LINE
8
0
6
CONTINUOUS
10
37.266593
20
73.106349
30
0.0
11
36.053478
21
72.797071
31
0.0
0
LINE
8
0
6
CONTINUOUS
10
38.329214
20
72.644237
30
0.0
11
37.266593
21
73.106349
31
0.0
0
LINE
8
0
6
CONTINUOUS
10
38.178710
20
71.872845
30
0.0
11
38.329214
21
72.644237
31
0.0
0
LINE
8
0
6
CONTINUOUS
10
36.965594
20
71.563565
30
0.0
11
38.178710
21
71.872845
31
0.0
0
LINE
8
0
6
CONTINUOUS
10
40.014443
20
77.386144
30
0.0
11
41.227558
21
77.695437
31
0.0
0
LINE
8
0
6
CONTINUOUS
10
41.227558
20
77.695437
30
0.0
11
42.290179
21
77.233326
31
0.0
0
LINE
8
0
6
CONTINUOUS
10
39.863938
20
76.614752
30
0.0
11
40.014443
21
77.386144
31
0.0
0
LINE
8
0
6
CONTINUOUS
10
39.858603
20
77.386621
30
0.0
11
39.863938
21
76.614752
31
0.0
0
LINE
8
0
6
CONTINUOUS
10
39.863938
20
76.614752
30
0.0
11
40.926559
21
76.152641
31
0.0
0
LINE
8
0
6
CONTINUOUS
10
40.014443
20
77.386144
30
0.0
11
39.863938
21
76.614752
31
0.0
0
LINE
8
0
6
CONTINUOUS
10
41.227558
20
77.695437
30
0.0
11
40.014443
21
77.386144
31
0.0
0
LINE
8
0
6
CONTINUOUS
10
42.290179
20
77.233326
30
0.0
11
41.227558
21
77.695437
31
0.0
0
LINE
8
0
6
CONTINUOUS
10
42.139675
20
76.461931
30
0.0
11
42.290179
21
77.233326
31
0.0
0
LINE
8
0
6
CONTINUOUS
10
40.926559
20
76.152641
30
0.0
11
42.139675
21
76.461931
31
0.0
0
LINE
8
0
6
CONTINUOUS
10
48.903879
20
76.862979
30
0.0
11
48.974739
21
76.087673
31
0.0
0
LINE
8
0
6
CONTINUOUS
10
46.687402
20
76.015412
30
0.0
11
47.866505
21
75.663882
31
0.0
0
LINE
8
0
6
CONTINUOUS
10
46.616543
20
76.790706
30
0.0
11
46.687402
21
76.015412
31
0.0
0
LINE
8
0
6
CONTINUOUS
10
47.724767
20
77.214483
30
0.0
11
46.616543
21
76.790706
31
0.0
0
LINE
8
0
6
CONTINUOUS
10
48.903879
20
76.862979
30
0.0
11
47.724767
21
77.214483
31
0.0
0
LINE
8
0
6
CONTINUOUS
10
48.974739
20
76.087673
30
0.0
11
48.903879
21
76.862979
31
0.0
0
LINE
8
0
6
CONTINUOUS
10
47.866505
20
75.663882
30
0.0
11
48.974739
21
76.087673
31
0.0
0
LINE
8
0
6
CONTINUOUS
10
43.265929
20
71.372838
30
0.0
11
44.445031
21
71.021315
31
0.0
0
LINE
8
0
6
CONTINUOUS
10
43.195069
20
72.148123
30
0.0
11
43.265929
21
71.372838
31
0.0
0
LINE
8
0
6
CONTINUOUS
10
44.303293
20
72.571899
30
0.0
11
43.195069
21
72.148123
31
0.0
0
LINE
8
0
6
CONTINUOUS
10
45.482406
20
72.220383
30
0.0
11
44.303293
21
72.571899
31
0.0
0
LINE
8
0
6
CONTINUOUS
10
45.553265
20
71.445087
30
0.0
11
45.482406
21
72.220383
31
0.0
0
LINE
8
0
6
CONTINUOUS
10
44.445031
20
71.021315
30
0.0
11
45.553265
21
71.445087
31
0.0
0
LINE
8
0
6
CONTINUOUS
10
40.389633
20
67.356172
30
0.0
11
40.386051
21
67.961699
31
0.0
0
LINE
8
0
6
CONTINUOUS
10
40.318774
20
68.131443
30
0.0
11
40.389633
21
67.356172
31
0.0
0
LINE
8
0
6
CONTINUOUS
10
38.102297
20
67.283898
30
0.0
11
39.281400
21
66.932382
31
0.0
0
LINE
8
0
6
CONTINUOUS
10
38.031438
20
68.059180
30
0.0
11
38.102297
21
67.283898
31
0.0
0
LINE
8
0
6
CONTINUOUS
10
39.139661
20
68.482963
30
0.0
11
38.031438
21
68.059180
31
0.0
0
LINE
8
0
6
CONTINUOUS
10
40.318774
20
68.131443
30
0.0
11
39.139661
21
68.482963
31
0.0
0
LINE
8
0
6
CONTINUOUS
10
40.389633
20
67.356172
30
0.0
11
40.318774
21
68.131443
31
0.0
0
LINE
8
0
6
CONTINUOUS
10
39.281400
20
66.932382
30
0.0
11
40.389633
21
67.356172
31
0.0
0
LINE
8
0
6
CONTINUOUS
10
31.639602
20
64.008684
30
0.0
11
32.818705
21
63.657174
31
0.0
0
LINE
8
0
6
CONTINUOUS
10
31.568743
20
64.783991
30
0.0
11
31.639602
21
64.008684
31
0.0
0
LINE
8
0
6
CONTINUOUS
10
32.676976
20
65.207755
30
0.0
11
31.568743
21
64.783991
31
0.0
0
LINE
8
0
6
CONTINUOUS
10
33.856079
20
64.856252
30
0.0
11
32.676976
21
65.207755
31
0.0
0
LINE
8
0
6
CONTINUOUS
10
33.926938
20
64.080967
30
0.0
11
33.856079
21
64.856252
31
0.0
0
LINE
8
0
6
CONTINUOUS
10
32.818705
20
63.657174
30
0.0
11
33.926938
21
64.080967
31
0.0
0
LINE
8
0
6
CONTINUOUS
10
18.093134
20
91.063551
30
0.0
11
19.660668
21
90.901923
31
0.0
0
LINE
8
0
6
CONTINUOUS
10
19.660668
20
90.901923
30
0.0
11
20.205779
21
90.024067
31
0.0
0
LINE
8
0
6
CONTINUOUS
10
20.205779
20
90.024067
30
0.0
11
19.660668
21
90.901923
31
0.0
0
LINE
8
0
6
CONTINUOUS
10
19.183345
20
89.307839
30
0.0
11
20.205779
21
90.024067
31
0.0
0
LINE
8
0
6
CONTINUOUS
10
17.615831
20
89.469464
30
0.0
11
19.183345
21
89.307839
31
0.0
0
LINE
8
0
6
CONTINUOUS
10
17.070720
20
90.347321
30
0.0
11
17.615831
21
89.469464
31
0.0
0
LINE
8
0
6
CONTINUOUS
10
18.093134
20
91.063551
30
0.0
11
17.070720
21
90.347321
31
0.0
0
LINE
8
0
6
CONTINUOUS
10
19.660668
20
90.901923
30
0.0
11
18.093134
21
91.063551
31
0.0
0
LINE
8
0
6
CONTINUOUS
10
28.662901
20
102.819160
30
0.0
11
29.965400
21
102.684868
31
0.0
0
LINE
8
0
6
CONTINUOUS
10
27.813350
20
102.224051
30
0.0
11
28.662901
21
102.819160
31
0.0
0
LINE
8
0
6
CONTINUOUS
10
27.820100
20
103.026701
30
0.0
11
27.813350
21
102.224051
31
0.0
0
LINE
8
0
6
CONTINUOUS
10
29.965400
20
102.684868
30
0.0
11
30.418349
21
101.955453
31
0.0
0
LINE
8
0
6
CONTINUOUS
10
30.418349
20
101.955453
30
0.0
11
29.965400
21
102.684868
31
0.0
0
LINE
8
0
6
CONTINUOUS
10
29.568778
20
101.360327
30
0.0
11
30.418349
21
101.955453
31
0.0
0
LINE
8
0
6
CONTINUOUS
10
28.266298
20
101.494614
30
0.0
11
29.568778
21
101.360327
31
0.0
0
LINE
8
0
6
CONTINUOUS
10
27.813350
20
102.224051
30
0.0
11
28.266298
21
101.494614
31
0.0
0
LINE
8
0
6
CONTINUOUS
10
28.662901
20
102.819160
30
0.0
11
27.813350
21
102.224051
31
0.0
0
LINE
8
0
6
CONTINUOUS
10
29.965400
20
102.684868
30
0.0
11
28.662901
21
102.819160
31
0.0
0
LINE
8
0
6
CONTINUOUS
10
26.713093
20
98.086180
30
0.0
11
26.260145
21
98.815604
31
0.0
0
LINE
8
0
6
CONTINUOUS
10
25.863522
20
97.491054
30
0.0
11
26.713093
21
98.086180
31
0.0
0
LINE
8
0
6
CONTINUOUS
10
24.561042
20
97.625344
30
0.0
11
25.863522
21
97.491054
31
0.0
0
LINE
8
0
6
CONTINUOUS
10
24.108094
20
98.354781
30
0.0
11
24.561042
21
97.625344
31
0.0
0
LINE
8
0
6
CONTINUOUS
10
24.957645
20
98.949887
30
0.0
11
24.108094
21
98.354781
31
0.0
0
LINE
8
0
6
CONTINUOUS
10
26.260145
20
98.815604
30
0.0
11
24.957645
21
98.949887
31
0.0
0
LINE
8
0
6
CONTINUOUS
10
22.157434
20
94.278618
30
0.0
11
21.629448
21
95.128889
31
0.0
0
LINE
8
0
6
CONTINUOUS
10
21.167110
20
93.584900
30
0.0
11
22.157434
21
94.278618
31
0.0
0
LINE
8
0
6
CONTINUOUS
10
19.648841
20
93.741466
30
0.0
11
21.167110
21
93.584900
31
0.0
0
LINE
8
0
6
CONTINUOUS
10
19.120855
20
94.591713
30
0.0
11
19.648841
21
93.741466
31
0.0
0
LINE
8
0
6
CONTINUOUS
10
20.111148
20
95.285439
30
0.0
11
19.120855
21
94.591713
31
0.0
0
LINE
8
0
6
CONTINUOUS
10
21.629448
20
95.128889
30
0.0
11
20.111148
21
95.285439
31
0.0
0
LINE
8
0
6
CONTINUOUS
10
21.686894
20
104.301617
30
0.0
11
22.139843
21
103.572205
31
0.0
0
LINE
8
0
6
CONTINUOUS
10
22.139843
20
103.572205
30
0.0
11
21.686894
21
104.301617
31
0.0
0
LINE
8
0
6
CONTINUOUS
10
21.290282
20
102.977057
30
0.0
11
22.139843
21
103.572205
31
0.0
0
LINE
8
0
6
CONTINUOUS
10
19.987792
20
103.111371
30
0.0
11
21.290282
21
102.977057
31
0.0
0
LINE
8
0
6
CONTINUOUS
10
19.534844
20
103.840786
30
0.0
11
19.987792
21
103.111371
31
0.0
0
LINE
8
0
6
CONTINUOUS
10
20.384395
20
104.435931
30
0.0
11
19.534844
21
103.840786
31
0.0
0
LINE
8
0
6
CONTINUOUS
10
21.686894
20
104.301617
30
0.0
11
20.384395
21
104.435931
31
0.0
0
LINE
8
0
6
CONTINUOUS
10
17.113512
20
100.321700
30
0.0
11
18.416012
21
100.187428
31
0.0
0
LINE
8
0
6
CONTINUOUS
10
16.263961
20
99.726587
30
0.0
11
17.113512
21
100.321700
31
0.0
0
LINE
8
0
6
CONTINUOUS
10
16.270919
20
100.554208
30
0.0
11
16.263961
21
99.726587
31
0.0
0
LINE
8
0
6
CONTINUOUS
10
18.416012
20
100.187428
30
0.0
11
18.868950
21
99.457993
31
0.0
0
LINE
8
0
6
CONTINUOUS
10
18.868950
20
99.457993
30
0.0
11
18.416012
21
100.187428
31
0.0
0
LINE
8
0
6
CONTINUOUS
10
18.019389
20
98.862877
30
0.0
11
18.868950
21
99.457993
31
0.0
0
LINE
8
0
6
CONTINUOUS
10
16.716909
20
98.997169
30
0.0
11
18.019389
21
98.862877
31
0.0
0
LINE
8
0
6
CONTINUOUS
10
16.263961
20
99.726587
30
0.0
11
16.716909
21
98.997169
31
0.0
0
LINE
8
0
6
CONTINUOUS
10
17.113512
20
100.321700
30
0.0
11
16.263961
21
99.726587
31
0.0
0
LINE
8
0
6
CONTINUOUS
10
18.416012
20
100.187428
30
0.0
11
17.113512
21
100.321700
31
0.0
0
LINE
8
0
6
CONTINUOUS
10
11.834789
20
96.176979
30
0.0
11
13.353078
21
96.020446
31
0.0
0
LINE
8
0
6
CONTINUOUS
10
10.844485
20
95.483247
30
0.0
11
11.834789
21
96.176979
31
0.0
0
LINE
8
0
6
CONTINUOUS
10
10.852849
20
96.334032
30
0.0
11
10.844485
21
95.483247
31
0.0
0
LINE
8
0
6
CONTINUOUS
10
13.353078
20
96.020446
30
0.0
11
13.881064
21
95.170166
31
0.0
0
LINE
8
0
6
CONTINUOUS
10
13.881064
20
95.170166
30
0.0
11
13.353078
21
96.020446
31
0.0
0
LINE
8
0
6
CONTINUOUS
10
12.890741
20
94.476440
30
0.0
11
13.881064
21
95.170166
31
0.0
0
LINE
8
0
6
CONTINUOUS
10
11.372471
20
94.632981
30
0.0
11
12.890741
21
94.476440
31
0.0
0
LINE
8
0
6
CONTINUOUS
10
10.844485
20
95.483247
30
0.0
11
11.372471
21
94.632981
31
0.0
0
LINE
8
0
6
CONTINUOUS
10
11.834789
20
96.176979
30
0.0
11
10.844485
21
95.483247
31
0.0
0
LINE
8
0
6
CONTINUOUS
10
13.353078
20
96.020446
30
0.0
11
11.834789
21
96.176979
31
0.0
0
LINE
8
0
6
CONTINUOUS
10
9.810144
20
91.562957
30
0.0
11
11.377688
21
91.401345
31
0.0
0
LINE
8
0
6
CONTINUOUS
10
8.787731
20
90.846733
30
0.0
11
9.810144
21
91.562957
31
0.0
0
LINE
8
0
6
CONTINUOUS
10
8.796218
20
91.682584
30
0.0
11
8.787731
21
90.846733
31
0.0
0
LINE
8
0
6
CONTINUOUS
10
11.377688
20
91.401345
30
0.0
11
11.922799
21
90.523498
31
0.0
0
LINE
8
0
6
CONTINUOUS
10
11.922799
20
90.523498
30
0.0
11
11.377688
21
91.401345
31
0.0
0
LINE
8
0
6
CONTINUOUS
10
10.900355
20
89.807273
30
0.0
11
11.922799
21
90.523498
31
0.0
0
LINE
8
0
6
CONTINUOUS
10
9.332841
20
89.968916
30
0.0
11
10.900355
21
89.807273
31
0.0
0
LINE
8
0
6
CONTINUOUS
10
8.787731
20
90.846733
30
0.0
11
9.332841
21
89.968916
31
0.0
0
LINE
8
0
6
CONTINUOUS
10
9.810144
20
91.562957
30
0.0
11
8.787731
21
90.846733
31
0.0
0
LINE
8
0
6
CONTINUOUS
10
11.377688
20
91.401345
30
0.0
11
9.810144
21
91.562957
31
0.0
0
LINE
8
0
6
CONTINUOUS
10
1.999060
20
89.835210
30
0.0
11
3.566594
21
89.673605
31
0.0
0
LINE
8
0
6
CONTINUOUS
10
3.566594
20
89.673605
30
0.0
11
4.111705
21
88.795742
31
0.0
0
LINE
8
0
6
CONTINUOUS
10
4.111705
20
88.795742
30
0.0
11
3.566594
21
89.673605
31
0.0
0
LINE
8
0
6
CONTINUOUS
10
3.089272
20
88.079533
30
0.0
11
4.111705
21
88.795742
31
0.0
0
LINE
8
0
6
CONTINUOUS
10
1.521758
20
88.241140
30
0.0
11
3.089272
21
88.079533
31
0.0
0
LINE
8
0
6
CONTINUOUS
10
0.976637
20
89.118996
30
0.0
11
1.521758
21
88.241140
31
0.0
0
LINE
8
0
6
CONTINUOUS
10
1.999060
20
89.835210
30
0.0
11
0.976637
21
89.118996
31
0.0
0
LINE
8
0
6
CONTINUOUS
10
3.566594
20
89.673605
30
0.0
11
1.999060
21
89.835210
31
0.0
0
LINE
8
0
6
CONTINUOUS
10
3.550341
20
95.346993
30
0.0
11
5.068640
21
95.190460
31
0.0
0
LINE
8
0
6
CONTINUOUS
10
2.560047
20
94.653277
30
0.0
11
3.550341
21
95.346993
31
0.0
0
LINE
8
0
6
CONTINUOUS
10
2.568616
20
95.524878
30
0.0
11
2.560047
21
94.653277
31
0.0
0
LINE
8
0
6
CONTINUOUS
10
5.068640
20
95.190460
30
0.0
11
5.596626
21
94.340180
31
0.0
0
LINE
8
0
6
CONTINUOUS
10
5.596626
20
94.340180
30
0.0
11
5.068640
21
95.190460
31
0.0
0
LINE
8
0
6
CONTINUOUS
10
4.606303
20
93.646457
30
0.0
11
5.596626
21
94.340180
31
0.0
0
LINE
8
0
6
CONTINUOUS
10
3.088033
20
93.803004
30
0.0
11
4.606303
21
93.646457
31
0.0
0
LINE
8
0
6
CONTINUOUS
10
2.560047
20
94.653277
30
0.0
11
3.088033
21
93.803004
31
0.0
0
LINE
8
0
6
CONTINUOUS
10
3.550341
20
95.346993
30
0.0
11
2.560047
21
94.653277
31
0.0
0
LINE
8
0
6
CONTINUOUS
10
5.068640
20
95.190460
30
0.0
11
3.550341
21
95.346993
31
0.0
0
LINE
8
0
6
CONTINUOUS
10
-3.791520
20
92.703198
30
0.0
11
-2.273231
21
92.546665
31
0.0
0
LINE
8
0
6
CONTINUOUS
10
-4.781824
20
92.009514
30
0.0
11
-3.791520
21
92.703198
31
0.0
0
LINE
8
0
6
CONTINUOUS
10
-4.772935
20
92.913716
30
0.0
11
-4.781824
21
92.009514
31
0.0
0
LINE
8
0
6
CONTINUOUS
10
-1.745245
20
91.696414
30
0.0
11
-2.273231
21
92.546665
31
0.0
0
LINE
8
0
6
CONTINUOUS
10
-2.735558
20
91.002698
30
0.0
11
-1.745245
21
91.696414
31
0.0
0
LINE
8
0
6
CONTINUOUS
10
-4.253828
20
91.159226
30
0.0
11
-2.735558
21
91.002698
31
0.0
0
LINE
8
0
6
CONTINUOUS
10
-4.781824
20
92.009514
30
0.0
11
-4.253828
21
91.159226
31
0.0
0
LINE
8
0
6
CONTINUOUS
10
-3.791520
20
92.703198
30
0.0
11
-4.781824
21
92.009514
31
0.0
0
LINE
8
0
6
CONTINUOUS
10
-2.273231
20
92.546665
30
0.0
11
-3.791520
21
92.703198
31
0.0
0
LINE
8
0
6
CONTINUOUS
10
9.481769
20
100.324213
30
0.0
11
9.934708
21
99.594777
31
0.0
0
LINE
8
0
6
CONTINUOUS
10
9.934708
20
99.594777
30
0.0
11
9.481769
21
100.324213
31
0.0
0
LINE
8
0
6
CONTINUOUS
10
9.085147
20
98.999651
30
0.0
11
9.934708
21
99.594777
31
0.0
0
LINE
8
0
6
CONTINUOUS
10
7.782657
20
99.133946
30
0.0
11
9.085147
21
98.999651
31
0.0
0
LINE
8
0
6
CONTINUOUS
10
7.329708
20
99.863361
30
0.0
11
7.782657
21
99.133946
31
0.0
0
LINE
8
0
6
CONTINUOUS
10
8.179259
20
100.458508
30
0.0
11
7.329708
21
99.863361
31
0.0
0
LINE
8
0
6
CONTINUOUS
10
9.481769
20
100.324213
30
0.0
11
8.179259
21
100.458508
31
0.0
0
LINE
8
0
6
CONTINUOUS
10
-0.164033
20
99.258408
30
0.0
11
1.138467
21
99.124097
31
0.0
0
LINE
8
0
6
CONTINUOUS
10
-1.013584
20
98.663280
30
0.0
11
-0.164033
21
99.258408
31
0.0
0
LINE
8
0
6
CONTINUOUS
10
-1.006380
20
99.519832
30
0.0
11
-1.013584
21
98.663280
31
0.0
0
LINE
8
0
6
CONTINUOUS
10
1.138467
20
99.124097
30
0.0
11
1.591416
21
98.394679
31
0.0
0
LINE
8
0
6
CONTINUOUS
10
1.591416
20
98.394679
30
0.0
11
1.138467
21
99.124097
31
0.0
0
LINE
8
0
6
CONTINUOUS
10
0.741845
20
97.799554
30
0.0
11
1.591416
21
98.394679
31
0.0
0
LINE
8
0
6
CONTINUOUS
10
-0.560635
20
97.933846
30
0.0
11
0.741845
21
97.799554
31
0.0
0
LINE
8
0
6
CONTINUOUS
10
-1.013584
20
98.663280
30
0.0
11
-0.560635
21
97.933846
31
0.0
0
LINE
8
0
6
CONTINUOUS
10
-0.164033
20
99.258408
30
0.0
11
-1.013584
21
98.663280
31
0.0
0
LINE
8
0
6
CONTINUOUS
10
1.138467
20
99.124097
30
0.0
11
-0.164033
21
99.258408
31
0.0
0
LINE
8
0
6
CONTINUOUS
10
-7.420766
20
96.544481
30
0.0
11
-6.118266
21
96.410211
31
0.0
0
LINE
8
0
6
CONTINUOUS
10
-8.270317
20
95.949372
30
0.0
11
-7.420766
21
96.544481
31
0.0
0
LINE
8
0
6
CONTINUOUS
10
-8.262924
20
96.828342
30
0.0
11
-8.270317
21
95.949372
31
0.0
0
LINE
8
0
6
CONTINUOUS
10
-6.118266
20
96.410211
30
0.0
11
-5.665317
21
95.680774
31
0.0
0
LINE
8
0
6
CONTINUOUS
10
-5.665317
20
95.680774
30
0.0
11
-6.118266
21
96.410211
31
0.0
0
LINE
8
0
6
CONTINUOUS
10
-6.514888
20
95.085648
30
0.0
11
-5.665317
21
95.680774
31
0.0
0
LINE
8
0
6
CONTINUOUS
10
-7.817368
20
95.219957
30
0.0
11
-6.514888
21
95.085648
31
0.0
0
LINE
8
0
6
CONTINUOUS
10
-8.270317
20
95.949372
30
0.0
11
-7.817368
21
95.219957
31
0.0
0
LINE
8
0
6
CONTINUOUS
10
-7.420766
20
96.544481
30
0.0
11
-8.270317
21
95.949372
31
0.0
0
LINE
8
0
6
CONTINUOUS
10
-6.118266
20
96.410211
30
0.0
11
-7.420766
21
96.544481
31
0.0
0
LINE
8
0
6
CONTINUOUS
10
-4.950413
20
102.650280
30
0.0
11
-3.627958
21
102.645473
31
0.0
0
LINE
8
0
6
CONTINUOUS
10
-5.618917
20
101.980283
30
0.0
11
-4.950413
21
102.650280
31
0.0
0
LINE
8
0
6
CONTINUOUS
10
-5.611762
20
102.858668
30
0.0
11
-5.618917
21
101.980283
31
0.0
0
LINE
8
0
6
CONTINUOUS
10
-3.627958
20
102.645473
30
0.0
11
-2.974018
21
101.970664
31
0.0
0
LINE
8
0
6
CONTINUOUS
10
-2.974018
20
101.970664
30
0.0
11
-3.627958
21
102.645473
31
0.0
0
LINE
8
0
6
CONTINUOUS
10
-3.642543
20
101.300691
30
0.0
11
-2.974018
21
101.970664
31
0.0
0
LINE
8
0
6
CONTINUOUS
10
-4.964977
20
101.305494
30
0.0
11
-3.642543
21
101.300691
31
0.0
0
LINE
8
0
6
CONTINUOUS
10
-5.618917
20
101.980283
30
0.0
11
-4.964977
21
101.305494
31
0.0
0
LINE
8
0
6
CONTINUOUS
10
-4.950413
20
102.650280
30
0.0
11
-5.618917
21
101.980283
31
0.0
0
LINE
8
0
6
CONTINUOUS
10
-3.627958
20
102.645473
30
0.0
11
-4.950413
21
102.650280
31
0.0
0
LINE
8
0
6
CONTINUOUS
10
3.204105
20
104.397855
30
0.0
11
4.526549
21
104.393048
31
0.0
0
LINE
8
0
6
CONTINUOUS
10
4.526549
20
104.393048
30
0.0
11
5.180489
21
103.718256
31
0.0
0
LINE
8
0
6
CONTINUOUS
10
5.180489
20
103.718256
30
0.0
11
4.526549
21
104.393048
31
0.0
0
LINE
8
0
6
CONTINUOUS
10
4.511975
20
103.048271
30
0.0
11
5.180489
21
103.718256
31
0.0
0
LINE
8
0
6
CONTINUOUS
10
3.189540
20
103.053063
30
0.0
11
4.511975
21
103.048271
31
0.0
0
LINE
8
0
6
CONTINUOUS
10
2.535600
20
103.727865
30
0.0
11
3.189540
21
103.053063
31
0.0
0
LINE
8
0
6
CONTINUOUS
10
3.204105
20
104.397855
30
0.0
11
2.535600
21
103.727865
31
0.0
0
LINE
8
0
6
CONTINUOUS
10
4.526549
20
104.393048
30
0.0
11
3.204105
21
104.397855
31
0.0
0
LINE
8
0
6
CONTINUOUS
10
11.011390
20
104.387165
30
0.0
11
11.679894
21
105.057164
31
0.0
0
LINE
8
0
6
CONTINUOUS
10
11.018195
20
105.222650
30
0.0
11
11.011390
21
104.387165
31
0.0
0
LINE
8
0
6
CONTINUOUS
10
13.656279
20
104.377568
30
0.0
11
13.002339
21
105.052357
31
0.0
0
LINE
8
0
6
CONTINUOUS
10
12.987764
20
103.707554
30
0.0
11
13.656279
21
104.377568
31
0.0
0
LINE
8
0
6
CONTINUOUS
10
11.665330
20
103.712380
30
0.0
11
12.987764
21
103.707554
31
0.0
0
LINE
8
0
6
CONTINUOUS
10
11.011390
20
104.387165
30
0.0
11
11.665330
21
103.712380
31
0.0
0
LINE
8
0
6
CONTINUOUS
10
11.679894
20
105.057164
30
0.0
11
11.011390
21
104.387165
31
0.0
0
LINE
8
0
6
CONTINUOUS
10
13.002339
20
105.052357
30
0.0
11
11.679894
21
105.057164
31
0.0
0
LINE
8
0
6
CONTINUOUS
10
-3.872765
20
84.700077
30
0.0
11
-3.855846
21
85.634439
31
0.0
0
LINE
8
0
6
CONTINUOUS
10
-3.855846
20
85.634439
30
0.0
11
-2.469094
21
86.093139
31
0.0
0
LINE
8
0
6
CONTINUOUS
10
-1.099240
20
85.617499
30
0.0
11
-1.101660
21
86.411412
31
0.0
0
LINE
8
0
6
CONTINUOUS
10
-2.469094
20
86.093139
30
0.0
11
-1.099240
21
85.617499
31
0.0
0
LINE
8
0
6
CONTINUOUS
10
-3.855846
20
85.634439
30
0.0
11
-3.872765
21
84.700077
31
0.0
0
LINE
8
0
6
CONTINUOUS
10
-2.469094
20
86.093139
30
0.0
11
-3.855846
21
85.634439
31
0.0
0
LINE
8
0
6
CONTINUOUS
10
-1.099240
20
85.617499
30
0.0
11
-2.469094
21
86.093139
31
0.0
0
LINE
8
0
6
CONTINUOUS
10
-1.116140
20
84.683187
30
0.0
11
-1.099240
21
85.617499
31
0.0
0
LINE
8
0
6
CONTINUOUS
10
-2.502912
20
84.224480
30
0.0
11
-1.116140
21
84.683187
31
0.0
0
LINE
8
0
6
CONTINUOUS
10
-3.872765
20
84.700077
30
0.0
11
-2.502912
21
84.224480
31
0.0
0
LINE
8
0
6
CONTINUOUS
10
-27.812103
20
95.672735
30
0.0
11
-31.110759
21
90.164920
31
0.0
0
LINE
8
0
6
CONTINUOUS
10
-6.934366
20
107.806756
30
0.0
11
-15.380266
21
104.699243
31
0.0
0
LINE
8
0
6
CONTINUOUS
10
2.478014
20
109.731951
30
0.0
11
-6.934366
21
107.806756
31
0.0
0
LINE
8
0
6
CONTINUOUS
10
12.383799
20
110.461872
30
0.0
11
2.478014
21
109.731951
31
0.0
0
LINE
8
0
6
CONTINUOUS
10
22.285993
20
109.716659
30
0.0
11
12.383799
21
110.461872
31
0.0
0
LINE
8
0
6
CONTINUOUS
10
31.744342
20
107.935343
30
0.0
11
22.285993
21
109.716659
31
0.0
0
LINE
8
0
6
CONTINUOUS
10
52.444581
20
95.554970
30
0.0
11
47.155291
21
100.513552
31
0.0
0
LINE
8
0
6
CONTINUOUS
10
55.722094
20
90.029653
30
0.0
11
52.444581
21
95.554970
31
0.0
0
LINE
8
0
6
CONTINUOUS
10
56.823004
20
84.214501
30
0.0
11
55.722094
21
90.029653
31
0.0
0
LINE
8
0
6
CONTINUOUS
10
40.055417
20
63.814806
30
0.0
11
47.172055
21
67.972756
31
0.0
0
LINE
8
0
6
CONTINUOUS
10
31.598822
20
60.702300
30
0.0
11
40.055417
21
63.814806
31
0.0
0
LINE
8
0
6
CONTINUOUS
10
22.183140
20
58.781754
30
0.0
11
31.598822
21
60.702300
31
0.0
0
LINE
8
0
6
CONTINUOUS
10
12.249109
20
58.125599
30
0.0
11
22.183140
21
58.781754
31
0.0
0
LINE
8
0
6
CONTINUOUS
10
2.338678
20
58.788606
30
0.0
11
12.249109
21
58.125599
31
0.0
0
LINE
8
0
6
CONTINUOUS
10
-7.079549
20
60.730443
30
0.0
11
2.338678
21
58.788606
31
0.0
0
LINE
8
0
6
CONTINUOUS
10
47.155291
20
100.513552
30
0.0
11
40.118266
21
104.656208
31
0.0
0
LINE
8
0
6
CONTINUOUS
10
-31.122419
20
90.145451
30
0.0
11
-32.190069
21
84.283523
31
0.0
0
LINE
8
0
6
CONTINUOUS
10
-22.489708
20
100.629049
30
0.0
11
-27.812103
21
95.672735
31
0.0
0
LINE
8
0
6
CONTINUOUS
10
-15.380266
20
104.699243
30
0.0
11
-22.489708
21
100.629049
31
0.0
0
LINE
8
0
6
CONTINUOUS
10
55.818471
20
78.473749
30
0.0
11
56.823004
21
84.214501
31
0.0
0
LINE
8
0
6
CONTINUOUS
10
52.502802
20
72.937405
30
0.0
11
55.818471
21
78.473749
31
0.0
0
LINE
8
0
6
CONTINUOUS
10
47.172055
20
67.972756
30
0.0
11
52.502802
21
72.937405
31
0.0
0
LINE
8
0
6
CONTINUOUS
10
-15.523100
20
63.855472
30
0.0
11
-7.079549
21
60.730443
31
0.0
0
LINE
8
0
6
CONTINUOUS
10
-22.623360
20
68.026898
30
0.0
11
-15.523100
21
63.855472
31
0.0
0
LINE
8
0
6
CONTINUOUS
10
-27.869076
20
72.968806
30
0.0
11
-22.623360
21
68.026898
31
0.0
0
LINE
8
0
6
CONTINUOUS
10
-31.151706
20
78.501538
30
0.0
11
-27.869076
21
72.968806
31
0.0
0
LINE
8
0
6
CONTINUOUS
10
-32.190069
20
84.283523
30
0.0
11
-31.151706
21
78.501538
31
0.0
0
LINE
8
0
6
CONTINUOUS
10
40.118266
20
104.656208
30
0.0
11
31.744342
21
107.935343
31
0.0
0
LINE
8
0
6
CONTINUOUS
10
-0.797656
20
59.435251
30
0.0
11
-0.782351
21
56.084672
31
0.0
0
LINE
8
0
6
CONTINUOUS
10
-2.373114
20
53.575530
30
0.0
11
-2.373825
21
53.252527
31
0.0
0
LINE
8
0
6
CONTINUOUS
10
-2.569911
20
-36.134654
30
0.0
11
-2.571287
21
-36.761144
31
0.0
0
LINE
8
0
6
CONTINUOUS
10
-2.571287
20
-36.761144
30
0.0
11
-2.035358
21
-38.365331
31
0.0
0
LINE
8
0
6
CONTINUOUS
10
-2.035358
20
-38.365331
30
0.0
11
0.447296
21
-39.460616
31
0.0
0
LINE
8
0
6
CONTINUOUS
10
0.946835
20
-39.572180
30
0.0
11
4.133024
21
-40.283790
31
0.0
0
LINE
8
0
6
CONTINUOUS
10
8.027023
20
-40.814941
30
0.0
11
12.066449
21
-40.970434
31
0.0
0
LINE
8
0
6
CONTINUOUS
10
4.133024
20
-40.283790
30
0.0
11
8.027023
21
-40.814941
31
0.0
0
LINE
8
0
6
CONTINUOUS
10
-2.370886
20
54.590406
30
0.0
11
-2.373114
21
53.575530
31
0.0
0
LINE
8
0
6
CONTINUOUS
10
-0.782351
20
56.084672
30
0.0
11
-0.780740
21
55.732508
31
0.0
0
LINE
8
0
6
CONTINUOUS
10
-2.340768
20
55.179666
30
0.0
11
-2.370886
21
54.590406
31
0.0
0
LINE
8
0
6
CONTINUOUS
10
-2.109425
20
59.705709
30
0.0
11
-2.340768
21
55.179666
31
0.0
0
LINE
8
0
6
CONTINUOUS
10
0.447296
20
-39.460616
30
0.0
11
0.946835
21
-39.572180
31
0.0
0
LINE
8
0
6
CONTINUOUS
10
-2.373825
20
53.252527
30
0.0
11
-2.569911
21
-36.134654
31
0.0
0
LINE
8
0
6
CONTINUOUS
10
25.220834
20
56.064516
30
0.0
11
25.248670
21
59.407040
31
0.0
0
LINE
8
0
6
CONTINUOUS
10
26.804042
20
53.229896
30
0.0
11
26.804453
21
53.552918
31
0.0
0
LINE
8
0
6
CONTINUOUS
10
26.160029
20
-38.387185
30
0.0
11
26.690950
21
-36.783838
31
0.0
0
LINE
8
0
6
CONTINUOUS
10
26.690950
20
-36.783838
30
0.0
11
26.691736
21
-36.157348
31
0.0
0
LINE
8
0
6
CONTINUOUS
10
23.680808
20
-39.478635
30
0.0
11
26.160029
21
-38.387185
31
0.0
0
LINE
8
0
6
CONTINUOUS
10
19.997679
20
-40.296093
30
0.0
11
23.181626
21
-39.589418
31
0.0
0
LINE
8
0
6
CONTINUOUS
10
12.066449
20
-40.970434
30
0.0
11
16.105371
21
-40.821208
31
0.0
0
LINE
8
0
6
CONTINUOUS
10
16.105371
20
-40.821208
30
0.0
11
19.997679
21
-40.296093
31
0.0
0
LINE
8
0
6
CONTINUOUS
10
26.804453
20
53.552918
30
0.0
11
26.805731
21
54.567775
31
0.0
0
LINE
8
0
6
CONTINUOUS
10
25.217904
20
55.712340
30
0.0
11
25.220834
21
56.064516
31
0.0
0
LINE
8
0
6
CONTINUOUS
10
26.805731
20
54.567775
30
0.0
11
26.775409
21
55.157110
31
0.0
0
LINE
8
0
6
CONTINUOUS
10
26.775409
20
55.157110
30
0.0
11
26.543162
21
59.671081
31
0.0
0
LINE
8
0
6
CONTINUOUS
10
23.181626
20
-39.589418
30
0.0
11
23.680808
21
-39.478635
31
0.0
0
LINE
8
0
6
CONTINUOUS
10
26.691736
20
-36.157348
30
0.0
11
26.804042
21
53.229896
31
0.0
0
LINE
8
0
6
CONTINUOUS
10
62.334145
20
91.920630
30
0.0
11
62.078071
21
97.435903
31
0.0
0
LINE
8
0
6
CONTINUOUS
10
-37.003252
20
100.169367
30
0.0
11
-37.449782
21
97.513051
31
0.0
0
LINE
8
0
6
CONTINUOUS
10
-35.750188
20
106.611067
30
0.0
11
-37.003252
21
100.169367
31
0.0
0
LINE
8
0
6
CONTINUOUS
10
-34.322401
20
111.690634
30
0.0
11
-35.134923
21
109.179885
31
0.0
0
LINE
8
0
6
CONTINUOUS
10
-16.804854
20
128.908016
30
0.0
11
-16.862603
21
128.882290
31
0.0
0
LINE
8
0
6
CONTINUOUS
10
-7.924925
20
132.173731
30
0.0
11
-16.804854
21
128.908016
31
0.0
0
LINE
8
0
6
CONTINUOUS
10
-7.630934
20
132.275084
30
0.0
11
-7.924925
21
132.173731
31
0.0
0
LINE
8
0
6
CONTINUOUS
10
2.120005
20
134.269618
30
0.0
11
-7.630934
21
132.275084
31
0.0
0
LINE
8
0
6
CONTINUOUS
10
2.193792
20
134.280962
30
0.0
11
2.120005
21
134.269618
31
0.0
0
LINE
8
0
6
CONTINUOUS
10
12.381522
20
134.946832
30
0.0
11
2.193792
21
134.280962
31
0.0
0
LINE
8
0
6
CONTINUOUS
10
22.565731
20
134.265167
30
0.0
11
12.381522
21
134.946832
31
0.0
0
LINE
8
0
6
CONTINUOUS
10
22.640564
20
134.253725
30
0.0
11
22.565731
21
134.265167
31
0.0
0
LINE
8
0
6
CONTINUOUS
10
32.381203
20
132.244075
30
0.0
11
22.640564
21
134.253725
31
0.0
0
LINE
8
0
6
CONTINUOUS
10
32.677203
20
132.142256
30
0.0
11
32.381203
21
132.244075
31
0.0
0
LINE
8
0
6
CONTINUOUS
10
41.540291
20
128.862794
30
0.0
11
32.677203
21
132.142256
31
0.0
0
LINE
8
0
6
CONTINUOUS
10
59.794146
20
109.106283
30
0.0
11
58.980187
21
111.618306
31
0.0
0
LINE
8
0
6
CONTINUOUS
10
61.630641
20
100.092882
30
0.0
11
60.410742
21
106.536520
31
0.0
0
LINE
8
0
6
CONTINUOUS
10
62.078071
20
97.435903
30
0.0
11
61.630641
21
100.092882
31
0.0
0
LINE
8
0
6
CONTINUOUS
10
-37.449782
20
97.513051
30
0.0
11
-37.703968
21
91.998192
31
0.0
0
LINE
8
0
6
CONTINUOUS
10
-35.134923
20
109.179885
30
0.0
11
-35.750188
21
106.611067
31
0.0
0
LINE
8
0
6
CONTINUOUS
10
60.410742
20
106.536520
30
0.0
11
59.794146
21
109.106283
31
0.0
0
LINE
8
0
6
CONTINUOUS
10
-37.703968
20
91.998192
30
0.0
11
-37.703937
21
91.800130
31
0.0
0
LINE
8
0
6
CONTINUOUS
10
62.334177
20
91.722559
30
0.0
11
62.334145
21
91.920630
31
0.0
0
LINE
8
0
6
CONTINUOUS
10
-37.703892
20
91.521182
30
0.0
11
-37.703754
21
90.721943
31
0.0
0
LINE
8
0
6
CONTINUOUS
10
62.334369
20
90.644379
30
0.0
11
62.334231
21
91.443620
31
0.0
0
LINE
8
0
6
CONTINUOUS
10
31.829491
20
60.787199
30
0.0
11
32.701004
21
60.965464
31
0.0
0
LINE
8
0
6
CONTINUOUS
10
-28.497598
20
73.271871
30
0.0
11
-31.831035
21
78.891573
31
0.0
0
LINE
8
0
6
CONTINUOUS
10
32.701004
20
60.965464
30
0.0
11
41.645692
21
64.254995
31
0.0
0
LINE
8
0
6
CONTINUOUS
10
40.486368
20
63.971417
30
0.0
11
31.895305
21
60.811941
31
0.0
0
LINE
8
0
6
CONTINUOUS
10
56.928299
20
76.363177
30
0.0
11
60.608985
21
82.509202
31
0.0
0
LINE
8
0
6
CONTINUOUS
10
55.939495
20
74.801407
30
0.0
11
56.928299
21
76.363177
31
0.0
0
LINE
8
0
6
CONTINUOUS
10
50.152955
20
69.412243
30
0.0
11
55.939495
21
74.801407
31
0.0
0
LINE
8
0
6
CONTINUOUS
10
49.119663
20
68.630425
30
0.0
11
50.152955
21
69.412243
31
0.0
0
LINE
8
0
6
CONTINUOUS
10
-31.371277
20
74.869143
30
0.0
11
-25.612506
21
69.471052
31
0.0
0
LINE
8
0
6
CONTINUOUS
10
-25.612506
20
69.471052
30
0.0
11
-24.576286
21
68.687613
31
0.0
0
LINE
8
0
6
CONTINUOUS
10
-36.011145
20
82.584145
30
0.0
11
-32.362135
21
76.432469
31
0.0
0
LINE
8
0
6
CONTINUOUS
10
-32.362135
20
76.432469
30
0.0
11
-31.371277
21
74.869143
31
0.0
0
LINE
8
0
6
CONTINUOUS
10
60.608985
20
82.509202
30
0.0
11
61.063447
21
84.110899
31
0.0
0
LINE
8
0
6
CONTINUOUS
10
61.063447
20
84.110899
30
0.0
11
62.334369
21
90.644379
31
0.0
0
LINE
8
0
6
CONTINUOUS
10
51.468742
20
109.862143
30
0.0
11
43.560610
21
114.518050
31
0.0
0
LINE
8
0
6
CONTINUOUS
10
-26.744212
20
109.922791
30
0.0
11
-32.717667
21
104.359558
31
0.0
0
LINE
8
0
6
CONTINUOUS
10
12.390745
20
120.948827
30
0.0
11
1.258539
21
120.221219
31
0.0
0
LINE
8
0
6
CONTINUOUS
10
1.258539
20
120.221219
30
0.0
11
-9.319220
21
118.057578
31
0.0
0
LINE
8
0
6
CONTINUOUS
10
43.560610
20
114.518050
30
0.0
11
34.085681
21
118.023917
31
0.0
0
LINE
8
0
6
CONTINUOUS
10
62.334210
20
91.544688
30
0.0
11
61.096939
21
98.080041
31
0.0
0
LINE
8
0
6
CONTINUOUS
10
62.334231
20
91.443620
30
0.0
11
62.334210
21
91.544688
31
0.0
0
LINE
8
0
6
CONTINUOUS
10
-32.717667
20
104.359558
30
0.0
11
-36.433002
21
98.155663
31
0.0
0
LINE
8
0
6
CONTINUOUS
10
-36.433002
20
98.155663
30
0.0
11
-37.703904
21
91.622247
31
0.0
0
LINE
8
0
6
CONTINUOUS
10
-37.703904
20
91.622247
30
0.0
11
-37.703892
21
91.521182
31
0.0
0
LINE
8
0
6
CONTINUOUS
10
-9.319220
20
118.057578
30
0.0
11
-18.812148
21
114.566423
31
0.0
0
LINE
8
0
6
CONTINUOUS
10
34.085681
20
118.023917
30
0.0
11
23.519110
21
120.203976
31
0.0
0
LINE
8
0
6
CONTINUOUS
10
61.096939
20
98.080041
30
0.0
11
57.413557
21
104.289681
31
0.0
0
LINE
8
0
6
CONTINUOUS
10
-18.812148
20
114.566423
30
0.0
11
-26.744212
21
109.922791
31
0.0
0
LINE
8
0
6
CONTINUOUS
10
23.519110
20
120.203976
30
0.0
11
12.390745
21
120.948827
31
0.0
0
LINE
8
0
6
CONTINUOUS
10
57.413557
20
104.289681
30
0.0
11
51.468742
21
109.862143
31
0.0
0
LINE
8
0
6
CONTINUOUS
10
62.317128
20
91.634915
30
0.0
11
62.334177
21
91.722559
31
0.0
0
LINE
8
0
6
CONTINUOUS
10
-37.703937
20
91.800130
30
0.0
11
-37.686854
21
91.709896
31
0.0
0
LINE
8
0
6
CONTINUOUS
10
-29.896021
20
119.315554
30
0.0
11
-30.332096
21
118.623297
31
0.0
0
LINE
8
0
6
CONTINUOUS
10
-24.297206
20
124.529879
30
0.0
11
-29.896021
21
119.315554
31
0.0
0
LINE
8
0
6
CONTINUOUS
10
-16.862603
20
128.882290
30
0.0
11
-24.297206
21
124.529879
31
0.0
0
LINE
8
0
6
CONTINUOUS
10
49.010443
20
124.473065
30
0.0
11
41.598281
21
128.836949
31
0.0
0
LINE
8
0
6
CONTINUOUS
10
54.582418
20
119.250072
30
0.0
11
49.010443
21
124.473065
31
0.0
0
LINE
8
0
6
CONTINUOUS
10
55.019403
20
118.557117
30
0.0
11
54.582418
21
119.250072
31
0.0
0
LINE
8
0
6
CONTINUOUS
10
58.507462
20
112.676787
30
0.0
11
55.019403
21
118.557117
31
0.0
0
LINE
8
0
6
CONTINUOUS
10
58.980187
20
111.618306
30
0.0
11
58.507462
21
112.676787
31
0.0
0
LINE
8
0
6
CONTINUOUS
10
-33.850394
20
112.748407
30
0.0
11
-34.322401
21
111.690634
31
0.0
0
LINE
8
0
6
CONTINUOUS
10
-30.332096
20
118.623297
30
0.0
11
-33.850394
21
112.748407
31
0.0
0
LINE
8
0
6
CONTINUOUS
10
-17.124863
20
64.300594
30
0.0
11
-8.197164
21
60.997187
31
0.0
0
LINE
8
0
6
CONTINUOUS
10
-23.032266
20
101.367961
30
0.0
11
-15.853770
21
105.570414
31
0.0
0
LINE
8
0
6
CONTINUOUS
10
56.433208
20
78.823075
30
0.0
11
53.070839
21
73.208594
31
0.0
0
LINE
8
0
6
CONTINUOUS
10
47.750161
20
101.313080
30
0.0
11
53.130196
21
96.270005
31
0.0
0
LINE
8
0
6
CONTINUOUS
10
12.384722
20
111.346489
30
0.0
11
22.455853
21
110.672369
31
0.0
0
LINE
8
0
6
CONTINUOUS
10
-24.576286
20
68.687613
30
0.0
11
-17.124863
21
64.300594
31
0.0
0
LINE
8
0
6
CONTINUOUS
10
-15.960755
20
64.015222
30
0.0
11
-23.117573
21
68.228801
31
0.0
0
LINE
8
0
6
CONTINUOUS
10
53.070839
20
73.208594
30
0.0
11
47.664863
21
68.173890
31
0.0
0
LINE
8
0
6
CONTINUOUS
10
22.455853
20
110.672369
30
0.0
11
32.018560
21
108.699464
31
0.0
0
LINE
8
0
6
CONTINUOUS
10
-15.853770
20
105.570414
30
0.0
11
-7.262717
21
108.729907
31
0.0
0
LINE
8
0
6
CONTINUOUS
10
-32.950743
20
84.806038
30
0.0
11
-31.800580
21
90.718754
31
0.0
0
LINE
8
0
6
CONTINUOUS
10
53.130196
20
96.270005
30
0.0
11
56.463643
21
90.650342
31
0.0
0
LINE
8
0
6
CONTINUOUS
10
-23.117573
20
68.228801
30
0.0
11
-28.497598
21
73.271871
31
0.0
0
LINE
8
0
6
CONTINUOUS
10
41.645692
20
64.254995
30
0.0
11
49.119663
21
68.630425
31
0.0
0
LINE
8
0
6
CONTINUOUS
10
47.664863
20
68.173890
30
0.0
11
40.486368
21
63.971417
31
0.0
0
LINE
8
0
6
CONTINUOUS
10
56.463643
20
90.650342
30
0.0
11
57.583371
21
84.735848
31
0.0
0
LINE
8
0
6
CONTINUOUS
10
32.018560
20
108.699464
30
0.0
11
40.593333
21
105.526657
31
0.0
0
LINE
8
0
6
CONTINUOUS
10
-7.262717
20
108.729907
30
0.0
11
2.310115
21
110.687997
31
0.0
0
LINE
8
0
6
CONTINUOUS
10
-31.800580
20
90.718754
30
0.0
11
-28.438211
21
96.333254
31
0.0
0
LINE
8
0
6
CONTINUOUS
10
-8.197164
20
60.997187
30
0.0
11
-7.300343
21
60.812160
31
0.0
0
LINE
8
0
6
CONTINUOUS
10
57.583371
20
84.735848
30
0.0
11
56.433208
21
78.823075
31
0.0
0
LINE
8
0
6
CONTINUOUS
10
40.593333
20
105.526657
30
0.0
11
47.750161
21
101.313080
31
0.0
0
LINE
8
0
6
CONTINUOUS
10
2.310115
20
110.687997
30
0.0
11
12.384722
21
111.346489
31
0.0
0
LINE
8
0
6
CONTINUOUS
10
-28.438211
20
96.333254
30
0.0
11
-23.032266
21
101.367961
31
0.0
0
LINE
8
0
6
CONTINUOUS
10
-31.831035
20
78.891573
30
0.0
11
-32.950743
21
84.806038
31
0.0
0
LINE
8
0
6
CONTINUOUS
10
-36.466504
20
84.186566
30
0.0
11
-36.011145
21
82.584145
31
0.0
0
LINE
8
0
6
CONTINUOUS
10
-37.703754
20
90.721943
30
0.0
11
-36.466504
21
84.186566
31
0.0
0
LINE
8
0
6
CONTINUOUS
10
-15.380305
20
104.699242
30
0.0
11
-6.934406
21
107.806755
31
0.0
0
LINE
8
0
6
CONTINUOUS
10
-6.934406
20
107.806755
30
0.0
11
2.477975
21
109.731950
31
0.0
0
LINE
8
0
6
CONTINUOUS
10
2.477975
20
109.731950
30
0.0
11
12.383760
21
110.461871
31
0.0
0
LINE
8
0
6
CONTINUOUS
10
12.383760
20
110.461871
30
0.0
11
22.285953
21
109.716658
31
0.0
0
LINE
8
0
6
CONTINUOUS
10
22.285953
20
109.716658
30
0.0
11
31.744302
21
107.935341
31
0.0
0
LINE
8
0
6
CONTINUOUS
10
47.155251
20
100.513550
30
0.0
11
52.444541
21
95.554969
31
0.0
0
LINE
8
0
6
CONTINUOUS
10
52.444541
20
95.554969
30
0.0
11
55.722054
21
90.029651
31
0.0
0
LINE
8
0
6
CONTINUOUS
10
55.722054
20
90.029651
30
0.0
11
56.822965
21
84.214499
31
0.0
0
LINE
8
0
6
CONTINUOUS
10
-31.151746
20
78.501537
30
0.0
11
-32.190108
21
84.283522
31
0.0
0
LINE
8
0
6
CONTINUOUS
10
-31.336011
20
79.365216
30
0.0
11
-31.151746
21
78.501537
31
0.0
0
LINE
8
0
6
CONTINUOUS
10
-32.190108
20
84.283522
30
0.0
11
-31.122459
21
90.145449
31
0.0
0
LINE
8
0
6
CONTINUOUS
10
-23.032266
20
101.367961
30
0.0
11
-28.438211
21
96.333254
31
0.0
0
LINE
8
0
6
CONTINUOUS
10
47.750161
20
101.313080
30
0.0
11
40.593333
21
105.526657
31
0.0
0
LINE
8
0
6
CONTINUOUS
10
53.130196
20
96.270005
30
0.0
11
47.750161
21
101.313080
31
0.0
0
LINE
8
0
6
CONTINUOUS
10
47.664863
20
68.173890
30
0.0
11
53.070839
21
73.208594
31
0.0
0
LINE
8
0
6
CONTINUOUS
10
-23.117573
20
68.228801
30
0.0
11
-15.960755
21
64.015222
31
0.0
0
LINE
8
0
6
CONTINUOUS
10
-27.812142
20
95.672733
30
0.0
11
-22.489748
21
100.629048
31
0.0
0
LINE
8
0
6
CONTINUOUS
10
-22.489748
20
100.629048
30
0.0
11
-15.380305
21
104.699242
31
0.0
0
LINE
8
0
6
CONTINUOUS
10
31.744302
20
107.935341
30
0.0
11
40.118227
21
104.656207
31
0.0
0
LINE
8
0
6
CONTINUOUS
10
40.118227
20
104.656207
30
0.0
11
47.155251
21
100.513550
31
0.0
0
LINE
8
0
6
CONTINUOUS
10
-28.438211
20
96.333254
30
0.0
11
-31.800580
21
90.718754
31
0.0
0
LINE
8
0
6
CONTINUOUS
10
-15.853770
20
105.570414
30
0.0
11
-23.032266
21
101.367961
31
0.0
0
LINE
8
0
6
CONTINUOUS
10
56.463643
20
90.650342
30
0.0
11
53.130196
21
96.270005
31
0.0
0
LINE
8
0
6
CONTINUOUS
10
57.583371
20
84.735848
30
0.0
11
56.463643
21
90.650342
31
0.0
0
LINE
8
0
6
CONTINUOUS
10
56.433208
20
78.823075
30
0.0
11
57.583371
21
84.735848
31
0.0
0
LINE
8
0
6
CONTINUOUS
10
53.070839
20
73.208594
30
0.0
11
56.433208
21
78.823075
31
0.0
0
LINE
8
0
6
CONTINUOUS
10
40.486368
20
63.971417
30
0.0
11
47.664863
21
68.173890
31
0.0
0
LINE
8
0
6
CONTINUOUS
10
31.895305
20
60.811941
30
0.0
11
40.486368
21
63.971417
31
0.0
0
LINE
8
0
6
CONTINUOUS
10
-28.497598
20
73.271871
30
0.0
11
-23.117573
21
68.228801
31
0.0
0
LINE
8
0
6
CONTINUOUS
10
-31.831035
20
78.891573
30
0.0
11
-28.497598
21
73.271871
31
0.0
0
LINE
8
0
6
CONTINUOUS
10
-32.950743
20
84.806038
30
0.0
11
-31.831035
21
78.891573
31
0.0
0
LINE
8
0
6
CONTINUOUS
10
-31.800580
20
90.718754
30
0.0
11
-32.950743
21
84.806038
31
0.0
0
LINE
8
0
6
CONTINUOUS
10
-31.122459
20
90.145449
30
0.0
11
-27.812142
21
95.672733
31
0.0
0
LINE
8
0
6
CONTINUOUS
10
19.399711
20
-76.335980
30
0.0
11
19.399710
21
-74.866670
31
0.0
0
LINE
8
0
6
CONTINUOUS
10
3.399701
20
-76.335980
30
0.0
11
3.399701
21
-74.866670
31
0.0
0
LINE
8
0
6
CONTINUOUS
10
19.399711
20
-94.943570
30
0.0
11
19.399711
21
-76.335980
31
0.0
0
LINE
8
0
6
CONTINUOUS
10
3.399701
20
-94.943570
30
0.0
11
3.399701
21
-76.335980
31
0.0
0
LINE
8
0
6
CONTINUOUS
10
19.399701
20
-112.268480
30
0.0
11
19.399711
21
-94.943570
31
0.0
0
LINE
8
0
6
CONTINUOUS
10
3.399701
20
-112.268480
30
0.0
11
3.399701
21
-94.943570
31
0.0
0
LINE
8
0
6
CONTINUOUS
10
19.399711
20
-128.728100
30
0.0
11
19.399701
21
-112.268480
31
0.0
0
LINE
8
0
6
CONTINUOUS
10
3.399701
20
-128.728100
30
0.0
11
3.399701
21
-112.268480
31
0.0
0
LINE
8
0
6
CONTINUOUS
10
19.399711
20
-144.739790
30
0.0
11
19.399711
21
-128.728100
31
0.0
0
LINE
8
0
6
CONTINUOUS
10
3.399701
20
-144.739790
30
0.0
11
3.399701
21
-128.728100
31
0.0
0
LINE
8
0
6
CONTINUOUS
10
19.399711
20
-160.720970
30
0.0
11
19.399711
21
-144.739790
31
0.0
0
LINE
8
0
6
CONTINUOUS
10
3.399701
20
-160.720990
30
0.0
11
3.399701
21
-144.739790
31
0.0
0
LINE
8
0
6
CONTINUOUS
10
19.399701
20
-177.089000
30
0.0
11
19.399711
21
-160.720970
31
0.0
0
LINE
8
0
6
CONTINUOUS
10
3.399701
20
-177.089020
30
0.0
11
3.399701
21
-160.720990
31
0.0
0
LINE
8
0
6
CONTINUOUS
10
19.399701
20
-194.261260
30
0.0
11
19.399701
21
-177.089000
31
0.0
0
LINE
8
0
6
CONTINUOUS
10
3.399711
20
-194.261280
30
0.0
11
3.399701
21
-177.089020
31
0.0
0
LINE
8
0
6
CONTINUOUS
10
19.399711
20
-212.655160
30
0.0
11
19.399701
21
-194.261260
31
0.0
0
LINE
8
0
6
CONTINUOUS
10
3.399701
20
-212.655140
30
0.0
11
3.399711
21
-194.261280
31
0.0
0
LINE
8
0
6
CONTINUOUS
10
4.471492
20
-464.558450
30
0.0
11
7.399702
21
-467.476890
31
0.0
0
LINE
8
0
6
CONTINUOUS
10
19.399702
20
-479.500000
30
0.0
11
18.327902
21
-478.441540
31
0.0
0
LINE
8
0
6
CONTINUOUS
10
7.399702
20
-467.476890
30
0.0
11
11.399712
21
-471.473310
31
0.0
0
LINE
8
0
6
CONTINUOUS
10
15.399712
20
-475.476910
30
0.0
11
18.327912
21
-478.414870
31
0.0
0
LINE
8
0
6
CONTINUOUS
10
11.399692
20
-471.526680
30
0.0
11
7.399682
21
-467.523120
31
0.0
0
LINE
8
0
6
CONTINUOUS
10
18.327902
20
-478.441540
30
0.0
11
15.399702
21
-475.523100
31
0.0
0
LINE
8
0
6
CONTINUOUS
10
11.399712
20
-471.473310
30
0.0
11
15.399712
21
-475.476910
31
0.0
0
LINE
8
0
6
CONTINUOUS
10
4.471482
20
-464.585160
30
0.0
11
3.399692
21
-463.499990
31
0.0
0
LINE
8
0
6
CONTINUOUS
10
3.399692
20
-463.499990
30
0.0
11
4.471492
21
-464.558450
31
0.0
0
LINE
8
0
6
CONTINUOUS
10
3.399701
20
-212.655140
30
0.0
11
3.399692
21
-463.499990
31
0.0
0
LINE
8
0
6
CONTINUOUS
10
7.399682
20
-467.523120
30
0.0
11
4.471482
21
-464.585160
31
0.0
0
LINE
8
0
6
CONTINUOUS
10
19.399702
20
-479.500000
30
0.0
11
19.399711
21
-212.655160
31
0.0
0
LINE
8
0
6
CONTINUOUS
10
18.327912
20
-478.414870
30
0.0
11
19.399702
21
-479.500000
31
0.0
0
LINE
8
0
6
CONTINUOUS
10
15.399702
20
-475.523100
30
0.0
11
11.399692
21
-471.526680
31
0.0
0
LINE
8
0
6
CONTINUOUS
10
0.517359
20
-39.476264
30
0.0
11
0.628133
21
-41.239219
31
0.0
0
LINE
8
0
6
CONTINUOUS
10
23.602462
20
-39.496022
30
0.0
11
22.276624
21
-61.077571
31
0.0
0
LINE
8
0
6
CONTINUOUS
10
21.897701
20
-62.789553
30
0.0
11
22.250325
21
-61.505750
31
0.0
0
LINE
8
0
6
CONTINUOUS
10
20.875712
20
-63.985490
30
0.0
11
21.897701
21
-62.789553
31
0.0
0
LINE
8
0
6
CONTINUOUS
10
22.276624
20
-61.077571
30
0.0
11
22.250325
21
-61.505750
31
0.0
0
LINE
8
0
6
CONTINUOUS
10
-21.408015
20
92.866995
30
0.0
11
-20.773976
21
92.502307
31
0.0
0
LINE
8
0
6
CONTINUOUS
10
-22.652710
20
92.670296
30
0.0
11
-21.408015
21
92.866995
31
0.0
0
LINE
8
0
6
CONTINUOUS
10
-11.273698
20
100.914982
30
0.0
11
-11.141313
21
100.944406
31
0.0
0
LINE
8
0
6
CONTINUOUS
10
3.211608
20
105.318752
30
0.0
11
2.542583
21
104.585092
31
0.0
0
LINE
8
0
6
CONTINUOUS
10
7.521639
20
77.975287
30
0.0
11
6.869518
21
77.165443
31
0.0
0
LINE
8
0
6
CONTINUOUS
10
-1.905281
20
77.040360
30
0.0
11
-0.693833
21
77.514030
31
0.0
0
LINE
8
0
6
CONTINUOUS
10
25.709313
20
79.133034
30
0.0
11
27.169010
21
79.536620
31
0.0
0
LINE
8
0
6
CONTINUOUS
10
3.263771
20
90.548600
30
0.0
11
3.575100
21
90.510784
31
0.0
0
LINE
8
0
6
CONTINUOUS
10
17.966988
20
85.653166
30
0.0
11
19.158094
21
86.316233
31
0.0
0
LINE
8
0
6
CONTINUOUS
10
2.599756
20
81.619675
30
0.0
11
4.183497
21
81.671613
31
0.0
0
LINE
8
0
6
CONTINUOUS
10
-4.468157
20
81.784893
30
0.0
11
-3.810817
21
82.044682
31
0.0
0
LINE
8
0
6
CONTINUOUS
10
9.468183
20
69.863585
30
0.0
11
9.625436
21
69.058401
31
0.0
0
LINE
8
0
6
CONTINUOUS
10
8.484909
20
66.000823
30
0.0
11
8.619619
21
65.293840
31
0.0
0
LINE
8
0
6
CONTINUOUS
10
7.727898
20
62.465750
30
0.0
11
8.934553
21
62.168293
31
0.0
0
LINE
8
0
6
CONTINUOUS
10
6.206297
20
65.888774
30
0.0
11
7.278262
21
66.298272
31
0.0
0
LINE
8
0
6
CONTINUOUS
10
0.408031
20
67.504612
30
0.0
11
0.542702
21
66.792801
31
0.0
0
LINE
8
0
6
CONTINUOUS
10
38.027049
20
68.800716
30
0.0
11
39.135193
21
69.238225
31
0.0
0
LINE
8
0
6
CONTINUOUS
10
-12.489728
20
93.704958
30
0.0
11
-11.351309
21
93.242942
31
0.0
0
LINE
8
0
6
CONTINUOUS
10
-20.773976
20
92.502307
30
0.0
11
-20.397824
21
92.292410
31
0.0
0
LINE
8
0
6
CONTINUOUS
10
-16.282122
20
89.215801
30
0.0
11
-15.143715
21
88.755044
31
0.0
0
LINE
8
0
6
CONTINUOUS
10
-17.668048
20
84.249721
30
0.0
11
-16.529661
21
83.793506
31
0.0
0
LINE
8
0
6
CONTINUOUS
10
17.661630
20
91.594813
30
0.0
11
18.102074
21
91.943754
31
0.0
0
LINE
8
0
6
CONTINUOUS
10
-14.463392
20
74.199968
30
0.0
11
-13.391566
21
74.587769
31
0.0
0
LINE
8
0
6
CONTINUOUS
10
-13.391566
20
74.587769
30
0.0
11
-12.185287
21
74.232794
31
0.0
0
LINE
8
0
6
CONTINUOUS
10
-19.846310
20
73.299789
30
0.0
11
-19.690997
21
73.336016
31
0.0
0
LINE
8
0
6
CONTINUOUS
10
-10.669551
20
84.974901
30
0.0
11
-9.342471
21
84.425468
31
0.0
0
LINE
8
0
6
CONTINUOUS
10
-12.012979
20
84.609339
30
0.0
11
-10.669551
21
84.974901
31
0.0
0
LINE
8
0
6
CONTINUOUS
10
-3.858562
20
86.526254
30
0.0
11
-3.875383
21
85.559629
31
0.0
0
LINE
8
0
6
CONTINUOUS
10
-8.427007
20
89.826709
30
0.0
11
-7.099902
21
89.268883
31
0.0
0
LINE
8
0
6
CONTINUOUS
10
-8.952914
20
70.346195
30
0.0
11
-7.881086
21
70.734706
31
0.0
0
LINE
8
0
6
CONTINUOUS
10
-14.940756
20
69.187259
30
0.0
11
-14.613772
21
69.264413
31
0.0
0
LINE
8
0
6
CONTINUOUS
10
-1.089545
20
71.597343
30
0.0
11
0.159669
21
72.036933
31
0.0
0
LINE
8
0
6
CONTINUOUS
10
39.505429
20
69.147782
30
0.0
11
40.313795
21
68.973053
31
0.0
0
LINE
8
0
6
CONTINUOUS
10
20.798301
20
105.299947
30
0.0
11
21.694610
21
105.218811
31
0.0
0
LINE
8
0
6
CONTINUOUS
10
7.337991
20
74.110176
30
0.0
11
7.499902
21
73.219332
31
0.0
0
LINE
8
0
6
CONTINUOUS
10
31.551128
20
89.116411
30
0.0
11
32.887777
21
89.664866
31
0.0
0
LINE
8
0
6
CONTINUOUS
10
-1.983915
20
77.013116
30
0.0
11
-1.905281
21
77.040360
31
0.0
0
LINE
8
0
6
CONTINUOUS
10
-7.508300
20
74.952591
30
0.0
11
-6.259139
21
75.385357
31
0.0
0
LINE
8
0
6
CONTINUOUS
10
43.190658
20
72.893902
30
0.0
11
44.298718
21
73.345632
31
0.0
0
LINE
8
0
6
CONTINUOUS
10
9.119500
20
-49.048001
30
0.0
11
12.037868
21
-49.442184
31
0.0
0
LINE
8
0
6
CONTINUOUS
10
2.865741
20
-44.738921
30
0.0
11
2.144628
21
-43.984452
31
0.0
0
LINE
8
0
6
CONTINUOUS
10
3.998856
20
-46.062878
30
0.0
11
5.709518
21
-47.381546
31
0.0
0
LINE
8
0
6
CONTINUOUS
10
34.883861
20
100.283637
30
0.0
11
35.904517
21
100.860228
31
0.0
0
LINE
8
0
6
CONTINUOUS
10
-24.569555
20
82.994437
30
0.0
11
-24.175460
21
82.832700
31
0.0
0
LINE
8
0
6
CONTINUOUS
10
-25.722051
20
82.696621
30
0.0
11
-24.569555
21
82.994437
31
0.0
0
LINE
8
0
6
CONTINUOUS
10
-24.321456
20
77.717801
30
0.0
11
-23.135528
21
77.972175
31
0.0
0
LINE
8
0
6
CONTINUOUS
10
-23.135528
20
77.972175
30
0.0
11
-22.938455
21
77.885441
31
0.0
0
LINE
8
0
6
CONTINUOUS
10
-20.876957
20
73.077296
30
0.0
11
-20.963818
21
72.353845
31
0.0
0
LINE
8
0
6
CONTINUOUS
10
-20.876957
20
73.077296
30
0.0
11
-19.846310
21
73.299789
31
0.0
0
LINE
8
0
6
CONTINUOUS
10
-15.799750
20
68.999089
30
0.0
11
-15.886547
21
68.290251
31
0.0
0
LINE
8
0
6
CONTINUOUS
10
-15.799750
20
68.999089
30
0.0
11
-14.940756
21
69.187259
31
0.0
0
LINE
8
0
6
CONTINUOUS
10
-9.325734
20
65.807860
30
0.0
11
-8.757158
21
65.938258
31
0.0
0
LINE
8
0
6
CONTINUOUS
10
-9.325734
20
65.807860
30
0.0
11
-9.412469
21
65.108902
31
0.0
0
LINE
8
0
6
CONTINUOUS
10
47.720110
20
78.002040
30
0.0
11
48.898719
21
77.735289
31
0.0
0
LINE
8
0
6
CONTINUOUS
10
-12.385894
20
100.718465
30
0.0
11
-12.620204
21
99.897286
31
0.0
0
LINE
8
0
6
CONTINUOUS
10
-18.328748
20
97.023899
30
0.0
11
-18.551355
21
96.254676
31
0.0
0
LINE
8
0
6
CONTINUOUS
10
-23.935293
20
87.987986
30
0.0
11
-23.797210
21
87.909984
31
0.0
0
LINE
8
0
6
CONTINUOUS
10
-25.180029
20
87.803580
30
0.0
11
-25.414603
21
87.048548
31
0.0
0
LINE
8
0
6
CONTINUOUS
10
8.944332
20
62.116964
30
0.0
11
9.069438
21
61.489387
31
0.0
0
LINE
8
0
6
CONTINUOUS
10
6.655993
20
62.065379
30
0.0
11
7.132379
21
62.238245
31
0.0
0
LINE
8
0
6
CONTINUOUS
10
-30.710759
20
-37.323018
30
0.0
11
-31.110759
21
-37.057493
31
0.0
0
LINE
8
0
6
CONTINUOUS
10
-29.610759
20
-73.702143
30
0.0
11
-30.654694
21
-74.489240
31
0.0
0
LINE
8
0
6
CONTINUOUS
10
-27.910759
20
-72.691857
30
0.0
11
-28.879540
21
-73.398270
31
0.0
0
LINE
8
0
6
CONTINUOUS
10
-24.972991
20
-71.635606
30
0.0
11
-22.910759
21
-70.941285
31
0.0
0
LINE
8
0
6
CONTINUOUS
10
-25.249047
20
-40.127965
30
0.0
11
-22.910759
21
-40.903803
31
0.0
0
LINE
8
0
6
CONTINUOUS
10
-22.910759
20
-40.903803
30
0.0
11
-20.110759
21
-41.229580
31
0.0
0
LINE
8
0
6
CONTINUOUS
10
-9.510759
20
-37.323024
30
0.0
11
-9.110759
21
-37.057499
31
0.0
0
LINE
8
0
6
CONTINUOUS
10
-10.610759
20
-73.702118
30
0.0
11
-9.566800
21
-74.489240
31
0.0
0
LINE
8
0
6
CONTINUOUS
10
-12.310759
20
-72.691818
30
0.0
11
-11.341942
21
-73.398254
31
0.0
0
LINE
8
0
6
CONTINUOUS
10
-17.310759
20
-70.941271
30
0.0
11
-15.248451
21
-71.635597
31
0.0
0
LINE
8
0
6
CONTINUOUS
10
-17.310759
20
-40.903811
30
0.0
11
-14.972401
21
-40.127955
31
0.0
0
LINE
8
0
6
CONTINUOUS
10
-20.110759
20
-41.229580
30
0.0
11
-17.310759
21
-40.903811
31
0.0
0
ENDSEC
0
EOF
