999
Erzeugt mit innoplus bad 
0
SECTION
2
HEADER
9
$ACADVER
1
AC1009
9
$DWGCODEPAGE
3
ISO8859-1
0
ENDSEC
0
SECTION
2
TABLES
0
TABLE
2
LAYER
70
1
0
LAYER
2
0
70
0
62
7
6
CONTINUOUS
0
ENDTAB
0
ENDSEC
0
SECTION
2
ENTITIES
0
LINE
8
0
6
CONTINUOUS
10
46.119104
20
-70.526270
30
0.0
11
46.327834
21
-70.656617
31
0.0
0
LINE
8
0
6
CONTINUOUS
10
75.776924
20
-48.211360
30
0.0
11
75.542014
21
-48.296840
31
0.0
0
LINE
8
0
6
CONTINUOUS
10
75.862434
20
-48.446270
30
0.0
11
75.776924
21
-48.211360
31
0.0
0
LINE
8
0
6
CONTINUOUS
10
76.617684
20
-50.521350
30
0.0
11
76.532184
21
-50.286440
31
0.0
0
LINE
8
0
6
CONTINUOUS
10
76.382774
20
-50.606830
30
0.0
11
76.617684
21
-50.521350
31
0.0
0
LINE
8
0
6
CONTINUOUS
10
76.532184
20
-50.286440
30
0.0
11
75.862434
21
-48.446270
31
0.0
0
LINE
8
0
6
CONTINUOUS
10
75.542014
20
-48.296840
30
0.0
11
75.466104
21
-48.324471
31
0.0
0
LINE
8
0
6
CONTINUOUS
10
76.257021
20
-50.652602
30
0.0
11
76.382774
21
-50.606830
31
0.0
0
LINE
8
0
6
CONTINUOUS
10
42.782554
20
-47.178070
30
0.0
11
42.306754
21
-46.477080
31
0.0
0
LINE
8
0
6
CONTINUOUS
10
40.671234
20
-48.605950
30
0.0
11
39.580314
21
-52.156360
31
0.0
0
LINE
8
0
6
CONTINUOUS
10
39.580314
20
-52.156360
30
0.0
11
39.203054
21
-55.851430
31
0.0
0
LINE
8
0
6
CONTINUOUS
10
39.203054
20
-55.851430
30
0.0
11
39.553954
21
-59.549130
31
0.0
0
LINE
8
0
6
CONTINUOUS
10
39.553954
20
-59.549130
30
0.0
11
40.619494
21
-63.107290
31
0.0
0
LINE
8
0
6
CONTINUOUS
10
40.619494
20
-63.107290
30
0.0
11
42.358764
21
-66.389310
31
0.0
0
LINE
8
0
6
CONTINUOUS
10
44.075134
20
-49.127490
30
0.0
11
42.782554
21
-47.178070
31
0.0
0
LINE
8
0
6
CONTINUOUS
10
41.806504
20
-46.500240
30
0.0
11
42.306754
21
-46.477080
31
0.0
0
LINE
8
0
6
CONTINUOUS
10
39.985324
20
-49.878190
30
0.0
11
39.580304
21
-52.156360
31
0.0
0
LINE
8
0
6
CONTINUOUS
10
44.075134
20
-49.127490
30
0.0
11
45.650114
21
-51.502910
31
0.0
0
LINE
8
0
6
CONTINUOUS
10
47.446974
20
-54.212870
30
0.0
11
49.396694
21
-57.153500
31
0.0
0
LINE
8
0
6
CONTINUOUS
10
45.650114
20
-51.502910
30
0.0
11
47.446974
21
-54.212870
31
0.0
0
LINE
8
0
6
CONTINUOUS
10
49.396694
20
-57.153500
30
0.0
11
51.501494
21
-60.327940
31
0.0
0
LINE
8
0
6
CONTINUOUS
10
40.671234
20
-48.605950
30
0.0
11
41.806504
21
-46.500240
31
0.0
0
LINE
8
0
6
CONTINUOUS
10
55.620604
20
-37.650370
30
0.0
11
56.081104
21
-38.361500
31
0.0
0
LINE
8
0
6
CONTINUOUS
10
61.913594
20
-37.350070
30
0.0
11
58.218374
21
-36.972720
31
0.0
0
LINE
8
0
6
CONTINUOUS
10
65.464214
20
-38.441040
30
0.0
11
61.913594
21
-37.350070
31
0.0
0
LINE
8
0
6
CONTINUOUS
10
68.733784
20
-40.203770
30
0.0
11
65.464214
21
-38.441040
31
0.0
0
LINE
8
0
6
CONTINUOUS
10
71.596634
20
-42.570370
30
0.0
11
68.733784
21
-40.203770
31
0.0
0
LINE
8
0
6
CONTINUOUS
10
73.942794
20
-45.449970
30
0.0
11
71.596634
21
-42.570370
31
0.0
0
LINE
8
0
6
CONTINUOUS
10
55.836744
20
-37.198630
30
0.0
11
55.620604
21
-37.650370
31
0.0
0
LINE
8
0
6
CONTINUOUS
10
61.913584
20
-37.350040
30
0.0
11
59.068714
21
-36.966957
31
0.0
0
LINE
8
0
6
CONTINUOUS
10
58.948654
20
-42.686340
30
0.0
11
57.373684
21
-40.310970
31
0.0
0
LINE
8
0
6
CONTINUOUS
10
62.695254
20
-48.336900
30
0.0
11
60.745514
21
-45.396380
31
0.0
0
LINE
8
0
6
CONTINUOUS
10
60.745514
20
-45.396380
30
0.0
11
58.948654
21
-42.686340
31
0.0
0
LINE
8
0
6
CONTINUOUS
10
64.800044
20
-51.511380
30
0.0
11
62.695254
21
-48.336900
31
0.0
0
LINE
8
0
6
CONTINUOUS
10
57.373684
20
-40.310970
30
0.0
11
56.081104
21
-38.361500
31
0.0
0
LINE
8
0
6
CONTINUOUS
10
55.836744
20
-37.198630
30
0.0
11
58.218374
21
-36.972720
31
0.0
0
LINE
8
0
6
CONTINUOUS
10
60.680954
20
-74.188990
30
0.0
11
60.220414
21
-73.477810
31
0.0
0
LINE
8
0
6
CONTINUOUS
10
50.837334
20
-73.398240
30
0.0
11
54.387954
21
-74.489280
31
0.0
0
LINE
8
0
6
CONTINUOUS
10
42.358764
20
-66.389310
30
0.0
11
44.704914
21
-69.268980
31
0.0
0
LINE
8
0
6
CONTINUOUS
10
53.606304
20
-63.502380
30
0.0
11
51.501494
21
-60.327940
31
0.0
0
LINE
8
0
6
CONTINUOUS
10
55.556034
20
-66.442980
30
0.0
11
53.606304
21
-63.502380
31
0.0
0
LINE
8
0
6
CONTINUOUS
10
57.352904
20
-69.153020
30
0.0
11
55.556034
21
-66.442980
31
0.0
0
LINE
8
0
6
CONTINUOUS
10
58.927874
20
-71.528390
30
0.0
11
57.352904
21
-69.153020
31
0.0
0
LINE
8
0
6
CONTINUOUS
10
60.680954
20
-74.188990
30
0.0
11
60.464794
21
-74.640760
31
0.0
0
LINE
8
0
6
CONTINUOUS
10
54.387954
20
-74.489280
30
0.0
11
57.416144
21
-74.929920
31
0.0
0
LINE
8
0
6
CONTINUOUS
10
57.416144
20
-74.929920
30
0.0
11
58.083174
21
-74.866670
31
0.0
0
LINE
8
0
6
CONTINUOUS
10
58.927874
20
-71.528390
30
0.0
11
60.220414
21
-73.477810
31
0.0
0
LINE
8
0
6
CONTINUOUS
10
50.837334
20
-73.398240
30
0.0
11
47.567774
21
-71.635580
31
0.0
0
LINE
8
0
6
CONTINUOUS
10
47.567774
20
-71.635580
30
0.0
11
44.704914
21
-69.268980
31
0.0
0
LINE
8
0
6
CONTINUOUS
10
58.760164
20
-74.802430
30
0.0
11
57.550284
21
-74.917210
31
0.0
0
LINE
8
0
6
CONTINUOUS
10
58.083174
20
-74.866590
30
0.0
11
54.387954
21
-74.489280
31
0.0
0
LINE
8
0
6
CONTINUOUS
10
60.464794
20
-74.640760
30
0.0
11
58.083174
21
-74.866590
31
0.0
0
LINE
8
0
6
CONTINUOUS
10
73.811374
20
-66.570777
30
0.0
11
73.867614
21
-66.502750
31
0.0
0
LINE
8
0
6
CONTINUOUS
10
73.518974
20
-64.661250
30
0.0
11
73.994794
21
-65.362310
31
0.0
0
LINE
8
0
6
CONTINUOUS
10
76.747624
20
-52.290180
30
0.0
11
75.682064
21
-48.731990
31
0.0
0
LINE
8
0
6
CONTINUOUS
10
75.682064
20
-48.731990
30
0.0
11
73.942794
21
-45.449970
31
0.0
0
LINE
8
0
6
CONTINUOUS
10
73.994794
20
-65.362310
30
0.0
11
74.495054
21
-65.339040
31
0.0
0
LINE
8
0
6
CONTINUOUS
10
75.988024
20
-62.569840
30
0.0
11
76.721234
21
-59.682910
31
0.0
0
LINE
8
0
6
CONTINUOUS
10
75.927534
20
-62.682070
30
0.0
11
75.988024
21
-62.569840
31
0.0
0
LINE
8
0
6
CONTINUOUS
10
75.927534
20
-62.682070
30
0.0
11
76.721244
21
-59.682910
31
0.0
0
LINE
8
0
6
CONTINUOUS
10
75.630304
20
-63.233370
30
0.0
11
75.927534
21
-62.682070
31
0.0
0
LINE
8
0
6
CONTINUOUS
10
72.226414
20
-62.711860
30
0.0
11
70.651444
21
-60.336490
31
0.0
0
LINE
8
0
6
CONTINUOUS
10
68.854574
20
-57.626410
30
0.0
11
66.904844
21
-54.685850
31
0.0
0
LINE
8
0
6
CONTINUOUS
10
73.567718
20
-66.162103
30
0.0
11
73.608784
21
-66.112430
31
0.0
0
LINE
8
0
6
CONTINUOUS
10
70.651444
20
-60.336490
30
0.0
11
68.854574
21
-57.626410
31
0.0
0
LINE
8
0
6
CONTINUOUS
10
66.904844
20
-54.685850
30
0.0
11
64.800044
21
-51.511380
31
0.0
0
LINE
8
0
6
CONTINUOUS
10
73.518974
20
-64.661250
30
0.0
11
72.226414
21
-62.711860
31
0.0
0
LINE
8
0
6
CONTINUOUS
10
77.098474
20
-55.987880
30
0.0
11
76.721234
21
-59.682910
31
0.0
0
LINE
8
0
6
CONTINUOUS
10
76.747624
20
-52.290180
30
0.0
11
77.098474
21
-55.987880
31
0.0
0
LINE
8
0
6
CONTINUOUS
10
76.721234
20
-59.682910
30
0.0
11
75.630304
21
-63.233370
31
0.0
0
LINE
8
0
6
CONTINUOUS
10
75.630304
20
-63.233370
30
0.0
11
74.495054
21
-65.339040
31
0.0
0
LINE
8
0
6
CONTINUOUS
10
68.321298
20
-426.706767
30
0.0
11
68.321298
21
-426.125957
31
0.0
0
LINE
8
0
6
CONTINUOUS
10
46.327834
20
-426.125957
30
0.0
11
46.327834
21
-426.706767
31
0.0
0
LINE
8
0
6
CONTINUOUS
10
68.321298
20
-426.125957
30
0.0
11
68.321298
21
-91.297692
31
0.0
0
LINE
8
0
6
CONTINUOUS
10
68.321298
20
-39.981391
30
0.0
11
68.321298
21
426.065167
31
0.0
0
LINE
8
0
6
CONTINUOUS
10
46.327834
20
426.065167
30
0.0
11
46.327834
21
-15.730126
31
0.0
0
LINE
8
0
6
CONTINUOUS
10
46.327834
20
-70.610700
30
0.0
11
46.327834
21
-426.125957
31
0.0
0
LINE
8
0
6
CONTINUOUS
10
68.321298
20
-426.921407
30
0.0
11
68.321298
21
-426.706767
31
0.0
0
LINE
8
0
6
CONTINUOUS
10
46.327834
20
-426.706767
30
0.0
11
46.327834
21
-426.921407
31
0.0
0
LINE
8
0
6
CONTINUOUS
10
68.321298
20
426.065167
30
0.0
11
68.321298
21
426.607847
31
0.0
0
LINE
8
0
6
CONTINUOUS
10
46.327834
20
426.607847
30
0.0
11
46.327834
21
426.065167
31
0.0
0
LINE
8
0
6
CONTINUOUS
10
57.324551
20
427.422207
30
0.0
11
119.827964
21
427.422207
31
0.0
0
LINE
8
0
6
CONTINUOUS
10
119.827964
20
479.500000
30
0.0
11
57.324551
21
479.500000
31
0.0
0
LINE
8
0
6
CONTINUOUS
10
46.327834
20
478.790620
30
0.0
11
46.327834
21
428.130977
31
0.0
0
LINE
8
0
6
CONTINUOUS
10
46.327834
20
428.130977
30
0.0
11
46.327834
21
427.422207
31
0.0
0
LINE
8
0
6
CONTINUOUS
10
46.327834
20
427.422207
30
0.0
11
46.727724
21
427.422207
31
0.0
0
LINE
8
0
6
CONTINUOUS
10
46.727724
20
427.422207
30
0.0
11
47.827383
21
427.422207
31
0.0
0
LINE
8
0
6
CONTINUOUS
10
47.827383
20
427.422207
30
0.0
11
49.526873
21
427.422207
31
0.0
0
LINE
8
0
6
CONTINUOUS
10
49.526873
20
427.422207
30
0.0
11
51.826202
21
427.422207
31
0.0
0
LINE
8
0
6
CONTINUOUS
10
51.826202
20
427.422207
30
0.0
11
54.525381
21
427.422207
31
0.0
0
LINE
8
0
6
CONTINUOUS
10
54.525381
20
427.422207
30
0.0
11
57.324551
21
427.422207
31
0.0
0
LINE
8
0
6
CONTINUOUS
10
120.327814
20
428.130977
30
0.0
11
120.327814
21
478.790620
31
0.0
0
LINE
8
0
6
CONTINUOUS
10
120.327814
20
427.422207
30
0.0
11
120.327814
21
428.130977
31
0.0
0
LINE
8
0
6
CONTINUOUS
10
119.827964
20
427.422207
30
0.0
11
120.327814
21
427.422207
31
0.0
0
LINE
8
0
6
CONTINUOUS
10
68.321298
20
426.921417
30
0.0
11
67.821428
21
427.422207
31
0.0
0
LINE
8
0
6
CONTINUOUS
10
68.321298
20
426.921417
30
0.0
11
67.921398
21
426.921417
31
0.0
0
LINE
8
0
6
CONTINUOUS
10
68.321298
20
426.607847
30
0.0
11
68.321298
21
426.921417
31
0.0
0
LINE
8
0
6
CONTINUOUS
10
67.921398
20
426.921417
30
0.0
11
66.821728
21
426.921417
31
0.0
0
LINE
8
0
6
CONTINUOUS
10
65.122249
20
426.921417
30
0.0
11
62.822909
21
426.921417
31
0.0
0
LINE
8
0
6
CONTINUOUS
10
62.822909
20
426.921417
30
0.0
11
60.123730
21
426.921417
31
0.0
0
LINE
8
0
6
CONTINUOUS
10
60.123730
20
426.921417
30
0.0
11
57.324551
21
426.921417
31
0.0
0
LINE
8
0
6
CONTINUOUS
10
68.321298
20
-426.921407
30
0.0
11
67.921398
21
-426.921407
31
0.0
0
LINE
8
0
6
CONTINUOUS
10
67.821428
20
-427.422107
30
0.0
11
68.321298
21
-426.921407
31
0.0
0
LINE
8
0
6
CONTINUOUS
10
66.821728
20
-426.921407
30
0.0
11
65.122249
21
-426.921407
31
0.0
0
LINE
8
0
6
CONTINUOUS
10
65.122249
20
-426.921407
30
0.0
11
62.822909
21
-426.921407
31
0.0
0
LINE
8
0
6
CONTINUOUS
10
62.822909
20
-426.921407
30
0.0
11
60.123730
21
-426.921407
31
0.0
0
LINE
8
0
6
CONTINUOUS
10
60.123730
20
-426.921407
30
0.0
11
57.324551
21
-426.921407
31
0.0
0
LINE
8
0
6
CONTINUOUS
10
46.827694
20
427.422207
30
0.0
11
46.327834
21
426.921417
31
0.0
0
LINE
8
0
6
CONTINUOUS
10
46.327834
20
426.921417
30
0.0
11
46.327834
21
426.607847
31
0.0
0
LINE
8
0
6
CONTINUOUS
10
46.727724
20
426.921417
30
0.0
11
46.327834
21
426.921417
31
0.0
0
LINE
8
0
6
CONTINUOUS
10
47.827383
20
426.921417
30
0.0
11
46.727724
21
426.921417
31
0.0
0
LINE
8
0
6
CONTINUOUS
10
49.526873
20
426.921417
30
0.0
11
47.827383
21
426.921417
31
0.0
0
LINE
8
0
6
CONTINUOUS
10
51.826202
20
426.921417
30
0.0
11
49.526873
21
426.921417
31
0.0
0
LINE
8
0
6
CONTINUOUS
10
54.525381
20
426.921417
30
0.0
11
51.826202
21
426.921417
31
0.0
0
LINE
8
0
6
CONTINUOUS
10
57.324551
20
426.921417
30
0.0
11
54.525381
21
426.921417
31
0.0
0
LINE
8
0
6
CONTINUOUS
10
46.327834
20
-426.921407
30
0.0
11
46.827694
21
-427.422107
31
0.0
0
LINE
8
0
6
CONTINUOUS
10
46.727724
20
-426.921407
30
0.0
11
46.327834
21
-426.921407
31
0.0
0
LINE
8
0
6
CONTINUOUS
10
47.827383
20
-426.921407
30
0.0
11
46.727724
21
-426.921407
31
0.0
0
LINE
8
0
6
CONTINUOUS
10
49.526873
20
-426.921407
30
0.0
11
47.827383
21
-426.921407
31
0.0
0
LINE
8
0
6
CONTINUOUS
10
51.826202
20
-426.921407
30
0.0
11
49.526873
21
-426.921407
31
0.0
0
LINE
8
0
6
CONTINUOUS
10
54.525381
20
-426.921407
30
0.0
11
51.826202
21
-426.921407
31
0.0
0
LINE
8
0
6
CONTINUOUS
10
57.324551
20
-426.921407
30
0.0
11
54.525381
21
-426.921407
31
0.0
0
LINE
8
0
6
CONTINUOUS
10
46.327834
20
479.500000
30
0.0
11
46.327834
21
478.790620
31
0.0
0
LINE
8
0
6
CONTINUOUS
10
46.727724
20
479.500000
30
0.0
11
46.327834
21
479.500000
31
0.0
0
LINE
8
0
6
CONTINUOUS
10
47.827383
20
479.500000
30
0.0
11
46.727724
21
479.500000
31
0.0
0
LINE
8
0
6
CONTINUOUS
10
49.526873
20
479.500000
30
0.0
11
47.827383
21
479.500000
31
0.0
0
LINE
8
0
6
CONTINUOUS
10
51.826202
20
479.500000
30
0.0
11
49.526873
21
479.500000
31
0.0
0
LINE
8
0
6
CONTINUOUS
10
54.525381
20
479.500000
30
0.0
11
51.826202
21
479.500000
31
0.0
0
LINE
8
0
6
CONTINUOUS
10
57.324551
20
479.500000
30
0.0
11
54.525381
21
479.500000
31
0.0
0
LINE
8
0
6
CONTINUOUS
10
120.327814
20
479.500000
30
0.0
11
119.827964
21
479.500000
31
0.0
0
LINE
8
0
6
CONTINUOUS
10
120.327814
20
478.790620
30
0.0
11
120.327814
21
479.500000
31
0.0
0
LINE
8
0
6
CONTINUOUS
10
65.122249
20
426.921417
30
0.0
11
66.821728
21
426.921417
31
0.0
0
LINE
8
0
6
CONTINUOUS
10
67.921398
20
-426.921407
30
0.0
11
66.821728
21
-426.921407
31
0.0
0
LINE
8
0
6
CONTINUOUS
10
57.324591
20
-479.500000
30
0.0
11
119.827994
21
-479.500000
31
0.0
0
LINE
8
0
6
CONTINUOUS
10
119.827994
20
-427.422107
30
0.0
11
104.914074
21
-427.422107
31
0.0
0
LINE
8
0
6
CONTINUOUS
10
88.914164
20
-427.422107
30
0.0
11
57.324591
21
-427.422107
31
0.0
0
LINE
8
0
6
CONTINUOUS
10
46.327854
20
-428.131477
30
0.0
11
46.327854
21
-478.791240
31
0.0
0
LINE
8
0
6
CONTINUOUS
10
46.327854
20
-478.791240
30
0.0
11
46.327854
21
-479.500000
31
0.0
0
LINE
8
0
6
CONTINUOUS
10
46.327854
20
-479.500000
30
0.0
11
46.727734
21
-479.500000
31
0.0
0
LINE
8
0
6
CONTINUOUS
10
46.727734
20
-479.500000
30
0.0
11
47.827423
21
-479.500000
31
0.0
0
LINE
8
0
6
CONTINUOUS
10
47.827423
20
-479.500000
30
0.0
11
49.526903
21
-479.500000
31
0.0
0
LINE
8
0
6
CONTINUOUS
10
49.526903
20
-479.500000
30
0.0
11
51.826232
21
-479.500000
31
0.0
0
LINE
8
0
6
CONTINUOUS
10
51.826232
20
-479.500000
30
0.0
11
54.525411
21
-479.500000
31
0.0
0
LINE
8
0
6
CONTINUOUS
10
54.525411
20
-479.500000
30
0.0
11
57.324591
21
-479.500000
31
0.0
0
LINE
8
0
6
CONTINUOUS
10
120.327834
20
-478.791240
30
0.0
11
120.327834
21
-428.131477
31
0.0
0
LINE
8
0
6
CONTINUOUS
10
120.327834
20
-479.500000
30
0.0
11
120.327834
21
-478.791240
31
0.0
0
LINE
8
0
6
CONTINUOUS
10
119.827994
20
-479.500000
30
0.0
11
120.327834
21
-479.500000
31
0.0
0
LINE
8
0
6
CONTINUOUS
10
46.327854
20
-427.422107
30
0.0
11
46.327854
21
-428.131477
31
0.0
0
LINE
8
0
6
CONTINUOUS
10
46.727734
20
-427.422107
30
0.0
11
46.327854
21
-427.422107
31
0.0
0
LINE
8
0
6
CONTINUOUS
10
47.827423
20
-427.422107
30
0.0
11
46.727734
21
-427.422107
31
0.0
0
LINE
8
0
6
CONTINUOUS
10
49.526903
20
-427.422107
30
0.0
11
47.827423
21
-427.422107
31
0.0
0
LINE
8
0
6
CONTINUOUS
10
51.826232
20
-427.422107
30
0.0
11
49.526903
21
-427.422107
31
0.0
0
LINE
8
0
6
CONTINUOUS
10
54.525411
20
-427.422107
30
0.0
11
51.826232
21
-427.422107
31
0.0
0
LINE
8
0
6
CONTINUOUS
10
57.324591
20
-427.422107
30
0.0
11
54.525411
21
-427.422107
31
0.0
0
LINE
8
0
6
CONTINUOUS
10
120.327834
20
-427.422107
30
0.0
11
119.827994
21
-427.422107
31
0.0
0
LINE
8
0
6
CONTINUOUS
10
120.327834
20
-428.131477
30
0.0
11
120.327834
21
-427.422107
31
0.0
0
LINE
8
0
6
CONTINUOUS
10
-88.095596
20
84.233161
30
0.0
11
-88.159553
21
84.146406
31
0.0
0
LINE
8
0
6
CONTINUOUS
10
-87.419084
20
82.440140
30
0.0
11
-85.794916
21
81.262512
31
0.0
0
LINE
8
0
6
CONTINUOUS
10
-85.794916
20
81.262512
30
0.0
11
-83.967510
21
79.937066
31
0.0
0
LINE
8
0
6
CONTINUOUS
10
-83.967510
20
79.937066
30
0.0
11
-83.764324
21
79.789296
31
0.0
0
LINE
8
0
6
CONTINUOUS
10
-57.070696
20
63.699638
30
0.0
11
-57.521096
21
63.084364
31
0.0
0
LINE
8
0
6
CONTINUOUS
10
-76.236353
20
74.853630
30
0.0
11
-75.729882
21
75.544194
31
0.0
0
LINE
8
0
6
CONTINUOUS
10
-76.990471
20
75.400760
30
0.0
11
-76.236353
21
74.853630
31
0.0
0
LINE
8
0
6
CONTINUOUS
10
-82.471899
20
79.093003
30
0.0
11
-81.966419
21
79.778251
31
0.0
0
LINE
8
0
6
CONTINUOUS
10
-83.114083
20
79.558958
30
0.0
11
-82.471899
21
79.093003
31
0.0
0
LINE
8
0
6
CONTINUOUS
10
-79.289321
20
76.779683
30
0.0
11
-80.154809
21
77.407141
31
0.0
0
LINE
8
0
6
CONTINUOUS
10
-78.029976
20
75.866322
30
0.0
11
-79.289321
21
76.779683
31
0.0
0
LINE
8
0
6
CONTINUOUS
10
-77.636102
20
75.580435
30
0.0
11
-78.029976
21
75.866322
31
0.0
0
LINE
8
0
6
CONTINUOUS
10
-87.304024
20
83.526962
30
0.0
11
-86.056067
21
82.621928
31
0.0
0
LINE
8
0
6
CONTINUOUS
10
-93.754565
20
87.564563
30
0.0
11
-92.466130
21
86.630168
31
0.0
0
LINE
8
0
6
CONTINUOUS
10
-91.823940
20
86.164193
30
0.0
11
-91.379525
21
86.766661
31
0.0
0
LINE
8
0
6
CONTINUOUS
10
-92.466130
20
86.630168
30
0.0
11
-91.823940
21
86.164193
31
0.0
0
LINE
8
0
6
CONTINUOUS
10
-92.092124
20
86.984273
30
0.0
11
-91.934584
21
87.197953
31
0.0
0
LINE
8
0
6
CONTINUOUS
10
-92.714143
20
87.435583
30
0.0
11
-92.092124
21
86.984273
31
0.0
0
LINE
8
0
6
CONTINUOUS
10
-90.473448
20
86.427686
30
0.0
11
-89.939826
21
86.040483
31
0.0
0
LINE
8
0
6
CONTINUOUS
10
-97.928201
20
91.846650
30
0.0
11
-96.857621
21
91.070248
31
0.0
0
LINE
8
0
6
CONTINUOUS
10
-103.316128
20
96.292666
30
0.0
11
-102.941271
21
96.021029
31
0.0
0
LINE
8
0
6
CONTINUOUS
10
-102.692908
20
97.140669
30
0.0
11
-103.316128
21
96.292666
31
0.0
0
LINE
8
0
6
CONTINUOUS
10
-72.961353
20
72.480944
30
0.0
11
-71.681298
21
71.552601
31
0.0
0
LINE
8
0
6
CONTINUOUS
10
-73.728521
20
73.037094
30
0.0
11
-72.961353
21
72.480944
31
0.0
0
LINE
8
0
6
CONTINUOUS
10
-57.384382
20
62.998947
30
0.0
11
-56.746920
21
62.536838
31
0.0
0
LINE
8
0
6
CONTINUOUS
10
-56.838038
20
63.745397
30
0.0
11
-57.384382
21
62.998947
31
0.0
0
LINE
8
0
6
CONTINUOUS
10
-67.857077
20
69.417712
30
0.0
11
-67.349083
21
70.110719
31
0.0
0
LINE
8
0
6
CONTINUOUS
10
-68.353870
20
69.778234
30
0.0
11
-67.857077
21
69.417712
31
0.0
0
LINE
8
0
6
CONTINUOUS
10
-69.593711
20
70.677430
30
0.0
11
-68.353870
21
69.778234
31
0.0
0
LINE
8
0
6
CONTINUOUS
10
-75.384745
20
74.241243
30
0.0
11
-74.104700
21
73.312896
31
0.0
0
LINE
8
0
6
CONTINUOUS
10
-76.151899
20
74.797376
30
0.0
11
-75.384745
21
74.241243
31
0.0
0
LINE
8
0
6
CONTINUOUS
10
-75.572191
20
75.587930
30
0.0
11
-76.151899
21
74.797376
31
0.0
0
LINE
8
0
6
CONTINUOUS
10
-75.116415
20
74.666462
30
0.0
11
-74.373361
21
74.127799
31
0.0
0
LINE
8
0
6
CONTINUOUS
10
-74.545922
20
75.444717
30
0.0
11
-75.116415
21
74.666462
31
0.0
0
LINE
8
0
6
CONTINUOUS
10
-81.089280
20
79.023447
30
0.0
11
-80.346211
21
78.484768
31
0.0
0
LINE
8
0
6
CONTINUOUS
10
-80.500009
20
79.827323
30
0.0
11
-81.089280
21
79.023447
31
0.0
0
LINE
8
0
6
CONTINUOUS
10
-77.767299
20
77.233326
30
0.0
11
-76.703678
21
76.461931
31
0.0
0
LINE
8
0
6
CONTINUOUS
10
-76.994833
20
77.214483
30
0.0
11
-76.509859
21
76.862979
31
0.0
0
LINE
8
0
6
CONTINUOUS
10
-76.417376
20
78.002040
30
0.0
11
-76.994833
21
77.214483
31
0.0
0
LINE
8
0
6
CONTINUOUS
10
-70.111148
20
72.220383
30
0.0
11
-69.042086
21
71.445087
31
0.0
0
LINE
8
0
6
CONTINUOUS
10
-70.596114
20
72.571899
30
0.0
11
-70.111148
21
72.220383
31
0.0
0
LINE
8
0
6
CONTINUOUS
10
-70.028798
20
73.345632
30
0.0
11
-70.596114
21
72.571899
31
0.0
0
LINE
8
0
6
CONTINUOUS
10
-64.940377
20
68.482963
30
0.0
11
-64.455389
21
68.131443
31
0.0
0
LINE
8
0
6
CONTINUOUS
10
-64.386601
20
69.238225
30
0.0
11
-64.940377
21
68.482963
31
0.0
0
LINE
8
0
6
CONTINUOUS
10
-58.266464
20
63.657174
30
0.0
11
-57.865658
21
64.203809
31
0.0
0
LINE
8
0
6
CONTINUOUS
10
-58.850552
20
64.080967
30
0.0
11
-58.266464
21
63.657174
31
0.0
0
LINE
8
0
6
CONTINUOUS
10
-59.919620
20
64.856252
30
0.0
11
-58.850552
21
64.080967
31
0.0
0
LINE
8
0
6
CONTINUOUS
10
-60.404594
20
65.207755
30
0.0
11
-59.919620
21
64.856252
31
0.0
0
LINE
8
0
6
CONTINUOUS
10
-59.859481
20
65.951200
30
0.0
11
-60.404594
21
65.207755
31
0.0
0
LINE
8
0
6
CONTINUOUS
10
-107.726823
20
98.949887
30
0.0
11
-107.541348
21
98.815604
31
0.0
0
LINE
8
0
6
CONTINUOUS
10
-107.541348
20
98.815604
30
0.0
11
-106.535443
21
98.086180
31
0.0
0
LINE
8
0
6
CONTINUOUS
10
-105.715027
20
97.491054
30
0.0
11
-105.284174
21
98.085981
31
0.0
0
LINE
8
0
6
CONTINUOUS
10
-106.535443
20
98.086180
30
0.0
11
-105.715027
21
97.491054
31
0.0
0
LINE
8
0
6
CONTINUOUS
10
-103.526387
20
95.285439
30
0.0
11
-103.310172
21
95.128889
31
0.0
0
LINE
8
0
6
CONTINUOUS
10
-103.310172
20
95.128889
30
0.0
11
-102.137606
21
94.278618
31
0.0
0
LINE
8
0
6
CONTINUOUS
10
-101.181286
20
93.584900
30
0.0
11
-100.729250
21
94.209214
31
0.0
0
LINE
8
0
6
CONTINUOUS
10
-102.137606
20
94.278618
30
0.0
11
-101.181286
21
93.584900
31
0.0
0
LINE
8
0
6
CONTINUOUS
10
-114.552324
20
104.435931
30
0.0
11
-114.366851
21
104.301617
31
0.0
0
LINE
8
0
6
CONTINUOUS
10
-113.895151
20
105.343355
30
0.0
11
-114.552324
21
104.435931
31
0.0
0
LINE
8
0
6
CONTINUOUS
10
-108.435071
20
99.457993
30
0.0
11
-107.614658
21
98.862877
31
0.0
0
LINE
8
0
6
CONTINUOUS
10
-94.467895
20
88.079533
30
0.0
11
-93.964301
21
88.775086
31
0.0
0
LINE
8
0
6
CONTINUOUS
10
-95.455251
20
88.795742
30
0.0
11
-94.467895
21
88.079533
31
0.0
0
LINE
8
0
6
CONTINUOUS
10
-109.812156
20
100.458508
30
0.0
11
-109.626688
21
100.324213
31
0.0
0
LINE
8
0
6
CONTINUOUS
10
-109.184991
20
101.324496
30
0.0
11
-109.812156
21
100.458508
31
0.0
0
LINE
8
0
6
CONTINUOUS
10
-114.736621
20
105.966714
30
0.0
11
-115.393738
21
105.057164
31
0.0
0
LINE
8
0
6
CONTINUOUS
10
-115.386813
20
105.052357
30
0.0
11
-114.456187
21
104.377568
31
0.0
0
LINE
8
0
6
CONTINUOUS
10
-85.794916
20
81.262512
30
0.0
11
-87.419084
21
82.440140
31
0.0
0
LINE
8
0
6
CONTINUOUS
10
-83.967510
20
79.937066
30
0.0
11
-85.794916
21
81.262512
31
0.0
0
LINE
8
0
6
CONTINUOUS
10
-83.764324
20
79.789296
30
0.0
11
-83.967510
21
79.937066
31
0.0
0
LINE
8
0
6
CONTINUOUS
10
-56.017559
20
61.994206
30
0.0
11
-55.390934
21
61.539572
31
0.0
0
LINE
8
0
6
CONTINUOUS
10
-57.082631
20
62.766589
30
0.0
11
-56.017559
21
61.994206
31
0.0
0
LINE
8
0
6
CONTINUOUS
10
-56.017559
20
61.994206
30
0.0
11
-57.082631
21
62.766589
31
0.0
0
LINE
8
0
6
CONTINUOUS
10
-55.390934
20
61.539572
30
0.0
11
-56.017559
21
61.994206
31
0.0
0
LINE
8
0
6
CONTINUOUS
10
-63.765607
20
67.056904
30
0.0
11
-63.327165
21
66.739133
31
0.0
0
LINE
8
0
6
CONTINUOUS
10
-63.332057
20
67.649163
30
0.0
11
-63.765607
21
67.056904
31
0.0
0
LINE
8
0
6
CONTINUOUS
10
-63.327165
20
66.739133
30
0.0
11
-63.765607
21
67.056904
31
0.0
0
LINE
8
0
6
CONTINUOUS
10
-70.467870
20
71.293532
30
0.0
11
-69.956779
21
70.923112
31
0.0
0
LINE
8
0
6
CONTINUOUS
10
-70.099426
20
71.796076
30
0.0
11
-70.467870
21
71.293532
31
0.0
0
LINE
8
0
6
CONTINUOUS
10
-68.715252
20
70.022773
30
0.0
11
-67.984805
21
69.492815
31
0.0
0
LINE
8
0
6
CONTINUOUS
10
-69.956779
20
70.923112
30
0.0
11
-68.715252
21
70.022773
31
0.0
0
LINE
8
0
6
CONTINUOUS
10
-69.956779
20
70.923112
30
0.0
11
-70.467870
21
71.293532
31
0.0
0
LINE
8
0
6
CONTINUOUS
10
-68.715252
20
70.022773
30
0.0
11
-69.956779
21
70.923112
31
0.0
0
LINE
8
0
6
CONTINUOUS
10
-67.984805
20
69.492815
30
0.0
11
-68.715252
21
70.022773
31
0.0
0
LINE
8
0
6
CONTINUOUS
10
-76.236353
20
74.853630
30
0.0
11
-76.990471
21
75.400760
31
0.0
0
LINE
8
0
6
CONTINUOUS
10
-64.391747
20
68.073379
30
0.0
11
-63.323464
21
67.298619
31
0.0
0
LINE
8
0
6
CONTINUOUS
10
-63.323464
20
67.298619
30
0.0
11
-64.391747
21
68.073379
31
0.0
0
LINE
8
0
6
CONTINUOUS
10
-58.962099
20
64.127825
30
0.0
11
-58.489135
21
63.784625
31
0.0
0
LINE
8
0
6
CONTINUOUS
10
-58.489135
20
63.784625
30
0.0
11
-58.962099
21
64.127825
31
0.0
0
LINE
8
0
6
CONTINUOUS
10
-84.402522
20
80.493364
30
0.0
11
-83.114083
21
79.558958
31
0.0
0
LINE
8
0
6
CONTINUOUS
10
-85.048721
20
80.961766
30
0.0
11
-84.402522
21
80.493364
31
0.0
0
LINE
8
0
6
CONTINUOUS
10
-84.448753
20
81.775106
30
0.0
11
-85.048721
21
80.961766
31
0.0
0
LINE
8
0
6
CONTINUOUS
10
-82.471899
20
79.093003
30
0.0
11
-83.114083
21
79.558958
31
0.0
0
LINE
8
0
6
CONTINUOUS
10
-84.402522
20
80.493364
30
0.0
11
-85.048721
21
80.961766
31
0.0
0
LINE
8
0
6
CONTINUOUS
10
-83.114083
20
79.558958
30
0.0
11
-84.402522
21
80.493364
31
0.0
0
LINE
8
0
6
CONTINUOUS
10
-90.982377
20
85.255518
30
0.0
11
-89.802247
21
84.399780
31
0.0
0
LINE
8
0
6
CONTINUOUS
10
-89.802247
20
84.399780
30
0.0
11
-88.764410
21
83.646949
31
0.0
0
LINE
8
0
6
CONTINUOUS
10
-89.802247
20
84.399780
30
0.0
11
-90.982377
21
85.255518
31
0.0
0
LINE
8
0
6
CONTINUOUS
10
-88.764410
20
83.646949
30
0.0
11
-89.802247
21
84.399780
31
0.0
0
LINE
8
0
6
CONTINUOUS
10
-90.854892
20
85.174840
30
0.0
11
-89.592594
21
84.259447
31
0.0
0
LINE
8
0
6
CONTINUOUS
10
-91.262262
20
85.470020
30
0.0
11
-90.854892
21
85.174840
31
0.0
0
LINE
8
0
6
CONTINUOUS
10
-90.647995
20
86.316233
30
0.0
11
-91.262262
21
85.470020
31
0.0
0
LINE
8
0
6
CONTINUOUS
10
-88.737692
20
83.639246
30
0.0
11
-88.230999
21
84.337263
31
0.0
0
LINE
8
0
6
CONTINUOUS
10
-89.592594
20
84.259447
30
0.0
11
-88.737692
21
83.639246
31
0.0
0
LINE
8
0
6
CONTINUOUS
10
-89.592594
20
84.259447
30
0.0
11
-90.854892
21
85.174840
31
0.0
0
LINE
8
0
6
CONTINUOUS
10
-88.737692
20
83.639246
30
0.0
11
-89.592594
21
84.259447
31
0.0
0
LINE
8
0
6
CONTINUOUS
10
-90.854892
20
85.174840
30
0.0
11
-91.262262
21
85.470020
31
0.0
0
LINE
8
0
6
CONTINUOUS
10
-77.636102
20
75.580435
30
0.0
11
-77.022784
21
76.417997
31
0.0
0
LINE
8
0
6
CONTINUOUS
10
-78.029976
20
75.866322
30
0.0
11
-77.636102
21
75.580435
31
0.0
0
LINE
8
0
6
CONTINUOUS
10
-79.289321
20
76.779683
30
0.0
11
-78.029976
21
75.866322
31
0.0
0
LINE
8
0
6
CONTINUOUS
10
-80.154809
20
77.407141
30
0.0
11
-79.289321
21
76.779683
31
0.0
0
LINE
8
0
6
CONTINUOUS
10
-77.597510
20
75.555392
30
0.0
11
-76.993184
21
76.397992
31
0.0
0
LINE
8
0
6
CONTINUOUS
10
-91.563578
20
85.683818
30
0.0
11
-90.999006
21
86.470989
31
0.0
0
LINE
8
0
6
CONTINUOUS
10
-91.694278
20
85.778870
30
0.0
11
-91.563578
21
85.683818
31
0.0
0
LINE
8
0
6
CONTINUOUS
10
-93.914412
20
87.388891
30
0.0
11
-92.869703
21
86.631415
31
0.0
0
LINE
8
0
6
CONTINUOUS
10
-92.869703
20
86.631415
30
0.0
11
-91.694278
21
85.778870
31
0.0
0
LINE
8
0
6
CONTINUOUS
10
-92.869703
20
86.631415
30
0.0
11
-93.914412
21
87.388891
31
0.0
0
LINE
8
0
6
CONTINUOUS
10
-91.694278
20
85.778870
30
0.0
11
-92.869703
21
86.631415
31
0.0
0
LINE
8
0
6
CONTINUOUS
10
-91.563578
20
85.683818
30
0.0
11
-91.694278
21
85.778870
31
0.0
0
LINE
8
0
6
CONTINUOUS
10
-87.432249
20
82.984673
30
0.0
11
-86.143816
21
82.050287
31
0.0
0
LINE
8
0
6
CONTINUOUS
10
-88.078463
20
83.453092
30
0.0
11
-87.432249
21
82.984673
31
0.0
0
LINE
8
0
6
CONTINUOUS
10
-86.143816
20
82.050287
30
0.0
11
-85.501626
21
81.584312
31
0.0
0
LINE
8
0
6
CONTINUOUS
10
-85.501626
20
81.584312
30
0.0
11
-86.143816
21
82.050287
31
0.0
0
LINE
8
0
6
CONTINUOUS
10
-87.432249
20
82.984673
30
0.0
11
-88.078463
21
83.453092
31
0.0
0
LINE
8
0
6
CONTINUOUS
10
-86.143816
20
82.050287
30
0.0
11
-87.432249
21
82.984673
31
0.0
0
LINE
8
0
6
CONTINUOUS
10
-87.929934
20
83.980662
30
0.0
11
-87.304024
21
83.526962
31
0.0
0
LINE
8
0
6
CONTINUOUS
10
-87.318461
20
84.810050
30
0.0
11
-87.929934
21
83.980662
31
0.0
0
LINE
8
0
6
CONTINUOUS
10
-86.056067
20
82.621928
30
0.0
11
-85.434043
21
82.170599
31
0.0
0
LINE
8
0
6
CONTINUOUS
10
-85.434043
20
82.170599
30
0.0
11
-86.056067
21
82.621928
31
0.0
0
LINE
8
0
6
CONTINUOUS
10
-87.304024
20
83.526962
30
0.0
11
-87.929934
21
83.980662
31
0.0
0
LINE
8
0
6
CONTINUOUS
10
-86.056067
20
82.621928
30
0.0
11
-87.304024
21
83.526962
31
0.0
0
LINE
8
0
6
CONTINUOUS
10
-84.683988
20
82.235137
30
0.0
11
-83.613430
21
81.458739
31
0.0
0
LINE
8
0
6
CONTINUOUS
10
-85.220955
20
82.624374
30
0.0
11
-84.683988
21
82.235137
31
0.0
0
LINE
8
0
6
CONTINUOUS
10
-84.618170
20
83.443883
30
0.0
11
-85.220955
21
82.624374
31
0.0
0
LINE
8
0
6
CONTINUOUS
10
-83.613430
20
81.458739
30
0.0
11
-83.079802
21
81.071558
31
0.0
0
LINE
8
0
6
CONTINUOUS
10
-83.079802
20
81.071558
30
0.0
11
-83.613430
21
81.458739
31
0.0
0
LINE
8
0
6
CONTINUOUS
10
-84.683988
20
82.235137
30
0.0
11
-85.220955
21
82.624374
31
0.0
0
LINE
8
0
6
CONTINUOUS
10
-83.613430
20
81.458739
30
0.0
11
-84.683988
21
82.235137
31
0.0
0
LINE
8
0
6
CONTINUOUS
10
-83.048898
20
81.625994
30
0.0
11
-81.978318
21
80.849592
31
0.0
0
LINE
8
0
6
CONTINUOUS
10
-83.130481
20
81.685129
30
0.0
11
-83.048898
21
81.625994
31
0.0
0
LINE
8
0
6
CONTINUOUS
10
-81.978318
20
80.849592
30
0.0
11
-81.444690
21
80.462411
31
0.0
0
LINE
8
0
6
CONTINUOUS
10
-81.444690
20
80.462411
30
0.0
11
-81.978318
21
80.849592
31
0.0
0
LINE
8
0
6
CONTINUOUS
10
-83.048898
20
81.625994
30
0.0
11
-83.130481
21
81.685129
31
0.0
0
LINE
8
0
6
CONTINUOUS
10
-81.978318
20
80.849592
30
0.0
11
-83.048898
21
81.625994
31
0.0
0
LINE
8
0
6
CONTINUOUS
10
-83.152373
20
81.681361
30
0.0
11
-82.081793
21
80.904959
31
0.0
0
LINE
8
0
6
CONTINUOUS
10
-83.689338
20
82.070589
30
0.0
11
-83.152373
21
81.681361
31
0.0
0
LINE
8
0
6
CONTINUOUS
10
-83.094423
20
82.879396
30
0.0
11
-83.689338
21
82.070589
31
0.0
0
LINE
8
0
6
CONTINUOUS
10
-82.081793
20
80.904959
30
0.0
11
-81.548185
21
80.517773
31
0.0
0
LINE
8
0
6
CONTINUOUS
10
-81.548185
20
80.517773
30
0.0
11
-82.081793
21
80.904959
31
0.0
0
LINE
8
0
6
CONTINUOUS
10
-83.152373
20
81.681361
30
0.0
11
-83.689338
21
82.070589
31
0.0
0
LINE
8
0
6
CONTINUOUS
10
-82.081793
20
80.904959
30
0.0
11
-83.152373
21
81.681361
31
0.0
0
LINE
8
0
6
CONTINUOUS
10
-94.400779
20
88.032982
30
0.0
11
-93.754565
21
87.564563
31
0.0
0
LINE
8
0
6
CONTINUOUS
10
-93.893779
20
88.720289
30
0.0
11
-94.400779
21
88.032982
31
0.0
0
LINE
8
0
6
CONTINUOUS
10
-91.823940
20
86.164193
30
0.0
11
-92.466130
21
86.630168
31
0.0
0
LINE
8
0
6
CONTINUOUS
10
-93.754565
20
87.564563
30
0.0
11
-94.400779
21
88.032982
31
0.0
0
LINE
8
0
6
CONTINUOUS
10
-92.466130
20
86.630168
30
0.0
11
-93.754565
21
87.564563
31
0.0
0
LINE
8
0
6
CONTINUOUS
10
-93.962104
20
88.340636
30
0.0
11
-92.714143
21
87.435583
31
0.0
0
LINE
8
0
6
CONTINUOUS
10
-94.588002
20
88.794329
30
0.0
11
-93.962104
21
88.340636
31
0.0
0
LINE
8
0
6
CONTINUOUS
10
-93.946185
20
89.664866
30
0.0
11
-94.588002
21
88.794329
31
0.0
0
LINE
8
0
6
CONTINUOUS
10
-92.092124
20
86.984273
30
0.0
11
-92.714143
21
87.435583
31
0.0
0
LINE
8
0
6
CONTINUOUS
10
-93.962104
20
88.340636
30
0.0
11
-94.588002
21
88.794329
31
0.0
0
LINE
8
0
6
CONTINUOUS
10
-92.714143
20
87.435583
30
0.0
11
-93.962104
21
88.340636
31
0.0
0
LINE
8
0
6
CONTINUOUS
10
-99.409737
20
92.302988
30
0.0
11
-98.161790
21
91.397952
31
0.0
0
LINE
8
0
6
CONTINUOUS
10
-100.035645
20
92.756678
30
0.0
11
-99.409737
21
92.302988
31
0.0
0
LINE
8
0
6
CONTINUOUS
10
-99.381181
20
93.644375
30
0.0
11
-100.035645
21
92.756678
31
0.0
0
LINE
8
0
6
CONTINUOUS
10
-97.539764
20
90.946613
30
0.0
11
-97.255389
21
91.332330
31
0.0
0
LINE
8
0
6
CONTINUOUS
10
-98.161790
20
91.397952
30
0.0
11
-97.539764
21
90.946613
31
0.0
0
LINE
8
0
6
CONTINUOUS
10
-97.539764
20
90.946613
30
0.0
11
-98.161790
21
91.397952
31
0.0
0
LINE
8
0
6
CONTINUOUS
10
-99.409737
20
92.302988
30
0.0
11
-100.035645
21
92.756678
31
0.0
0
LINE
8
0
6
CONTINUOUS
10
-98.161790
20
91.397952
30
0.0
11
-99.409737
21
92.302988
31
0.0
0
LINE
8
0
6
CONTINUOUS
10
-91.544026
20
87.204078
30
0.0
11
-90.473448
21
86.427686
31
0.0
0
LINE
8
0
6
CONTINUOUS
10
-92.080978
20
87.593299
30
0.0
11
-91.544026
21
87.204078
31
0.0
0
LINE
8
0
6
CONTINUOUS
10
-91.462102
20
88.434679
30
0.0
11
-92.080978
21
87.593299
31
0.0
0
LINE
8
0
6
CONTINUOUS
10
-89.939826
20
86.040483
30
0.0
11
-90.473448
21
86.427686
31
0.0
0
LINE
8
0
6
CONTINUOUS
10
-91.544026
20
87.204078
30
0.0
11
-92.080978
21
87.593299
31
0.0
0
LINE
8
0
6
CONTINUOUS
10
-90.473448
20
86.427686
30
0.0
11
-91.544026
21
87.204078
31
0.0
0
LINE
8
0
6
CONTINUOUS
10
-98.465146
20
92.235842
30
0.0
11
-97.928201
21
91.846650
31
0.0
0
LINE
8
0
6
CONTINUOUS
10
-97.836266
20
93.090836
30
0.0
11
-98.444176
21
92.264352
31
0.0
0
LINE
8
0
6
CONTINUOUS
10
-96.857621
20
91.070248
30
0.0
11
-96.323989
21
90.683047
31
0.0
0
LINE
8
0
6
CONTINUOUS
10
-96.323989
20
90.683047
30
0.0
11
-96.857621
21
91.070248
31
0.0
0
LINE
8
0
6
CONTINUOUS
10
-97.928201
20
91.846650
30
0.0
11
-98.465146
21
92.235842
31
0.0
0
LINE
8
0
6
CONTINUOUS
10
-96.857621
20
91.070248
30
0.0
11
-97.928201
21
91.846650
31
0.0
0
LINE
8
0
6
CONTINUOUS
10
-103.246118
20
95.692802
30
0.0
11
-102.175548
21
94.916397
31
0.0
0
LINE
8
0
6
CONTINUOUS
10
-103.783068
20
96.082013
30
0.0
11
-103.246118
21
95.692802
31
0.0
0
LINE
8
0
6
CONTINUOUS
10
-103.145518
20
96.948790
30
0.0
11
-103.783068
21
96.082013
31
0.0
0
LINE
8
0
6
CONTINUOUS
10
-101.641915
20
94.529197
30
0.0
11
-101.435279
21
94.810127
31
0.0
0
LINE
8
0
6
CONTINUOUS
10
-102.175548
20
94.916397
30
0.0
11
-101.641915
21
94.529197
31
0.0
0
LINE
8
0
6
CONTINUOUS
10
-101.641915
20
94.529197
30
0.0
11
-102.175548
21
94.916397
31
0.0
0
LINE
8
0
6
CONTINUOUS
10
-103.246118
20
95.692802
30
0.0
11
-103.783068
21
96.082013
31
0.0
0
LINE
8
0
6
CONTINUOUS
10
-102.175548
20
94.916397
30
0.0
11
-103.246118
21
95.692802
31
0.0
0
LINE
8
0
6
CONTINUOUS
10
-108.038167
20
99.717825
30
0.0
11
-106.982276
21
98.952117
31
0.0
0
LINE
8
0
6
CONTINUOUS
10
-108.413039
20
99.989478
30
0.0
11
-108.038167
21
99.717825
31
0.0
0
LINE
8
0
6
CONTINUOUS
10
-107.773102
20
100.860228
30
0.0
11
-108.413039
21
99.989478
31
0.0
0
LINE
8
0
6
CONTINUOUS
10
-106.301248
20
98.458034
30
0.0
11
-106.078083
21
98.761690
31
0.0
0
LINE
8
0
6
CONTINUOUS
10
-106.982276
20
98.952117
30
0.0
11
-106.301248
21
98.458034
31
0.0
0
LINE
8
0
6
CONTINUOUS
10
-106.301248
20
98.458034
30
0.0
11
-106.982276
21
98.952117
31
0.0
0
LINE
8
0
6
CONTINUOUS
10
-108.038167
20
99.717825
30
0.0
11
-108.413039
21
99.989478
31
0.0
0
LINE
8
0
6
CONTINUOUS
10
-106.982276
20
98.952117
30
0.0
11
-108.038167
21
99.717825
31
0.0
0
LINE
8
0
6
CONTINUOUS
10
-102.941271
20
96.021029
30
0.0
11
-101.885362
21
95.255295
31
0.0
0
LINE
8
0
6
CONTINUOUS
10
-101.885362
20
95.255295
30
0.0
11
-101.204352
21
94.761239
31
0.0
0
LINE
8
0
6
CONTINUOUS
10
-101.204352
20
94.761239
30
0.0
11
-101.885362
21
95.255295
31
0.0
0
LINE
8
0
6
CONTINUOUS
10
-102.941271
20
96.021029
30
0.0
11
-103.316128
21
96.292666
31
0.0
0
LINE
8
0
6
CONTINUOUS
10
-101.885362
20
95.255295
30
0.0
11
-102.941271
21
96.021029
31
0.0
0
LINE
8
0
6
CONTINUOUS
10
-96.847651
20
91.609266
30
0.0
11
-95.791784
21
90.843573
31
0.0
0
LINE
8
0
6
CONTINUOUS
10
-97.222528
20
91.880939
30
0.0
11
-96.847651
21
91.609266
31
0.0
0
LINE
8
0
6
CONTINUOUS
10
-96.610674
20
92.713479
30
0.0
11
-97.222528
21
91.880939
31
0.0
0
LINE
8
0
6
CONTINUOUS
10
-95.791784
20
90.843573
30
0.0
11
-95.110767
21
90.349528
31
0.0
0
LINE
8
0
6
CONTINUOUS
10
-95.110767
20
90.349528
30
0.0
11
-95.791784
21
90.843573
31
0.0
0
LINE
8
0
6
CONTINUOUS
10
-96.847651
20
91.609266
30
0.0
11
-97.222528
21
91.880939
31
0.0
0
LINE
8
0
6
CONTINUOUS
10
-95.791784
20
90.843573
30
0.0
11
-96.847651
21
91.609266
31
0.0
0
LINE
8
0
6
CONTINUOUS
10
-90.233789
20
86.829403
30
0.0
11
-89.177897
21
86.063695
31
0.0
0
LINE
8
0
6
CONTINUOUS
10
-90.608646
20
87.101040
30
0.0
11
-90.233789
21
86.829403
31
0.0
0
LINE
8
0
6
CONTINUOUS
10
-90.011392
20
87.913719
30
0.0
11
-90.608646
21
87.101040
31
0.0
0
LINE
8
0
6
CONTINUOUS
10
-88.496884
20
85.569629
30
0.0
11
-87.294246
21
87.206015
31
0.0
0
LINE
8
0
6
CONTINUOUS
10
-89.177897
20
86.063695
30
0.0
11
-88.496884
21
85.569629
31
0.0
0
LINE
8
0
6
CONTINUOUS
10
-88.496884
20
85.569629
30
0.0
11
-89.177897
21
86.063695
31
0.0
0
LINE
8
0
6
CONTINUOUS
10
-90.233789
20
86.829403
30
0.0
11
-90.608646
21
87.101040
31
0.0
0
LINE
8
0
6
CONTINUOUS
10
-89.177897
20
86.063695
30
0.0
11
-90.233789
21
86.829403
31
0.0
0
LINE
8
0
6
CONTINUOUS
10
-71.168400
20
71.180400
30
0.0
11
-70.525479
21
72.057153
31
0.0
0
LINE
8
0
6
CONTINUOUS
10
-71.681298
20
71.552601
30
0.0
11
-71.168400
21
71.180400
31
0.0
0
LINE
8
0
6
CONTINUOUS
10
-72.961353
20
72.480944
30
0.0
11
-73.728521
21
73.037094
31
0.0
0
LINE
8
0
6
CONTINUOUS
10
-71.681298
20
71.552601
30
0.0
11
-72.961353
21
72.480944
31
0.0
0
LINE
8
0
6
CONTINUOUS
10
-71.168400
20
71.180400
30
0.0
11
-71.681298
21
71.552601
31
0.0
0
LINE
8
0
6
CONTINUOUS
10
-53.429241
20
60.156893
30
0.0
11
-52.783758
21
61.038805
31
0.0
0
LINE
8
0
6
CONTINUOUS
10
-53.855435
20
60.466190
30
0.0
11
-53.429241
21
60.156893
31
0.0
0
LINE
8
0
6
CONTINUOUS
10
-54.919061
20
61.237562
30
0.0
11
-53.855435
21
60.466190
31
0.0
0
LINE
8
0
6
CONTINUOUS
10
-55.556503
20
61.699676
30
0.0
11
-54.919061
21
61.237562
31
0.0
0
LINE
8
0
6
CONTINUOUS
10
-54.919061
20
61.237562
30
0.0
11
-55.556503
21
61.699676
31
0.0
0
LINE
8
0
6
CONTINUOUS
10
-53.855435
20
60.466190
30
0.0
11
-54.919061
21
61.237562
31
0.0
0
LINE
8
0
6
CONTINUOUS
10
-53.429241
20
60.156893
30
0.0
11
-53.855435
21
60.466190
31
0.0
0
LINE
8
0
6
CONTINUOUS
10
-59.919134
20
64.276397
30
0.0
11
-59.492946
21
63.967119
31
0.0
0
LINE
8
0
6
CONTINUOUS
10
-60.982750
20
65.047772
30
0.0
11
-59.919134
21
64.276397
31
0.0
0
LINE
8
0
6
CONTINUOUS
10
-61.620193
20
65.509886
30
0.0
11
-60.982750
21
65.047772
31
0.0
0
LINE
8
0
6
CONTINUOUS
10
-60.982750
20
65.047772
30
0.0
11
-61.620193
21
65.509886
31
0.0
0
LINE
8
0
6
CONTINUOUS
10
-59.919134
20
64.276397
30
0.0
11
-60.982750
21
65.047772
31
0.0
0
LINE
8
0
6
CONTINUOUS
10
-59.492946
20
63.967119
30
0.0
11
-59.919134
21
64.276397
31
0.0
0
LINE
8
0
6
CONTINUOUS
10
-65.933533
20
68.014199
30
0.0
11
-65.436727
21
67.653671
31
0.0
0
LINE
8
0
6
CONTINUOUS
10
-67.173366
20
68.913366
30
0.0
11
-65.933533
21
68.014199
31
0.0
0
LINE
8
0
6
CONTINUOUS
10
-67.916415
20
69.452051
30
0.0
11
-67.173366
21
68.913366
31
0.0
0
LINE
8
0
6
CONTINUOUS
10
-67.173366
20
68.913366
30
0.0
11
-67.916415
21
69.452051
31
0.0
0
LINE
8
0
6
CONTINUOUS
10
-65.933533
20
68.014199
30
0.0
11
-67.173366
21
68.913366
31
0.0
0
LINE
8
0
6
CONTINUOUS
10
-65.436727
20
67.653671
30
0.0
11
-65.933533
21
68.014199
31
0.0
0
LINE
8
0
6
CONTINUOUS
10
-55.257120
20
61.456163
30
0.0
11
-54.710604
21
62.202854
31
0.0
0
LINE
8
0
6
CONTINUOUS
10
-55.683289
20
61.765446
30
0.0
11
-55.257120
21
61.456163
31
0.0
0
LINE
8
0
6
CONTINUOUS
10
-56.746920
20
62.536838
30
0.0
11
-55.683289
21
61.765446
31
0.0
0
LINE
8
0
6
CONTINUOUS
10
-56.746920
20
62.536838
30
0.0
11
-57.384382
21
62.998947
31
0.0
0
LINE
8
0
6
CONTINUOUS
10
-55.683289
20
61.765446
30
0.0
11
-56.746920
21
62.536838
31
0.0
0
LINE
8
0
6
CONTINUOUS
10
-55.257120
20
61.456163
30
0.0
11
-55.683289
21
61.765446
31
0.0
0
LINE
8
0
6
CONTINUOUS
10
-61.309944
20
65.281362
30
0.0
11
-60.756660
21
66.037300
31
0.0
0
LINE
8
0
6
CONTINUOUS
10
-61.736140
20
65.590627
30
0.0
11
-61.309944
21
65.281362
31
0.0
0
LINE
8
0
6
CONTINUOUS
10
-62.799751
20
66.362024
30
0.0
11
-61.736140
21
65.590627
31
0.0
0
LINE
8
0
6
CONTINUOUS
10
-63.437198
20
66.824117
30
0.0
11
-62.799751
21
66.362024
31
0.0
0
LINE
8
0
6
CONTINUOUS
10
-62.799751
20
66.362024
30
0.0
11
-63.437198
21
66.824117
31
0.0
0
LINE
8
0
6
CONTINUOUS
10
-61.736140
20
65.590627
30
0.0
11
-62.799751
21
66.362024
31
0.0
0
LINE
8
0
6
CONTINUOUS
10
-61.309944
20
65.281362
30
0.0
11
-61.736140
21
65.590627
31
0.0
0
LINE
8
0
6
CONTINUOUS
10
-70.336765
20
71.216092
30
0.0
11
-69.593711
21
70.677430
31
0.0
0
LINE
8
0
6
CONTINUOUS
10
-69.791383
20
71.960096
30
0.0
11
-70.336765
21
71.216092
31
0.0
0
LINE
8
0
6
CONTINUOUS
10
-69.593711
20
70.677430
30
0.0
11
-70.336765
21
71.216092
31
0.0
0
LINE
8
0
6
CONTINUOUS
10
-68.353870
20
69.778234
30
0.0
11
-69.593711
21
70.677430
31
0.0
0
LINE
8
0
6
CONTINUOUS
10
-67.857077
20
69.417712
30
0.0
11
-68.353870
21
69.778234
31
0.0
0
LINE
8
0
6
CONTINUOUS
10
-73.591782
20
72.940660
30
0.0
11
-73.023768
21
73.715274
31
0.0
0
LINE
8
0
6
CONTINUOUS
10
-74.104700
20
73.312896
30
0.0
11
-73.591782
21
72.940660
31
0.0
0
LINE
8
0
6
CONTINUOUS
10
-75.384745
20
74.241243
30
0.0
11
-76.151899
21
74.797376
31
0.0
0
LINE
8
0
6
CONTINUOUS
10
-74.104700
20
73.312896
30
0.0
11
-75.384745
21
74.241243
31
0.0
0
LINE
8
0
6
CONTINUOUS
10
-73.591782
20
72.940660
30
0.0
11
-74.104700
21
73.312896
31
0.0
0
LINE
8
0
6
CONTINUOUS
10
-79.014765
20
76.869099
30
0.0
11
-78.575860
21
77.467639
31
0.0
0
LINE
8
0
6
CONTINUOUS
10
-79.527666
20
77.241309
30
0.0
11
-79.014765
21
76.869099
31
0.0
0
LINE
8
0
6
CONTINUOUS
10
-80.807714
20
78.169665
30
0.0
11
-79.527666
21
77.241309
31
0.0
0
LINE
8
0
6
CONTINUOUS
10
-81.574873
20
78.725817
30
0.0
11
-80.807714
21
78.169665
31
0.0
0
LINE
8
0
6
CONTINUOUS
10
-80.980314
20
79.536620
30
0.0
11
-81.574873
21
78.725817
31
0.0
0
LINE
8
0
6
CONTINUOUS
10
-80.807714
20
78.169665
30
0.0
11
-81.574873
21
78.725817
31
0.0
0
LINE
8
0
6
CONTINUOUS
10
-79.527666
20
77.241309
30
0.0
11
-80.807714
21
78.169665
31
0.0
0
LINE
8
0
6
CONTINUOUS
10
-79.014765
20
76.869099
30
0.0
11
-79.527666
21
77.241309
31
0.0
0
LINE
8
0
6
CONTINUOUS
10
-72.636727
20
72.868082
30
0.0
11
-72.349667
21
73.259685
31
0.0
0
LINE
8
0
6
CONTINUOUS
10
-73.133508
20
73.228596
30
0.0
11
-72.636727
21
72.868082
31
0.0
0
LINE
8
0
6
CONTINUOUS
10
-74.373361
20
74.127799
30
0.0
11
-73.133508
21
73.228596
31
0.0
0
LINE
8
0
6
CONTINUOUS
10
-74.373361
20
74.127799
30
0.0
11
-75.116415
21
74.666462
31
0.0
0
LINE
8
0
6
CONTINUOUS
10
-73.133508
20
73.228596
30
0.0
11
-74.373361
21
74.127799
31
0.0
0
LINE
8
0
6
CONTINUOUS
10
-72.636727
20
72.868082
30
0.0
11
-73.133508
21
73.228596
31
0.0
0
LINE
8
0
6
CONTINUOUS
10
-78.609583
20
77.225070
30
0.0
11
-78.479506
21
77.402519
31
0.0
0
LINE
8
0
6
CONTINUOUS
10
-79.106379
20
77.585601
30
0.0
11
-78.609583
21
77.225070
31
0.0
0
LINE
8
0
6
CONTINUOUS
10
-80.346211
20
78.484768
30
0.0
11
-79.106379
21
77.585601
31
0.0
0
LINE
8
0
6
CONTINUOUS
10
-80.346211
20
78.484768
30
0.0
11
-81.089280
21
79.023447
31
0.0
0
LINE
8
0
6
CONTINUOUS
10
-79.106379
20
77.585601
30
0.0
11
-80.346211
21
78.484768
31
0.0
0
LINE
8
0
6
CONTINUOUS
10
-78.609583
20
77.225070
30
0.0
11
-79.106379
21
77.585601
31
0.0
0
LINE
8
0
6
CONTINUOUS
10
-64.906800
20
67.881048
30
0.0
11
-64.536378
21
68.387147
31
0.0
0
LINE
8
0
6
CONTINUOUS
10
-65.332979
20
68.190328
30
0.0
11
-64.906800
21
67.881048
31
0.0
0
LINE
8
0
6
CONTINUOUS
10
-66.396617
20
68.961708
30
0.0
11
-65.332979
21
68.190328
31
0.0
0
LINE
8
0
6
CONTINUOUS
10
-67.034062
20
69.423832
30
0.0
11
-66.396617
21
68.961708
31
0.0
0
LINE
8
0
6
CONTINUOUS
10
-66.463891
20
70.202830
30
0.0
11
-67.034062
21
69.423832
31
0.0
0
LINE
8
0
6
CONTINUOUS
10
-66.396617
20
68.961708
30
0.0
11
-67.034062
21
69.423832
31
0.0
0
LINE
8
0
6
CONTINUOUS
10
-65.332979
20
68.190328
30
0.0
11
-66.396617
21
68.961708
31
0.0
0
LINE
8
0
6
CONTINUOUS
10
-64.906800
20
67.881048
30
0.0
11
-65.332979
21
68.190328
31
0.0
0
LINE
8
0
6
CONTINUOUS
10
-69.967855
20
71.563565
30
0.0
11
-69.891107
21
71.668423
31
0.0
0
LINE
8
0
6
CONTINUOUS
10
-70.394034
20
71.872845
30
0.0
11
-69.967855
21
71.563565
31
0.0
0
LINE
8
0
6
CONTINUOUS
10
-71.457665
20
72.644237
30
0.0
11
-70.394034
21
71.872845
31
0.0
0
LINE
8
0
6
CONTINUOUS
10
-72.095117
20
73.106349
30
0.0
11
-71.457665
21
72.644237
31
0.0
0
LINE
8
0
6
CONTINUOUS
10
-71.515561
20
73.898171
30
0.0
11
-72.095117
21
73.106349
31
0.0
0
LINE
8
0
6
CONTINUOUS
10
-71.457665
20
72.644237
30
0.0
11
-72.095117
21
73.106349
31
0.0
0
LINE
8
0
6
CONTINUOUS
10
-70.394034
20
71.872845
30
0.0
11
-71.457665
21
72.644237
31
0.0
0
LINE
8
0
6
CONTINUOUS
10
-69.967855
20
71.563565
30
0.0
11
-70.394034
21
71.872845
31
0.0
0
LINE
8
0
6
CONTINUOUS
10
-76.703678
20
76.461931
30
0.0
11
-76.277497
21
76.152641
31
0.0
0
LINE
8
0
6
CONTINUOUS
10
-78.404751
20
77.695437
30
0.0
11
-77.767299
21
77.233326
31
0.0
0
LINE
8
0
6
CONTINUOUS
10
-77.814771
20
78.501502
30
0.0
11
-78.404751
21
77.695437
31
0.0
0
LINE
8
0
6
CONTINUOUS
10
-77.767299
20
77.233326
30
0.0
11
-78.404751
21
77.695437
31
0.0
0
LINE
8
0
6
CONTINUOUS
10
-76.703678
20
76.461931
30
0.0
11
-77.767299
21
77.233326
31
0.0
0
LINE
8
0
6
CONTINUOUS
10
-76.277497
20
76.152641
30
0.0
11
-76.703678
21
76.461931
31
0.0
0
LINE
8
0
6
CONTINUOUS
10
-75.440795
20
76.087673
30
0.0
11
-74.856697
21
75.663882
31
0.0
0
LINE
8
0
6
CONTINUOUS
10
-76.509859
20
76.862979
30
0.0
11
-75.440795
21
76.087673
31
0.0
0
LINE
8
0
6
CONTINUOUS
10
-76.509859
20
76.862979
30
0.0
11
-76.994833
21
77.214483
31
0.0
0
LINE
8
0
6
CONTINUOUS
10
-75.440795
20
76.087673
30
0.0
11
-76.509859
21
76.862979
31
0.0
0
LINE
8
0
6
CONTINUOUS
10
-74.856697
20
75.663882
30
0.0
11
-75.440795
21
76.087673
31
0.0
0
LINE
8
0
6
CONTINUOUS
10
-68.457994
20
71.021315
30
0.0
11
-67.184367
21
72.758329
31
0.0
0
LINE
8
0
6
CONTINUOUS
10
-69.042086
20
71.445087
30
0.0
11
-68.457994
21
71.021315
31
0.0
0
LINE
8
0
6
CONTINUOUS
10
-70.111148
20
72.220383
30
0.0
11
-70.596114
21
72.571899
31
0.0
0
LINE
8
0
6
CONTINUOUS
10
-69.042086
20
71.445087
30
0.0
11
-70.111148
21
72.220383
31
0.0
0
LINE
8
0
6
CONTINUOUS
10
-68.457994
20
71.021315
30
0.0
11
-69.042086
21
71.445087
31
0.0
0
LINE
8
0
6
CONTINUOUS
10
-62.802247
20
66.932382
30
0.0
11
-62.603867
21
67.202941
31
0.0
0
LINE
8
0
6
CONTINUOUS
10
-63.386345
20
67.356172
30
0.0
11
-62.802247
21
66.932382
31
0.0
0
LINE
8
0
6
CONTINUOUS
10
-64.455389
20
68.131443
30
0.0
11
-63.386345
21
67.356172
31
0.0
0
LINE
8
0
6
CONTINUOUS
10
-64.455389
20
68.131443
30
0.0
11
-64.940377
21
68.482963
31
0.0
0
LINE
8
0
6
CONTINUOUS
10
-63.386345
20
67.356172
30
0.0
11
-64.455389
21
68.131443
31
0.0
0
LINE
8
0
6
CONTINUOUS
10
-62.802247
20
66.932382
30
0.0
11
-63.386345
21
67.356172
31
0.0
0
LINE
8
0
6
CONTINUOUS
10
-59.919620
20
64.856252
30
0.0
11
-60.404594
21
65.207755
31
0.0
0
LINE
8
0
6
CONTINUOUS
10
-58.850552
20
64.080967
30
0.0
11
-59.919620
21
64.856252
31
0.0
0
LINE
8
0
6
CONTINUOUS
10
-58.266464
20
63.657174
30
0.0
11
-58.850552
21
64.080967
31
0.0
0
LINE
8
0
6
CONTINUOUS
10
-98.571911
20
91.063551
30
0.0
11
-98.348690
21
90.901923
31
0.0
0
LINE
8
0
6
CONTINUOUS
10
-98.348690
20
90.901923
30
0.0
11
-97.138108
21
90.024067
31
0.0
0
LINE
8
0
6
CONTINUOUS
10
-96.150747
20
89.307839
30
0.0
11
-95.610410
21
90.054147
31
0.0
0
LINE
8
0
6
CONTINUOUS
10
-97.138108
20
90.024067
30
0.0
11
-96.150747
21
89.307839
31
0.0
0
LINE
8
0
6
CONTINUOUS
10
-97.138108
20
90.024067
30
0.0
11
-98.348690
21
90.901923
31
0.0
0
LINE
8
0
6
CONTINUOUS
10
-96.150747
20
89.307839
30
0.0
11
-97.138108
21
90.024067
31
0.0
0
LINE
8
0
6
CONTINUOUS
10
-98.348690
20
90.901923
30
0.0
11
-98.571911
21
91.063551
31
0.0
0
LINE
8
0
6
CONTINUOUS
10
-112.292130
20
102.819160
30
0.0
11
-112.106652
21
102.684868
31
0.0
0
LINE
8
0
6
CONTINUOUS
10
-111.653919
20
103.700405
30
0.0
11
-112.292130
21
102.819160
31
0.0
0
LINE
8
0
6
CONTINUOUS
10
-112.106652
20
102.684868
30
0.0
11
-111.100749
21
101.955453
31
0.0
0
LINE
8
0
6
CONTINUOUS
10
-110.280334
20
101.360327
30
0.0
11
-109.886954
21
101.903507
31
0.0
0
LINE
8
0
6
CONTINUOUS
10
-111.100749
20
101.955453
30
0.0
11
-110.280334
21
101.360327
31
0.0
0
LINE
8
0
6
CONTINUOUS
10
-111.100749
20
101.955453
30
0.0
11
-112.106652
21
102.684868
31
0.0
0
LINE
8
0
6
CONTINUOUS
10
-110.280334
20
101.360327
30
0.0
11
-111.100749
21
101.955453
31
0.0
0
LINE
8
0
6
CONTINUOUS
10
-112.106652
20
102.684868
30
0.0
11
-112.292130
21
102.819160
31
0.0
0
LINE
8
0
6
CONTINUOUS
10
-106.535443
20
98.086180
30
0.0
11
-107.541348
21
98.815604
31
0.0
0
LINE
8
0
6
CONTINUOUS
10
-105.715027
20
97.491054
30
0.0
11
-106.535443
21
98.086180
31
0.0
0
LINE
8
0
6
CONTINUOUS
10
-107.541348
20
98.815604
30
0.0
11
-107.726823
21
98.949887
31
0.0
0
LINE
8
0
6
CONTINUOUS
10
-102.137606
20
94.278618
30
0.0
11
-103.310172
21
95.128889
31
0.0
0
LINE
8
0
6
CONTINUOUS
10
-101.181286
20
93.584900
30
0.0
11
-102.137606
21
94.278618
31
0.0
0
LINE
8
0
6
CONTINUOUS
10
-103.310172
20
95.128889
30
0.0
11
-103.526387
21
95.285439
31
0.0
0
LINE
8
0
6
CONTINUOUS
10
-114.366851
20
104.301617
30
0.0
11
-113.360939
21
103.572205
31
0.0
0
LINE
8
0
6
CONTINUOUS
10
-112.540527
20
102.977057
30
0.0
11
-112.034900
21
103.675232
31
0.0
0
LINE
8
0
6
CONTINUOUS
10
-113.360939
20
103.572205
30
0.0
11
-112.540527
21
102.977057
31
0.0
0
LINE
8
0
6
CONTINUOUS
10
-113.360939
20
103.572205
30
0.0
11
-114.366851
21
104.301617
31
0.0
0
LINE
8
0
6
CONTINUOUS
10
-112.540527
20
102.977057
30
0.0
11
-113.360939
21
103.572205
31
0.0
0
LINE
8
0
6
CONTINUOUS
10
-114.366851
20
104.301617
30
0.0
11
-114.552324
21
104.435931
31
0.0
0
LINE
8
0
6
CONTINUOUS
10
-109.626452
20
100.321700
30
0.0
11
-109.440980
21
100.187428
31
0.0
0
LINE
8
0
6
CONTINUOUS
10
-108.986466
20
101.205397
30
0.0
11
-109.626452
21
100.321700
31
0.0
0
LINE
8
0
6
CONTINUOUS
10
-109.440980
20
100.187428
30
0.0
11
-108.435071
21
99.457993
31
0.0
0
LINE
8
0
6
CONTINUOUS
10
-108.435071
20
99.457993
30
0.0
11
-109.440980
21
100.187428
31
0.0
0
LINE
8
0
6
CONTINUOUS
10
-107.614658
20
98.862877
30
0.0
11
-108.435071
21
99.457993
31
0.0
0
LINE
8
0
6
CONTINUOUS
10
-109.440980
20
100.187428
30
0.0
11
-109.626452
21
100.321700
31
0.0
0
LINE
8
0
6
CONTINUOUS
10
-104.778490
20
96.176979
30
0.0
11
-104.562290
21
96.020446
31
0.0
0
LINE
8
0
6
CONTINUOUS
10
-104.116098
20
97.091813
30
0.0
11
-104.778490
21
96.176979
31
0.0
0
LINE
8
0
6
CONTINUOUS
10
-104.562290
20
96.020446
30
0.0
11
-103.389721
21
95.170166
31
0.0
0
LINE
8
0
6
CONTINUOUS
10
-103.389721
20
95.170166
30
0.0
11
-102.433389
21
94.476440
31
0.0
0
LINE
8
0
6
CONTINUOUS
10
-103.389721
20
95.170166
30
0.0
11
-104.562290
21
96.020446
31
0.0
0
LINE
8
0
6
CONTINUOUS
10
-102.433389
20
94.476440
30
0.0
11
-103.389721
21
95.170166
31
0.0
0
LINE
8
0
6
CONTINUOUS
10
-104.562290
20
96.020446
30
0.0
11
-104.778490
21
96.176979
31
0.0
0
LINE
8
0
6
CONTINUOUS
10
-99.278165
20
91.562957
30
0.0
11
-99.054959
21
91.401345
31
0.0
0
LINE
8
0
6
CONTINUOUS
10
-97.844380
20
90.523498
30
0.0
11
-96.857009
21
89.807273
31
0.0
0
LINE
8
0
6
CONTINUOUS
10
-96.857009
20
89.807273
30
0.0
11
-97.844380
21
90.523498
31
0.0
0
LINE
8
0
6
CONTINUOUS
10
-99.054959
20
91.401345
30
0.0
11
-99.278165
21
91.562957
31
0.0
0
LINE
8
0
6
CONTINUOUS
10
-96.889039
20
89.835210
30
0.0
11
-96.665845
21
89.673605
31
0.0
0
LINE
8
0
6
CONTINUOUS
10
-96.665845
20
89.673605
30
0.0
11
-95.455251
21
88.795742
31
0.0
0
LINE
8
0
6
CONTINUOUS
10
-95.455251
20
88.795742
30
0.0
11
-96.665845
21
89.673605
31
0.0
0
LINE
8
0
6
CONTINUOUS
10
-94.467895
20
88.079533
30
0.0
11
-95.455251
21
88.795742
31
0.0
0
LINE
8
0
6
CONTINUOUS
10
-96.665845
20
89.673605
30
0.0
11
-96.889039
21
89.835210
31
0.0
0
LINE
8
0
6
CONTINUOUS
10
-109.626688
20
100.324213
30
0.0
11
-109.812156
21
100.458508
31
0.0
0
LINE
8
0
6
CONTINUOUS
10
-112.084048
20
102.645473
30
0.0
11
-111.153416
21
101.970664
31
0.0
0
LINE
8
0
6
CONTINUOUS
10
-110.229718
20
101.300691
30
0.0
11
-109.828839
21
101.855571
31
0.0
0
LINE
8
0
6
CONTINUOUS
10
-111.153416
20
101.970664
30
0.0
11
-110.229718
21
101.300691
31
0.0
0
LINE
8
0
6
CONTINUOUS
10
-111.153416
20
101.970664
30
0.0
11
-112.084048
21
102.645473
31
0.0
0
LINE
8
0
6
CONTINUOUS
10
-110.229718
20
101.300691
30
0.0
11
-111.153416
21
101.970664
31
0.0
0
LINE
8
0
6
CONTINUOUS
10
-114.456187
20
104.377568
30
0.0
11
-115.386813
21
105.052357
31
0.0
0
LINE
8
0
6
CONTINUOUS
10
-91.729355
20
86.093139
30
0.0
11
-91.073175
21
85.617499
31
0.0
0
LINE
8
0
6
CONTINUOUS
10
-91.073175
20
85.617499
30
0.0
11
-91.729355
21
86.093139
31
0.0
0
LINE
8
0
6
CONTINUOUS
10
-112.034900
20
103.675232
30
0.0
11
-111.807807
21
103.487915
31
0.0
0
LINE
8
0
6
CONTINUOUS
10
-109.886954
20
101.903507
30
0.0
11
-109.006711
21
101.177443
31
0.0
0
LINE
8
0
6
CONTINUOUS
10
-57.865658
20
64.203809
30
0.0
11
-56.934671
21
63.613371
31
0.0
0
LINE
8
0
6
CONTINUOUS
10
-105.284174
20
98.085981
30
0.0
11
-104.060285
21
97.044310
31
0.0
0
LINE
8
0
6
CONTINUOUS
10
-100.729250
20
94.209214
30
0.0
11
-99.645066
21
93.286448
31
0.0
0
LINE
8
0
6
CONTINUOUS
10
-95.610410
20
90.054147
30
0.0
11
-94.369858
21
89.090212
31
0.0
0
LINE
8
0
6
CONTINUOUS
10
-90.999006
20
86.470989
30
0.0
11
-90.702755
21
86.240796
31
0.0
0
LINE
8
0
6
CONTINUOUS
10
-77.022784
20
76.417997
30
0.0
11
-75.645889
21
75.487427
31
0.0
0
LINE
8
0
6
CONTINUOUS
10
-88.257477
20
84.357621
30
0.0
11
-87.871054
21
84.060526
31
0.0
0
LINE
8
0
6
CONTINUOUS
10
-81.966419
20
79.778251
30
0.0
11
-81.191456
21
79.248684
31
0.0
0
LINE
8
0
6
CONTINUOUS
10
-119.277816
20
110.461872
30
0.0
11
-118.235373
21
109.028701
31
0.0
0
LINE
8
0
6
CONTINUOUS
10
-118.342011
20
109.716659
30
0.0
11
-119.277816
21
110.461872
31
0.0
0
LINE
8
0
6
CONTINUOUS
10
-115.694579
20
107.935343
30
0.0
11
-118.342011
21
109.716659
31
0.0
0
LINE
8
0
6
CONTINUOUS
10
-98.807446
20
95.554970
30
0.0
11
-105.646039
21
100.513552
31
0.0
0
LINE
8
0
6
CONTINUOUS
10
-91.187866
20
90.029653
30
0.0
11
-98.807446
21
95.554970
31
0.0
0
LINE
8
0
6
CONTINUOUS
10
-83.169124
20
84.214501
30
0.0
11
-91.187866
21
90.029653
31
0.0
0
LINE
8
0
6
CONTINUOUS
10
-54.956819
20
63.814806
30
0.0
11
-60.586765
21
67.972756
31
0.0
0
LINE
8
0
6
CONTINUOUS
10
-50.667494
20
60.702300
30
0.0
11
-54.956819
21
63.814806
31
0.0
0
LINE
8
0
6
CONTINUOUS
10
-47.919238
20
58.781754
30
0.0
11
-50.667494
21
60.702300
31
0.0
0
LINE
8
0
6
CONTINUOUS
10
-47.111667
20
58.125599
30
0.0
11
-47.919238
21
58.781754
31
0.0
0
LINE
8
0
6
CONTINUOUS
10
-48.797472
20
58.671005
30
0.0
11
-47.111667
21
58.125599
31
0.0
0
LINE
8
0
6
CONTINUOUS
10
-105.646039
20
100.513552
30
0.0
11
-111.336690
21
104.639325
31
0.0
0
LINE
8
0
6
CONTINUOUS
10
-75.064479
20
78.473749
30
0.0
11
-83.169124
21
84.214501
31
0.0
0
LINE
8
0
6
CONTINUOUS
10
-67.431243
20
72.937405
30
0.0
11
-75.064479
21
78.473749
31
0.0
0
LINE
8
0
6
CONTINUOUS
10
-60.586765
20
67.972756
30
0.0
11
-67.431243
21
72.937405
31
0.0
0
LINE
8
0
6
CONTINUOUS
10
-111.359978
20
104.656208
30
0.0
11
-115.694579
21
107.935343
31
0.0
0
LINE
8
0
6
CONTINUOUS
10
-118.235373
20
109.028701
30
0.0
11
-114.736621
21
105.966714
31
0.0
0
LINE
8
0
6
CONTINUOUS
10
-52.783758
20
61.038805
30
0.0
11
-48.797472
21
58.671005
31
0.0
0
LINE
8
0
6
CONTINUOUS
10
-28.337758
20
51.522267
30
0.0
11
-28.458117
21
51.340725
31
0.0
0
LINE
8
0
6
CONTINUOUS
10
-27.972812
20
52.042837
30
0.0
11
-28.337758
21
51.522267
31
0.0
0
LINE
8
0
6
CONTINUOUS
10
54.439236
20
-29.510825
30
0.0
11
55.578339
21
-28.858924
31
0.0
0
LINE
8
0
6
CONTINUOUS
10
-36.779297
20
63.138227
30
0.0
11
-28.110426
21
52.585931
31
0.0
0
LINE
8
0
6
CONTINUOUS
10
55.578339
20
-28.858924
30
0.0
11
56.014954
21
-28.598776
31
0.0
0
LINE
8
0
6
CONTINUOUS
10
56.014954
20
-28.598776
30
0.0
11
55.520371
21
-27.941999
31
0.0
0
LINE
8
0
6
CONTINUOUS
10
-28.271708
20
48.179250
30
0.0
11
-28.049463
21
47.860354
31
0.0
0
LINE
8
0
6
CONTINUOUS
10
-17.807126
20
66.830198
30
0.0
11
-28.700379
21
78.868612
31
0.0
0
LINE
8
0
6
CONTINUOUS
10
52.455046
20
-30.633030
30
0.0
11
54.439236
21
-29.510825
31
0.0
0
LINE
8
0
6
CONTINUOUS
10
49.197202
20
-32.458599
30
0.0
11
52.455046
21
-30.633030
31
0.0
0
LINE
8
0
6
CONTINUOUS
10
41.455709
20
-36.783838
30
0.0
11
42.141081
21
-36.400923
31
0.0
0
LINE
8
0
6
CONTINUOUS
10
38.581177
20
-38.387185
30
0.0
11
41.455709
21
-36.783838
31
0.0
0
LINE
8
0
6
CONTINUOUS
10
36.610320
20
-39.478635
30
0.0
11
38.581177
21
-38.387185
31
0.0
0
LINE
8
0
6
CONTINUOUS
10
35.122058
20
-40.296093
30
0.0
11
36.408615
21
-39.589418
31
0.0
0
LINE
8
0
6
CONTINUOUS
10
33.861893
20
-40.970434
30
0.0
11
34.155911
21
-40.821208
31
0.0
0
LINE
8
0
6
CONTINUOUS
10
33.432341
20
-40.354030
30
0.0
11
33.861893
21
-40.970434
31
0.0
0
LINE
8
0
6
CONTINUOUS
10
34.155911
20
-40.821208
30
0.0
11
35.122058
21
-40.296093
31
0.0
0
LINE
8
0
6
CONTINUOUS
10
-16.008753
20
67.081385
30
0.0
11
-17.156768
21
66.697270
31
0.0
0
LINE
8
0
6
CONTINUOUS
10
-15.239983
20
66.059975
30
0.0
11
-16.008753
21
67.081385
31
0.0
0
LINE
8
0
6
CONTINUOUS
10
-28.983528
20
49.200652
30
0.0
11
-28.271708
21
48.179250
31
0.0
0
LINE
8
0
6
CONTINUOUS
10
-28.458117
20
51.340725
30
0.0
11
-28.553378
21
50.952731
31
0.0
0
LINE
8
0
6
CONTINUOUS
10
-14.985186
20
65.721467
30
0.0
11
-15.239983
21
66.059975
31
0.0
0
LINE
8
0
6
CONTINUOUS
10
-28.110426
20
52.585931
30
0.0
11
-27.816322
21
52.227929
31
0.0
0
LINE
8
0
6
CONTINUOUS
10
-17.499341
20
66.490055
30
0.0
11
-17.807126
21
66.830198
31
0.0
0
LINE
8
0
6
CONTINUOUS
10
42.141081
20
-36.400923
30
0.0
11
48.538276
21
-32.826764
31
0.0
0
LINE
8
0
6
CONTINUOUS
10
48.538276
20
-32.826764
30
0.0
11
49.197202
21
-32.458599
31
0.0
0
LINE
8
0
6
CONTINUOUS
10
36.408615
20
-39.589418
30
0.0
11
36.610320
21
-39.478635
31
0.0
0
LINE
8
0
6
CONTINUOUS
10
-28.049463
20
47.860354
30
0.0
11
33.432341
21
-40.354030
31
0.0
0
LINE
8
0
6
CONTINUOUS
10
55.520371
20
-27.941999
30
0.0
11
-14.985186
21
65.721467
31
0.0
0
LINE
8
0
6
CONTINUOUS
10
-17.156768
20
66.697270
30
0.0
11
-17.410995
21
66.612217
31
0.0
0
LINE
8
0
6
CONTINUOUS
10
-28.553378
20
50.952731
30
0.0
11
-28.983528
21
49.200652
31
0.0
0
LINE
8
0
6
CONTINUOUS
10
-113.921005
20
126.690071
30
0.0
11
-118.127164
21
121.324770
31
0.0
0
LINE
8
0
6
CONTINUOUS
10
-37.143693
20
62.594015
30
0.0
11
-36.779297
21
63.138227
31
0.0
0
LINE
8
0
6
CONTINUOUS
10
-111.632512
20
129.084310
30
0.0
11
-113.921005
21
126.690071
31
0.0
0
LINE
8
0
6
CONTINUOUS
10
-106.622309
20
133.495856
30
0.0
11
-109.197909
21
131.365193
31
0.0
0
LINE
8
0
6
CONTINUOUS
10
-104.308045
20
134.878293
30
0.0
11
-104.432793
21
134.864433
31
0.0
0
LINE
8
0
6
CONTINUOUS
10
-103.423167
20
134.940361
30
0.0
11
-104.308045
21
134.878293
31
0.0
0
LINE
8
0
6
CONTINUOUS
10
-103.005948
20
134.946832
30
0.0
11
-103.423167
21
134.940361
31
0.0
0
LINE
8
0
6
CONTINUOUS
10
-28.528378
20
79.817079
30
0.0
11
-28.553926
21
79.939952
31
0.0
0
LINE
8
0
6
CONTINUOUS
10
-28.553926
20
79.939952
30
0.0
11
-28.769854
21
80.800345
31
0.0
0
LINE
8
0
6
CONTINUOUS
10
-28.769854
20
80.800345
30
0.0
11
-28.893305
21
81.198926
31
0.0
0
LINE
8
0
6
CONTINUOUS
10
-109.197909
20
131.365193
30
0.0
11
-111.632512
21
129.084310
31
0.0
0
LINE
8
0
6
CONTINUOUS
10
-37.287346
20
62.395938
30
0.0
11
-37.143693
21
62.594015
31
0.0
0
LINE
8
0
6
CONTINUOUS
10
-118.127164
20
121.324770
30
0.0
11
-118.270820
21
121.126703
31
0.0
0
LINE
8
0
6
CONTINUOUS
10
-118.473108
20
120.847796
30
0.0
11
-119.052747
21
120.048516
31
0.0
0
LINE
8
0
6
CONTINUOUS
10
-38.069254
20
61.317756
30
0.0
11
-37.489624
21
62.116993
31
0.0
0
LINE
8
0
6
CONTINUOUS
10
-49.807140
20
60.811941
30
0.0
11
-47.109412
21
58.853865
31
0.0
0
LINE
8
0
6
CONTINUOUS
10
-46.203767
20
58.195371
30
0.0
11
-43.868890
21
58.241185
31
0.0
0
LINE
8
0
6
CONTINUOUS
10
-47.109412
20
58.853865
30
0.0
11
-46.203767
21
58.195371
31
0.0
0
LINE
8
0
6
CONTINUOUS
10
-54.161706
20
63.971417
30
0.0
11
-49.807140
21
60.811941
31
0.0
0
LINE
8
0
6
CONTINUOUS
10
-119.052747
20
120.048516
30
0.0
11
-119.881055
21
118.111561
31
0.0
0
LINE
8
0
6
CONTINUOUS
10
-119.881055
20
118.111561
30
0.0
11
-120.327834
21
115.624158
31
0.0
0
LINE
8
0
6
CONTINUOUS
10
-120.327834
20
115.624158
30
0.0
11
-120.175317
21
113.580088
31
0.0
0
LINE
8
0
6
CONTINUOUS
10
-39.653056
20
59.928674
30
0.0
11
-38.069254
21
61.317756
31
0.0
0
LINE
8
0
6
CONTINUOUS
10
-41.878575
20
58.731259
30
0.0
11
-39.653056
21
59.928674
31
0.0
0
LINE
8
0
6
CONTINUOUS
10
-43.868890
20
58.241185
30
0.0
11
-41.878575
21
58.731259
31
0.0
0
LINE
8
0
6
CONTINUOUS
10
-103.103258
20
109.862143
30
0.0
11
-109.525122
21
114.518050
31
0.0
0
LINE
8
0
6
CONTINUOUS
10
-68.834198
20
85.011207
30
0.0
11
-77.842864
21
91.544688
31
0.0
0
LINE
8
0
6
CONTINUOUS
10
-41.397963
20
65.109312
30
0.0
11
-46.209687
21
68.600480
31
0.0
0
LINE
8
0
6
CONTINUOUS
10
-109.525122
20
114.518050
30
0.0
11
-114.361574
21
118.023917
31
0.0
0
LINE
8
0
6
CONTINUOUS
10
-77.842864
20
91.544688
30
0.0
11
-86.854733
21
98.080041
31
0.0
0
LINE
8
0
6
CONTINUOUS
10
-46.209687
20
68.600480
30
0.0
11
-52.610856
21
73.244080
31
0.0
0
LINE
8
0
6
CONTINUOUS
10
-114.361574
20
118.023917
30
0.0
11
-117.370092
21
120.203976
31
0.0
0
LINE
8
0
6
CONTINUOUS
10
-86.854733
20
98.080041
30
0.0
11
-95.418018
21
104.289681
31
0.0
0
LINE
8
0
6
CONTINUOUS
10
-52.610856
20
73.244080
30
0.0
11
-60.280579
21
78.807332
31
0.0
0
LINE
8
0
6
CONTINUOUS
10
-37.416339
20
62.218060
30
0.0
11
-38.417029
21
62.945675
31
0.0
0
LINE
8
0
6
CONTINUOUS
10
-37.489624
20
62.116993
30
0.0
11
-37.416339
21
62.218060
31
0.0
0
LINE
8
0
6
CONTINUOUS
10
-60.280579
20
78.807332
30
0.0
11
-68.834198
21
85.011207
31
0.0
0
LINE
8
0
6
CONTINUOUS
10
-117.370092
20
120.203976
30
0.0
11
-118.399802
21
120.948827
31
0.0
0
LINE
8
0
6
CONTINUOUS
10
-118.399802
20
120.948827
30
0.0
11
-118.473108
21
120.847796
31
0.0
0
LINE
8
0
6
CONTINUOUS
10
-95.418018
20
104.289681
30
0.0
11
-103.103258
21
109.862143
31
0.0
0
LINE
8
0
6
CONTINUOUS
10
-38.417029
20
62.945675
30
0.0
11
-41.397963
21
65.109312
31
0.0
0
LINE
8
0
6
CONTINUOUS
10
-102.819639
20
134.832217
30
0.0
11
-103.005948
21
134.946832
31
0.0
0
LINE
8
0
6
CONTINUOUS
10
-28.893305
20
81.198926
30
0.0
11
-29.060155
21
81.340403
31
0.0
0
LINE
8
0
6
CONTINUOUS
10
-58.828932
20
107.707881
30
0.0
11
-59.194294
21
107.973063
31
0.0
0
LINE
8
0
6
CONTINUOUS
10
-43.654329
20
95.149107
30
0.0
11
-51.088471
21
101.539424
31
0.0
0
LINE
8
0
6
CONTINUOUS
10
-93.311835
20
129.828531
30
0.0
11
-102.819639
21
134.832217
31
0.0
0
LINE
8
0
6
CONTINUOUS
10
-29.060155
20
81.340403
30
0.0
11
-36.404493
21
88.456720
31
0.0
0
LINE
8
0
6
CONTINUOUS
10
-104.432793
20
134.864433
30
0.0
11
-105.416805
21
134.332813
31
0.0
0
LINE
8
0
6
CONTINUOUS
10
-28.699784
20
78.872005
30
0.0
11
-28.528378
21
79.817079
31
0.0
0
LINE
8
0
6
CONTINUOUS
10
-65.815007
20
112.775016
30
0.0
11
-66.756805
21
113.457901
31
0.0
0
LINE
8
0
6
CONTINUOUS
10
-66.756805
20
113.457901
30
0.0
11
-67.543879
21
114.028543
31
0.0
0
LINE
8
0
6
CONTINUOUS
10
-59.194294
20
107.973063
30
0.0
11
-59.783950
21
108.400890
31
0.0
0
LINE
8
0
6
CONTINUOUS
10
-59.783950
20
108.400890
30
0.0
11
-60.568512
21
108.970023
31
0.0
0
LINE
8
0
6
CONTINUOUS
10
-60.568512
20
108.970023
30
0.0
11
-61.508530
21
109.651887
31
0.0
0
LINE
8
0
6
CONTINUOUS
10
-62.556845
20
110.412199
30
0.0
11
-63.660974
21
111.212982
31
0.0
0
LINE
8
0
6
CONTINUOUS
10
-63.660974
20
111.212982
30
0.0
11
-64.765477
21
112.013965
31
0.0
0
LINE
8
0
6
CONTINUOUS
10
-64.765477
20
112.013965
30
0.0
11
-65.815007
21
112.775016
31
0.0
0
LINE
8
0
6
CONTINUOUS
10
-61.508530
20
109.651887
30
0.0
11
-62.556845
21
110.412199
31
0.0
0
LINE
8
0
6
CONTINUOUS
10
-76.911319
20
120.249458
30
0.0
11
-85.218603
21
125.288829
31
0.0
0
LINE
8
0
6
CONTINUOUS
10
-67.543879
20
114.028543
30
0.0
11
-68.136655
21
114.458237
31
0.0
0
LINE
8
0
6
CONTINUOUS
10
-68.136655
20
114.458237
30
0.0
11
-68.505372
21
114.725415
31
0.0
0
LINE
8
0
6
CONTINUOUS
10
-68.505372
20
114.725415
30
0.0
11
-68.631572
21
114.816694
31
0.0
0
LINE
8
0
6
CONTINUOUS
10
-68.631572
20
114.816694
30
0.0
11
-76.911319
21
120.249458
31
0.0
0
LINE
8
0
6
CONTINUOUS
10
-85.218603
20
125.288829
30
0.0
11
-93.311835
21
129.828531
31
0.0
0
LINE
8
0
6
CONTINUOUS
10
-105.416805
20
134.332813
30
0.0
11
-106.622309
21
133.495856
31
0.0
0
LINE
8
0
6
CONTINUOUS
10
-37.777795
20
62.480194
30
0.0
11
-37.648808
21
62.658092
31
0.0
0
LINE
8
0
6
CONTINUOUS
10
-117.909351
20
120.864562
30
0.0
11
-118.038353
21
120.686681
31
0.0
0
LINE
8
0
6
CONTINUOUS
10
-36.404493
20
88.456720
30
0.0
11
-43.654329
21
95.149107
31
0.0
0
LINE
8
0
6
CONTINUOUS
10
-58.706289
20
107.618694
30
0.0
11
-58.828932
21
107.707881
31
0.0
0
LINE
8
0
6
CONTINUOUS
10
-51.088471
20
101.539424
30
0.0
11
-58.706289
21
107.618694
31
0.0
0
LINE
8
0
6
CONTINUOUS
10
-74.636829
20
78.823075
30
0.0
11
-66.895834
21
73.208594
31
0.0
0
LINE
8
0
6
CONTINUOUS
10
-105.650180
20
101.313080
30
0.0
11
-98.695061
21
96.270005
31
0.0
0
LINE
8
0
6
CONTINUOUS
10
-119.493499
20
111.346489
30
0.0
11
-118.561598
21
110.672369
31
0.0
0
LINE
8
0
6
CONTINUOUS
10
-120.175317
20
113.580088
30
0.0
11
-119.493499
21
111.346489
31
0.0
0
LINE
8
0
6
CONTINUOUS
10
-66.895834
20
73.208594
30
0.0
11
-59.954768
21
68.173890
31
0.0
0
LINE
8
0
6
CONTINUOUS
10
-118.561598
20
110.672369
30
0.0
11
-115.838910
21
108.699464
31
0.0
0
LINE
8
0
6
CONTINUOUS
10
-98.695061
20
96.270005
30
0.0
11
-90.945337
21
90.650342
31
0.0
0
LINE
8
0
6
CONTINUOUS
10
-59.954768
20
68.173890
30
0.0
11
-54.161706
21
63.971417
31
0.0
0
LINE
8
0
6
CONTINUOUS
10
-90.945337
20
90.650342
30
0.0
11
-82.789629
21
84.735848
31
0.0
0
LINE
8
0
6
CONTINUOUS
10
-115.838910
20
108.699464
30
0.0
11
-111.461943
21
105.526657
31
0.0
0
LINE
8
0
6
CONTINUOUS
10
-82.789629
20
84.735848
30
0.0
11
-74.636829
21
78.823075
31
0.0
0
LINE
8
0
6
CONTINUOUS
10
-111.461943
20
105.526657
30
0.0
11
-105.650180
21
101.313080
31
0.0
0
LINE
8
0
6
CONTINUOUS
10
-118.786867
20
111.456178
30
0.0
11
-119.277819
21
110.461871
31
0.0
0
LINE
8
0
6
CONTINUOUS
10
-119.277819
20
110.461871
30
0.0
11
-118.342014
21
109.716658
31
0.0
0
LINE
8
0
6
CONTINUOUS
10
-105.646042
20
100.513550
30
0.0
11
-98.807449
21
95.554969
31
0.0
0
LINE
8
0
6
CONTINUOUS
10
-98.807449
20
95.554969
30
0.0
11
-91.187869
21
90.029651
31
0.0
0
LINE
8
0
6
CONTINUOUS
10
-91.187869
20
90.029651
30
0.0
11
-83.169127
21
84.214499
31
0.0
0
LINE
8
0
6
CONTINUOUS
10
-60.586768
20
67.972754
30
0.0
11
-54.956822
21
63.814804
31
0.0
0
LINE
8
0
6
CONTINUOUS
10
-54.956822
20
63.814804
30
0.0
11
-50.667497
21
60.702299
31
0.0
0
LINE
8
0
6
CONTINUOUS
10
-50.667497
20
60.702299
30
0.0
11
-47.919241
21
58.781753
31
0.0
0
LINE
8
0
6
CONTINUOUS
10
-47.111670
20
58.125597
30
0.0
11
-46.319050
21
58.901113
31
0.0
0
LINE
8
0
6
CONTINUOUS
10
-47.919241
20
58.781753
30
0.0
11
-47.111670
21
58.125597
31
0.0
0
LINE
8
0
6
CONTINUOUS
10
-75.064482
20
78.473747
30
0.0
11
-67.431246
21
72.937404
31
0.0
0
LINE
8
0
6
CONTINUOUS
10
-83.169127
20
84.214499
30
0.0
11
-75.064482
21
78.473747
31
0.0
0
LINE
8
0
6
CONTINUOUS
10
-115.694582
20
107.935341
30
0.0
11
-111.359981
21
104.656207
31
0.0
0
LINE
8
0
6
CONTINUOUS
10
-67.431246
20
72.937404
30
0.0
11
-60.586768
21
67.972754
31
0.0
0
LINE
8
0
6
CONTINUOUS
10
-111.359981
20
104.656207
30
0.0
11
-105.646042
21
100.513550
31
0.0
0
LINE
8
0
6
CONTINUOUS
10
-47.135690
20
58.869496
30
0.0
11
-46.203767
21
58.195371
31
0.0
0
LINE
8
0
6
CONTINUOUS
10
63.195584
20
-79.928390
30
0.0
11
60.074180
21
-74.712720
31
0.0
0
LINE
8
0
6
CONTINUOUS
10
68.058805
20
-56.922269
30
0.0
11
77.491694
21
-72.743600
31
0.0
0
LINE
8
0
6
CONTINUOUS
10
71.378254
20
-98.078300
30
0.0
11
63.195584
21
-79.928390
31
0.0
0
LINE
8
0
6
CONTINUOUS
10
77.491694
20
-72.743600
30
0.0
11
86.098764
21
-91.808810
31
0.0
0
LINE
8
0
6
CONTINUOUS
10
77.364784
20
-114.860370
30
0.0
11
71.378254
21
-98.078300
31
0.0
0
LINE
8
0
6
CONTINUOUS
10
86.098764
20
-91.808810
30
0.0
11
92.501754
21
-109.676540
31
0.0
0
LINE
8
0
6
CONTINUOUS
10
81.731224
20
-130.721310
30
0.0
11
77.364784
21
-114.860370
31
0.0
0
LINE
8
0
6
CONTINUOUS
10
92.501754
20
-109.676540
30
0.0
11
97.226644
21
-126.734840
31
0.0
0
LINE
8
0
6
CONTINUOUS
10
85.048404
20
-146.131050
30
0.0
11
81.731224
21
-130.721310
31
0.0
0
LINE
8
0
6
CONTINUOUS
10
97.226644
20
-126.734840
30
0.0
11
100.804604
21
-143.348570
31
0.0
0
LINE
8
0
6
CONTINUOUS
10
87.183214
20
-161.569740
30
0.0
11
85.048404
21
-146.131050
31
0.0
0
LINE
8
0
6
CONTINUOUS
10
100.804604
20
-143.348570
30
0.0
11
103.092904
21
-159.872200
31
0.0
0
LINE
8
0
6
CONTINUOUS
10
88.380274
20
-177.507140
30
0.0
11
87.183214
21
-161.569740
31
0.0
0
LINE
8
0
6
CONTINUOUS
10
103.092904
20
-159.872200
30
0.0
11
104.358414
21
-176.670850
31
0.0
0
LINE
8
0
6
CONTINUOUS
10
88.877114
20
-194.387520
30
0.0
11
88.380274
21
-177.507140
31
0.0
0
LINE
8
0
6
CONTINUOUS
10
104.358414
20
-176.670850
30
0.0
11
104.875124
21
-194.134990
31
0.0
0
LINE
8
0
6
CONTINUOUS
10
88.914164
20
-212.628450
30
0.0
11
88.877114
21
-194.387520
31
0.0
0
LINE
8
0
6
CONTINUOUS
10
104.875124
20
-194.134990
30
0.0
11
104.914074
21
-212.681820
31
0.0
0
LINE
8
0
6
CONTINUOUS
10
96.914124
20
-479.500000
30
0.0
11
100.914104
21
-478.441540
31
0.0
0
LINE
8
0
6
CONTINUOUS
10
89.985954
20
-475.476910
30
0.0
11
92.914144
21
-478.414870
31
0.0
0
LINE
8
0
6
CONTINUOUS
10
100.914104
20
-478.441540
30
0.0
11
103.842284
21
-475.523100
31
0.0
0
LINE
8
0
6
CONTINUOUS
10
88.914164
20
-471.473310
30
0.0
11
89.985954
21
-475.476910
31
0.0
0
LINE
8
0
6
CONTINUOUS
10
88.914164
20
-212.628450
30
0.0
11
88.914164
21
-471.473310
31
0.0
0
LINE
8
0
6
CONTINUOUS
10
92.914144
20
-478.414870
30
0.0
11
96.914124
21
-479.500000
31
0.0
0
LINE
8
0
6
CONTINUOUS
10
104.914074
20
-471.526680
30
0.0
11
104.914074
21
-212.681820
31
0.0
0
LINE
8
0
6
CONTINUOUS
10
103.842284
20
-475.523100
30
0.0
11
104.914074
21
-471.526680
31
0.0
0
LINE
8
0
6
CONTINUOUS
10
40.220372
20
-49.442184
30
0.0
11
35.727512
21
-42.331599
31
0.0
0
LINE
8
0
6
CONTINUOUS
10
59.168707
20
-36.980422
30
0.0
11
56.193883
21
-30.901792
31
0.0
0
LINE
8
0
6
CONTINUOUS
10
34.750019
20
-40.581279
30
0.0
11
34.704561
21
-40.499879
31
0.0
0
LINE
8
0
6
CONTINUOUS
10
55.216400
20
-29.151511
30
0.0
11
55.170923
21
-29.070075
31
0.0
0
LINE
8
0
6
CONTINUOUS
10
56.193883
20
-30.901792
30
0.0
11
55.216400
21
-29.151511
31
0.0
0
LINE
8
0
6
CONTINUOUS
10
34.750019
20
-40.581279
30
0.0
11
35.727512
21
-42.331599
31
0.0
0
LINE
8
0
6
CONTINUOUS
10
59.068714
20
-36.966957
30
0.0
11
58.714997
21
-36.948520
31
0.0
0
LINE
8
0
6
CONTINUOUS
10
-74.545922
20
75.444717
30
0.0
11
-73.731689
21
75.003161
31
0.0
0
LINE
8
0
6
CONTINUOUS
10
-76.417376
20
78.002040
30
0.0
11
-75.870265
21
77.735289
31
0.0
0
LINE
8
0
6
CONTINUOUS
10
-64.219621
20
69.147782
30
0.0
11
-63.838304
21
68.973053
31
0.0
0
LINE
8
0
6
CONTINUOUS
10
-113.838388
20
105.299947
30
0.0
11
-113.702605
21
105.218811
31
0.0
0
ENDSEC
0
EOF
