999
Erzeugt mit innoplus bad 
0
SECTION
2
HEADER
9
$ACADVER
1
AC1009
9
$DWGCODEPAGE
3
ISO8859-1
0
ENDSEC
0
SECTION
2
TABLES
0
TABLE
2
LAYER
70
1
0
LAYER
2
0
70
0
62
7
6
CONTINUOUS
0
ENDTAB
0
ENDSEC
0
SECTION
2
ENTITIES
0
LINE
8
0
6
CONTINUOUS
10
68.321298
20
-281.706772
30
0.0
11
68.321298
21
-281.125962
31
0.0
0
LINE
8
0
6
CONTINUOUS
10
46.327834
20
-281.125962
30
0.0
11
46.327834
21
-281.706772
31
0.0
0
LINE
8
0
6
CONTINUOUS
10
68.321298
20
-281.125962
30
0.0
11
68.321298
21
53.702308
31
0.0
0
LINE
8
0
6
CONTINUOUS
10
68.321298
20
105.018609
30
0.0
11
68.321298
21
281.065132
31
0.0
0
LINE
8
0
6
CONTINUOUS
10
46.327834
20
281.065132
30
0.0
11
46.327834
21
129.269874
31
0.0
0
LINE
8
0
6
CONTINUOUS
10
46.327834
20
74.389300
30
0.0
11
46.327834
21
-281.125962
31
0.0
0
LINE
8
0
6
CONTINUOUS
10
68.321298
20
-281.921412
30
0.0
11
68.321298
21
-281.706772
31
0.0
0
LINE
8
0
6
CONTINUOUS
10
46.327834
20
-281.706772
30
0.0
11
46.327834
21
-281.921412
31
0.0
0
LINE
8
0
6
CONTINUOUS
10
68.321298
20
281.065132
30
0.0
11
68.321298
21
281.607772
31
0.0
0
LINE
8
0
6
CONTINUOUS
10
46.327834
20
281.607772
30
0.0
11
46.327834
21
281.065132
31
0.0
0
LINE
8
0
6
CONTINUOUS
10
57.324551
20
282.422132
30
0.0
11
119.827964
21
282.422132
31
0.0
0
LINE
8
0
6
CONTINUOUS
10
119.827964
20
334.500000
30
0.0
11
57.324551
21
334.500000
31
0.0
0
LINE
8
0
6
CONTINUOUS
10
46.327834
20
333.790690
30
0.0
11
46.327834
21
283.130902
31
0.0
0
LINE
8
0
6
CONTINUOUS
10
46.327834
20
283.130902
30
0.0
11
46.327834
21
282.422132
31
0.0
0
LINE
8
0
6
CONTINUOUS
10
46.327834
20
282.422132
30
0.0
11
46.727724
21
282.422132
31
0.0
0
LINE
8
0
6
CONTINUOUS
10
46.727724
20
282.422132
30
0.0
11
47.827383
21
282.422132
31
0.0
0
LINE
8
0
6
CONTINUOUS
10
47.827383
20
282.422132
30
0.0
11
49.526873
21
282.422132
31
0.0
0
LINE
8
0
6
CONTINUOUS
10
49.526873
20
282.422132
30
0.0
11
51.826202
21
282.422132
31
0.0
0
LINE
8
0
6
CONTINUOUS
10
51.826202
20
282.422132
30
0.0
11
54.525381
21
282.422132
31
0.0
0
LINE
8
0
6
CONTINUOUS
10
54.525381
20
282.422132
30
0.0
11
57.324551
21
282.422132
31
0.0
0
LINE
8
0
6
CONTINUOUS
10
120.327814
20
283.130902
30
0.0
11
120.327814
21
333.790690
31
0.0
0
LINE
8
0
6
CONTINUOUS
10
120.327814
20
282.422132
30
0.0
11
120.327814
21
283.130902
31
0.0
0
LINE
8
0
6
CONTINUOUS
10
119.827964
20
282.422132
30
0.0
11
120.327814
21
282.422132
31
0.0
0
LINE
8
0
6
CONTINUOUS
10
68.321298
20
281.921372
30
0.0
11
67.821428
21
282.422132
31
0.0
0
LINE
8
0
6
CONTINUOUS
10
68.321298
20
281.921372
30
0.0
11
67.921398
21
281.921372
31
0.0
0
LINE
8
0
6
CONTINUOUS
10
68.321298
20
281.607772
30
0.0
11
68.321298
21
281.921372
31
0.0
0
LINE
8
0
6
CONTINUOUS
10
67.921398
20
281.921372
30
0.0
11
66.821728
21
281.921372
31
0.0
0
LINE
8
0
6
CONTINUOUS
10
65.122249
20
281.921372
30
0.0
11
62.822909
21
281.921372
31
0.0
0
LINE
8
0
6
CONTINUOUS
10
62.822909
20
281.921372
30
0.0
11
60.123730
21
281.921372
31
0.0
0
LINE
8
0
6
CONTINUOUS
10
60.123730
20
281.921372
30
0.0
11
57.324551
21
281.921372
31
0.0
0
LINE
8
0
6
CONTINUOUS
10
68.321298
20
-281.921412
30
0.0
11
67.921398
21
-281.921412
31
0.0
0
LINE
8
0
6
CONTINUOUS
10
67.821428
20
-282.422112
30
0.0
11
68.321298
21
-281.921412
31
0.0
0
LINE
8
0
6
CONTINUOUS
10
67.421558
20
-282.422112
30
0.0
11
67.821428
21
-282.422112
31
0.0
0
LINE
8
0
6
CONTINUOUS
10
64.722359
20
-282.422112
30
0.0
11
66.421858
21
-282.422112
31
0.0
0
LINE
8
0
6
CONTINUOUS
10
66.821728
20
-281.921412
30
0.0
11
65.122249
21
-281.921412
31
0.0
0
LINE
8
0
6
CONTINUOUS
10
62.523009
20
-282.422112
30
0.0
11
64.722359
21
-282.422112
31
0.0
0
LINE
8
0
6
CONTINUOUS
10
65.122249
20
-281.921412
30
0.0
11
62.822909
21
-281.921412
31
0.0
0
LINE
8
0
6
CONTINUOUS
10
62.822909
20
-281.921412
30
0.0
11
60.123730
21
-281.921412
31
0.0
0
LINE
8
0
6
CONTINUOUS
10
60.023760
20
-282.422112
30
0.0
11
62.523009
21
-282.422112
31
0.0
0
LINE
8
0
6
CONTINUOUS
10
60.123730
20
-281.921412
30
0.0
11
57.324551
21
-281.921412
31
0.0
0
LINE
8
0
6
CONTINUOUS
10
57.324551
20
-282.422112
30
0.0
11
60.023760
21
-282.422112
31
0.0
0
LINE
8
0
6
CONTINUOUS
10
46.827694
20
282.422132
30
0.0
11
46.327834
21
281.921372
31
0.0
0
LINE
8
0
6
CONTINUOUS
10
46.327834
20
281.921372
30
0.0
11
46.327834
21
281.607772
31
0.0
0
LINE
8
0
6
CONTINUOUS
10
46.727724
20
281.921372
30
0.0
11
46.327834
21
281.921372
31
0.0
0
LINE
8
0
6
CONTINUOUS
10
47.827383
20
281.921372
30
0.0
11
46.727724
21
281.921372
31
0.0
0
LINE
8
0
6
CONTINUOUS
10
49.526873
20
281.921372
30
0.0
11
47.827383
21
281.921372
31
0.0
0
LINE
8
0
6
CONTINUOUS
10
51.826202
20
281.921372
30
0.0
11
49.526873
21
281.921372
31
0.0
0
LINE
8
0
6
CONTINUOUS
10
54.525381
20
281.921372
30
0.0
11
51.826202
21
281.921372
31
0.0
0
LINE
8
0
6
CONTINUOUS
10
57.324551
20
281.921372
30
0.0
11
54.525381
21
281.921372
31
0.0
0
LINE
8
0
6
CONTINUOUS
10
46.327834
20
-281.921412
30
0.0
11
46.827694
21
-282.422112
31
0.0
0
LINE
8
0
6
CONTINUOUS
10
46.727724
20
-281.921412
30
0.0
11
46.327834
21
-281.921412
31
0.0
0
LINE
8
0
6
CONTINUOUS
10
46.827694
20
-282.422112
30
0.0
11
47.227563
21
-282.422112
31
0.0
0
LINE
8
0
6
CONTINUOUS
10
47.827383
20
-281.921412
30
0.0
11
46.727724
21
-281.921412
31
0.0
0
LINE
8
0
6
CONTINUOUS
10
47.227563
20
-282.422112
30
0.0
11
48.227263
21
-282.422112
31
0.0
0
LINE
8
0
6
CONTINUOUS
10
48.227263
20
-282.422112
30
0.0
11
49.926763
21
-282.422112
31
0.0
0
LINE
8
0
6
CONTINUOUS
10
49.526873
20
-281.921412
30
0.0
11
47.827383
21
-281.921412
31
0.0
0
LINE
8
0
6
CONTINUOUS
10
49.926763
20
-282.422112
30
0.0
11
52.126092
21
-282.422112
31
0.0
0
LINE
8
0
6
CONTINUOUS
10
51.826202
20
-281.921412
30
0.0
11
49.526873
21
-281.921412
31
0.0
0
LINE
8
0
6
CONTINUOUS
10
54.525381
20
-281.921412
30
0.0
11
51.826202
21
-281.921412
31
0.0
0
LINE
8
0
6
CONTINUOUS
10
52.126092
20
-282.422112
30
0.0
11
54.625351
21
-282.422112
31
0.0
0
LINE
8
0
6
CONTINUOUS
10
57.324551
20
-281.921412
30
0.0
11
54.525381
21
-281.921412
31
0.0
0
LINE
8
0
6
CONTINUOUS
10
54.625351
20
-282.422112
30
0.0
11
57.324551
21
-282.422112
31
0.0
0
LINE
8
0
6
CONTINUOUS
10
46.327834
20
334.500000
30
0.0
11
46.327834
21
333.790690
31
0.0
0
LINE
8
0
6
CONTINUOUS
10
46.727724
20
334.500000
30
0.0
11
46.327834
21
334.500000
31
0.0
0
LINE
8
0
6
CONTINUOUS
10
47.827383
20
334.500000
30
0.0
11
46.727724
21
334.500000
31
0.0
0
LINE
8
0
6
CONTINUOUS
10
49.526873
20
334.500000
30
0.0
11
47.827383
21
334.500000
31
0.0
0
LINE
8
0
6
CONTINUOUS
10
51.826202
20
334.500000
30
0.0
11
49.526873
21
334.500000
31
0.0
0
LINE
8
0
6
CONTINUOUS
10
54.525381
20
334.500000
30
0.0
11
51.826202
21
334.500000
31
0.0
0
LINE
8
0
6
CONTINUOUS
10
57.324551
20
334.500000
30
0.0
11
54.525381
21
334.500000
31
0.0
0
LINE
8
0
6
CONTINUOUS
10
120.327814
20
334.500000
30
0.0
11
119.827964
21
334.500000
31
0.0
0
LINE
8
0
6
CONTINUOUS
10
120.327814
20
333.790690
30
0.0
11
120.327814
21
334.500000
31
0.0
0
LINE
8
0
6
CONTINUOUS
10
65.122249
20
281.921372
30
0.0
11
66.821728
21
281.921372
31
0.0
0
LINE
8
0
6
CONTINUOUS
10
67.921398
20
-281.921412
30
0.0
11
66.821728
21
-281.921412
31
0.0
0
LINE
8
0
6
CONTINUOUS
10
66.421858
20
-282.422112
30
0.0
11
67.421558
21
-282.422112
31
0.0
0
LINE
8
0
6
CONTINUOUS
10
57.324591
20
-334.500000
30
0.0
11
119.827994
21
-334.500000
31
0.0
0
LINE
8
0
6
CONTINUOUS
10
119.827994
20
-282.422112
30
0.0
11
104.914074
21
-282.422112
31
0.0
0
LINE
8
0
6
CONTINUOUS
10
88.914164
20
-282.422112
30
0.0
11
57.324591
21
-282.422112
31
0.0
0
LINE
8
0
6
CONTINUOUS
10
46.327854
20
-283.131482
30
0.0
11
46.327854
21
-333.791240
31
0.0
0
LINE
8
0
6
CONTINUOUS
10
46.327854
20
-333.791240
30
0.0
11
46.327854
21
-334.500000
31
0.0
0
LINE
8
0
6
CONTINUOUS
10
46.327854
20
-334.500000
30
0.0
11
46.727734
21
-334.500000
31
0.0
0
LINE
8
0
6
CONTINUOUS
10
46.727734
20
-334.500000
30
0.0
11
47.827423
21
-334.500000
31
0.0
0
LINE
8
0
6
CONTINUOUS
10
47.827423
20
-334.500000
30
0.0
11
49.526903
21
-334.500000
31
0.0
0
LINE
8
0
6
CONTINUOUS
10
49.526903
20
-334.500000
30
0.0
11
51.826232
21
-334.500000
31
0.0
0
LINE
8
0
6
CONTINUOUS
10
51.826232
20
-334.500000
30
0.0
11
54.525411
21
-334.500000
31
0.0
0
LINE
8
0
6
CONTINUOUS
10
54.525411
20
-334.500000
30
0.0
11
57.324591
21
-334.500000
31
0.0
0
LINE
8
0
6
CONTINUOUS
10
120.327834
20
-333.791240
30
0.0
11
120.327834
21
-283.131482
31
0.0
0
LINE
8
0
6
CONTINUOUS
10
120.327834
20
-334.500000
30
0.0
11
120.327834
21
-333.791240
31
0.0
0
LINE
8
0
6
CONTINUOUS
10
119.827994
20
-334.500000
30
0.0
11
120.327834
21
-334.500000
31
0.0
0
LINE
8
0
6
CONTINUOUS
10
46.327854
20
-282.422112
30
0.0
11
46.327854
21
-283.131482
31
0.0
0
LINE
8
0
6
CONTINUOUS
10
46.727734
20
-282.422112
30
0.0
11
46.327854
21
-282.422112
31
0.0
0
LINE
8
0
6
CONTINUOUS
10
47.827423
20
-282.422112
30
0.0
11
46.727734
21
-282.422112
31
0.0
0
LINE
8
0
6
CONTINUOUS
10
49.526903
20
-282.422112
30
0.0
11
47.827423
21
-282.422112
31
0.0
0
LINE
8
0
6
CONTINUOUS
10
51.826232
20
-282.422112
30
0.0
11
49.526903
21
-282.422112
31
0.0
0
LINE
8
0
6
CONTINUOUS
10
54.525411
20
-282.422112
30
0.0
11
51.826232
21
-282.422112
31
0.0
0
LINE
8
0
6
CONTINUOUS
10
57.324591
20
-282.422112
30
0.0
11
54.525411
21
-282.422112
31
0.0
0
LINE
8
0
6
CONTINUOUS
10
120.327834
20
-282.422112
30
0.0
11
119.827994
21
-282.422112
31
0.0
0
LINE
8
0
6
CONTINUOUS
10
120.327834
20
-283.131482
30
0.0
11
120.327834
21
-282.422112
31
0.0
0
LINE
8
0
6
CONTINUOUS
10
46.119104
20
74.473730
30
0.0
11
46.327834
21
74.343383
31
0.0
0
LINE
8
0
6
CONTINUOUS
10
75.776924
20
96.788640
30
0.0
11
75.542014
21
96.703160
31
0.0
0
LINE
8
0
6
CONTINUOUS
10
75.862434
20
96.553730
30
0.0
11
75.776924
21
96.788640
31
0.0
0
LINE
8
0
6
CONTINUOUS
10
76.617684
20
94.478650
30
0.0
11
76.532184
21
94.713560
31
0.0
0
LINE
8
0
6
CONTINUOUS
10
76.382774
20
94.393170
30
0.0
11
76.617684
21
94.478650
31
0.0
0
LINE
8
0
6
CONTINUOUS
10
76.532184
20
94.713560
30
0.0
11
75.862434
21
96.553730
31
0.0
0
LINE
8
0
6
CONTINUOUS
10
75.542014
20
96.703160
30
0.0
11
75.466104
21
96.675529
31
0.0
0
LINE
8
0
6
CONTINUOUS
10
76.257021
20
94.347398
30
0.0
11
76.382774
21
94.393170
31
0.0
0
LINE
8
0
6
CONTINUOUS
10
42.782554
20
97.821930
30
0.0
11
42.306754
21
98.522920
31
0.0
0
LINE
8
0
6
CONTINUOUS
10
40.671234
20
96.394050
30
0.0
11
39.580314
21
92.843640
31
0.0
0
LINE
8
0
6
CONTINUOUS
10
39.580314
20
92.843640
30
0.0
11
39.203054
21
89.148570
31
0.0
0
LINE
8
0
6
CONTINUOUS
10
39.203054
20
89.148570
30
0.0
11
39.553954
21
85.450870
31
0.0
0
LINE
8
0
6
CONTINUOUS
10
39.553954
20
85.450870
30
0.0
11
40.619494
21
81.892710
31
0.0
0
LINE
8
0
6
CONTINUOUS
10
40.619494
20
81.892710
30
0.0
11
42.358764
21
78.610690
31
0.0
0
LINE
8
0
6
CONTINUOUS
10
44.075134
20
95.872510
30
0.0
11
42.782554
21
97.821930
31
0.0
0
LINE
8
0
6
CONTINUOUS
10
41.806504
20
98.499760
30
0.0
11
42.306754
21
98.522920
31
0.0
0
LINE
8
0
6
CONTINUOUS
10
39.985324
20
95.121810
30
0.0
11
39.580304
21
92.843640
31
0.0
0
LINE
8
0
6
CONTINUOUS
10
44.075134
20
95.872510
30
0.0
11
45.650114
21
93.497090
31
0.0
0
LINE
8
0
6
CONTINUOUS
10
47.446974
20
90.787130
30
0.0
11
49.396694
21
87.846500
31
0.0
0
LINE
8
0
6
CONTINUOUS
10
45.650114
20
93.497090
30
0.0
11
47.446974
21
90.787130
31
0.0
0
LINE
8
0
6
CONTINUOUS
10
49.396694
20
87.846500
30
0.0
11
51.501494
21
84.672060
31
0.0
0
LINE
8
0
6
CONTINUOUS
10
40.671234
20
96.394050
30
0.0
11
41.806504
21
98.499760
31
0.0
0
LINE
8
0
6
CONTINUOUS
10
55.620604
20
107.349630
30
0.0
11
56.081104
21
106.638500
31
0.0
0
LINE
8
0
6
CONTINUOUS
10
61.913594
20
107.649930
30
0.0
11
58.218374
21
108.027280
31
0.0
0
LINE
8
0
6
CONTINUOUS
10
65.464214
20
106.558960
30
0.0
11
61.913594
21
107.649930
31
0.0
0
LINE
8
0
6
CONTINUOUS
10
68.733784
20
104.796230
30
0.0
11
65.464214
21
106.558960
31
0.0
0
LINE
8
0
6
CONTINUOUS
10
71.596634
20
102.429630
30
0.0
11
68.733784
21
104.796230
31
0.0
0
LINE
8
0
6
CONTINUOUS
10
73.942794
20
99.550030
30
0.0
11
71.596634
21
102.429630
31
0.0
0
LINE
8
0
6
CONTINUOUS
10
55.836744
20
107.801370
30
0.0
11
55.620604
21
107.349630
31
0.0
0
LINE
8
0
6
CONTINUOUS
10
61.913584
20
107.649960
30
0.0
11
59.068714
21
108.033043
31
0.0
0
LINE
8
0
6
CONTINUOUS
10
58.948654
20
102.313660
30
0.0
11
57.373684
21
104.689030
31
0.0
0
LINE
8
0
6
CONTINUOUS
10
62.695254
20
96.663100
30
0.0
11
60.745514
21
99.603620
31
0.0
0
LINE
8
0
6
CONTINUOUS
10
60.745514
20
99.603620
30
0.0
11
58.948654
21
102.313660
31
0.0
0
LINE
8
0
6
CONTINUOUS
10
64.800044
20
93.488620
30
0.0
11
62.695254
21
96.663100
31
0.0
0
LINE
8
0
6
CONTINUOUS
10
57.373684
20
104.689030
30
0.0
11
56.081104
21
106.638500
31
0.0
0
LINE
8
0
6
CONTINUOUS
10
55.836744
20
107.801370
30
0.0
11
58.218374
21
108.027280
31
0.0
0
LINE
8
0
6
CONTINUOUS
10
60.680954
20
70.811010
30
0.0
11
60.220414
21
71.522190
31
0.0
0
LINE
8
0
6
CONTINUOUS
10
50.837334
20
71.601760
30
0.0
11
54.387954
21
70.510720
31
0.0
0
LINE
8
0
6
CONTINUOUS
10
42.358764
20
78.610690
30
0.0
11
44.704914
21
75.731020
31
0.0
0
LINE
8
0
6
CONTINUOUS
10
53.606304
20
81.497620
30
0.0
11
51.501494
21
84.672060
31
0.0
0
LINE
8
0
6
CONTINUOUS
10
55.556034
20
78.557020
30
0.0
11
53.606304
21
81.497620
31
0.0
0
LINE
8
0
6
CONTINUOUS
10
57.352904
20
75.846980
30
0.0
11
55.556034
21
78.557020
31
0.0
0
LINE
8
0
6
CONTINUOUS
10
58.927874
20
73.471610
30
0.0
11
57.352904
21
75.846980
31
0.0
0
LINE
8
0
6
CONTINUOUS
10
60.680954
20
70.811010
30
0.0
11
60.464794
21
70.359240
31
0.0
0
LINE
8
0
6
CONTINUOUS
10
54.387954
20
70.510720
30
0.0
11
57.416144
21
70.070080
31
0.0
0
LINE
8
0
6
CONTINUOUS
10
57.416144
20
70.070080
30
0.0
11
58.083174
21
70.133330
31
0.0
0
LINE
8
0
6
CONTINUOUS
10
58.927874
20
73.471610
30
0.0
11
60.220414
21
71.522190
31
0.0
0
LINE
8
0
6
CONTINUOUS
10
50.837334
20
71.601760
30
0.0
11
47.567774
21
73.364420
31
0.0
0
LINE
8
0
6
CONTINUOUS
10
47.567774
20
73.364420
30
0.0
11
44.704914
21
75.731020
31
0.0
0
LINE
8
0
6
CONTINUOUS
10
58.760164
20
70.197570
30
0.0
11
57.550284
21
70.082790
31
0.0
0
LINE
8
0
6
CONTINUOUS
10
58.083174
20
70.133410
30
0.0
11
54.387954
21
70.510720
31
0.0
0
LINE
8
0
6
CONTINUOUS
10
60.464794
20
70.359240
30
0.0
11
58.083174
21
70.133410
31
0.0
0
LINE
8
0
6
CONTINUOUS
10
73.811374
20
78.429223
30
0.0
11
73.867614
21
78.497250
31
0.0
0
LINE
8
0
6
CONTINUOUS
10
73.518974
20
80.338750
30
0.0
11
73.994794
21
79.637690
31
0.0
0
LINE
8
0
6
CONTINUOUS
10
76.747624
20
92.709820
30
0.0
11
75.682064
21
96.268010
31
0.0
0
LINE
8
0
6
CONTINUOUS
10
75.682064
20
96.268010
30
0.0
11
73.942794
21
99.550030
31
0.0
0
LINE
8
0
6
CONTINUOUS
10
73.994794
20
79.637690
30
0.0
11
74.495054
21
79.660960
31
0.0
0
LINE
8
0
6
CONTINUOUS
10
75.988024
20
82.430160
30
0.0
11
76.721234
21
85.317090
31
0.0
0
LINE
8
0
6
CONTINUOUS
10
75.927534
20
82.317930
30
0.0
11
75.988024
21
82.430160
31
0.0
0
LINE
8
0
6
CONTINUOUS
10
75.927534
20
82.317930
30
0.0
11
76.721244
21
85.317090
31
0.0
0
LINE
8
0
6
CONTINUOUS
10
75.630304
20
81.766630
30
0.0
11
75.927534
21
82.317930
31
0.0
0
LINE
8
0
6
CONTINUOUS
10
72.226414
20
82.288140
30
0.0
11
70.651444
21
84.663510
31
0.0
0
LINE
8
0
6
CONTINUOUS
10
68.854574
20
87.373590
30
0.0
11
66.904844
21
90.314150
31
0.0
0
LINE
8
0
6
CONTINUOUS
10
73.567718
20
78.837897
30
0.0
11
73.608784
21
78.887570
31
0.0
0
LINE
8
0
6
CONTINUOUS
10
70.651444
20
84.663510
30
0.0
11
68.854574
21
87.373590
31
0.0
0
LINE
8
0
6
CONTINUOUS
10
66.904844
20
90.314150
30
0.0
11
64.800044
21
93.488620
31
0.0
0
LINE
8
0
6
CONTINUOUS
10
73.518974
20
80.338750
30
0.0
11
72.226414
21
82.288140
31
0.0
0
LINE
8
0
6
CONTINUOUS
10
77.098474
20
89.012120
30
0.0
11
76.721234
21
85.317090
31
0.0
0
LINE
8
0
6
CONTINUOUS
10
76.747624
20
92.709820
30
0.0
11
77.098474
21
89.012120
31
0.0
0
LINE
8
0
6
CONTINUOUS
10
76.721234
20
85.317090
30
0.0
11
75.630304
21
81.766630
31
0.0
0
LINE
8
0
6
CONTINUOUS
10
75.630304
20
81.766630
30
0.0
11
74.495054
21
79.660960
31
0.0
0
LINE
8
0
6
CONTINUOUS
10
-88.095596
20
229.233161
30
0.0
11
-88.159553
21
229.146406
31
0.0
0
LINE
8
0
6
CONTINUOUS
10
-87.419084
20
227.440140
30
0.0
11
-85.794916
21
226.262512
31
0.0
0
LINE
8
0
6
CONTINUOUS
10
-85.794916
20
226.262512
30
0.0
11
-83.967510
21
224.937066
31
0.0
0
LINE
8
0
6
CONTINUOUS
10
-83.967510
20
224.937066
30
0.0
11
-83.764324
21
224.789296
31
0.0
0
LINE
8
0
6
CONTINUOUS
10
-57.070696
20
208.699638
30
0.0
11
-57.521096
21
208.084364
31
0.0
0
LINE
8
0
6
CONTINUOUS
10
-76.236353
20
219.853630
30
0.0
11
-75.729882
21
220.544194
31
0.0
0
LINE
8
0
6
CONTINUOUS
10
-76.990471
20
220.400760
30
0.0
11
-76.236353
21
219.853630
31
0.0
0
LINE
8
0
6
CONTINUOUS
10
-82.471899
20
224.093003
30
0.0
11
-81.966419
21
224.778251
31
0.0
0
LINE
8
0
6
CONTINUOUS
10
-83.114083
20
224.558958
30
0.0
11
-82.471899
21
224.093003
31
0.0
0
LINE
8
0
6
CONTINUOUS
10
-79.289321
20
221.779683
30
0.0
11
-80.154809
21
222.407141
31
0.0
0
LINE
8
0
6
CONTINUOUS
10
-78.029976
20
220.866322
30
0.0
11
-79.289321
21
221.779683
31
0.0
0
LINE
8
0
6
CONTINUOUS
10
-77.636102
20
220.580435
30
0.0
11
-78.029976
21
220.866322
31
0.0
0
LINE
8
0
6
CONTINUOUS
10
-87.304024
20
228.526962
30
0.0
11
-86.056067
21
227.621928
31
0.0
0
LINE
8
0
6
CONTINUOUS
10
-93.754565
20
232.564563
30
0.0
11
-92.466130
21
231.630168
31
0.0
0
LINE
8
0
6
CONTINUOUS
10
-91.823940
20
231.164193
30
0.0
11
-91.379525
21
231.766661
31
0.0
0
LINE
8
0
6
CONTINUOUS
10
-92.466130
20
231.630168
30
0.0
11
-91.823940
21
231.164193
31
0.0
0
LINE
8
0
6
CONTINUOUS
10
-92.092124
20
231.984273
30
0.0
11
-91.934584
21
232.197953
31
0.0
0
LINE
8
0
6
CONTINUOUS
10
-92.714143
20
232.435583
30
0.0
11
-92.092124
21
231.984273
31
0.0
0
LINE
8
0
6
CONTINUOUS
10
-90.473448
20
231.427686
30
0.0
11
-89.939826
21
231.040483
31
0.0
0
LINE
8
0
6
CONTINUOUS
10
-97.928201
20
236.846650
30
0.0
11
-96.857621
21
236.070248
31
0.0
0
LINE
8
0
6
CONTINUOUS
10
-103.316128
20
241.292666
30
0.0
11
-102.941271
21
241.021029
31
0.0
0
LINE
8
0
6
CONTINUOUS
10
-102.692908
20
242.140669
30
0.0
11
-103.316128
21
241.292666
31
0.0
0
LINE
8
0
6
CONTINUOUS
10
-72.961353
20
217.480944
30
0.0
11
-71.681298
21
216.552601
31
0.0
0
LINE
8
0
6
CONTINUOUS
10
-73.728521
20
218.037094
30
0.0
11
-72.961353
21
217.480944
31
0.0
0
LINE
8
0
6
CONTINUOUS
10
-57.384382
20
207.998947
30
0.0
11
-56.746920
21
207.536838
31
0.0
0
LINE
8
0
6
CONTINUOUS
10
-56.838038
20
208.745397
30
0.0
11
-57.384382
21
207.998947
31
0.0
0
LINE
8
0
6
CONTINUOUS
10
-67.857077
20
214.417712
30
0.0
11
-67.349083
21
215.110719
31
0.0
0
LINE
8
0
6
CONTINUOUS
10
-68.353870
20
214.778234
30
0.0
11
-67.857077
21
214.417712
31
0.0
0
LINE
8
0
6
CONTINUOUS
10
-69.593711
20
215.677430
30
0.0
11
-68.353870
21
214.778234
31
0.0
0
LINE
8
0
6
CONTINUOUS
10
-75.384745
20
219.241243
30
0.0
11
-74.104700
21
218.312896
31
0.0
0
LINE
8
0
6
CONTINUOUS
10
-76.151899
20
219.797376
30
0.0
11
-75.384745
21
219.241243
31
0.0
0
LINE
8
0
6
CONTINUOUS
10
-75.572191
20
220.587930
30
0.0
11
-76.151899
21
219.797376
31
0.0
0
LINE
8
0
6
CONTINUOUS
10
-75.116415
20
219.666462
30
0.0
11
-74.373361
21
219.127799
31
0.0
0
LINE
8
0
6
CONTINUOUS
10
-74.545922
20
220.444717
30
0.0
11
-75.116415
21
219.666462
31
0.0
0
LINE
8
0
6
CONTINUOUS
10
-81.089280
20
224.023447
30
0.0
11
-80.346211
21
223.484768
31
0.0
0
LINE
8
0
6
CONTINUOUS
10
-80.500009
20
224.827323
30
0.0
11
-81.089280
21
224.023447
31
0.0
0
LINE
8
0
6
CONTINUOUS
10
-77.767299
20
222.233326
30
0.0
11
-76.703678
21
221.461931
31
0.0
0
LINE
8
0
6
CONTINUOUS
10
-76.994833
20
222.214483
30
0.0
11
-76.509859
21
221.862979
31
0.0
0
LINE
8
0
6
CONTINUOUS
10
-76.417376
20
223.002040
30
0.0
11
-76.994833
21
222.214483
31
0.0
0
LINE
8
0
6
CONTINUOUS
10
-70.111148
20
217.220383
30
0.0
11
-69.042086
21
216.445087
31
0.0
0
LINE
8
0
6
CONTINUOUS
10
-70.596114
20
217.571899
30
0.0
11
-70.111148
21
217.220383
31
0.0
0
LINE
8
0
6
CONTINUOUS
10
-70.028798
20
218.345632
30
0.0
11
-70.596114
21
217.571899
31
0.0
0
LINE
8
0
6
CONTINUOUS
10
-64.940377
20
213.482963
30
0.0
11
-64.455389
21
213.131443
31
0.0
0
LINE
8
0
6
CONTINUOUS
10
-64.386601
20
214.238225
30
0.0
11
-64.940377
21
213.482963
31
0.0
0
LINE
8
0
6
CONTINUOUS
10
-58.266464
20
208.657174
30
0.0
11
-57.865658
21
209.203809
31
0.0
0
LINE
8
0
6
CONTINUOUS
10
-58.850552
20
209.080967
30
0.0
11
-58.266464
21
208.657174
31
0.0
0
LINE
8
0
6
CONTINUOUS
10
-59.919620
20
209.856252
30
0.0
11
-58.850552
21
209.080967
31
0.0
0
LINE
8
0
6
CONTINUOUS
10
-60.404594
20
210.207755
30
0.0
11
-59.919620
21
209.856252
31
0.0
0
LINE
8
0
6
CONTINUOUS
10
-59.859481
20
210.951200
30
0.0
11
-60.404594
21
210.207755
31
0.0
0
LINE
8
0
6
CONTINUOUS
10
-107.726823
20
243.949887
30
0.0
11
-107.541348
21
243.815604
31
0.0
0
LINE
8
0
6
CONTINUOUS
10
-107.541348
20
243.815604
30
0.0
11
-106.535443
21
243.086180
31
0.0
0
LINE
8
0
6
CONTINUOUS
10
-105.715027
20
242.491054
30
0.0
11
-105.284174
21
243.085981
31
0.0
0
LINE
8
0
6
CONTINUOUS
10
-106.535443
20
243.086180
30
0.0
11
-105.715027
21
242.491054
31
0.0
0
LINE
8
0
6
CONTINUOUS
10
-103.526387
20
240.285439
30
0.0
11
-103.310172
21
240.128889
31
0.0
0
LINE
8
0
6
CONTINUOUS
10
-103.310172
20
240.128889
30
0.0
11
-102.137606
21
239.278618
31
0.0
0
LINE
8
0
6
CONTINUOUS
10
-101.181286
20
238.584900
30
0.0
11
-100.729250
21
239.209214
31
0.0
0
LINE
8
0
6
CONTINUOUS
10
-102.137606
20
239.278618
30
0.0
11
-101.181286
21
238.584900
31
0.0
0
LINE
8
0
6
CONTINUOUS
10
-114.552324
20
249.435931
30
0.0
11
-114.366851
21
249.301617
31
0.0
0
LINE
8
0
6
CONTINUOUS
10
-113.895151
20
250.343355
30
0.0
11
-114.552324
21
249.435931
31
0.0
0
LINE
8
0
6
CONTINUOUS
10
-108.435071
20
244.457993
30
0.0
11
-107.614658
21
243.862877
31
0.0
0
LINE
8
0
6
CONTINUOUS
10
-94.467895
20
233.079533
30
0.0
11
-93.964301
21
233.775086
31
0.0
0
LINE
8
0
6
CONTINUOUS
10
-95.455251
20
233.795742
30
0.0
11
-94.467895
21
233.079533
31
0.0
0
LINE
8
0
6
CONTINUOUS
10
-109.812156
20
245.458508
30
0.0
11
-109.626688
21
245.324213
31
0.0
0
LINE
8
0
6
CONTINUOUS
10
-109.184991
20
246.324496
30
0.0
11
-109.812156
21
245.458508
31
0.0
0
LINE
8
0
6
CONTINUOUS
10
-114.736621
20
250.966714
30
0.0
11
-115.393738
21
250.057164
31
0.0
0
LINE
8
0
6
CONTINUOUS
10
-115.386813
20
250.052357
30
0.0
11
-114.456187
21
249.377568
31
0.0
0
LINE
8
0
6
CONTINUOUS
10
-85.794916
20
226.262512
30
0.0
11
-87.419084
21
227.440140
31
0.0
0
LINE
8
0
6
CONTINUOUS
10
-83.967510
20
224.937066
30
0.0
11
-85.794916
21
226.262512
31
0.0
0
LINE
8
0
6
CONTINUOUS
10
-83.764324
20
224.789296
30
0.0
11
-83.967510
21
224.937066
31
0.0
0
LINE
8
0
6
CONTINUOUS
10
-56.017559
20
206.994206
30
0.0
11
-55.390934
21
206.539572
31
0.0
0
LINE
8
0
6
CONTINUOUS
10
-57.082631
20
207.766589
30
0.0
11
-56.017559
21
206.994206
31
0.0
0
LINE
8
0
6
CONTINUOUS
10
-56.017559
20
206.994206
30
0.0
11
-57.082631
21
207.766589
31
0.0
0
LINE
8
0
6
CONTINUOUS
10
-55.390934
20
206.539572
30
0.0
11
-56.017559
21
206.994206
31
0.0
0
LINE
8
0
6
CONTINUOUS
10
-63.765607
20
212.056904
30
0.0
11
-63.327165
21
211.739133
31
0.0
0
LINE
8
0
6
CONTINUOUS
10
-63.332057
20
212.649163
30
0.0
11
-63.765607
21
212.056904
31
0.0
0
LINE
8
0
6
CONTINUOUS
10
-63.327165
20
211.739133
30
0.0
11
-63.765607
21
212.056904
31
0.0
0
LINE
8
0
6
CONTINUOUS
10
-70.467870
20
216.293532
30
0.0
11
-69.956779
21
215.923112
31
0.0
0
LINE
8
0
6
CONTINUOUS
10
-70.099426
20
216.796076
30
0.0
11
-70.467870
21
216.293532
31
0.0
0
LINE
8
0
6
CONTINUOUS
10
-68.715252
20
215.022773
30
0.0
11
-67.984805
21
214.492815
31
0.0
0
LINE
8
0
6
CONTINUOUS
10
-69.956779
20
215.923112
30
0.0
11
-68.715252
21
215.022773
31
0.0
0
LINE
8
0
6
CONTINUOUS
10
-69.956779
20
215.923112
30
0.0
11
-70.467870
21
216.293532
31
0.0
0
LINE
8
0
6
CONTINUOUS
10
-68.715252
20
215.022773
30
0.0
11
-69.956779
21
215.923112
31
0.0
0
LINE
8
0
6
CONTINUOUS
10
-67.984805
20
214.492815
30
0.0
11
-68.715252
21
215.022773
31
0.0
0
LINE
8
0
6
CONTINUOUS
10
-76.236353
20
219.853630
30
0.0
11
-76.990471
21
220.400760
31
0.0
0
LINE
8
0
6
CONTINUOUS
10
-64.391747
20
213.073379
30
0.0
11
-63.323464
21
212.298619
31
0.0
0
LINE
8
0
6
CONTINUOUS
10
-63.323464
20
212.298619
30
0.0
11
-64.391747
21
213.073379
31
0.0
0
LINE
8
0
6
CONTINUOUS
10
-58.962099
20
209.127825
30
0.0
11
-58.489135
21
208.784625
31
0.0
0
LINE
8
0
6
CONTINUOUS
10
-58.489135
20
208.784625
30
0.0
11
-58.962099
21
209.127825
31
0.0
0
LINE
8
0
6
CONTINUOUS
10
-84.402522
20
225.493364
30
0.0
11
-83.114083
21
224.558958
31
0.0
0
LINE
8
0
6
CONTINUOUS
10
-85.048721
20
225.961766
30
0.0
11
-84.402522
21
225.493364
31
0.0
0
LINE
8
0
6
CONTINUOUS
10
-84.448753
20
226.775106
30
0.0
11
-85.048721
21
225.961766
31
0.0
0
LINE
8
0
6
CONTINUOUS
10
-82.471899
20
224.093003
30
0.0
11
-83.114083
21
224.558958
31
0.0
0
LINE
8
0
6
CONTINUOUS
10
-84.402522
20
225.493364
30
0.0
11
-85.048721
21
225.961766
31
0.0
0
LINE
8
0
6
CONTINUOUS
10
-83.114083
20
224.558958
30
0.0
11
-84.402522
21
225.493364
31
0.0
0
LINE
8
0
6
CONTINUOUS
10
-90.982377
20
230.255518
30
0.0
11
-89.802247
21
229.399780
31
0.0
0
LINE
8
0
6
CONTINUOUS
10
-89.802247
20
229.399780
30
0.0
11
-88.764410
21
228.646949
31
0.0
0
LINE
8
0
6
CONTINUOUS
10
-89.802247
20
229.399780
30
0.0
11
-90.982377
21
230.255518
31
0.0
0
LINE
8
0
6
CONTINUOUS
10
-88.764410
20
228.646949
30
0.0
11
-89.802247
21
229.399780
31
0.0
0
LINE
8
0
6
CONTINUOUS
10
-90.854892
20
230.174840
30
0.0
11
-89.592594
21
229.259447
31
0.0
0
LINE
8
0
6
CONTINUOUS
10
-91.262262
20
230.470020
30
0.0
11
-90.854892
21
230.174840
31
0.0
0
LINE
8
0
6
CONTINUOUS
10
-90.647995
20
231.316233
30
0.0
11
-91.262262
21
230.470020
31
0.0
0
LINE
8
0
6
CONTINUOUS
10
-88.737692
20
228.639246
30
0.0
11
-88.230999
21
229.337263
31
0.0
0
LINE
8
0
6
CONTINUOUS
10
-89.592594
20
229.259447
30
0.0
11
-88.737692
21
228.639246
31
0.0
0
LINE
8
0
6
CONTINUOUS
10
-89.592594
20
229.259447
30
0.0
11
-90.854892
21
230.174840
31
0.0
0
LINE
8
0
6
CONTINUOUS
10
-88.737692
20
228.639246
30
0.0
11
-89.592594
21
229.259447
31
0.0
0
LINE
8
0
6
CONTINUOUS
10
-90.854892
20
230.174840
30
0.0
11
-91.262262
21
230.470020
31
0.0
0
LINE
8
0
6
CONTINUOUS
10
-77.636102
20
220.580435
30
0.0
11
-77.022784
21
221.417997
31
0.0
0
LINE
8
0
6
CONTINUOUS
10
-78.029976
20
220.866322
30
0.0
11
-77.636102
21
220.580435
31
0.0
0
LINE
8
0
6
CONTINUOUS
10
-79.289321
20
221.779683
30
0.0
11
-78.029976
21
220.866322
31
0.0
0
LINE
8
0
6
CONTINUOUS
10
-80.154809
20
222.407141
30
0.0
11
-79.289321
21
221.779683
31
0.0
0
LINE
8
0
6
CONTINUOUS
10
-77.597510
20
220.555392
30
0.0
11
-76.993184
21
221.397992
31
0.0
0
LINE
8
0
6
CONTINUOUS
10
-91.563578
20
230.683818
30
0.0
11
-90.999006
21
231.470989
31
0.0
0
LINE
8
0
6
CONTINUOUS
10
-91.694278
20
230.778870
30
0.0
11
-91.563578
21
230.683818
31
0.0
0
LINE
8
0
6
CONTINUOUS
10
-93.914412
20
232.388891
30
0.0
11
-92.869703
21
231.631415
31
0.0
0
LINE
8
0
6
CONTINUOUS
10
-92.869703
20
231.631415
30
0.0
11
-91.694278
21
230.778870
31
0.0
0
LINE
8
0
6
CONTINUOUS
10
-92.869703
20
231.631415
30
0.0
11
-93.914412
21
232.388891
31
0.0
0
LINE
8
0
6
CONTINUOUS
10
-91.694278
20
230.778870
30
0.0
11
-92.869703
21
231.631415
31
0.0
0
LINE
8
0
6
CONTINUOUS
10
-91.563578
20
230.683818
30
0.0
11
-91.694278
21
230.778870
31
0.0
0
LINE
8
0
6
CONTINUOUS
10
-87.432249
20
227.984673
30
0.0
11
-86.143816
21
227.050287
31
0.0
0
LINE
8
0
6
CONTINUOUS
10
-88.078463
20
228.453092
30
0.0
11
-87.432249
21
227.984673
31
0.0
0
LINE
8
0
6
CONTINUOUS
10
-86.143816
20
227.050287
30
0.0
11
-85.501626
21
226.584312
31
0.0
0
LINE
8
0
6
CONTINUOUS
10
-85.501626
20
226.584312
30
0.0
11
-86.143816
21
227.050287
31
0.0
0
LINE
8
0
6
CONTINUOUS
10
-87.432249
20
227.984673
30
0.0
11
-88.078463
21
228.453092
31
0.0
0
LINE
8
0
6
CONTINUOUS
10
-86.143816
20
227.050287
30
0.0
11
-87.432249
21
227.984673
31
0.0
0
LINE
8
0
6
CONTINUOUS
10
-87.929934
20
228.980662
30
0.0
11
-87.304024
21
228.526962
31
0.0
0
LINE
8
0
6
CONTINUOUS
10
-87.318461
20
229.810050
30
0.0
11
-87.929934
21
228.980662
31
0.0
0
LINE
8
0
6
CONTINUOUS
10
-86.056067
20
227.621928
30
0.0
11
-85.434043
21
227.170599
31
0.0
0
LINE
8
0
6
CONTINUOUS
10
-85.434043
20
227.170599
30
0.0
11
-86.056067
21
227.621928
31
0.0
0
LINE
8
0
6
CONTINUOUS
10
-87.304024
20
228.526962
30
0.0
11
-87.929934
21
228.980662
31
0.0
0
LINE
8
0
6
CONTINUOUS
10
-86.056067
20
227.621928
30
0.0
11
-87.304024
21
228.526962
31
0.0
0
LINE
8
0
6
CONTINUOUS
10
-84.683988
20
227.235137
30
0.0
11
-83.613430
21
226.458739
31
0.0
0
LINE
8
0
6
CONTINUOUS
10
-85.220955
20
227.624374
30
0.0
11
-84.683988
21
227.235137
31
0.0
0
LINE
8
0
6
CONTINUOUS
10
-84.618170
20
228.443883
30
0.0
11
-85.220955
21
227.624374
31
0.0
0
LINE
8
0
6
CONTINUOUS
10
-83.613430
20
226.458739
30
0.0
11
-83.079802
21
226.071558
31
0.0
0
LINE
8
0
6
CONTINUOUS
10
-83.079802
20
226.071558
30
0.0
11
-83.613430
21
226.458739
31
0.0
0
LINE
8
0
6
CONTINUOUS
10
-84.683988
20
227.235137
30
0.0
11
-85.220955
21
227.624374
31
0.0
0
LINE
8
0
6
CONTINUOUS
10
-83.613430
20
226.458739
30
0.0
11
-84.683988
21
227.235137
31
0.0
0
LINE
8
0
6
CONTINUOUS
10
-83.048898
20
226.625994
30
0.0
11
-81.978318
21
225.849592
31
0.0
0
LINE
8
0
6
CONTINUOUS
10
-83.130481
20
226.685129
30
0.0
11
-83.048898
21
226.625994
31
0.0
0
LINE
8
0
6
CONTINUOUS
10
-81.978318
20
225.849592
30
0.0
11
-81.444690
21
225.462411
31
0.0
0
LINE
8
0
6
CONTINUOUS
10
-81.444690
20
225.462411
30
0.0
11
-81.978318
21
225.849592
31
0.0
0
LINE
8
0
6
CONTINUOUS
10
-83.048898
20
226.625994
30
0.0
11
-83.130481
21
226.685129
31
0.0
0
LINE
8
0
6
CONTINUOUS
10
-81.978318
20
225.849592
30
0.0
11
-83.048898
21
226.625994
31
0.0
0
LINE
8
0
6
CONTINUOUS
10
-83.152373
20
226.681361
30
0.0
11
-82.081793
21
225.904959
31
0.0
0
LINE
8
0
6
CONTINUOUS
10
-83.689338
20
227.070589
30
0.0
11
-83.152373
21
226.681361
31
0.0
0
LINE
8
0
6
CONTINUOUS
10
-83.094423
20
227.879396
30
0.0
11
-83.689338
21
227.070589
31
0.0
0
LINE
8
0
6
CONTINUOUS
10
-82.081793
20
225.904959
30
0.0
11
-81.548185
21
225.517773
31
0.0
0
LINE
8
0
6
CONTINUOUS
10
-81.548185
20
225.517773
30
0.0
11
-82.081793
21
225.904959
31
0.0
0
LINE
8
0
6
CONTINUOUS
10
-83.152373
20
226.681361
30
0.0
11
-83.689338
21
227.070589
31
0.0
0
LINE
8
0
6
CONTINUOUS
10
-82.081793
20
225.904959
30
0.0
11
-83.152373
21
226.681361
31
0.0
0
LINE
8
0
6
CONTINUOUS
10
-94.400779
20
233.032982
30
0.0
11
-93.754565
21
232.564563
31
0.0
0
LINE
8
0
6
CONTINUOUS
10
-93.893779
20
233.720289
30
0.0
11
-94.400779
21
233.032982
31
0.0
0
LINE
8
0
6
CONTINUOUS
10
-91.823940
20
231.164193
30
0.0
11
-92.466130
21
231.630168
31
0.0
0
LINE
8
0
6
CONTINUOUS
10
-93.754565
20
232.564563
30
0.0
11
-94.400779
21
233.032982
31
0.0
0
LINE
8
0
6
CONTINUOUS
10
-92.466130
20
231.630168
30
0.0
11
-93.754565
21
232.564563
31
0.0
0
LINE
8
0
6
CONTINUOUS
10
-93.962104
20
233.340636
30
0.0
11
-92.714143
21
232.435583
31
0.0
0
LINE
8
0
6
CONTINUOUS
10
-94.588002
20
233.794329
30
0.0
11
-93.962104
21
233.340636
31
0.0
0
LINE
8
0
6
CONTINUOUS
10
-93.946185
20
234.664866
30
0.0
11
-94.588002
21
233.794329
31
0.0
0
LINE
8
0
6
CONTINUOUS
10
-92.092124
20
231.984273
30
0.0
11
-92.714143
21
232.435583
31
0.0
0
LINE
8
0
6
CONTINUOUS
10
-93.962104
20
233.340636
30
0.0
11
-94.588002
21
233.794329
31
0.0
0
LINE
8
0
6
CONTINUOUS
10
-92.714143
20
232.435583
30
0.0
11
-93.962104
21
233.340636
31
0.0
0
LINE
8
0
6
CONTINUOUS
10
-99.409737
20
237.302988
30
0.0
11
-98.161790
21
236.397952
31
0.0
0
LINE
8
0
6
CONTINUOUS
10
-100.035645
20
237.756678
30
0.0
11
-99.409737
21
237.302988
31
0.0
0
LINE
8
0
6
CONTINUOUS
10
-99.381181
20
238.644375
30
0.0
11
-100.035645
21
237.756678
31
0.0
0
LINE
8
0
6
CONTINUOUS
10
-97.539764
20
235.946613
30
0.0
11
-97.255389
21
236.332330
31
0.0
0
LINE
8
0
6
CONTINUOUS
10
-98.161790
20
236.397952
30
0.0
11
-97.539764
21
235.946613
31
0.0
0
LINE
8
0
6
CONTINUOUS
10
-97.539764
20
235.946613
30
0.0
11
-98.161790
21
236.397952
31
0.0
0
LINE
8
0
6
CONTINUOUS
10
-99.409737
20
237.302988
30
0.0
11
-100.035645
21
237.756678
31
0.0
0
LINE
8
0
6
CONTINUOUS
10
-98.161790
20
236.397952
30
0.0
11
-99.409737
21
237.302988
31
0.0
0
LINE
8
0
6
CONTINUOUS
10
-91.544026
20
232.204078
30
0.0
11
-90.473448
21
231.427686
31
0.0
0
LINE
8
0
6
CONTINUOUS
10
-92.080978
20
232.593299
30
0.0
11
-91.544026
21
232.204078
31
0.0
0
LINE
8
0
6
CONTINUOUS
10
-91.462102
20
233.434679
30
0.0
11
-92.080978
21
232.593299
31
0.0
0
LINE
8
0
6
CONTINUOUS
10
-89.939826
20
231.040483
30
0.0
11
-90.473448
21
231.427686
31
0.0
0
LINE
8
0
6
CONTINUOUS
10
-91.544026
20
232.204078
30
0.0
11
-92.080978
21
232.593299
31
0.0
0
LINE
8
0
6
CONTINUOUS
10
-90.473448
20
231.427686
30
0.0
11
-91.544026
21
232.204078
31
0.0
0
LINE
8
0
6
CONTINUOUS
10
-98.465146
20
237.235842
30
0.0
11
-97.928201
21
236.846650
31
0.0
0
LINE
8
0
6
CONTINUOUS
10
-97.836266
20
238.090836
30
0.0
11
-98.444176
21
237.264352
31
0.0
0
LINE
8
0
6
CONTINUOUS
10
-96.857621
20
236.070248
30
0.0
11
-96.323989
21
235.683047
31
0.0
0
LINE
8
0
6
CONTINUOUS
10
-96.323989
20
235.683047
30
0.0
11
-96.857621
21
236.070248
31
0.0
0
LINE
8
0
6
CONTINUOUS
10
-97.928201
20
236.846650
30
0.0
11
-98.465146
21
237.235842
31
0.0
0
LINE
8
0
6
CONTINUOUS
10
-96.857621
20
236.070248
30
0.0
11
-97.928201
21
236.846650
31
0.0
0
LINE
8
0
6
CONTINUOUS
10
-103.246118
20
240.692802
30
0.0
11
-102.175548
21
239.916397
31
0.0
0
LINE
8
0
6
CONTINUOUS
10
-103.783068
20
241.082013
30
0.0
11
-103.246118
21
240.692802
31
0.0
0
LINE
8
0
6
CONTINUOUS
10
-103.145518
20
241.948790
30
0.0
11
-103.783068
21
241.082013
31
0.0
0
LINE
8
0
6
CONTINUOUS
10
-101.641915
20
239.529197
30
0.0
11
-101.435279
21
239.810127
31
0.0
0
LINE
8
0
6
CONTINUOUS
10
-102.175548
20
239.916397
30
0.0
11
-101.641915
21
239.529197
31
0.0
0
LINE
8
0
6
CONTINUOUS
10
-101.641915
20
239.529197
30
0.0
11
-102.175548
21
239.916397
31
0.0
0
LINE
8
0
6
CONTINUOUS
10
-103.246118
20
240.692802
30
0.0
11
-103.783068
21
241.082013
31
0.0
0
LINE
8
0
6
CONTINUOUS
10
-102.175548
20
239.916397
30
0.0
11
-103.246118
21
240.692802
31
0.0
0
LINE
8
0
6
CONTINUOUS
10
-108.038167
20
244.717825
30
0.0
11
-106.982276
21
243.952117
31
0.0
0
LINE
8
0
6
CONTINUOUS
10
-108.413039
20
244.989478
30
0.0
11
-108.038167
21
244.717825
31
0.0
0
LINE
8
0
6
CONTINUOUS
10
-107.773102
20
245.860228
30
0.0
11
-108.413039
21
244.989478
31
0.0
0
LINE
8
0
6
CONTINUOUS
10
-106.301248
20
243.458034
30
0.0
11
-106.078083
21
243.761690
31
0.0
0
LINE
8
0
6
CONTINUOUS
10
-106.982276
20
243.952117
30
0.0
11
-106.301248
21
243.458034
31
0.0
0
LINE
8
0
6
CONTINUOUS
10
-106.301248
20
243.458034
30
0.0
11
-106.982276
21
243.952117
31
0.0
0
LINE
8
0
6
CONTINUOUS
10
-108.038167
20
244.717825
30
0.0
11
-108.413039
21
244.989478
31
0.0
0
LINE
8
0
6
CONTINUOUS
10
-106.982276
20
243.952117
30
0.0
11
-108.038167
21
244.717825
31
0.0
0
LINE
8
0
6
CONTINUOUS
10
-102.941271
20
241.021029
30
0.0
11
-101.885362
21
240.255295
31
0.0
0
LINE
8
0
6
CONTINUOUS
10
-101.885362
20
240.255295
30
0.0
11
-101.204352
21
239.761239
31
0.0
0
LINE
8
0
6
CONTINUOUS
10
-101.204352
20
239.761239
30
0.0
11
-101.885362
21
240.255295
31
0.0
0
LINE
8
0
6
CONTINUOUS
10
-102.941271
20
241.021029
30
0.0
11
-103.316128
21
241.292666
31
0.0
0
LINE
8
0
6
CONTINUOUS
10
-101.885362
20
240.255295
30
0.0
11
-102.941271
21
241.021029
31
0.0
0
LINE
8
0
6
CONTINUOUS
10
-96.847651
20
236.609266
30
0.0
11
-95.791784
21
235.843573
31
0.0
0
LINE
8
0
6
CONTINUOUS
10
-97.222528
20
236.880939
30
0.0
11
-96.847651
21
236.609266
31
0.0
0
LINE
8
0
6
CONTINUOUS
10
-96.610674
20
237.713479
30
0.0
11
-97.222528
21
236.880939
31
0.0
0
LINE
8
0
6
CONTINUOUS
10
-95.791784
20
235.843573
30
0.0
11
-95.110767
21
235.349528
31
0.0
0
LINE
8
0
6
CONTINUOUS
10
-95.110767
20
235.349528
30
0.0
11
-95.791784
21
235.843573
31
0.0
0
LINE
8
0
6
CONTINUOUS
10
-96.847651
20
236.609266
30
0.0
11
-97.222528
21
236.880939
31
0.0
0
LINE
8
0
6
CONTINUOUS
10
-95.791784
20
235.843573
30
0.0
11
-96.847651
21
236.609266
31
0.0
0
LINE
8
0
6
CONTINUOUS
10
-90.233789
20
231.829403
30
0.0
11
-89.177897
21
231.063695
31
0.0
0
LINE
8
0
6
CONTINUOUS
10
-90.608646
20
232.101040
30
0.0
11
-90.233789
21
231.829403
31
0.0
0
LINE
8
0
6
CONTINUOUS
10
-90.011392
20
232.913719
30
0.0
11
-90.608646
21
232.101040
31
0.0
0
LINE
8
0
6
CONTINUOUS
10
-88.496884
20
230.569629
30
0.0
11
-87.294246
21
232.206015
31
0.0
0
LINE
8
0
6
CONTINUOUS
10
-89.177897
20
231.063695
30
0.0
11
-88.496884
21
230.569629
31
0.0
0
LINE
8
0
6
CONTINUOUS
10
-88.496884
20
230.569629
30
0.0
11
-89.177897
21
231.063695
31
0.0
0
LINE
8
0
6
CONTINUOUS
10
-90.233789
20
231.829403
30
0.0
11
-90.608646
21
232.101040
31
0.0
0
LINE
8
0
6
CONTINUOUS
10
-89.177897
20
231.063695
30
0.0
11
-90.233789
21
231.829403
31
0.0
0
LINE
8
0
6
CONTINUOUS
10
-71.168400
20
216.180400
30
0.0
11
-70.525479
21
217.057153
31
0.0
0
LINE
8
0
6
CONTINUOUS
10
-71.681298
20
216.552601
30
0.0
11
-71.168400
21
216.180400
31
0.0
0
LINE
8
0
6
CONTINUOUS
10
-72.961353
20
217.480944
30
0.0
11
-73.728521
21
218.037094
31
0.0
0
LINE
8
0
6
CONTINUOUS
10
-71.681298
20
216.552601
30
0.0
11
-72.961353
21
217.480944
31
0.0
0
LINE
8
0
6
CONTINUOUS
10
-71.168400
20
216.180400
30
0.0
11
-71.681298
21
216.552601
31
0.0
0
LINE
8
0
6
CONTINUOUS
10
-53.429241
20
205.156893
30
0.0
11
-52.783758
21
206.038805
31
0.0
0
LINE
8
0
6
CONTINUOUS
10
-53.855435
20
205.466190
30
0.0
11
-53.429241
21
205.156893
31
0.0
0
LINE
8
0
6
CONTINUOUS
10
-54.919061
20
206.237562
30
0.0
11
-53.855435
21
205.466190
31
0.0
0
LINE
8
0
6
CONTINUOUS
10
-55.556503
20
206.699676
30
0.0
11
-54.919061
21
206.237562
31
0.0
0
LINE
8
0
6
CONTINUOUS
10
-54.919061
20
206.237562
30
0.0
11
-55.556503
21
206.699676
31
0.0
0
LINE
8
0
6
CONTINUOUS
10
-53.855435
20
205.466190
30
0.0
11
-54.919061
21
206.237562
31
0.0
0
LINE
8
0
6
CONTINUOUS
10
-53.429241
20
205.156893
30
0.0
11
-53.855435
21
205.466190
31
0.0
0
LINE
8
0
6
CONTINUOUS
10
-59.919134
20
209.276397
30
0.0
11
-59.492946
21
208.967119
31
0.0
0
LINE
8
0
6
CONTINUOUS
10
-60.982750
20
210.047772
30
0.0
11
-59.919134
21
209.276397
31
0.0
0
LINE
8
0
6
CONTINUOUS
10
-61.620193
20
210.509886
30
0.0
11
-60.982750
21
210.047772
31
0.0
0
LINE
8
0
6
CONTINUOUS
10
-60.982750
20
210.047772
30
0.0
11
-61.620193
21
210.509886
31
0.0
0
LINE
8
0
6
CONTINUOUS
10
-59.919134
20
209.276397
30
0.0
11
-60.982750
21
210.047772
31
0.0
0
LINE
8
0
6
CONTINUOUS
10
-59.492946
20
208.967119
30
0.0
11
-59.919134
21
209.276397
31
0.0
0
LINE
8
0
6
CONTINUOUS
10
-65.933533
20
213.014199
30
0.0
11
-65.436727
21
212.653671
31
0.0
0
LINE
8
0
6
CONTINUOUS
10
-67.173366
20
213.913366
30
0.0
11
-65.933533
21
213.014199
31
0.0
0
LINE
8
0
6
CONTINUOUS
10
-67.916415
20
214.452051
30
0.0
11
-67.173366
21
213.913366
31
0.0
0
LINE
8
0
6
CONTINUOUS
10
-67.173366
20
213.913366
30
0.0
11
-67.916415
21
214.452051
31
0.0
0
LINE
8
0
6
CONTINUOUS
10
-65.933533
20
213.014199
30
0.0
11
-67.173366
21
213.913366
31
0.0
0
LINE
8
0
6
CONTINUOUS
10
-65.436727
20
212.653671
30
0.0
11
-65.933533
21
213.014199
31
0.0
0
LINE
8
0
6
CONTINUOUS
10
-55.257120
20
206.456163
30
0.0
11
-54.710604
21
207.202854
31
0.0
0
LINE
8
0
6
CONTINUOUS
10
-55.683289
20
206.765446
30
0.0
11
-55.257120
21
206.456163
31
0.0
0
LINE
8
0
6
CONTINUOUS
10
-56.746920
20
207.536838
30
0.0
11
-55.683289
21
206.765446
31
0.0
0
LINE
8
0
6
CONTINUOUS
10
-56.746920
20
207.536838
30
0.0
11
-57.384382
21
207.998947
31
0.0
0
LINE
8
0
6
CONTINUOUS
10
-55.683289
20
206.765446
30
0.0
11
-56.746920
21
207.536838
31
0.0
0
LINE
8
0
6
CONTINUOUS
10
-55.257120
20
206.456163
30
0.0
11
-55.683289
21
206.765446
31
0.0
0
LINE
8
0
6
CONTINUOUS
10
-61.309944
20
210.281362
30
0.0
11
-60.756660
21
211.037300
31
0.0
0
LINE
8
0
6
CONTINUOUS
10
-61.736140
20
210.590627
30
0.0
11
-61.309944
21
210.281362
31
0.0
0
LINE
8
0
6
CONTINUOUS
10
-62.799751
20
211.362024
30
0.0
11
-61.736140
21
210.590627
31
0.0
0
LINE
8
0
6
CONTINUOUS
10
-63.437198
20
211.824117
30
0.0
11
-62.799751
21
211.362024
31
0.0
0
LINE
8
0
6
CONTINUOUS
10
-62.799751
20
211.362024
30
0.0
11
-63.437198
21
211.824117
31
0.0
0
LINE
8
0
6
CONTINUOUS
10
-61.736140
20
210.590627
30
0.0
11
-62.799751
21
211.362024
31
0.0
0
LINE
8
0
6
CONTINUOUS
10
-61.309944
20
210.281362
30
0.0
11
-61.736140
21
210.590627
31
0.0
0
LINE
8
0
6
CONTINUOUS
10
-70.336765
20
216.216092
30
0.0
11
-69.593711
21
215.677430
31
0.0
0
LINE
8
0
6
CONTINUOUS
10
-69.791383
20
216.960096
30
0.0
11
-70.336765
21
216.216092
31
0.0
0
LINE
8
0
6
CONTINUOUS
10
-69.593711
20
215.677430
30
0.0
11
-70.336765
21
216.216092
31
0.0
0
LINE
8
0
6
CONTINUOUS
10
-68.353870
20
214.778234
30
0.0
11
-69.593711
21
215.677430
31
0.0
0
LINE
8
0
6
CONTINUOUS
10
-67.857077
20
214.417712
30
0.0
11
-68.353870
21
214.778234
31
0.0
0
LINE
8
0
6
CONTINUOUS
10
-73.591782
20
217.940660
30
0.0
11
-73.023768
21
218.715274
31
0.0
0
LINE
8
0
6
CONTINUOUS
10
-74.104700
20
218.312896
30
0.0
11
-73.591782
21
217.940660
31
0.0
0
LINE
8
0
6
CONTINUOUS
10
-75.384745
20
219.241243
30
0.0
11
-76.151899
21
219.797376
31
0.0
0
LINE
8
0
6
CONTINUOUS
10
-74.104700
20
218.312896
30
0.0
11
-75.384745
21
219.241243
31
0.0
0
LINE
8
0
6
CONTINUOUS
10
-73.591782
20
217.940660
30
0.0
11
-74.104700
21
218.312896
31
0.0
0
LINE
8
0
6
CONTINUOUS
10
-79.014765
20
221.869099
30
0.0
11
-78.575860
21
222.467639
31
0.0
0
LINE
8
0
6
CONTINUOUS
10
-79.527666
20
222.241309
30
0.0
11
-79.014765
21
221.869099
31
0.0
0
LINE
8
0
6
CONTINUOUS
10
-80.807714
20
223.169665
30
0.0
11
-79.527666
21
222.241309
31
0.0
0
LINE
8
0
6
CONTINUOUS
10
-81.574873
20
223.725817
30
0.0
11
-80.807714
21
223.169665
31
0.0
0
LINE
8
0
6
CONTINUOUS
10
-80.980314
20
224.536620
30
0.0
11
-81.574873
21
223.725817
31
0.0
0
LINE
8
0
6
CONTINUOUS
10
-80.807714
20
223.169665
30
0.0
11
-81.574873
21
223.725817
31
0.0
0
LINE
8
0
6
CONTINUOUS
10
-79.527666
20
222.241309
30
0.0
11
-80.807714
21
223.169665
31
0.0
0
LINE
8
0
6
CONTINUOUS
10
-79.014765
20
221.869099
30
0.0
11
-79.527666
21
222.241309
31
0.0
0
LINE
8
0
6
CONTINUOUS
10
-72.636727
20
217.868082
30
0.0
11
-72.349667
21
218.259685
31
0.0
0
LINE
8
0
6
CONTINUOUS
10
-73.133508
20
218.228596
30
0.0
11
-72.636727
21
217.868082
31
0.0
0
LINE
8
0
6
CONTINUOUS
10
-74.373361
20
219.127799
30
0.0
11
-73.133508
21
218.228596
31
0.0
0
LINE
8
0
6
CONTINUOUS
10
-74.373361
20
219.127799
30
0.0
11
-75.116415
21
219.666462
31
0.0
0
LINE
8
0
6
CONTINUOUS
10
-73.133508
20
218.228596
30
0.0
11
-74.373361
21
219.127799
31
0.0
0
LINE
8
0
6
CONTINUOUS
10
-72.636727
20
217.868082
30
0.0
11
-73.133508
21
218.228596
31
0.0
0
LINE
8
0
6
CONTINUOUS
10
-78.609583
20
222.225070
30
0.0
11
-78.479506
21
222.402519
31
0.0
0
LINE
8
0
6
CONTINUOUS
10
-79.106379
20
222.585601
30
0.0
11
-78.609583
21
222.225070
31
0.0
0
LINE
8
0
6
CONTINUOUS
10
-80.346211
20
223.484768
30
0.0
11
-79.106379
21
222.585601
31
0.0
0
LINE
8
0
6
CONTINUOUS
10
-80.346211
20
223.484768
30
0.0
11
-81.089280
21
224.023447
31
0.0
0
LINE
8
0
6
CONTINUOUS
10
-79.106379
20
222.585601
30
0.0
11
-80.346211
21
223.484768
31
0.0
0
LINE
8
0
6
CONTINUOUS
10
-78.609583
20
222.225070
30
0.0
11
-79.106379
21
222.585601
31
0.0
0
LINE
8
0
6
CONTINUOUS
10
-64.906800
20
212.881048
30
0.0
11
-64.536378
21
213.387147
31
0.0
0
LINE
8
0
6
CONTINUOUS
10
-65.332979
20
213.190328
30
0.0
11
-64.906800
21
212.881048
31
0.0
0
LINE
8
0
6
CONTINUOUS
10
-66.396617
20
213.961708
30
0.0
11
-65.332979
21
213.190328
31
0.0
0
LINE
8
0
6
CONTINUOUS
10
-67.034062
20
214.423832
30
0.0
11
-66.396617
21
213.961708
31
0.0
0
LINE
8
0
6
CONTINUOUS
10
-66.463891
20
215.202830
30
0.0
11
-67.034062
21
214.423832
31
0.0
0
LINE
8
0
6
CONTINUOUS
10
-66.396617
20
213.961708
30
0.0
11
-67.034062
21
214.423832
31
0.0
0
LINE
8
0
6
CONTINUOUS
10
-65.332979
20
213.190328
30
0.0
11
-66.396617
21
213.961708
31
0.0
0
LINE
8
0
6
CONTINUOUS
10
-64.906800
20
212.881048
30
0.0
11
-65.332979
21
213.190328
31
0.0
0
LINE
8
0
6
CONTINUOUS
10
-69.967855
20
216.563565
30
0.0
11
-69.891107
21
216.668423
31
0.0
0
LINE
8
0
6
CONTINUOUS
10
-70.394034
20
216.872845
30
0.0
11
-69.967855
21
216.563565
31
0.0
0
LINE
8
0
6
CONTINUOUS
10
-71.457665
20
217.644237
30
0.0
11
-70.394034
21
216.872845
31
0.0
0
LINE
8
0
6
CONTINUOUS
10
-72.095117
20
218.106349
30
0.0
11
-71.457665
21
217.644237
31
0.0
0
LINE
8
0
6
CONTINUOUS
10
-71.515561
20
218.898171
30
0.0
11
-72.095117
21
218.106349
31
0.0
0
LINE
8
0
6
CONTINUOUS
10
-71.457665
20
217.644237
30
0.0
11
-72.095117
21
218.106349
31
0.0
0
LINE
8
0
6
CONTINUOUS
10
-70.394034
20
216.872845
30
0.0
11
-71.457665
21
217.644237
31
0.0
0
LINE
8
0
6
CONTINUOUS
10
-69.967855
20
216.563565
30
0.0
11
-70.394034
21
216.872845
31
0.0
0
LINE
8
0
6
CONTINUOUS
10
-76.703678
20
221.461931
30
0.0
11
-76.277497
21
221.152641
31
0.0
0
LINE
8
0
6
CONTINUOUS
10
-78.404751
20
222.695437
30
0.0
11
-77.767299
21
222.233326
31
0.0
0
LINE
8
0
6
CONTINUOUS
10
-77.814771
20
223.501502
30
0.0
11
-78.404751
21
222.695437
31
0.0
0
LINE
8
0
6
CONTINUOUS
10
-77.767299
20
222.233326
30
0.0
11
-78.404751
21
222.695437
31
0.0
0
LINE
8
0
6
CONTINUOUS
10
-76.703678
20
221.461931
30
0.0
11
-77.767299
21
222.233326
31
0.0
0
LINE
8
0
6
CONTINUOUS
10
-76.277497
20
221.152641
30
0.0
11
-76.703678
21
221.461931
31
0.0
0
LINE
8
0
6
CONTINUOUS
10
-75.440795
20
221.087673
30
0.0
11
-74.856697
21
220.663882
31
0.0
0
LINE
8
0
6
CONTINUOUS
10
-76.509859
20
221.862979
30
0.0
11
-75.440795
21
221.087673
31
0.0
0
LINE
8
0
6
CONTINUOUS
10
-76.509859
20
221.862979
30
0.0
11
-76.994833
21
222.214483
31
0.0
0
LINE
8
0
6
CONTINUOUS
10
-75.440795
20
221.087673
30
0.0
11
-76.509859
21
221.862979
31
0.0
0
LINE
8
0
6
CONTINUOUS
10
-74.856697
20
220.663882
30
0.0
11
-75.440795
21
221.087673
31
0.0
0
LINE
8
0
6
CONTINUOUS
10
-68.457994
20
216.021315
30
0.0
11
-67.184367
21
217.758329
31
0.0
0
LINE
8
0
6
CONTINUOUS
10
-69.042086
20
216.445087
30
0.0
11
-68.457994
21
216.021315
31
0.0
0
LINE
8
0
6
CONTINUOUS
10
-70.111148
20
217.220383
30
0.0
11
-70.596114
21
217.571899
31
0.0
0
LINE
8
0
6
CONTINUOUS
10
-69.042086
20
216.445087
30
0.0
11
-70.111148
21
217.220383
31
0.0
0
LINE
8
0
6
CONTINUOUS
10
-68.457994
20
216.021315
30
0.0
11
-69.042086
21
216.445087
31
0.0
0
LINE
8
0
6
CONTINUOUS
10
-62.802247
20
211.932382
30
0.0
11
-62.603867
21
212.202941
31
0.0
0
LINE
8
0
6
CONTINUOUS
10
-63.386345
20
212.356172
30
0.0
11
-62.802247
21
211.932382
31
0.0
0
LINE
8
0
6
CONTINUOUS
10
-64.455389
20
213.131443
30
0.0
11
-63.386345
21
212.356172
31
0.0
0
LINE
8
0
6
CONTINUOUS
10
-64.455389
20
213.131443
30
0.0
11
-64.940377
21
213.482963
31
0.0
0
LINE
8
0
6
CONTINUOUS
10
-63.386345
20
212.356172
30
0.0
11
-64.455389
21
213.131443
31
0.0
0
LINE
8
0
6
CONTINUOUS
10
-62.802247
20
211.932382
30
0.0
11
-63.386345
21
212.356172
31
0.0
0
LINE
8
0
6
CONTINUOUS
10
-59.919620
20
209.856252
30
0.0
11
-60.404594
21
210.207755
31
0.0
0
LINE
8
0
6
CONTINUOUS
10
-58.850552
20
209.080967
30
0.0
11
-59.919620
21
209.856252
31
0.0
0
LINE
8
0
6
CONTINUOUS
10
-58.266464
20
208.657174
30
0.0
11
-58.850552
21
209.080967
31
0.0
0
LINE
8
0
6
CONTINUOUS
10
-98.571911
20
236.063551
30
0.0
11
-98.348690
21
235.901923
31
0.0
0
LINE
8
0
6
CONTINUOUS
10
-98.348690
20
235.901923
30
0.0
11
-97.138108
21
235.024067
31
0.0
0
LINE
8
0
6
CONTINUOUS
10
-96.150747
20
234.307839
30
0.0
11
-95.610410
21
235.054147
31
0.0
0
LINE
8
0
6
CONTINUOUS
10
-97.138108
20
235.024067
30
0.0
11
-96.150747
21
234.307839
31
0.0
0
LINE
8
0
6
CONTINUOUS
10
-97.138108
20
235.024067
30
0.0
11
-98.348690
21
235.901923
31
0.0
0
LINE
8
0
6
CONTINUOUS
10
-96.150747
20
234.307839
30
0.0
11
-97.138108
21
235.024067
31
0.0
0
LINE
8
0
6
CONTINUOUS
10
-98.348690
20
235.901923
30
0.0
11
-98.571911
21
236.063551
31
0.0
0
LINE
8
0
6
CONTINUOUS
10
-112.292130
20
247.819160
30
0.0
11
-112.106652
21
247.684868
31
0.0
0
LINE
8
0
6
CONTINUOUS
10
-111.653919
20
248.700405
30
0.0
11
-112.292130
21
247.819160
31
0.0
0
LINE
8
0
6
CONTINUOUS
10
-112.106652
20
247.684868
30
0.0
11
-111.100749
21
246.955453
31
0.0
0
LINE
8
0
6
CONTINUOUS
10
-110.280334
20
246.360327
30
0.0
11
-109.886954
21
246.903507
31
0.0
0
LINE
8
0
6
CONTINUOUS
10
-111.100749
20
246.955453
30
0.0
11
-110.280334
21
246.360327
31
0.0
0
LINE
8
0
6
CONTINUOUS
10
-111.100749
20
246.955453
30
0.0
11
-112.106652
21
247.684868
31
0.0
0
LINE
8
0
6
CONTINUOUS
10
-110.280334
20
246.360327
30
0.0
11
-111.100749
21
246.955453
31
0.0
0
LINE
8
0
6
CONTINUOUS
10
-112.106652
20
247.684868
30
0.0
11
-112.292130
21
247.819160
31
0.0
0
LINE
8
0
6
CONTINUOUS
10
-106.535443
20
243.086180
30
0.0
11
-107.541348
21
243.815604
31
0.0
0
LINE
8
0
6
CONTINUOUS
10
-105.715027
20
242.491054
30
0.0
11
-106.535443
21
243.086180
31
0.0
0
LINE
8
0
6
CONTINUOUS
10
-107.541348
20
243.815604
30
0.0
11
-107.726823
21
243.949887
31
0.0
0
LINE
8
0
6
CONTINUOUS
10
-102.137606
20
239.278618
30
0.0
11
-103.310172
21
240.128889
31
0.0
0
LINE
8
0
6
CONTINUOUS
10
-101.181286
20
238.584900
30
0.0
11
-102.137606
21
239.278618
31
0.0
0
LINE
8
0
6
CONTINUOUS
10
-103.310172
20
240.128889
30
0.0
11
-103.526387
21
240.285439
31
0.0
0
LINE
8
0
6
CONTINUOUS
10
-114.366851
20
249.301617
30
0.0
11
-113.360939
21
248.572205
31
0.0
0
LINE
8
0
6
CONTINUOUS
10
-112.540527
20
247.977057
30
0.0
11
-112.034900
21
248.675232
31
0.0
0
LINE
8
0
6
CONTINUOUS
10
-113.360939
20
248.572205
30
0.0
11
-112.540527
21
247.977057
31
0.0
0
LINE
8
0
6
CONTINUOUS
10
-113.360939
20
248.572205
30
0.0
11
-114.366851
21
249.301617
31
0.0
0
LINE
8
0
6
CONTINUOUS
10
-112.540527
20
247.977057
30
0.0
11
-113.360939
21
248.572205
31
0.0
0
LINE
8
0
6
CONTINUOUS
10
-114.366851
20
249.301617
30
0.0
11
-114.552324
21
249.435931
31
0.0
0
LINE
8
0
6
CONTINUOUS
10
-109.626452
20
245.321700
30
0.0
11
-109.440980
21
245.187428
31
0.0
0
LINE
8
0
6
CONTINUOUS
10
-108.986466
20
246.205397
30
0.0
11
-109.626452
21
245.321700
31
0.0
0
LINE
8
0
6
CONTINUOUS
10
-109.440980
20
245.187428
30
0.0
11
-108.435071
21
244.457993
31
0.0
0
LINE
8
0
6
CONTINUOUS
10
-108.435071
20
244.457993
30
0.0
11
-109.440980
21
245.187428
31
0.0
0
LINE
8
0
6
CONTINUOUS
10
-107.614658
20
243.862877
30
0.0
11
-108.435071
21
244.457993
31
0.0
0
LINE
8
0
6
CONTINUOUS
10
-109.440980
20
245.187428
30
0.0
11
-109.626452
21
245.321700
31
0.0
0
LINE
8
0
6
CONTINUOUS
10
-104.778490
20
241.176979
30
0.0
11
-104.562290
21
241.020446
31
0.0
0
LINE
8
0
6
CONTINUOUS
10
-104.116098
20
242.091813
30
0.0
11
-104.778490
21
241.176979
31
0.0
0
LINE
8
0
6
CONTINUOUS
10
-104.562290
20
241.020446
30
0.0
11
-103.389721
21
240.170166
31
0.0
0
LINE
8
0
6
CONTINUOUS
10
-103.389721
20
240.170166
30
0.0
11
-102.433389
21
239.476440
31
0.0
0
LINE
8
0
6
CONTINUOUS
10
-103.389721
20
240.170166
30
0.0
11
-104.562290
21
241.020446
31
0.0
0
LINE
8
0
6
CONTINUOUS
10
-102.433389
20
239.476440
30
0.0
11
-103.389721
21
240.170166
31
0.0
0
LINE
8
0
6
CONTINUOUS
10
-104.562290
20
241.020446
30
0.0
11
-104.778490
21
241.176979
31
0.0
0
LINE
8
0
6
CONTINUOUS
10
-99.278165
20
236.562957
30
0.0
11
-99.054959
21
236.401345
31
0.0
0
LINE
8
0
6
CONTINUOUS
10
-97.844380
20
235.523498
30
0.0
11
-96.857009
21
234.807273
31
0.0
0
LINE
8
0
6
CONTINUOUS
10
-96.857009
20
234.807273
30
0.0
11
-97.844380
21
235.523498
31
0.0
0
LINE
8
0
6
CONTINUOUS
10
-99.054959
20
236.401345
30
0.0
11
-99.278165
21
236.562957
31
0.0
0
LINE
8
0
6
CONTINUOUS
10
-96.889039
20
234.835210
30
0.0
11
-96.665845
21
234.673605
31
0.0
0
LINE
8
0
6
CONTINUOUS
10
-96.665845
20
234.673605
30
0.0
11
-95.455251
21
233.795742
31
0.0
0
LINE
8
0
6
CONTINUOUS
10
-95.455251
20
233.795742
30
0.0
11
-96.665845
21
234.673605
31
0.0
0
LINE
8
0
6
CONTINUOUS
10
-94.467895
20
233.079533
30
0.0
11
-95.455251
21
233.795742
31
0.0
0
LINE
8
0
6
CONTINUOUS
10
-96.665845
20
234.673605
30
0.0
11
-96.889039
21
234.835210
31
0.0
0
LINE
8
0
6
CONTINUOUS
10
-109.626688
20
245.324213
30
0.0
11
-109.812156
21
245.458508
31
0.0
0
LINE
8
0
6
CONTINUOUS
10
-112.084048
20
247.645473
30
0.0
11
-111.153416
21
246.970664
31
0.0
0
LINE
8
0
6
CONTINUOUS
10
-110.229718
20
246.300691
30
0.0
11
-109.828839
21
246.855571
31
0.0
0
LINE
8
0
6
CONTINUOUS
10
-111.153416
20
246.970664
30
0.0
11
-110.229718
21
246.300691
31
0.0
0
LINE
8
0
6
CONTINUOUS
10
-111.153416
20
246.970664
30
0.0
11
-112.084048
21
247.645473
31
0.0
0
LINE
8
0
6
CONTINUOUS
10
-110.229718
20
246.300691
30
0.0
11
-111.153416
21
246.970664
31
0.0
0
LINE
8
0
6
CONTINUOUS
10
-114.456187
20
249.377568
30
0.0
11
-115.386813
21
250.052357
31
0.0
0
LINE
8
0
6
CONTINUOUS
10
-91.729355
20
231.093139
30
0.0
11
-91.073175
21
230.617499
31
0.0
0
LINE
8
0
6
CONTINUOUS
10
-91.073175
20
230.617499
30
0.0
11
-91.729355
21
231.093139
31
0.0
0
LINE
8
0
6
CONTINUOUS
10
-112.034900
20
248.675232
30
0.0
11
-111.807807
21
248.487915
31
0.0
0
LINE
8
0
6
CONTINUOUS
10
-109.886954
20
246.903507
30
0.0
11
-109.006711
21
246.177443
31
0.0
0
LINE
8
0
6
CONTINUOUS
10
-57.865658
20
209.203809
30
0.0
11
-56.934671
21
208.613371
31
0.0
0
LINE
8
0
6
CONTINUOUS
10
-105.284174
20
243.085981
30
0.0
11
-104.060285
21
242.044310
31
0.0
0
LINE
8
0
6
CONTINUOUS
10
-100.729250
20
239.209214
30
0.0
11
-99.645066
21
238.286448
31
0.0
0
LINE
8
0
6
CONTINUOUS
10
-95.610410
20
235.054147
30
0.0
11
-94.369858
21
234.090212
31
0.0
0
LINE
8
0
6
CONTINUOUS
10
-90.999006
20
231.470989
30
0.0
11
-90.702755
21
231.240796
31
0.0
0
LINE
8
0
6
CONTINUOUS
10
-77.022784
20
221.417997
30
0.0
11
-75.645889
21
220.487427
31
0.0
0
LINE
8
0
6
CONTINUOUS
10
-88.257477
20
229.357621
30
0.0
11
-87.871054
21
229.060526
31
0.0
0
LINE
8
0
6
CONTINUOUS
10
-81.966419
20
224.778251
30
0.0
11
-81.191456
21
224.248684
31
0.0
0
LINE
8
0
6
CONTINUOUS
10
-119.277816
20
255.461872
30
0.0
11
-118.235373
21
254.028701
31
0.0
0
LINE
8
0
6
CONTINUOUS
10
-118.342011
20
254.716659
30
0.0
11
-119.277816
21
255.461872
31
0.0
0
LINE
8
0
6
CONTINUOUS
10
-115.694579
20
252.935343
30
0.0
11
-118.342011
21
254.716659
31
0.0
0
LINE
8
0
6
CONTINUOUS
10
-98.807446
20
240.554970
30
0.0
11
-105.646039
21
245.513552
31
0.0
0
LINE
8
0
6
CONTINUOUS
10
-91.187866
20
235.029653
30
0.0
11
-98.807446
21
240.554970
31
0.0
0
LINE
8
0
6
CONTINUOUS
10
-83.169124
20
229.214501
30
0.0
11
-91.187866
21
235.029653
31
0.0
0
LINE
8
0
6
CONTINUOUS
10
-54.956819
20
208.814806
30
0.0
11
-60.586765
21
212.972756
31
0.0
0
LINE
8
0
6
CONTINUOUS
10
-50.667494
20
205.702300
30
0.0
11
-54.956819
21
208.814806
31
0.0
0
LINE
8
0
6
CONTINUOUS
10
-47.919238
20
203.781754
30
0.0
11
-50.667494
21
205.702300
31
0.0
0
LINE
8
0
6
CONTINUOUS
10
-47.111667
20
203.125599
30
0.0
11
-47.919238
21
203.781754
31
0.0
0
LINE
8
0
6
CONTINUOUS
10
-48.797472
20
203.671005
30
0.0
11
-47.111667
21
203.125599
31
0.0
0
LINE
8
0
6
CONTINUOUS
10
-105.646039
20
245.513552
30
0.0
11
-111.336690
21
249.639325
31
0.0
0
LINE
8
0
6
CONTINUOUS
10
-75.064479
20
223.473749
30
0.0
11
-83.169124
21
229.214501
31
0.0
0
LINE
8
0
6
CONTINUOUS
10
-67.431243
20
217.937405
30
0.0
11
-75.064479
21
223.473749
31
0.0
0
LINE
8
0
6
CONTINUOUS
10
-60.586765
20
212.972756
30
0.0
11
-67.431243
21
217.937405
31
0.0
0
LINE
8
0
6
CONTINUOUS
10
-111.359978
20
249.656208
30
0.0
11
-115.694579
21
252.935343
31
0.0
0
LINE
8
0
6
CONTINUOUS
10
-118.235373
20
254.028701
30
0.0
11
-114.736621
21
250.966714
31
0.0
0
LINE
8
0
6
CONTINUOUS
10
-52.783758
20
206.038805
30
0.0
11
-48.797472
21
203.671005
31
0.0
0
LINE
8
0
6
CONTINUOUS
10
-28.337758
20
196.522267
30
0.0
11
-28.458117
21
196.340725
31
0.0
0
LINE
8
0
6
CONTINUOUS
10
-27.972812
20
197.042837
30
0.0
11
-28.337758
21
196.522267
31
0.0
0
LINE
8
0
6
CONTINUOUS
10
54.439236
20
115.489175
30
0.0
11
55.578339
21
116.141076
31
0.0
0
LINE
8
0
6
CONTINUOUS
10
-36.779297
20
208.138227
30
0.0
11
-28.110426
21
197.585931
31
0.0
0
LINE
8
0
6
CONTINUOUS
10
55.578339
20
116.141076
30
0.0
11
56.014954
21
116.401224
31
0.0
0
LINE
8
0
6
CONTINUOUS
10
56.014954
20
116.401224
30
0.0
11
55.520371
21
117.058001
31
0.0
0
LINE
8
0
6
CONTINUOUS
10
-28.271708
20
193.179250
30
0.0
11
-28.049463
21
192.860354
31
0.0
0
LINE
8
0
6
CONTINUOUS
10
-17.807126
20
211.830198
30
0.0
11
-28.700379
21
223.868612
31
0.0
0
LINE
8
0
6
CONTINUOUS
10
52.455046
20
114.366970
30
0.0
11
54.439236
21
115.489175
31
0.0
0
LINE
8
0
6
CONTINUOUS
10
49.197202
20
112.541401
30
0.0
11
52.455046
21
114.366970
31
0.0
0
LINE
8
0
6
CONTINUOUS
10
41.455709
20
108.216162
30
0.0
11
42.141081
21
108.599077
31
0.0
0
LINE
8
0
6
CONTINUOUS
10
38.581177
20
106.612815
30
0.0
11
41.455709
21
108.216162
31
0.0
0
LINE
8
0
6
CONTINUOUS
10
36.610320
20
105.521365
30
0.0
11
38.581177
21
106.612815
31
0.0
0
LINE
8
0
6
CONTINUOUS
10
35.122058
20
104.703907
30
0.0
11
36.408615
21
105.410582
31
0.0
0
LINE
8
0
6
CONTINUOUS
10
33.861893
20
104.029566
30
0.0
11
34.155911
21
104.178792
31
0.0
0
LINE
8
0
6
CONTINUOUS
10
33.432341
20
104.645970
30
0.0
11
33.861893
21
104.029566
31
0.0
0
LINE
8
0
6
CONTINUOUS
10
34.155911
20
104.178792
30
0.0
11
35.122058
21
104.703907
31
0.0
0
LINE
8
0
6
CONTINUOUS
10
-16.008753
20
212.081385
30
0.0
11
-17.156768
21
211.697270
31
0.0
0
LINE
8
0
6
CONTINUOUS
10
-15.239983
20
211.059975
30
0.0
11
-16.008753
21
212.081385
31
0.0
0
LINE
8
0
6
CONTINUOUS
10
-28.983528
20
194.200652
30
0.0
11
-28.271708
21
193.179250
31
0.0
0
LINE
8
0
6
CONTINUOUS
10
-28.458117
20
196.340725
30
0.0
11
-28.553378
21
195.952731
31
0.0
0
LINE
8
0
6
CONTINUOUS
10
-14.985186
20
210.721467
30
0.0
11
-15.239983
21
211.059975
31
0.0
0
LINE
8
0
6
CONTINUOUS
10
-28.110426
20
197.585931
30
0.0
11
-27.816322
21
197.227929
31
0.0
0
LINE
8
0
6
CONTINUOUS
10
-17.499341
20
211.490055
30
0.0
11
-17.807126
21
211.830198
31
0.0
0
LINE
8
0
6
CONTINUOUS
10
42.141081
20
108.599077
30
0.0
11
48.538276
21
112.173236
31
0.0
0
LINE
8
0
6
CONTINUOUS
10
48.538276
20
112.173236
30
0.0
11
49.197202
21
112.541401
31
0.0
0
LINE
8
0
6
CONTINUOUS
10
36.408615
20
105.410582
30
0.0
11
36.610320
21
105.521365
31
0.0
0
LINE
8
0
6
CONTINUOUS
10
-28.049463
20
192.860354
30
0.0
11
33.432341
21
104.645970
31
0.0
0
LINE
8
0
6
CONTINUOUS
10
55.520371
20
117.058001
30
0.0
11
-14.985186
21
210.721467
31
0.0
0
LINE
8
0
6
CONTINUOUS
10
-17.156768
20
211.697270
30
0.0
11
-17.410995
21
211.612217
31
0.0
0
LINE
8
0
6
CONTINUOUS
10
-28.553378
20
195.952731
30
0.0
11
-28.983528
21
194.200652
31
0.0
0
LINE
8
0
6
CONTINUOUS
10
-113.921005
20
271.690071
30
0.0
11
-118.127164
21
266.324770
31
0.0
0
LINE
8
0
6
CONTINUOUS
10
-37.143693
20
207.594015
30
0.0
11
-36.779297
21
208.138227
31
0.0
0
LINE
8
0
6
CONTINUOUS
10
-111.632512
20
274.084310
30
0.0
11
-113.921005
21
271.690071
31
0.0
0
LINE
8
0
6
CONTINUOUS
10
-106.622309
20
278.495856
30
0.0
11
-109.197909
21
276.365193
31
0.0
0
LINE
8
0
6
CONTINUOUS
10
-104.308045
20
279.878293
30
0.0
11
-104.432793
21
279.864433
31
0.0
0
LINE
8
0
6
CONTINUOUS
10
-103.423167
20
279.940361
30
0.0
11
-104.308045
21
279.878293
31
0.0
0
LINE
8
0
6
CONTINUOUS
10
-103.005948
20
279.946832
30
0.0
11
-103.423167
21
279.940361
31
0.0
0
LINE
8
0
6
CONTINUOUS
10
-28.528378
20
224.817079
30
0.0
11
-28.553926
21
224.939952
31
0.0
0
LINE
8
0
6
CONTINUOUS
10
-28.553926
20
224.939952
30
0.0
11
-28.769854
21
225.800345
31
0.0
0
LINE
8
0
6
CONTINUOUS
10
-28.769854
20
225.800345
30
0.0
11
-28.893305
21
226.198926
31
0.0
0
LINE
8
0
6
CONTINUOUS
10
-109.197909
20
276.365193
30
0.0
11
-111.632512
21
274.084310
31
0.0
0
LINE
8
0
6
CONTINUOUS
10
-37.287346
20
207.395938
30
0.0
11
-37.143693
21
207.594015
31
0.0
0
LINE
8
0
6
CONTINUOUS
10
-118.127164
20
266.324770
30
0.0
11
-118.270820
21
266.126703
31
0.0
0
LINE
8
0
6
CONTINUOUS
10
-118.473108
20
265.847796
30
0.0
11
-119.052747
21
265.048516
31
0.0
0
LINE
8
0
6
CONTINUOUS
10
-38.069254
20
206.317756
30
0.0
11
-37.489624
21
207.116993
31
0.0
0
LINE
8
0
6
CONTINUOUS
10
-49.807140
20
205.811941
30
0.0
11
-47.109412
21
203.853865
31
0.0
0
LINE
8
0
6
CONTINUOUS
10
-46.203767
20
203.195371
30
0.0
11
-43.868890
21
203.241185
31
0.0
0
LINE
8
0
6
CONTINUOUS
10
-47.109412
20
203.853865
30
0.0
11
-46.203767
21
203.195371
31
0.0
0
LINE
8
0
6
CONTINUOUS
10
-54.161706
20
208.971417
30
0.0
11
-49.807140
21
205.811941
31
0.0
0
LINE
8
0
6
CONTINUOUS
10
-119.052747
20
265.048516
30
0.0
11
-119.881055
21
263.111561
31
0.0
0
LINE
8
0
6
CONTINUOUS
10
-119.881055
20
263.111561
30
0.0
11
-120.327834
21
260.624158
31
0.0
0
LINE
8
0
6
CONTINUOUS
10
-120.327834
20
260.624158
30
0.0
11
-120.175317
21
258.580088
31
0.0
0
LINE
8
0
6
CONTINUOUS
10
-39.653056
20
204.928674
30
0.0
11
-38.069254
21
206.317756
31
0.0
0
LINE
8
0
6
CONTINUOUS
10
-41.878575
20
203.731259
30
0.0
11
-39.653056
21
204.928674
31
0.0
0
LINE
8
0
6
CONTINUOUS
10
-43.868890
20
203.241185
30
0.0
11
-41.878575
21
203.731259
31
0.0
0
LINE
8
0
6
CONTINUOUS
10
-103.103258
20
254.862143
30
0.0
11
-109.525122
21
259.518050
31
0.0
0
LINE
8
0
6
CONTINUOUS
10
-68.834198
20
230.011207
30
0.0
11
-77.842864
21
236.544688
31
0.0
0
LINE
8
0
6
CONTINUOUS
10
-41.397963
20
210.109312
30
0.0
11
-46.209687
21
213.600480
31
0.0
0
LINE
8
0
6
CONTINUOUS
10
-109.525122
20
259.518050
30
0.0
11
-114.361574
21
263.023917
31
0.0
0
LINE
8
0
6
CONTINUOUS
10
-77.842864
20
236.544688
30
0.0
11
-86.854733
21
243.080041
31
0.0
0
LINE
8
0
6
CONTINUOUS
10
-46.209687
20
213.600480
30
0.0
11
-52.610856
21
218.244080
31
0.0
0
LINE
8
0
6
CONTINUOUS
10
-114.361574
20
263.023917
30
0.0
11
-117.370092
21
265.203976
31
0.0
0
LINE
8
0
6
CONTINUOUS
10
-86.854733
20
243.080041
30
0.0
11
-95.418018
21
249.289681
31
0.0
0
LINE
8
0
6
CONTINUOUS
10
-52.610856
20
218.244080
30
0.0
11
-60.280579
21
223.807332
31
0.0
0
LINE
8
0
6
CONTINUOUS
10
-37.416339
20
207.218060
30
0.0
11
-38.417029
21
207.945675
31
0.0
0
LINE
8
0
6
CONTINUOUS
10
-37.489624
20
207.116993
30
0.0
11
-37.416339
21
207.218060
31
0.0
0
LINE
8
0
6
CONTINUOUS
10
-60.280579
20
223.807332
30
0.0
11
-68.834198
21
230.011207
31
0.0
0
LINE
8
0
6
CONTINUOUS
10
-117.370092
20
265.203976
30
0.0
11
-118.399802
21
265.948827
31
0.0
0
LINE
8
0
6
CONTINUOUS
10
-118.399802
20
265.948827
30
0.0
11
-118.473108
21
265.847796
31
0.0
0
LINE
8
0
6
CONTINUOUS
10
-95.418018
20
249.289681
30
0.0
11
-103.103258
21
254.862143
31
0.0
0
LINE
8
0
6
CONTINUOUS
10
-38.417029
20
207.945675
30
0.0
11
-41.397963
21
210.109312
31
0.0
0
LINE
8
0
6
CONTINUOUS
10
-102.819639
20
279.832217
30
0.0
11
-103.005948
21
279.946832
31
0.0
0
LINE
8
0
6
CONTINUOUS
10
-28.893305
20
226.198926
30
0.0
11
-29.060155
21
226.340403
31
0.0
0
LINE
8
0
6
CONTINUOUS
10
-58.828932
20
252.707881
30
0.0
11
-59.194294
21
252.973063
31
0.0
0
LINE
8
0
6
CONTINUOUS
10
-43.654329
20
240.149107
30
0.0
11
-51.088471
21
246.539424
31
0.0
0
LINE
8
0
6
CONTINUOUS
10
-93.311835
20
274.828531
30
0.0
11
-102.819639
21
279.832217
31
0.0
0
LINE
8
0
6
CONTINUOUS
10
-29.060155
20
226.340403
30
0.0
11
-36.404493
21
233.456720
31
0.0
0
LINE
8
0
6
CONTINUOUS
10
-104.432793
20
279.864433
30
0.0
11
-105.416805
21
279.332813
31
0.0
0
LINE
8
0
6
CONTINUOUS
10
-28.699784
20
223.872005
30
0.0
11
-28.528378
21
224.817079
31
0.0
0
LINE
8
0
6
CONTINUOUS
10
-65.815007
20
257.775016
30
0.0
11
-66.756805
21
258.457901
31
0.0
0
LINE
8
0
6
CONTINUOUS
10
-66.756805
20
258.457901
30
0.0
11
-67.543879
21
259.028543
31
0.0
0
LINE
8
0
6
CONTINUOUS
10
-59.194294
20
252.973063
30
0.0
11
-59.783950
21
253.400890
31
0.0
0
LINE
8
0
6
CONTINUOUS
10
-59.783950
20
253.400890
30
0.0
11
-60.568512
21
253.970023
31
0.0
0
LINE
8
0
6
CONTINUOUS
10
-60.568512
20
253.970023
30
0.0
11
-61.508530
21
254.651887
31
0.0
0
LINE
8
0
6
CONTINUOUS
10
-62.556845
20
255.412199
30
0.0
11
-63.660974
21
256.212982
31
0.0
0
LINE
8
0
6
CONTINUOUS
10
-63.660974
20
256.212982
30
0.0
11
-64.765477
21
257.013965
31
0.0
0
LINE
8
0
6
CONTINUOUS
10
-64.765477
20
257.013965
30
0.0
11
-65.815007
21
257.775016
31
0.0
0
LINE
8
0
6
CONTINUOUS
10
-61.508530
20
254.651887
30
0.0
11
-62.556845
21
255.412199
31
0.0
0
LINE
8
0
6
CONTINUOUS
10
-76.911319
20
265.249458
30
0.0
11
-85.218603
21
270.288829
31
0.0
0
LINE
8
0
6
CONTINUOUS
10
-67.543879
20
259.028543
30
0.0
11
-68.136655
21
259.458237
31
0.0
0
LINE
8
0
6
CONTINUOUS
10
-68.136655
20
259.458237
30
0.0
11
-68.505372
21
259.725415
31
0.0
0
LINE
8
0
6
CONTINUOUS
10
-68.505372
20
259.725415
30
0.0
11
-68.631572
21
259.816694
31
0.0
0
LINE
8
0
6
CONTINUOUS
10
-68.631572
20
259.816694
30
0.0
11
-76.911319
21
265.249458
31
0.0
0
LINE
8
0
6
CONTINUOUS
10
-85.218603
20
270.288829
30
0.0
11
-93.311835
21
274.828531
31
0.0
0
LINE
8
0
6
CONTINUOUS
10
-105.416805
20
279.332813
30
0.0
11
-106.622309
21
278.495856
31
0.0
0
LINE
8
0
6
CONTINUOUS
10
-37.777795
20
207.480194
30
0.0
11
-37.648808
21
207.658092
31
0.0
0
LINE
8
0
6
CONTINUOUS
10
-117.909351
20
265.864562
30
0.0
11
-118.038353
21
265.686681
31
0.0
0
LINE
8
0
6
CONTINUOUS
10
-36.404493
20
233.456720
30
0.0
11
-43.654329
21
240.149107
31
0.0
0
LINE
8
0
6
CONTINUOUS
10
-58.706289
20
252.618694
30
0.0
11
-58.828932
21
252.707881
31
0.0
0
LINE
8
0
6
CONTINUOUS
10
-51.088471
20
246.539424
30
0.0
11
-58.706289
21
252.618694
31
0.0
0
LINE
8
0
6
CONTINUOUS
10
-74.636829
20
223.823075
30
0.0
11
-66.895834
21
218.208594
31
0.0
0
LINE
8
0
6
CONTINUOUS
10
-105.650180
20
246.313080
30
0.0
11
-98.695061
21
241.270005
31
0.0
0
LINE
8
0
6
CONTINUOUS
10
-119.493499
20
256.346489
30
0.0
11
-118.561598
21
255.672369
31
0.0
0
LINE
8
0
6
CONTINUOUS
10
-120.175317
20
258.580088
30
0.0
11
-119.493499
21
256.346489
31
0.0
0
LINE
8
0
6
CONTINUOUS
10
-66.895834
20
218.208594
30
0.0
11
-59.954768
21
213.173890
31
0.0
0
LINE
8
0
6
CONTINUOUS
10
-118.561598
20
255.672369
30
0.0
11
-115.838910
21
253.699464
31
0.0
0
LINE
8
0
6
CONTINUOUS
10
-98.695061
20
241.270005
30
0.0
11
-90.945337
21
235.650342
31
0.0
0
LINE
8
0
6
CONTINUOUS
10
-59.954768
20
213.173890
30
0.0
11
-54.161706
21
208.971417
31
0.0
0
LINE
8
0
6
CONTINUOUS
10
-90.945337
20
235.650342
30
0.0
11
-82.789629
21
229.735848
31
0.0
0
LINE
8
0
6
CONTINUOUS
10
-115.838910
20
253.699464
30
0.0
11
-111.461943
21
250.526657
31
0.0
0
LINE
8
0
6
CONTINUOUS
10
-82.789629
20
229.735848
30
0.0
11
-74.636829
21
223.823075
31
0.0
0
LINE
8
0
6
CONTINUOUS
10
-111.461943
20
250.526657
30
0.0
11
-105.650180
21
246.313080
31
0.0
0
LINE
8
0
6
CONTINUOUS
10
-118.786867
20
256.456178
30
0.0
11
-119.277819
21
255.461871
31
0.0
0
LINE
8
0
6
CONTINUOUS
10
-119.277819
20
255.461871
30
0.0
11
-118.342014
21
254.716658
31
0.0
0
LINE
8
0
6
CONTINUOUS
10
-105.646042
20
245.513550
30
0.0
11
-98.807449
21
240.554969
31
0.0
0
LINE
8
0
6
CONTINUOUS
10
-98.807449
20
240.554969
30
0.0
11
-91.187869
21
235.029651
31
0.0
0
LINE
8
0
6
CONTINUOUS
10
-91.187869
20
235.029651
30
0.0
11
-83.169127
21
229.214499
31
0.0
0
LINE
8
0
6
CONTINUOUS
10
-60.586768
20
212.972754
30
0.0
11
-54.956822
21
208.814804
31
0.0
0
LINE
8
0
6
CONTINUOUS
10
-54.956822
20
208.814804
30
0.0
11
-50.667497
21
205.702299
31
0.0
0
LINE
8
0
6
CONTINUOUS
10
-50.667497
20
205.702299
30
0.0
11
-47.919241
21
203.781753
31
0.0
0
LINE
8
0
6
CONTINUOUS
10
-47.111670
20
203.125597
30
0.0
11
-46.319050
21
203.901113
31
0.0
0
LINE
8
0
6
CONTINUOUS
10
-47.919241
20
203.781753
30
0.0
11
-47.111670
21
203.125597
31
0.0
0
LINE
8
0
6
CONTINUOUS
10
-75.064482
20
223.473747
30
0.0
11
-67.431246
21
217.937404
31
0.0
0
LINE
8
0
6
CONTINUOUS
10
-83.169127
20
229.214499
30
0.0
11
-75.064482
21
223.473747
31
0.0
0
LINE
8
0
6
CONTINUOUS
10
-115.694582
20
252.935341
30
0.0
11
-111.359981
21
249.656207
31
0.0
0
LINE
8
0
6
CONTINUOUS
10
-67.431246
20
217.937404
30
0.0
11
-60.586768
21
212.972754
31
0.0
0
LINE
8
0
6
CONTINUOUS
10
-111.359981
20
249.656207
30
0.0
11
-105.646042
21
245.513550
31
0.0
0
LINE
8
0
6
CONTINUOUS
10
-47.135690
20
203.869496
30
0.0
11
-46.203767
21
203.195371
31
0.0
0
LINE
8
0
6
CONTINUOUS
10
63.195584
20
65.071610
30
0.0
11
60.074180
21
70.287280
31
0.0
0
LINE
8
0
6
CONTINUOUS
10
68.058805
20
88.077731
30
0.0
11
77.491694
21
72.256400
31
0.0
0
LINE
8
0
6
CONTINUOUS
10
71.378254
20
46.921700
30
0.0
11
63.195584
21
65.071610
31
0.0
0
LINE
8
0
6
CONTINUOUS
10
77.491694
20
72.256400
30
0.0
11
86.098764
21
53.191190
31
0.0
0
LINE
8
0
6
CONTINUOUS
10
77.364784
20
30.139630
30
0.0
11
71.378254
21
46.921700
31
0.0
0
LINE
8
0
6
CONTINUOUS
10
86.098764
20
53.191190
30
0.0
11
92.501754
21
35.323460
31
0.0
0
LINE
8
0
6
CONTINUOUS
10
81.731224
20
14.278690
30
0.0
11
77.364784
21
30.139630
31
0.0
0
LINE
8
0
6
CONTINUOUS
10
92.501754
20
35.323460
30
0.0
11
97.226644
21
18.265160
31
0.0
0
LINE
8
0
6
CONTINUOUS
10
85.048404
20
-1.131050
30
0.0
11
81.731224
21
14.278690
31
0.0
0
LINE
8
0
6
CONTINUOUS
10
97.226644
20
18.265160
30
0.0
11
100.804604
21
1.651430
31
0.0
0
LINE
8
0
6
CONTINUOUS
10
87.183214
20
-16.569740
30
0.0
11
85.048404
21
-1.131050
31
0.0
0
LINE
8
0
6
CONTINUOUS
10
100.804604
20
1.651430
30
0.0
11
103.092904
21
-14.872200
31
0.0
0
LINE
8
0
6
CONTINUOUS
10
88.380274
20
-32.507140
30
0.0
11
87.183214
21
-16.569740
31
0.0
0
LINE
8
0
6
CONTINUOUS
10
103.092904
20
-14.872200
30
0.0
11
104.358414
21
-31.670850
31
0.0
0
LINE
8
0
6
CONTINUOUS
10
88.877114
20
-49.387520
30
0.0
11
88.380274
21
-32.507140
31
0.0
0
LINE
8
0
6
CONTINUOUS
10
104.358414
20
-31.670850
30
0.0
11
104.875124
21
-49.134990
31
0.0
0
LINE
8
0
6
CONTINUOUS
10
88.914164
20
-67.628450
30
0.0
11
88.877114
21
-49.387520
31
0.0
0
LINE
8
0
6
CONTINUOUS
10
104.875124
20
-49.134990
30
0.0
11
104.914074
21
-67.681820
31
0.0
0
LINE
8
0
6
CONTINUOUS
10
96.914124
20
-334.500000
30
0.0
11
100.914104
21
-333.441540
31
0.0
0
LINE
8
0
6
CONTINUOUS
10
89.985954
20
-330.476910
30
0.0
11
92.914144
21
-333.414870
31
0.0
0
LINE
8
0
6
CONTINUOUS
10
100.914104
20
-333.441540
30
0.0
11
103.842284
21
-330.523100
31
0.0
0
LINE
8
0
6
CONTINUOUS
10
88.914164
20
-326.473310
30
0.0
11
89.985954
21
-330.476910
31
0.0
0
LINE
8
0
6
CONTINUOUS
10
88.914164
20
-67.628450
30
0.0
11
88.914164
21
-326.473310
31
0.0
0
LINE
8
0
6
CONTINUOUS
10
92.914144
20
-333.414870
30
0.0
11
96.914124
21
-334.500000
31
0.0
0
LINE
8
0
6
CONTINUOUS
10
104.914074
20
-326.526680
30
0.0
11
104.914074
21
-67.681820
31
0.0
0
LINE
8
0
6
CONTINUOUS
10
103.842284
20
-330.523100
30
0.0
11
104.914074
21
-326.526680
31
0.0
0
LINE
8
0
6
CONTINUOUS
10
40.220372
20
95.557816
30
0.0
11
35.727512
21
102.668401
31
0.0
0
LINE
8
0
6
CONTINUOUS
10
59.168707
20
108.019578
30
0.0
11
56.193883
21
114.098208
31
0.0
0
LINE
8
0
6
CONTINUOUS
10
34.750019
20
104.418721
30
0.0
11
34.704561
21
104.500121
31
0.0
0
LINE
8
0
6
CONTINUOUS
10
55.216400
20
115.848489
30
0.0
11
55.170923
21
115.929925
31
0.0
0
LINE
8
0
6
CONTINUOUS
10
56.193883
20
114.098208
30
0.0
11
55.216400
21
115.848489
31
0.0
0
LINE
8
0
6
CONTINUOUS
10
34.750019
20
104.418721
30
0.0
11
35.727512
21
102.668401
31
0.0
0
LINE
8
0
6
CONTINUOUS
10
-76.417376
20
223.002040
30
0.0
11
-75.870265
21
222.735289
31
0.0
0
LINE
8
0
6
CONTINUOUS
10
-113.838388
20
250.299947
30
0.0
11
-113.702605
21
250.218811
31
0.0
0
LINE
8
0
6
CONTINUOUS
10
-74.545922
20
220.444717
30
0.0
11
-73.731689
21
220.003161
31
0.0
0
LINE
8
0
6
CONTINUOUS
10
-64.219621
20
214.147782
30
0.0
11
-63.838304
21
213.973053
31
0.0
0
LINE
8
0
6
CONTINUOUS
10
59.068714
20
108.033043
30
0.0
11
58.714997
21
108.051480
31
0.0
0
ENDSEC
0
EOF
