999
Erzeugt mit innoplus bad 
0
SECTION
2
HEADER
9
$ACADVER
1
AC1009
9
$DWGCODEPAGE
3
ISO8859-1
0
ENDSEC
0
SECTION
2
TABLES
0
TABLE
2
LAYER
70
1
0
LAYER
2
0
70
0
62
7
6
CONTINUOUS
0
ENDTAB
0
ENDSEC
0
SECTION
2
ENTITIES
0
LINE
8
0
6
CONTINUOUS
10
-24.722564
20
120.327814
30
0.0
11
-24.722564
21
119.827964
31
0.0
0
LINE
8
0
6
CONTINUOUS
10
-24.222564
20
120.327814
30
0.0
11
-24.722564
21
120.327814
31
0.0
0
LINE
8
0
6
CONTINUOUS
10
-24.722564
20
119.827964
30
0.0
11
-24.722564
21
57.324591
31
0.0
0
LINE
8
0
6
CONTINUOUS
10
-2.722564
20
57.324551
30
0.0
11
-2.722564
21
119.827964
31
0.0
0
LINE
8
0
6
CONTINUOUS
10
-2.722564
20
120.327814
30
0.0
11
-3.222564
21
120.327814
31
0.0
0
LINE
8
0
6
CONTINUOUS
10
-2.722564
20
119.827964
30
0.0
11
-2.722564
21
120.327814
31
0.0
0
LINE
8
0
6
CONTINUOUS
10
-16.522564
20
46.727724
30
0.0
11
-13.722564
21
46.327834
31
0.0
0
LINE
8
0
6
CONTINUOUS
10
-19.222564
20
47.827383
30
0.0
11
-16.522564
21
46.727724
31
0.0
0
LINE
8
0
6
CONTINUOUS
10
-21.522564
20
49.526873
30
0.0
11
-19.222564
21
47.827383
31
0.0
0
LINE
8
0
6
CONTINUOUS
10
-23.222564
20
51.826202
30
0.0
11
-21.522564
21
49.526873
31
0.0
0
LINE
8
0
6
CONTINUOUS
10
-24.322564
20
54.525381
30
0.0
11
-23.222564
21
51.826202
31
0.0
0
LINE
8
0
6
CONTINUOUS
10
-24.722564
20
57.324551
30
0.0
11
-24.322564
21
54.525381
31
0.0
0
LINE
8
0
6
CONTINUOUS
10
-13.722564
20
120.327814
30
0.0
11
-24.222564
21
120.327814
31
0.0
0
LINE
8
0
6
CONTINUOUS
10
-24.222574
20
120.327834
30
0.0
11
-24.722564
21
120.327834
31
0.0
0
LINE
8
0
6
CONTINUOUS
10
-13.722564
20
46.327834
30
0.0
11
-10.922564
21
46.727724
31
0.0
0
LINE
8
0
6
CONTINUOUS
10
-10.922564
20
46.727724
30
0.0
11
-8.222564
21
47.827383
31
0.0
0
LINE
8
0
6
CONTINUOUS
10
-8.222564
20
47.827383
30
0.0
11
-5.922564
21
49.526873
31
0.0
0
LINE
8
0
6
CONTINUOUS
10
-5.922564
20
49.526873
30
0.0
11
-4.222564
21
51.826202
31
0.0
0
LINE
8
0
6
CONTINUOUS
10
-4.222564
20
51.826202
30
0.0
11
-3.122564
21
54.525381
31
0.0
0
LINE
8
0
6
CONTINUOUS
10
-3.122564
20
54.525381
30
0.0
11
-2.722564
21
57.324551
31
0.0
0
LINE
8
0
6
CONTINUOUS
10
-3.222564
20
120.327814
30
0.0
11
-13.722564
21
120.327814
31
0.0
0
LINE
8
0
6
CONTINUOUS
10
-2.722604
20
120.327834
30
0.0
11
-3.222594
21
120.327834
31
0.0
0
LINE
8
0
6
CONTINUOUS
10
-13.722584
20
120.327834
30
0.0
11
-24.222574
21
120.327834
31
0.0
0
LINE
8
0
6
CONTINUOUS
10
-3.222594
20
120.327834
30
0.0
11
-13.722584
21
120.327834
31
0.0
0
LINE
8
0
6
CONTINUOUS
10
-55.233134
20
46.039304
30
0.0
11
-39.591924
21
46.019744
31
0.0
0
LINE
8
0
6
CONTINUOUS
10
-39.479454
20
54.447744
30
0.0
11
-39.591884
21
54.444624
31
0.0
0
LINE
8
0
6
CONTINUOUS
10
-39.591924
20
46.019744
30
0.0
11
-39.479504
21
46.023044
31
0.0
0
LINE
8
0
6
CONTINUOUS
10
-39.479504
20
46.050444
30
0.0
11
-39.479504
21
46.279654
31
0.0
0
LINE
8
0
6
CONTINUOUS
10
-39.479504
20
46.279654
30
0.0
11
-39.479504
21
46.695084
31
0.0
0
LINE
8
0
6
CONTINUOUS
10
-39.479504
20
46.695084
30
0.0
11
-39.479504
21
47.268374
31
0.0
0
LINE
8
0
6
CONTINUOUS
10
-39.479504
20
47.268374
30
0.0
11
-39.479504
21
47.960484
31
0.0
0
LINE
8
0
6
CONTINUOUS
10
-39.479494
20
50.257194
30
0.0
11
-39.479494
21
50.921904
31
0.0
0
LINE
8
0
6
CONTINUOUS
10
-39.479484
20
51.456444
30
0.0
11
-39.479484
21
51.824394
31
0.0
0
LINE
8
0
6
CONTINUOUS
10
-39.479454
20
54.447744
30
0.0
11
-39.479484
21
51.824394
31
0.0
0
LINE
8
0
6
CONTINUOUS
10
-39.479504
20
48.724254
30
0.0
11
-39.479504
21
47.960484
31
0.0
0
LINE
8
0
6
CONTINUOUS
10
-39.479504
20
49.507604
30
0.0
11
-39.479504
21
48.724254
31
0.0
0
LINE
8
0
6
CONTINUOUS
10
-39.479494
20
50.257194
30
0.0
11
-39.479504
21
49.507604
31
0.0
0
LINE
8
0
6
CONTINUOUS
10
-39.479484
20
51.456444
30
0.0
11
-39.479494
21
50.921904
31
0.0
0
LINE
8
0
6
CONTINUOUS
10
-55.233164
20
76.904174
30
0.0
11
-55.945804
21
76.904184
31
0.0
0
LINE
8
0
6
CONTINUOUS
10
-55.945904
20
61.228614
30
0.0
11
-55.945964
21
56.304864
31
0.0
0
LINE
8
0
6
CONTINUOUS
10
-55.946164
20
39.334334
30
0.0
11
-55.233514
21
39.334324
31
0.0
0
LINE
8
0
6
CONTINUOUS
10
-55.233514
20
39.334324
30
0.0
11
-34.972794
21
39.334154
31
0.0
0
LINE
8
0
6
CONTINUOUS
10
-34.972414
20
76.904024
30
0.0
11
-55.233164
21
76.904174
31
0.0
0
LINE
8
0
6
CONTINUOUS
10
-34.972794
20
39.334154
30
0.0
11
-34.682164
21
39.334154
31
0.0
0
LINE
8
0
6
CONTINUOUS
10
-34.682164
20
39.334154
30
0.0
11
-34.682144
21
39.504664
31
0.0
0
LINE
8
0
6
CONTINUOUS
10
-34.682144
20
39.504664
30
0.0
11
-34.682114
21
40.943674
31
0.0
0
LINE
8
0
6
CONTINUOUS
10
-34.682114
20
40.943674
30
0.0
11
-34.682074
21
43.553234
31
0.0
0
LINE
8
0
6
CONTINUOUS
10
-34.682074
20
43.553234
30
0.0
11
-34.682024
21
47.155424
31
0.0
0
LINE
8
0
6
CONTINUOUS
10
-34.682024
20
47.155424
30
0.0
11
-34.681984
21
51.504674
31
0.0
0
LINE
8
0
6
CONTINUOUS
10
-34.681924
20
56.304724
30
0.0
11
-34.681884
21
61.228514
31
0.0
0
LINE
8
0
6
CONTINUOUS
10
-34.681884
20
61.228514
30
0.0
11
-34.681854
21
65.940304
31
0.0
0
LINE
8
0
6
CONTINUOUS
10
-34.681854
20
65.940304
30
0.0
11
-34.681814
21
70.119084
31
0.0
0
LINE
8
0
6
CONTINUOUS
10
-34.681814
20
70.119084
30
0.0
11
-34.681794
21
73.480134
31
0.0
0
LINE
8
0
6
CONTINUOUS
10
-34.681794
20
73.480134
30
0.0
11
-34.681784
21
75.794374
31
0.0
0
LINE
8
0
6
CONTINUOUS
10
-34.681794
20
76.904024
30
0.0
11
-34.972414
21
76.904024
31
0.0
0
LINE
8
0
6
CONTINUOUS
10
-34.681784
20
75.794374
30
0.0
11
-34.681794
21
76.904024
31
0.0
0
LINE
8
0
6
CONTINUOUS
10
-55.945914
20
51.847614
30
0.0
11
-55.945914
21
51.481074
31
0.0
0
LINE
8
0
6
CONTINUOUS
10
-55.945954
20
46.043734
30
0.0
11
-55.233134
21
46.039304
31
0.0
0
LINE
8
0
6
CONTINUOUS
10
-55.945954
20
46.303444
30
0.0
11
-55.945954
21
46.072714
31
0.0
0
LINE
8
0
6
CONTINUOUS
10
-55.945954
20
46.720184
30
0.0
11
-55.945954
21
46.303444
31
0.0
0
LINE
8
0
6
CONTINUOUS
10
-55.945954
20
47.294544
30
0.0
11
-55.945954
21
46.720184
31
0.0
0
LINE
8
0
6
CONTINUOUS
10
-55.945944
20
47.987364
30
0.0
11
-55.945954
21
47.294544
31
0.0
0
LINE
8
0
6
CONTINUOUS
10
-55.945944
20
48.751464
30
0.0
11
-55.945944
21
47.987364
31
0.0
0
LINE
8
0
6
CONTINUOUS
10
-55.945934
20
49.534754
30
0.0
11
-55.945944
21
48.751464
31
0.0
0
LINE
8
0
6
CONTINUOUS
10
-55.945934
20
50.283854
30
0.0
11
-55.945934
21
49.534754
31
0.0
0
LINE
8
0
6
CONTINUOUS
10
-55.945924
20
50.947704
30
0.0
11
-55.945934
21
50.283854
31
0.0
0
LINE
8
0
6
CONTINUOUS
10
-55.945914
20
51.481074
30
0.0
11
-55.945924
21
50.947704
31
0.0
0
LINE
8
0
6
CONTINUOUS
10
-55.945884
20
54.458084
30
0.0
11
-55.945914
21
51.847614
31
0.0
0
LINE
8
0
6
CONTINUOUS
10
-55.233074
20
54.458924
30
0.0
11
-55.945884
21
54.458084
31
0.0
0
LINE
8
0
6
CONTINUOUS
10
-39.591884
20
54.444624
30
0.0
11
-55.233074
21
54.458924
31
0.0
0
LINE
8
0
6
CONTINUOUS
10
-55.946164
20
39.334334
30
0.0
11
-55.946144
21
39.504794
31
0.0
0
LINE
8
0
6
CONTINUOUS
10
-55.946144
20
39.504794
30
0.0
11
-55.946124
21
40.943854
31
0.0
0
LINE
8
0
6
CONTINUOUS
10
-55.946124
20
40.943854
30
0.0
11
-55.946084
21
43.553354
31
0.0
0
LINE
8
0
6
CONTINUOUS
10
-55.946084
20
43.553354
30
0.0
11
-55.946034
21
47.155524
31
0.0
0
LINE
8
0
6
CONTINUOUS
10
-55.945904
20
61.228614
30
0.0
11
-55.945864
21
65.940404
31
0.0
0
LINE
8
0
6
CONTINUOUS
10
-55.945864
20
65.940404
30
0.0
11
-55.945824
21
70.119224
31
0.0
0
LINE
8
0
6
CONTINUOUS
10
-55.945824
20
70.119224
30
0.0
11
-55.945814
21
73.480254
31
0.0
0
LINE
8
0
6
CONTINUOUS
10
-55.945814
20
73.480254
30
0.0
11
-55.945794
21
75.794484
31
0.0
0
LINE
8
0
6
CONTINUOUS
10
-55.945794
20
75.794484
30
0.0
11
-55.945804
21
76.904184
31
0.0
0
LINE
8
0
6
CONTINUOUS
10
-34.681924
20
56.304724
30
0.0
11
-34.681984
21
51.504674
31
0.0
0
LINE
8
0
6
CONTINUOUS
10
-55.945964
20
56.304864
30
0.0
11
-55.945884
21
54.458084
31
0.0
0
LINE
8
0
6
CONTINUOUS
10
-55.945884
20
54.458084
30
0.0
11
-55.233074
21
54.458924
31
0.0
0
LINE
8
0
6
CONTINUOUS
10
-25.296544
20
75.776924
30
0.0
11
-25.296544
21
75.862434
31
0.0
0
LINE
8
0
6
CONTINUOUS
10
-25.296544
20
75.776924
30
0.0
11
-25.546544
21
75.776924
31
0.0
0
LINE
8
0
6
CONTINUOUS
10
-25.296544
20
75.542014
30
0.0
11
-25.296544
21
75.776924
31
0.0
0
LINE
8
0
6
CONTINUOUS
10
-31.295424
20
75.776904
30
0.0
11
-31.295424
21
75.541984
31
0.0
0
LINE
8
0
6
CONTINUOUS
10
-31.295424
20
75.776904
30
0.0
11
-31.045424
21
75.776904
31
0.0
0
LINE
8
0
6
CONTINUOUS
10
-31.295424
20
75.862404
30
0.0
11
-31.295424
21
75.776904
31
0.0
0
LINE
8
0
6
CONTINUOUS
10
-25.296554
20
76.617684
30
0.0
11
-25.546554
21
76.617674
31
0.0
0
LINE
8
0
6
CONTINUOUS
10
-25.296554
20
76.532184
30
0.0
11
-25.296554
21
76.617684
31
0.0
0
LINE
8
0
6
CONTINUOUS
10
-31.295424
20
76.617664
30
0.0
11
-31.295424
21
76.532154
31
0.0
0
LINE
8
0
6
CONTINUOUS
10
-31.045424
20
76.617654
30
0.0
11
-31.295424
21
76.617664
31
0.0
0
LINE
8
0
6
CONTINUOUS
10
-25.296554
20
76.532184
30
0.0
11
-25.296544
21
75.862434
31
0.0
0
LINE
8
0
6
CONTINUOUS
10
-25.546544
20
75.776924
30
0.0
11
-31.045424
21
75.776904
31
0.0
0
LINE
8
0
6
CONTINUOUS
10
-31.295424
20
76.532154
30
0.0
11
-31.295424
21
75.862404
31
0.0
0
LINE
8
0
6
CONTINUOUS
10
-25.546554
20
76.617674
30
0.0
11
-31.045424
21
76.617654
31
0.0
0
LINE
8
0
6
CONTINUOUS
10
-34.100764
20
39.202894
30
0.0
11
-33.781014
21
39.202894
31
0.0
0
LINE
8
0
6
CONTINUOUS
10
-34.100764
20
39.580154
30
0.0
11
-34.100764
21
39.202894
31
0.0
0
LINE
8
0
6
CONTINUOUS
10
-34.100764
20
40.671064
30
0.0
11
-34.100764
21
39.580154
31
0.0
0
LINE
8
0
6
CONTINUOUS
10
-34.100774
20
44.800314
30
0.0
11
-34.100774
21
42.433714
31
0.0
0
LINE
8
0
6
CONTINUOUS
10
-34.100774
20
42.433714
30
0.0
11
-34.100764
21
40.671064
31
0.0
0
LINE
8
0
6
CONTINUOUS
10
-33.781014
20
39.202894
30
0.0
11
3.823579
21
39.202997
31
0.0
0
LINE
8
0
6
CONTINUOUS
10
-34.100784
20
47.680024
30
0.0
11
-34.100774
21
44.800314
31
0.0
0
LINE
8
0
6
CONTINUOUS
10
-34.100844
20
68.733594
30
0.0
11
-34.100844
21
65.464044
31
0.0
0
LINE
8
0
6
CONTINUOUS
10
-34.100844
20
65.464044
30
0.0
11
-34.100834
21
61.913414
31
0.0
0
LINE
8
0
6
CONTINUOUS
10
-34.100834
20
61.913414
30
0.0
11
-34.100824
21
58.218194
31
0.0
0
LINE
8
0
6
CONTINUOUS
10
-34.100824
20
58.218194
30
0.0
11
-34.100804
21
54.520384
31
0.0
0
LINE
8
0
6
CONTINUOUS
10
26.707106
20
55.620604
30
0.0
11
26.707106
21
55.836744
31
0.0
0
LINE
8
0
6
CONTINUOUS
10
26.707086
20
61.913594
30
0.0
11
26.707076
21
65.464214
31
0.0
0
LINE
8
0
6
CONTINUOUS
10
26.707076
20
65.464214
30
0.0
11
26.707066
21
68.733784
31
0.0
0
LINE
8
0
6
CONTINUOUS
10
26.707066
20
71.596634
30
0.0
11
26.707046
21
73.942794
31
0.0
0
LINE
8
0
6
CONTINUOUS
10
26.707066
20
68.733784
30
0.0
11
26.707066
21
71.596634
31
0.0
0
LINE
8
0
6
CONTINUOUS
10
26.707106
20
58.218374
30
0.0
11
26.707086
21
61.913594
31
0.0
0
LINE
8
0
6
CONTINUOUS
10
26.707106
20
55.836744
30
0.0
11
26.707106
21
58.218374
31
0.0
0
LINE
8
0
6
CONTINUOUS
10
26.078083
20
55.933164
30
0.0
11
26.707106
21
55.836744
31
0.0
0
LINE
8
0
6
CONTINUOUS
10
-34.100874
20
76.747434
30
0.0
11
-34.100874
21
75.681904
31
0.0
0
LINE
8
0
6
CONTINUOUS
10
-34.100874
20
77.098314
30
0.0
11
-34.100874
21
76.747434
31
0.0
0
LINE
8
0
6
CONTINUOUS
10
-33.781134
20
77.098314
30
0.0
11
-34.100874
21
77.098314
31
0.0
0
LINE
8
0
6
CONTINUOUS
10
23.201426
20
77.098474
30
0.0
11
18.631466
21
77.098464
31
0.0
0
LINE
8
0
6
CONTINUOUS
10
18.631466
20
77.098464
30
0.0
11
13.619116
21
77.098444
31
0.0
0
LINE
8
0
6
CONTINUOUS
10
13.619116
20
77.098444
30
0.0
11
10.058796
21
77.098434
31
0.0
0
LINE
8
0
6
CONTINUOUS
10
26.306476
20
77.098484
30
0.0
11
23.201426
21
77.098474
31
0.0
0
LINE
8
0
6
CONTINUOUS
10
26.707036
20
77.098474
30
0.0
11
26.306476
21
77.098484
31
0.0
0
LINE
8
0
6
CONTINUOUS
10
26.707026
20
76.747624
30
0.0
11
26.707036
21
77.098474
31
0.0
0
LINE
8
0
6
CONTINUOUS
10
26.707046
20
73.942794
30
0.0
11
26.707046
21
75.682064
31
0.0
0
LINE
8
0
6
CONTINUOUS
10
26.707046
20
75.682064
30
0.0
11
26.707026
21
76.747624
31
0.0
0
LINE
8
0
6
CONTINUOUS
10
10.058796
20
77.098434
30
0.0
11
-2.722564
21
77.098399
31
0.0
0
LINE
8
0
6
CONTINUOUS
10
-24.722564
20
77.098338
30
0.0
11
-33.781134
21
77.098314
31
0.0
0
LINE
8
0
6
CONTINUOUS
10
-34.100844
20
68.733594
30
0.0
11
-34.100854
21
71.596464
31
0.0
0
LINE
8
0
6
CONTINUOUS
10
-34.100854
20
71.596464
30
0.0
11
-34.100864
21
73.942624
31
0.0
0
LINE
8
0
6
CONTINUOUS
10
-34.100864
20
73.942624
30
0.0
11
-34.100874
21
75.681904
31
0.0
0
LINE
8
0
6
CONTINUOUS
10
-34.100784
20
47.680024
30
0.0
11
-34.100794
21
50.962074
31
0.0
0
LINE
8
0
6
CONTINUOUS
10
-34.100794
20
50.962074
30
0.0
11
-34.100804
21
54.520384
31
0.0
0
LINE
8
0
6
CONTINUOUS
10
14.037558
20
55.566868
30
0.0
11
9.795166
21
54.416701
31
0.0
0
LINE
8
0
6
CONTINUOUS
10
5.605844
20
-25.624844
30
0.0
11
5.580960
21
-30.239030
31
0.0
0
LINE
8
0
6
CONTINUOUS
10
18.435355
20
56.014954
30
0.0
11
14.037558
21
55.566868
31
0.0
0
LINE
8
0
6
CONTINUOUS
10
4.014370
20
-24.145183
30
0.0
11
4.015081
21
-24.380443
31
0.0
0
LINE
8
0
6
CONTINUOUS
10
9.795166
20
54.416701
30
0.0
11
5.994044
21
52.422593
31
0.0
0
LINE
8
0
6
CONTINUOUS
10
5.994044
20
52.422593
30
0.0
11
4.326451
21
49.160386
31
0.0
0
LINE
8
0
6
CONTINUOUS
10
3.816908
20
41.417554
30
0.0
11
3.818284
21
40.961349
31
0.0
0
LINE
8
0
6
CONTINUOUS
10
3.862014
20
42.103041
30
0.0
11
3.816908
21
41.417554
31
0.0
0
LINE
8
0
6
CONTINUOUS
10
4.017309
20
-25.119599
30
0.0
11
5.431397
21
-26.947774
31
0.0
0
LINE
8
0
6
CONTINUOUS
10
5.431397
20
-26.947774
30
0.0
11
5.598420
21
-27.001557
31
0.0
0
LINE
8
0
6
CONTINUOUS
10
5.607455
20
-25.326545
30
0.0
11
5.605844
21
-25.624844
31
0.0
0
LINE
8
0
6
CONTINUOUS
10
4.283073
20
48.501351
30
0.0
11
3.862014
21
42.103041
31
0.0
0
LINE
8
0
6
CONTINUOUS
10
4.015081
20
-24.380443
30
0.0
11
4.017309
21
-25.119599
31
0.0
0
LINE
8
0
6
CONTINUOUS
10
4.326451
20
49.160386
30
0.0
11
4.283073
21
48.501351
31
0.0
0
LINE
8
0
6
CONTINUOUS
10
3.818284
20
40.961349
30
0.0
11
4.014370
21
-24.145183
31
0.0
0
LINE
8
0
6
CONTINUOUS
10
27.078273
20
54.439236
30
0.0
11
22.833896
21
55.578339
31
0.0
0
LINE
8
0
6
CONTINUOUS
10
31.654308
20
-30.196337
30
0.0
11
31.609029
21
-25.590941
31
0.0
0
LINE
8
0
6
CONTINUOUS
10
22.833896
20
55.578339
30
0.0
11
18.435355
21
56.014954
31
0.0
0
LINE
8
0
6
CONTINUOUS
10
33.192648
20
-24.342398
30
0.0
11
33.192237
21
-24.107132
31
0.0
0
LINE
8
0
6
CONTINUOUS
10
30.882838
20
52.455046
30
0.0
11
27.078273
21
54.439236
31
0.0
0
LINE
8
0
6
CONTINUOUS
10
32.556117
20
49.197202
30
0.0
11
30.882838
21
52.455046
31
0.0
0
LINE
8
0
6
CONTINUOUS
10
33.079145
20
41.455709
30
0.0
11
33.032841
21
42.141081
31
0.0
0
LINE
8
0
6
CONTINUOUS
10
33.079931
20
40.999504
30
0.0
11
33.079145
21
41.455709
31
0.0
0
LINE
8
0
6
CONTINUOUS
10
31.780692
20
-26.913422
30
0.0
11
33.193926
21
-25.081548
31
0.0
0
LINE
8
0
6
CONTINUOUS
10
31.622536
20
-26.964769
30
0.0
11
31.780692
21
-26.913422
31
0.0
0
LINE
8
0
6
CONTINUOUS
10
31.609029
20
-25.590941
30
0.0
11
31.606099
21
-25.292639
31
0.0
0
LINE
8
0
6
CONTINUOUS
10
33.032841
20
42.141081
30
0.0
11
32.600639
21
48.538276
31
0.0
0
LINE
8
0
6
CONTINUOUS
10
33.193926
20
-25.081548
30
0.0
11
33.192648
21
-24.342398
31
0.0
0
LINE
8
0
6
CONTINUOUS
10
32.600639
20
48.538276
30
0.0
11
32.556117
21
49.197202
31
0.0
0
LINE
8
0
6
CONTINUOUS
10
33.192237
20
-24.107132
30
0.0
11
33.079931
21
40.999504
31
0.0
0
LINE
8
0
6
CONTINUOUS
10
68.722340
20
-77.570226
30
0.0
11
68.466266
21
-73.570933
31
0.0
0
LINE
8
0
6
CONTINUOUS
10
68.466266
20
-73.570933
30
0.0
11
67.201855
21
-64.608211
31
0.0
0
LINE
8
0
6
CONTINUOUS
10
67.201855
20
-64.608211
30
0.0
11
66.765772
21
-62.762648
31
0.0
0
LINE
8
0
6
CONTINUOUS
10
66.149600
20
-60.954121
30
0.0
11
62.533328
21
-52.628588
31
0.0
0
LINE
8
0
6
CONTINUOUS
10
62.533328
20
-52.628588
30
0.0
11
61.781873
21
-51.022220
31
0.0
0
LINE
8
0
6
CONTINUOUS
10
55.310302
20
-42.769943
30
0.0
11
47.875709
21
-36.770233
31
0.0
0
LINE
8
0
6
CONTINUOUS
10
47.875709
20
-36.770233
30
0.0
11
38.978146
21
-32.260288
31
0.0
0
LINE
8
0
6
CONTINUOUS
10
38.978146
20
-32.260288
30
0.0
11
29.063797
21
-29.466298
31
0.0
0
LINE
8
0
6
CONTINUOUS
10
29.063797
20
-29.466298
30
0.0
11
18.629851
21
-28.528378
31
0.0
0
LINE
8
0
6
CONTINUOUS
10
18.629851
20
-28.528378
30
0.0
11
8.199327
21
-29.493523
31
0.0
0
LINE
8
0
6
CONTINUOUS
10
8.199327
20
-29.493523
30
0.0
11
-1.704542
21
-32.313374
31
0.0
0
LINE
8
0
6
CONTINUOUS
10
-1.704542
20
-32.313374
30
0.0
11
-10.585215
21
-36.846498
31
0.0
0
LINE
8
0
6
CONTINUOUS
10
-10.585215
20
-36.846498
30
0.0
11
-17.997367
21
-42.865600
31
0.0
0
LINE
8
0
6
CONTINUOUS
10
-25.194334
20
-52.743056
30
0.0
11
-28.779479
21
-61.077981
31
0.0
0
LINE
8
0
6
CONTINUOUS
10
-24.442688
20
-51.134734
30
0.0
11
-25.194334
21
-52.743056
31
0.0
0
LINE
8
0
6
CONTINUOUS
10
-29.830646
20
-64.734844
30
0.0
11
-31.061587
21
-73.700713
31
0.0
0
LINE
8
0
6
CONTINUOUS
10
-29.395167
20
-62.888121
30
0.0
11
-29.830646
21
-64.734844
31
0.0
0
LINE
8
0
6
CONTINUOUS
10
-31.061587
20
-73.700713
30
0.0
11
-31.315773
21
-77.700683
31
0.0
0
LINE
8
0
6
CONTINUOUS
10
66.765772
20
-62.762648
30
0.0
11
66.149600
21
-60.954121
31
0.0
0
LINE
8
0
6
CONTINUOUS
10
-28.779479
20
-61.077981
30
0.0
11
-29.395167
21
-62.888121
31
0.0
0
LINE
8
0
6
CONTINUOUS
10
-26.329505
20
-95.406550
30
0.0
11
-20.356050
21
-103.076268
31
0.0
0
LINE
8
0
6
CONTINUOUS
10
7.646701
20
-117.270117
30
0.0
11
18.778907
21
-118.270820
31
0.0
0
LINE
8
0
6
CONTINUOUS
10
49.948772
20
-109.396120
30
0.0
11
57.856904
21
-102.974256
31
0.0
0
LINE
8
0
6
CONTINUOUS
10
40.473853
20
-114.232567
30
0.0
11
49.948772
21
-109.396120
31
0.0
0
LINE
8
0
6
CONTINUOUS
10
-30.044840
20
-86.852917
30
0.0
11
-26.329505
21
-95.406550
31
0.0
0
LINE
8
0
6
CONTINUOUS
10
-31.315742
20
-77.844319
30
0.0
11
-30.044840
21
-86.852917
31
0.0
0
LINE
8
0
6
CONTINUOUS
10
-31.315773
20
-77.700683
30
0.0
11
-31.315742
21
-77.844319
31
0.0
0
LINE
8
0
6
CONTINUOUS
10
68.722372
20
-77.713860
30
0.0
11
68.722340
21
-77.570226
31
0.0
0
LINE
8
0
6
CONTINUOUS
10
67.485111
20
-86.725731
30
0.0
11
68.722372
21
-77.713860
31
0.0
0
LINE
8
0
6
CONTINUOUS
10
-2.931058
20
-114.289161
30
0.0
11
7.646701
21
-117.270117
31
0.0
0
LINE
8
0
6
CONTINUOUS
10
63.801719
20
-95.288999
30
0.0
11
67.485111
21
-86.725731
31
0.0
0
LINE
8
0
6
CONTINUOUS
10
-12.423986
20
-109.477462
30
0.0
11
-2.931058
21
-114.289161
31
0.0
0
LINE
8
0
6
CONTINUOUS
10
29.907272
20
-117.241082
30
0.0
11
40.473853
21
-114.232567
31
0.0
0
LINE
8
0
6
CONTINUOUS
10
18.778907
20
-118.270820
30
0.0
11
29.907272
21
-117.241082
31
0.0
0
LINE
8
0
6
CONTINUOUS
10
57.856904
20
-102.974256
30
0.0
11
63.801719
21
-95.288999
31
0.0
0
LINE
8
0
6
CONTINUOUS
10
-20.356050
20
-103.076268
30
0.0
11
-12.423986
21
-109.477462
31
0.0
0
LINE
8
0
6
CONTINUOUS
10
-31.315559
20
-78.626246
30
0.0
11
-30.044658
21
-87.634853
31
0.0
0
LINE
8
0
6
CONTINUOUS
10
-31.315697
20
-78.046606
30
0.0
11
-31.315559
21
-78.626246
31
0.0
0
LINE
8
0
6
CONTINUOUS
10
68.722564
20
-78.495799
30
0.0
11
68.722426
21
-77.916149
31
0.0
0
LINE
8
0
6
CONTINUOUS
10
67.485303
20
-87.507648
30
0.0
11
68.722564
21
-78.495799
31
0.0
0
LINE
8
0
6
CONTINUOUS
10
-19.132988
20
-105.608757
30
0.0
11
-11.449135
21
-111.809647
31
0.0
0
LINE
8
0
6
CONTINUOUS
10
-19.991202
20
-104.828254
30
0.0
11
-19.132988
21
-105.608757
31
0.0
0
LINE
8
0
6
CONTINUOUS
10
57.492120
20
-104.727198
30
0.0
11
63.381470
21
-97.113639
31
0.0
0
LINE
8
0
6
CONTINUOUS
10
18.777325
20
-120.327834
30
0.0
11
29.557450
21
-119.330311
31
0.0
0
LINE
8
0
6
CONTINUOUS
10
29.557450
20
-119.330311
30
0.0
11
39.793370
21
-116.415954
31
0.0
0
LINE
8
0
6
CONTINUOUS
10
-11.449135
20
-111.809647
30
0.0
11
-2.253270
21
-116.470788
31
0.0
0
LINE
8
0
6
CONTINUOUS
10
67.030500
20
-88.630239
30
0.0
11
67.485303
21
-87.507648
31
0.0
0
LINE
8
0
6
CONTINUOUS
10
63.381470
20
-97.113639
30
0.0
11
67.030500
21
-88.630239
31
0.0
0
LINE
8
0
6
CONTINUOUS
10
39.793370
20
-116.415954
30
0.0
11
48.971791
21
-111.730858
31
0.0
0
LINE
8
0
6
CONTINUOUS
10
-2.253270
20
-116.470788
30
0.0
11
7.993479
21
-119.358430
31
0.0
0
LINE
8
0
6
CONTINUOUS
10
-29.589621
20
-88.756259
30
0.0
11
-25.908944
21
-97.230097
31
0.0
0
LINE
8
0
6
CONTINUOUS
10
-30.044658
20
-87.634853
30
0.0
11
-29.589621
21
-88.756259
31
0.0
0
LINE
8
0
6
CONTINUOUS
10
56.632453
20
-105.509952
30
0.0
11
57.492120
21
-104.727198
31
0.0
0
LINE
8
0
6
CONTINUOUS
10
48.971791
20
-111.730858
30
0.0
11
56.632453
21
-105.509952
31
0.0
0
LINE
8
0
6
CONTINUOUS
10
7.993479
20
-119.358430
30
0.0
11
18.777325
21
-120.327834
31
0.0
0
LINE
8
0
6
CONTINUOUS
10
-25.908944
20
-97.230097
30
0.0
11
-19.991202
21
-104.828254
31
0.0
0
LINE
8
0
6
CONTINUOUS
10
68.722405
20
-77.842864
30
0.0
11
68.713412
21
-77.779120
31
0.0
0
LINE
8
0
6
CONTINUOUS
10
-31.306749
20
-77.908067
30
0.0
11
-31.315709
21
-77.973331
31
0.0
0
LINE
8
0
6
CONTINUOUS
10
61.345482
20
-50.379683
30
0.0
11
55.688795
21
-43.116723
31
0.0
0
LINE
8
0
6
CONTINUOUS
10
55.688795
20
-43.116723
30
0.0
11
55.310302
21
-42.769943
31
0.0
0
LINE
8
0
6
CONTINUOUS
10
-18.376485
20
-43.213349
30
0.0
11
-24.006028
21
-50.491059
31
0.0
0
LINE
8
0
6
CONTINUOUS
10
-17.997367
20
-42.865600
30
0.0
11
-18.376485
21
-43.213349
31
0.0
0
LINE
8
0
6
CONTINUOUS
10
61.781873
20
-51.022220
30
0.0
11
61.345482
21
-50.379683
31
0.0
0
LINE
8
0
6
CONTINUOUS
10
-24.006028
20
-50.491059
30
0.0
11
-24.442688
21
-51.134734
31
0.0
0
LINE
8
0
6
CONTINUOUS
10
25.787906
20
78.738514
30
0.0
11
25.787906
21
77.098482
31
0.0
0
LINE
8
0
6
CONTINUOUS
10
9.787896
20
78.738494
30
0.0
11
9.787896
21
77.098433
31
0.0
0
LINE
8
0
6
CONTINUOUS
10
25.787896
20
84.933274
30
0.0
11
25.787906
21
78.738514
31
0.0
0
LINE
8
0
6
CONTINUOUS
10
9.787896
20
84.933264
30
0.0
11
9.787896
21
78.738494
31
0.0
0
LINE
8
0
6
CONTINUOUS
10
25.787906
20
89.478944
30
0.0
11
25.787896
21
84.933274
31
0.0
0
LINE
8
0
6
CONTINUOUS
10
9.787896
20
89.478924
30
0.0
11
9.787896
21
84.933264
31
0.0
0
LINE
8
0
6
CONTINUOUS
10
25.787906
20
92.926514
30
0.0
11
25.787906
21
89.478944
31
0.0
0
LINE
8
0
6
CONTINUOUS
10
9.787896
20
92.926494
30
0.0
11
9.787896
21
89.478924
31
0.0
0
LINE
8
0
6
CONTINUOUS
10
25.787906
20
95.138064
30
0.0
11
25.787906
21
92.926514
31
0.0
0
LINE
8
0
6
CONTINUOUS
10
9.787896
20
95.138044
30
0.0
11
9.787896
21
92.926494
31
0.0
0
LINE
8
0
6
CONTINUOUS
10
25.787896
20
96.369354
30
0.0
11
25.787906
21
95.138064
31
0.0
0
LINE
8
0
6
CONTINUOUS
10
9.787896
20
96.369334
30
0.0
11
9.787896
21
95.138044
31
0.0
0
LINE
8
0
6
CONTINUOUS
10
25.787896
20
96.876124
30
0.0
11
25.787896
21
96.369354
31
0.0
0
LINE
8
0
6
CONTINUOUS
10
9.787906
20
96.876104
30
0.0
11
9.787896
21
96.369334
31
0.0
0
LINE
8
0
6
CONTINUOUS
10
24.716096
20
100.914104
30
0.0
11
25.787906
21
96.914124
31
0.0
0
LINE
8
0
6
CONTINUOUS
10
13.787896
20
103.842284
30
0.0
11
17.787896
21
104.914074
31
0.0
0
LINE
8
0
6
CONTINUOUS
10
21.787896
20
103.842284
30
0.0
11
24.716096
21
100.914104
31
0.0
0
LINE
8
0
6
CONTINUOUS
10
10.859677
20
100.914084
30
0.0
11
9.787887
21
96.914104
31
0.0
0
LINE
8
0
6
CONTINUOUS
10
9.787896
20
96.914104
30
0.0
11
10.859696
21
100.914084
31
0.0
0
LINE
8
0
6
CONTINUOUS
10
13.787877
20
103.842284
30
0.0
11
10.859677
21
100.914084
31
0.0
0
LINE
8
0
6
CONTINUOUS
10
10.859696
20
100.914084
30
0.0
11
13.787896
21
103.842284
31
0.0
0
LINE
8
0
6
CONTINUOUS
10
17.787896
20
104.914074
30
0.0
11
21.787896
21
103.842284
31
0.0
0
LINE
8
0
6
CONTINUOUS
10
29.362835
20
53.247772
30
0.0
11
28.664819
21
59.594907
31
0.0
0
LINE
8
0
6
CONTINUOUS
10
27.286833
20
64.278838
30
0.0
11
26.707064
21
64.941770
31
0.0
0
LINE
8
0
6
CONTINUOUS
10
28.297764
20
62.134058
30
0.0
11
27.286833
21
64.278838
31
0.0
0
LINE
8
0
6
CONTINUOUS
10
28.638520
20
59.834091
30
0.0
11
28.297764
21
62.134058
31
0.0
0
LINE
8
0
6
CONTINUOUS
10
28.664819
20
59.594907
30
0.0
11
28.638520
21
59.834091
31
0.0
0
LINE
8
0
6
CONTINUOUS
10
-0.193764
20
37.215538
30
0.0
11
3.833881
21
35.782576
31
0.0
0
LINE
8
0
6
CONTINUOUS
10
39.503586
20
-0.470452
30
0.0
11
37.226196
21
6.329548
31
0.0
0
LINE
8
0
6
CONTINUOUS
10
2.270046
20
38.602998
30
0.0
11
2.270046
21
39.202992
31
0.0
0
LINE
8
0
6
CONTINUOUS
10
3.827223
20
37.993188
30
0.0
11
2.270046
21
38.602998
31
0.0
0
LINE
8
0
6
CONTINUOUS
10
37.377436
20
-28.370452
30
0.0
11
36.314899
21
-31.509751
31
0.0
0
LINE
8
0
6
CONTINUOUS
10
37.226196
20
6.329548
30
0.0
11
34.256966
21
12.729548
31
0.0
0
LINE
8
0
6
CONTINUOUS
10
35.426196
20
5.529548
30
0.0
11
37.603586
21
-0.970452
31
0.0
0
LINE
8
0
6
CONTINUOUS
10
33.132566
20
10.485783
30
0.0
11
35.426196
21
5.529548
31
0.0
0
LINE
8
0
6
CONTINUOUS
10
38.777436
20
-21.570452
30
0.0
11
37.377436
21
-28.370452
31
0.0
0
LINE
8
0
6
CONTINUOUS
10
37.603586
20
-0.970452
30
0.0
11
38.886496
21
-7.770452
31
0.0
0
LINE
8
0
6
CONTINUOUS
10
39.277436
20
-28.870452
30
0.0
11
40.677436
21
-21.870442
31
0.0
0
LINE
8
0
6
CONTINUOUS
10
-4.222574
20
38.329558
30
0.0
11
-0.193764
21
37.215538
31
0.0
0
LINE
8
0
6
CONTINUOUS
10
40.786496
20
-7.470452
30
0.0
11
39.503586
21
-0.470452
31
0.0
0
LINE
8
0
6
CONTINUOUS
10
38.204607
20
-32.042294
30
0.0
11
39.277436
21
-28.870452
31
0.0
0
LINE
8
0
6
CONTINUOUS
10
39.277436
20
-14.670452
30
0.0
11
38.777436
21
-21.570452
31
0.0
0
LINE
8
0
6
CONTINUOUS
10
40.677436
20
-21.870442
30
0.0
11
41.277436
21
-14.670452
31
0.0
0
LINE
8
0
6
CONTINUOUS
10
34.256966
20
12.729548
30
0.0
11
33.125730
21
14.448904
31
0.0
0
LINE
8
0
6
CONTINUOUS
10
-13.722564
20
38.329558
30
0.0
11
-4.222574
21
38.329558
31
0.0
0
LINE
8
0
6
CONTINUOUS
10
38.886496
20
-7.770452
30
0.0
11
39.277436
21
-14.670452
31
0.0
0
LINE
8
0
6
CONTINUOUS
10
41.277436
20
-14.670452
30
0.0
11
40.786496
21
-7.470452
31
0.0
0
LINE
8
0
6
CONTINUOUS
10
-47.122564
20
-58.270452
30
0.0
11
-41.122564
21
-62.270452
31
0.0
0
LINE
8
0
6
CONTINUOUS
10
-33.922564
20
34.842048
30
0.0
11
-27.251364
21
37.215538
31
0.0
0
LINE
8
0
6
CONTINUOUS
10
-40.122564
20
-60.570452
30
0.0
11
-33.922564
21
-63.570462
31
0.0
0
LINE
8
0
6
CONTINUOUS
10
-47.876404
20
28.929558
30
0.0
11
-53.150764
21
24.129548
31
0.0
0
LINE
8
0
6
CONTINUOUS
10
-45.922564
20
-56.670452
30
0.0
11
-51.122564
21
-52.070442
31
0.0
0
LINE
8
0
6
CONTINUOUS
10
-64.671324
20
6.329548
30
0.0
11
-66.948714
21
-0.470452
31
0.0
0
LINE
8
0
6
CONTINUOUS
10
-34.722554
20
36.642048
30
0.0
11
-42.064864
21
32.929558
31
0.0
0
LINE
8
0
6
CONTINUOUS
10
-29.715174
20
39.202905
30
0.0
11
-29.715174
21
38.602998
31
0.0
0
LINE
8
0
6
CONTINUOUS
10
-29.715174
20
38.602998
30
0.0
11
-34.722554
21
36.642048
31
0.0
0
LINE
8
0
6
CONTINUOUS
10
-57.322564
20
-48.070452
30
0.0
11
-52.522564
21
-53.470462
31
0.0
0
LINE
8
0
6
CONTINUOUS
10
-62.622554
20
-34.870452
30
0.0
11
-64.822564
21
-28.370452
31
0.0
0
LINE
8
0
6
CONTINUOUS
10
-61.702094
20
12.729548
30
0.0
11
-64.671324
21
6.329548
31
0.0
0
LINE
8
0
6
CONTINUOUS
10
-52.522564
20
-53.470462
30
0.0
11
-47.122564
21
-58.270452
31
0.0
0
LINE
8
0
6
CONTINUOUS
10
-65.048714
20
-0.970452
30
0.0
11
-62.871324
21
5.529548
31
0.0
0
LINE
8
0
6
CONTINUOUS
10
-55.722564
20
-46.870462
30
0.0
11
-59.622564
21
-41.070462
31
0.0
0
LINE
8
0
6
CONTINUOUS
10
-46.676404
20
27.329538
30
0.0
11
-41.064864
21
31.229548
31
0.0
0
LINE
8
0
6
CONTINUOUS
10
-62.871324
20
5.529548
30
0.0
11
-60.002104
21
11.729558
31
0.0
0
LINE
8
0
6
CONTINUOUS
10
-42.064864
20
32.929558
30
0.0
11
-47.876404
21
28.929558
31
0.0
0
LINE
8
0
6
CONTINUOUS
10
-64.822564
20
-28.370452
30
0.0
11
-66.222564
21
-21.570452
31
0.0
0
LINE
8
0
6
CONTINUOUS
10
-66.331624
20
-7.770452
30
0.0
11
-65.048714
21
-0.970452
31
0.0
0
LINE
8
0
6
CONTINUOUS
10
-56.154444
20
17.529558
30
0.0
11
-51.750764
21
22.729548
31
0.0
0
LINE
8
0
6
CONTINUOUS
10
-41.064864
20
31.229548
30
0.0
11
-33.922564
21
34.842048
31
0.0
0
LINE
8
0
6
CONTINUOUS
10
-68.122564
20
-21.870442
30
0.0
11
-66.722564
21
-28.870452
31
0.0
0
LINE
8
0
6
CONTINUOUS
10
-27.251364
20
37.215538
30
0.0
11
-23.222554
21
38.329558
31
0.0
0
LINE
8
0
6
CONTINUOUS
10
-64.422564
20
-35.670452
30
0.0
11
-61.322554
21
-42.070442
31
0.0
0
LINE
8
0
6
CONTINUOUS
10
-53.150764
20
24.129548
30
0.0
11
-57.754444
21
18.729548
31
0.0
0
LINE
8
0
6
CONTINUOUS
10
-66.948714
20
-0.470452
30
0.0
11
-68.231624
21
-7.470452
31
0.0
0
LINE
8
0
6
CONTINUOUS
10
-66.722564
20
-28.870452
30
0.0
11
-64.422564
21
-35.670452
31
0.0
0
LINE
8
0
6
CONTINUOUS
10
-59.622564
20
-41.070462
30
0.0
11
-62.622554
21
-34.870452
31
0.0
0
LINE
8
0
6
CONTINUOUS
10
-66.222564
20
-21.570452
30
0.0
11
-66.722564
21
-14.670452
31
0.0
0
LINE
8
0
6
CONTINUOUS
10
-60.002104
20
11.729558
30
0.0
11
-56.154444
21
17.529558
31
0.0
0
LINE
8
0
6
CONTINUOUS
10
-34.722554
20
-65.370442
30
0.0
11
-30.131122
21
-66.923442
31
0.0
0
LINE
8
0
6
CONTINUOUS
10
-68.722564
20
-14.670452
30
0.0
11
-68.122564
21
-21.870442
31
0.0
0
LINE
8
0
6
CONTINUOUS
10
-51.750764
20
22.729548
30
0.0
11
-46.676404
21
27.329538
31
0.0
0
LINE
8
0
6
CONTINUOUS
10
-51.122564
20
-52.070442
30
0.0
11
-55.722564
21
-46.870462
31
0.0
0
LINE
8
0
6
CONTINUOUS
10
-57.754444
20
18.729548
30
0.0
11
-61.702094
21
12.729548
31
0.0
0
LINE
8
0
6
CONTINUOUS
10
-23.222554
20
38.329558
30
0.0
11
-13.722564
21
38.329558
31
0.0
0
LINE
8
0
6
CONTINUOUS
10
-66.722564
20
-14.670452
30
0.0
11
-66.331624
21
-7.770452
31
0.0
0
LINE
8
0
6
CONTINUOUS
10
-41.122564
20
-62.270452
30
0.0
11
-34.722554
21
-65.370442
31
0.0
0
LINE
8
0
6
CONTINUOUS
10
-45.922564
20
-56.670452
30
0.0
11
-40.122564
21
-60.570452
31
0.0
0
LINE
8
0
6
CONTINUOUS
10
-61.322554
20
-42.070442
30
0.0
11
-57.322564
21
-48.070452
31
0.0
0
LINE
8
0
6
CONTINUOUS
10
-68.231624
20
-7.470452
30
0.0
11
-68.722564
21
-14.670452
31
0.0
0
LINE
8
0
6
CONTINUOUS
10
-33.922564
20
-63.570462
30
0.0
11
-29.859583
21
-64.945617
31
0.0
0
LINE
8
0
6
CONTINUOUS
10
19.103061
20
59.068714
30
0.0
11
21.417193
21
58.714997
31
0.0
0
ENDSEC
0
EOF
