999
Erzeugt mit innoplus bad 
0
SECTION
2
HEADER
9
$ACADVER
1
AC1009
9
$DWGCODEPAGE
3
ISO8859-1
0
ENDSEC
0
SECTION
2
TABLES
0
TABLE
2
LAYER
70
1
0
LAYER
2
0
70
0
62
7
6
CONTINUOUS
0
ENDTAB
0
ENDSEC
0
SECTION
2
ENTITIES
0
LINE
8
0
6
CONTINUOUS
10
-2.722564
20
-281.706772
30
0.0
11
-2.722564
21
-281.125962
31
0.0
0
LINE
8
0
6
CONTINUOUS
10
-24.722564
20
-281.125962
30
0.0
11
-24.722564
21
-281.706772
31
0.0
0
LINE
8
0
6
CONTINUOUS
10
-2.722564
20
-281.125962
30
0.0
11
-2.722564
21
-277.422107
31
0.0
0
LINE
8
0
6
CONTINUOUS
10
-2.722564
20
-254.445497
30
0.0
11
-2.722564
21
70.210807
31
0.0
0
LINE
8
0
6
CONTINUOUS
10
-2.722564
20
107.942501
30
0.0
11
-2.722564
21
206.335233
31
0.0
0
LINE
8
0
6
CONTINUOUS
10
-2.722564
20
276.737625
30
0.0
11
-2.722564
21
281.065132
31
0.0
0
LINE
8
0
6
CONTINUOUS
10
-24.722564
20
281.065132
30
0.0
11
-24.722564
21
262.323078
31
0.0
0
LINE
8
0
6
CONTINUOUS
10
-24.722564
20
219.624942
30
0.0
11
-24.722564
21
107.942507
31
0.0
0
LINE
8
0
6
CONTINUOUS
10
-24.722564
20
70.210801
30
0.0
11
-24.722564
21
-254.422107
31
0.0
0
LINE
8
0
6
CONTINUOUS
10
-24.722564
20
-277.398717
30
0.0
11
-24.722564
21
-281.125962
31
0.0
0
LINE
8
0
6
CONTINUOUS
10
-24.722564
20
-281.706772
30
0.0
11
-24.722564
21
-281.921412
31
0.0
0
LINE
8
0
6
CONTINUOUS
10
-2.722564
20
-281.921412
30
0.0
11
-2.722564
21
-281.706772
31
0.0
0
LINE
8
0
6
CONTINUOUS
10
-2.722564
20
281.065132
30
0.0
11
-2.722564
21
281.607772
31
0.0
0
LINE
8
0
6
CONTINUOUS
10
-24.722564
20
281.607772
30
0.0
11
-24.722564
21
281.065132
31
0.0
0
LINE
8
0
6
CONTINUOUS
10
-16.522564
20
282.422132
30
0.0
11
-13.722564
21
282.422132
31
0.0
0
LINE
8
0
6
CONTINUOUS
10
-19.222564
20
282.422132
30
0.0
11
-16.522564
21
282.422132
31
0.0
0
LINE
8
0
6
CONTINUOUS
10
-21.522564
20
282.422132
30
0.0
11
-19.222564
21
282.422132
31
0.0
0
LINE
8
0
6
CONTINUOUS
10
-23.222564
20
282.422132
30
0.0
11
-21.522564
21
282.422132
31
0.0
0
LINE
8
0
6
CONTINUOUS
10
-24.322564
20
282.422132
30
0.0
11
-23.222564
21
282.422132
31
0.0
0
LINE
8
0
6
CONTINUOUS
10
-24.722564
20
333.790690
30
0.0
11
-24.722564
21
283.130902
31
0.0
0
LINE
8
0
6
CONTINUOUS
10
-24.722564
20
283.130902
30
0.0
11
-24.722564
21
282.422132
31
0.0
0
LINE
8
0
6
CONTINUOUS
10
-24.722564
20
282.422132
30
0.0
11
-24.322564
21
282.422132
31
0.0
0
LINE
8
0
6
CONTINUOUS
10
-13.722564
20
282.422132
30
0.0
11
-10.922564
21
282.422132
31
0.0
0
LINE
8
0
6
CONTINUOUS
10
-10.922564
20
282.422132
30
0.0
11
-8.222564
21
282.422132
31
0.0
0
LINE
8
0
6
CONTINUOUS
10
-8.222564
20
282.422132
30
0.0
11
-5.922564
21
282.422132
31
0.0
0
LINE
8
0
6
CONTINUOUS
10
-5.922564
20
282.422132
30
0.0
11
-4.222564
21
282.422132
31
0.0
0
LINE
8
0
6
CONTINUOUS
10
-4.222564
20
282.422132
30
0.0
11
-3.122564
21
282.422132
31
0.0
0
LINE
8
0
6
CONTINUOUS
10
-2.722564
20
283.130902
30
0.0
11
-2.722564
21
333.790690
31
0.0
0
LINE
8
0
6
CONTINUOUS
10
-2.722564
20
282.422132
30
0.0
11
-2.722564
21
283.130902
31
0.0
0
LINE
8
0
6
CONTINUOUS
10
-3.122564
20
282.422132
30
0.0
11
-2.722564
21
282.422132
31
0.0
0
LINE
8
0
6
CONTINUOUS
10
-2.722564
20
281.921372
30
0.0
11
-3.222564
21
282.422132
31
0.0
0
LINE
8
0
6
CONTINUOUS
10
-10.922564
20
281.921372
30
0.0
11
-13.722564
21
281.921372
31
0.0
0
LINE
8
0
6
CONTINUOUS
10
-8.222564
20
281.921372
30
0.0
11
-10.922564
21
281.921372
31
0.0
0
LINE
8
0
6
CONTINUOUS
10
-5.922564
20
281.921372
30
0.0
11
-8.222564
21
281.921372
31
0.0
0
LINE
8
0
6
CONTINUOUS
10
-4.222564
20
281.921372
30
0.0
11
-5.922564
21
281.921372
31
0.0
0
LINE
8
0
6
CONTINUOUS
10
-3.122564
20
281.921372
30
0.0
11
-4.222564
21
281.921372
31
0.0
0
LINE
8
0
6
CONTINUOUS
10
-2.722564
20
281.921372
30
0.0
11
-3.122564
21
281.921372
31
0.0
0
LINE
8
0
6
CONTINUOUS
10
-2.722564
20
281.607772
30
0.0
11
-2.722564
21
281.921372
31
0.0
0
LINE
8
0
6
CONTINUOUS
10
-10.922564
20
-281.921412
30
0.0
11
-13.722564
21
-281.921412
31
0.0
0
LINE
8
0
6
CONTINUOUS
10
-13.722564
20
-282.422112
30
0.0
11
-11.022564
21
-282.422112
31
0.0
0
LINE
8
0
6
CONTINUOUS
10
-8.222564
20
-281.921412
30
0.0
11
-10.922564
21
-281.921412
31
0.0
0
LINE
8
0
6
CONTINUOUS
10
-11.022564
20
-282.422112
30
0.0
11
-8.522564
21
-282.422112
31
0.0
0
LINE
8
0
6
CONTINUOUS
10
-8.522564
20
-282.422112
30
0.0
11
-6.322564
21
-282.422112
31
0.0
0
LINE
8
0
6
CONTINUOUS
10
-5.922564
20
-281.921412
30
0.0
11
-8.222564
21
-281.921412
31
0.0
0
LINE
8
0
6
CONTINUOUS
10
-6.322564
20
-282.422112
30
0.0
11
-4.622564
21
-282.422112
31
0.0
0
LINE
8
0
6
CONTINUOUS
10
-4.222564
20
-281.921412
30
0.0
11
-5.922564
21
-281.921412
31
0.0
0
LINE
8
0
6
CONTINUOUS
10
-3.122564
20
-281.921412
30
0.0
11
-4.222564
21
-281.921412
31
0.0
0
LINE
8
0
6
CONTINUOUS
10
-4.622564
20
-282.422112
30
0.0
11
-3.622564
21
-282.422112
31
0.0
0
LINE
8
0
6
CONTINUOUS
10
-2.722564
20
-281.921412
30
0.0
11
-3.122564
21
-281.921412
31
0.0
0
LINE
8
0
6
CONTINUOUS
10
-3.222564
20
-282.422112
30
0.0
11
-2.722564
21
-281.921412
31
0.0
0
LINE
8
0
6
CONTINUOUS
10
-3.622564
20
-282.422112
30
0.0
11
-3.222564
21
-282.422112
31
0.0
0
LINE
8
0
6
CONTINUOUS
10
-24.222564
20
282.422132
30
0.0
11
-24.722564
21
281.921372
31
0.0
0
LINE
8
0
6
CONTINUOUS
10
-13.722564
20
281.921372
30
0.0
11
-16.522564
21
281.921372
31
0.0
0
LINE
8
0
6
CONTINUOUS
10
-16.522564
20
281.921372
30
0.0
11
-19.222564
21
281.921372
31
0.0
0
LINE
8
0
6
CONTINUOUS
10
-19.222564
20
281.921372
30
0.0
11
-21.522564
21
281.921372
31
0.0
0
LINE
8
0
6
CONTINUOUS
10
-21.522564
20
281.921372
30
0.0
11
-23.222564
21
281.921372
31
0.0
0
LINE
8
0
6
CONTINUOUS
10
-23.222564
20
281.921372
30
0.0
11
-24.322564
21
281.921372
31
0.0
0
LINE
8
0
6
CONTINUOUS
10
-24.722564
20
281.921372
30
0.0
11
-24.722564
21
281.607772
31
0.0
0
LINE
8
0
6
CONTINUOUS
10
-24.322564
20
281.921372
30
0.0
11
-24.722564
21
281.921372
31
0.0
0
LINE
8
0
6
CONTINUOUS
10
-13.722564
20
-281.921412
30
0.0
11
-16.522564
21
-281.921412
31
0.0
0
LINE
8
0
6
CONTINUOUS
10
-16.422564
20
-282.422112
30
0.0
11
-13.722564
21
-282.422112
31
0.0
0
LINE
8
0
6
CONTINUOUS
10
-16.522564
20
-281.921412
30
0.0
11
-19.222564
21
-281.921412
31
0.0
0
LINE
8
0
6
CONTINUOUS
10
-18.922564
20
-282.422112
30
0.0
11
-16.422564
21
-282.422112
31
0.0
0
LINE
8
0
6
CONTINUOUS
10
-21.122564
20
-282.422112
30
0.0
11
-18.922564
21
-282.422112
31
0.0
0
LINE
8
0
6
CONTINUOUS
10
-19.222564
20
-281.921412
30
0.0
11
-21.522564
21
-281.921412
31
0.0
0
LINE
8
0
6
CONTINUOUS
10
-22.822564
20
-282.422112
30
0.0
11
-21.122564
21
-282.422112
31
0.0
0
LINE
8
0
6
CONTINUOUS
10
-21.522564
20
-281.921412
30
0.0
11
-23.222564
21
-281.921412
31
0.0
0
LINE
8
0
6
CONTINUOUS
10
-23.222564
20
-281.921412
30
0.0
11
-24.322564
21
-281.921412
31
0.0
0
LINE
8
0
6
CONTINUOUS
10
-23.822564
20
-282.422112
30
0.0
11
-22.822564
21
-282.422112
31
0.0
0
LINE
8
0
6
CONTINUOUS
10
-24.722564
20
-281.921412
30
0.0
11
-24.222564
21
-282.422112
31
0.0
0
LINE
8
0
6
CONTINUOUS
10
-24.322564
20
-281.921412
30
0.0
11
-24.722564
21
-281.921412
31
0.0
0
LINE
8
0
6
CONTINUOUS
10
-24.222564
20
-282.422112
30
0.0
11
-23.822564
21
-282.422112
31
0.0
0
LINE
8
0
6
CONTINUOUS
10
-13.722564
20
334.500000
30
0.0
11
-16.522564
21
334.500000
31
0.0
0
LINE
8
0
6
CONTINUOUS
10
-16.522564
20
334.500000
30
0.0
11
-19.222564
21
334.500000
31
0.0
0
LINE
8
0
6
CONTINUOUS
10
-19.222564
20
334.500000
30
0.0
11
-21.522564
21
334.500000
31
0.0
0
LINE
8
0
6
CONTINUOUS
10
-21.522564
20
334.500000
30
0.0
11
-23.222564
21
334.500000
31
0.0
0
LINE
8
0
6
CONTINUOUS
10
-23.222564
20
334.500000
30
0.0
11
-24.322564
21
334.500000
31
0.0
0
LINE
8
0
6
CONTINUOUS
10
-24.722564
20
334.500000
30
0.0
11
-24.722564
21
333.790690
31
0.0
0
LINE
8
0
6
CONTINUOUS
10
-24.322564
20
334.500000
30
0.0
11
-24.722564
21
334.500000
31
0.0
0
LINE
8
0
6
CONTINUOUS
10
-10.922564
20
334.500000
30
0.0
11
-13.722564
21
334.500000
31
0.0
0
LINE
8
0
6
CONTINUOUS
10
-8.222564
20
334.500000
30
0.0
11
-10.922564
21
334.500000
31
0.0
0
LINE
8
0
6
CONTINUOUS
10
-5.922564
20
334.500000
30
0.0
11
-8.222564
21
334.500000
31
0.0
0
LINE
8
0
6
CONTINUOUS
10
-4.222564
20
334.500000
30
0.0
11
-5.922564
21
334.500000
31
0.0
0
LINE
8
0
6
CONTINUOUS
10
-3.122564
20
334.500000
30
0.0
11
-4.222564
21
334.500000
31
0.0
0
LINE
8
0
6
CONTINUOUS
10
-2.722564
20
334.500000
30
0.0
11
-3.122564
21
334.500000
31
0.0
0
LINE
8
0
6
CONTINUOUS
10
-2.722564
20
333.790690
30
0.0
11
-2.722564
21
334.500000
31
0.0
0
LINE
8
0
6
CONTINUOUS
10
-16.522574
20
-334.500000
30
0.0
11
-13.722584
21
-334.500000
31
0.0
0
LINE
8
0
6
CONTINUOUS
10
-19.222574
20
-334.500000
30
0.0
11
-16.522574
21
-334.500000
31
0.0
0
LINE
8
0
6
CONTINUOUS
10
-21.522574
20
-334.500000
30
0.0
11
-19.222574
21
-334.500000
31
0.0
0
LINE
8
0
6
CONTINUOUS
10
-23.222594
20
-334.500000
30
0.0
11
-21.522574
21
-334.500000
31
0.0
0
LINE
8
0
6
CONTINUOUS
10
-24.322594
20
-334.500000
30
0.0
11
-23.222594
21
-334.500000
31
0.0
0
LINE
8
0
6
CONTINUOUS
10
-24.722564
20
-283.131482
30
0.0
11
-24.722564
21
-333.791240
31
0.0
0
LINE
8
0
6
CONTINUOUS
10
-24.722564
20
-333.791240
30
0.0
11
-24.722564
21
-334.500000
31
0.0
0
LINE
8
0
6
CONTINUOUS
10
-24.722564
20
-334.500000
30
0.0
11
-24.322594
21
-334.500000
31
0.0
0
LINE
8
0
6
CONTINUOUS
10
-13.722584
20
-334.500000
30
0.0
11
-10.922594
21
-334.500000
31
0.0
0
LINE
8
0
6
CONTINUOUS
10
-10.922594
20
-334.500000
30
0.0
11
-8.222594
21
-334.500000
31
0.0
0
LINE
8
0
6
CONTINUOUS
10
-8.222594
20
-334.500000
30
0.0
11
-5.922594
21
-334.500000
31
0.0
0
LINE
8
0
6
CONTINUOUS
10
-5.922594
20
-334.500000
30
0.0
11
-4.222574
21
-334.500000
31
0.0
0
LINE
8
0
6
CONTINUOUS
10
-4.222574
20
-334.500000
30
0.0
11
-3.122574
21
-334.500000
31
0.0
0
LINE
8
0
6
CONTINUOUS
10
-2.722604
20
-333.791240
30
0.0
11
-2.722604
21
-283.131482
31
0.0
0
LINE
8
0
6
CONTINUOUS
10
-2.722604
20
-334.500000
30
0.0
11
-2.722604
21
-333.791240
31
0.0
0
LINE
8
0
6
CONTINUOUS
10
-3.122574
20
-334.500000
30
0.0
11
-2.722604
21
-334.500000
31
0.0
0
LINE
8
0
6
CONTINUOUS
10
-13.722584
20
-282.422112
30
0.0
11
-16.522574
21
-282.422112
31
0.0
0
LINE
8
0
6
CONTINUOUS
10
-16.522574
20
-282.422112
30
0.0
11
-19.222574
21
-282.422112
31
0.0
0
LINE
8
0
6
CONTINUOUS
10
-19.222574
20
-282.422112
30
0.0
11
-21.522574
21
-282.422112
31
0.0
0
LINE
8
0
6
CONTINUOUS
10
-21.522574
20
-282.422112
30
0.0
11
-23.222594
21
-282.422112
31
0.0
0
LINE
8
0
6
CONTINUOUS
10
-23.222594
20
-282.422112
30
0.0
11
-24.322594
21
-282.422112
31
0.0
0
LINE
8
0
6
CONTINUOUS
10
-24.722564
20
-282.422112
30
0.0
11
-24.722564
21
-283.131482
31
0.0
0
LINE
8
0
6
CONTINUOUS
10
-24.322594
20
-282.422112
30
0.0
11
-24.722564
21
-282.422112
31
0.0
0
LINE
8
0
6
CONTINUOUS
10
-10.922594
20
-282.422112
30
0.0
11
-13.722584
21
-282.422112
31
0.0
0
LINE
8
0
6
CONTINUOUS
10
-8.222594
20
-282.422112
30
0.0
11
-10.922594
21
-282.422112
31
0.0
0
LINE
8
0
6
CONTINUOUS
10
-5.922594
20
-282.422112
30
0.0
11
-8.222594
21
-282.422112
31
0.0
0
LINE
8
0
6
CONTINUOUS
10
-4.222574
20
-282.422112
30
0.0
11
-5.922594
21
-282.422112
31
0.0
0
LINE
8
0
6
CONTINUOUS
10
-3.122574
20
-282.422112
30
0.0
11
-4.222574
21
-282.422112
31
0.0
0
LINE
8
0
6
CONTINUOUS
10
-2.722604
20
-282.422112
30
0.0
11
-3.122574
21
-282.422112
31
0.0
0
LINE
8
0
6
CONTINUOUS
10
-2.722604
20
-283.131482
30
0.0
11
-2.722604
21
-282.422112
31
0.0
0
LINE
8
0
6
CONTINUOUS
10
-39.591924
20
116.357620
30
0.0
11
-55.233124
21
116.359530
31
0.0
0
LINE
8
0
6
CONTINUOUS
10
-39.479504
20
113.864370
30
0.0
11
-39.479504
21
114.614040
31
0.0
0
LINE
8
0
6
CONTINUOUS
10
-39.479504
20
114.614040
30
0.0
11
-39.479504
21
115.278980
31
0.0
0
LINE
8
0
6
CONTINUOUS
10
-39.479504
20
115.278980
30
0.0
11
-39.479504
21
115.813640
31
0.0
0
LINE
8
0
6
CONTINUOUS
10
-39.479504
20
115.813640
30
0.0
11
-39.479504
21
116.181690
31
0.0
0
LINE
8
0
6
CONTINUOUS
10
-39.479504
20
116.357890
30
0.0
11
-39.591924
21
116.357620
31
0.0
0
LINE
8
0
6
CONTINUOUS
10
-39.479504
20
113.080680
30
0.0
11
-39.479494
21
112.316710
31
0.0
0
LINE
8
0
6
CONTINUOUS
10
-39.479504
20
113.864370
30
0.0
11
-39.479504
21
113.080680
31
0.0
0
LINE
8
0
6
CONTINUOUS
10
-39.479504
20
116.357890
30
0.0
11
-39.479504
21
116.181690
31
0.0
0
LINE
8
0
6
CONTINUOUS
10
-39.591884
20
105.288740
30
0.0
11
-39.479464
21
105.290270
31
0.0
0
LINE
8
0
6
CONTINUOUS
10
-39.479494
20
112.316710
30
0.0
11
-39.479464
21
105.290270
31
0.0
0
LINE
8
0
6
CONTINUOUS
10
-55.946074
20
70.610780
30
0.0
11
-55.946034
21
70.254830
31
0.0
0
LINE
8
0
6
CONTINUOUS
10
-55.946034
20
70.254830
30
0.0
11
-55.233384
21
70.254830
31
0.0
0
LINE
8
0
6
CONTINUOUS
10
-55.946034
20
104.402210
30
0.0
11
-55.946084
21
101.040920
31
0.0
0
LINE
8
0
6
CONTINUOUS
10
-55.946084
20
101.040920
30
0.0
11
-55.946124
21
96.861890
31
0.0
0
LINE
8
0
6
CONTINUOUS
10
-55.946124
20
96.861890
30
0.0
11
-55.946144
21
92.149820
31
0.0
0
LINE
8
0
6
CONTINUOUS
10
-55.946144
20
92.149820
30
0.0
11
-55.946164
21
87.225850
31
0.0
0
LINE
8
0
6
CONTINUOUS
10
-55.946164
20
87.225850
30
0.0
11
-55.946174
21
82.425580
31
0.0
0
LINE
8
0
6
CONTINUOUS
10
-55.946174
20
82.425580
30
0.0
11
-55.946154
21
78.076100
31
0.0
0
LINE
8
0
6
CONTINUOUS
10
-55.946154
20
78.076100
30
0.0
11
-55.946144
21
74.473850
31
0.0
0
LINE
8
0
6
CONTINUOUS
10
-55.946144
20
74.473850
30
0.0
11
-55.946104
21
71.864290
31
0.0
0
LINE
8
0
6
CONTINUOUS
10
-55.946104
20
71.864290
30
0.0
11
-55.946074
21
70.610780
31
0.0
0
LINE
8
0
6
CONTINUOUS
10
-55.233384
20
70.254830
30
0.0
11
-34.972644
21
70.254750
31
0.0
0
LINE
8
0
6
CONTINUOUS
10
-34.682074
20
101.040850
30
0.0
11
-34.682024
21
104.402090
31
0.0
0
LINE
8
0
6
CONTINUOUS
10
-34.681924
20
107.826350
30
0.0
11
-34.972564
21
107.826350
31
0.0
0
LINE
8
0
6
CONTINUOUS
10
-34.972644
20
70.254750
30
0.0
11
-34.682014
21
70.254750
31
0.0
0
LINE
8
0
6
CONTINUOUS
10
-55.945954
20
113.079460
30
0.0
11
-55.945954
21
112.316480
31
0.0
0
LINE
8
0
6
CONTINUOUS
10
-55.945954
20
113.861890
30
0.0
11
-55.945954
21
113.079460
31
0.0
0
LINE
8
0
6
CONTINUOUS
10
-55.945954
20
114.610410
30
0.0
11
-55.945954
21
113.861890
31
0.0
0
LINE
8
0
6
CONTINUOUS
10
-55.945954
20
115.274210
30
0.0
11
-55.945954
21
114.610410
31
0.0
0
LINE
8
0
6
CONTINUOUS
10
-55.945954
20
115.807880
30
0.0
11
-55.945954
21
115.274210
31
0.0
0
LINE
8
0
6
CONTINUOUS
10
-55.945944
20
116.175010
30
0.0
11
-55.945954
21
115.807880
31
0.0
0
LINE
8
0
6
CONTINUOUS
10
-55.945944
20
116.350680
30
0.0
11
-55.945944
21
116.175010
31
0.0
0
LINE
8
0
6
CONTINUOUS
10
-55.233124
20
116.359530
30
0.0
11
-55.945944
21
116.350680
31
0.0
0
LINE
8
0
6
CONTINUOUS
10
-34.682144
20
78.075990
30
0.0
11
-34.682124
21
74.473730
31
0.0
0
LINE
8
0
6
CONTINUOUS
10
-34.682164
20
82.425470
30
0.0
11
-34.682144
21
78.075990
31
0.0
0
LINE
8
0
6
CONTINUOUS
10
-55.233094
20
105.296870
30
0.0
11
-39.591884
21
105.288740
31
0.0
0
LINE
8
0
6
CONTINUOUS
10
-34.972564
20
107.826350
30
0.0
11
-39.479456
21
107.826359
31
0.0
0
LINE
8
0
6
CONTINUOUS
10
-55.945914
20
105.294270
30
0.0
11
-55.233094
21
105.296870
31
0.0
0
LINE
8
0
6
CONTINUOUS
10
-55.945954
20
112.316480
30
0.0
11
-55.945914
21
105.294270
31
0.0
0
LINE
8
0
6
CONTINUOUS
10
-55.945914
20
105.294270
30
0.0
11
-55.946034
21
104.402210
31
0.0
0
LINE
8
0
6
CONTINUOUS
10
-55.233094
20
105.296870
30
0.0
11
-55.945914
21
105.294270
31
0.0
0
LINE
8
0
6
CONTINUOUS
10
-34.682094
20
71.864170
30
0.0
11
-34.682064
21
70.425160
31
0.0
0
LINE
8
0
6
CONTINUOUS
10
-34.682124
20
74.473730
30
0.0
11
-34.682094
21
71.864170
31
0.0
0
LINE
8
0
6
CONTINUOUS
10
-34.682164
20
87.225770
30
0.0
11
-34.682164
21
82.425470
31
0.0
0
LINE
8
0
6
CONTINUOUS
10
-34.682144
20
92.149740
30
0.0
11
-34.682164
21
87.225770
31
0.0
0
LINE
8
0
6
CONTINUOUS
10
-34.682114
20
96.861810
30
0.0
11
-34.682144
21
92.149740
31
0.0
0
LINE
8
0
6
CONTINUOUS
10
-34.682074
20
101.040850
30
0.0
11
-34.682114
21
96.861810
31
0.0
0
LINE
8
0
6
CONTINUOUS
10
-34.681984
20
106.716510
30
0.0
11
-34.682024
21
104.402090
31
0.0
0
LINE
8
0
6
CONTINUOUS
10
-34.681924
20
107.826350
30
0.0
11
-34.681984
21
106.716510
31
0.0
0
LINE
8
0
6
CONTINUOUS
10
-34.682064
20
70.425160
30
0.0
11
-34.682014
21
70.254750
31
0.0
0
LINE
8
0
6
CONTINUOUS
10
-34.100764
20
85.450870
30
0.0
11
-34.100764
21
81.892670
31
0.0
0
LINE
8
0
6
CONTINUOUS
10
-34.100764
20
89.148530
30
0.0
11
-34.100764
21
85.450870
31
0.0
0
LINE
8
0
6
CONTINUOUS
10
-34.100764
20
92.843600
30
0.0
11
-34.100764
21
89.148530
31
0.0
0
LINE
8
0
6
CONTINUOUS
10
-34.100764
20
96.394010
30
0.0
11
-34.100764
21
92.843600
31
0.0
0
LINE
8
0
6
CONTINUOUS
10
-34.100774
20
102.526060
30
0.0
11
-34.100774
21
99.663400
31
0.0
0
LINE
8
0
6
CONTINUOUS
10
-34.100774
20
99.663400
30
0.0
11
-34.100764
21
96.394010
31
0.0
0
LINE
8
0
6
CONTINUOUS
10
7.263497
20
103.224113
30
0.0
11
6.684316
21
104.481670
31
0.0
0
LINE
8
0
6
CONTINUOUS
10
26.707146
20
98.522920
30
0.0
11
26.494359
21
98.525304
31
0.0
0
LINE
8
0
6
CONTINUOUS
10
26.707156
20
89.148570
30
0.0
11
26.707156
21
92.843640
31
0.0
0
LINE
8
0
6
CONTINUOUS
10
26.707156
20
85.450870
30
0.0
11
26.707156
21
89.148570
31
0.0
0
LINE
8
0
6
CONTINUOUS
10
7.477706
20
102.526100
30
0.0
11
6.397276
21
104.872060
31
0.0
0
LINE
8
0
6
CONTINUOUS
10
26.707156
20
78.610690
30
0.0
11
26.707156
21
81.892710
31
0.0
0
LINE
8
0
6
CONTINUOUS
10
26.707156
20
81.892710
30
0.0
11
26.707156
21
85.450870
31
0.0
0
LINE
8
0
6
CONTINUOUS
10
26.707156
20
92.843640
30
0.0
11
26.707146
21
96.394050
31
0.0
0
LINE
8
0
6
CONTINUOUS
10
26.707146
20
96.394050
30
0.0
11
26.707156
21
98.499760
31
0.0
0
LINE
8
0
6
CONTINUOUS
10
-33.781074
20
108.027280
30
0.0
11
-34.100824
21
108.027280
31
0.0
0
LINE
8
0
6
CONTINUOUS
10
6.944697
20
104.900789
30
0.0
11
6.684316
21
104.481670
31
0.0
0
LINE
8
0
6
CONTINUOUS
10
6.397276
20
104.872060
30
0.0
11
6.896055
21
105.674916
31
0.0
0
LINE
8
0
6
CONTINUOUS
10
3.887592
20
108.027280
30
0.0
11
-2.722564
21
108.027280
31
0.0
0
LINE
8
0
6
CONTINUOUS
10
-24.722564
20
108.027280
30
0.0
11
-33.781074
21
108.027280
31
0.0
0
LINE
8
0
6
CONTINUOUS
10
-34.100804
20
71.601720
30
0.0
11
-34.100804
21
70.510720
31
0.0
0
LINE
8
0
6
CONTINUOUS
10
-34.100814
20
70.133330
30
0.0
11
-33.781064
21
70.133330
31
0.0
0
LINE
8
0
6
CONTINUOUS
10
18.529396
20
70.070080
30
0.0
11
23.145066
21
70.133330
31
0.0
0
LINE
8
0
6
CONTINUOUS
10
13.620356
20
70.099840
30
0.0
11
18.529396
21
70.070080
31
0.0
0
LINE
8
0
6
CONTINUOUS
10
10.058866
20
70.133330
30
0.0
11
13.620356
21
70.099840
31
0.0
0
LINE
8
0
6
CONTINUOUS
10
23.145066
20
70.133330
30
0.0
11
26.306536
21
70.133330
31
0.0
0
LINE
8
0
6
CONTINUOUS
10
26.707106
20
70.510720
30
0.0
11
26.707126
21
71.601760
31
0.0
0
LINE
8
0
6
CONTINUOUS
10
26.707126
20
71.601760
30
0.0
11
26.707136
21
73.364420
31
0.0
0
LINE
8
0
6
CONTINUOUS
10
26.707136
20
75.731020
30
0.0
11
26.707156
21
78.610690
31
0.0
0
LINE
8
0
6
CONTINUOUS
10
26.707136
20
73.364420
30
0.0
11
26.707136
21
75.731020
31
0.0
0
LINE
8
0
6
CONTINUOUS
10
26.707086
20
70.133410
30
0.0
11
26.707106
21
70.510720
31
0.0
0
LINE
8
0
6
CONTINUOUS
10
26.306536
20
70.133330
30
0.0
11
26.707086
21
70.133410
31
0.0
0
LINE
8
0
6
CONTINUOUS
10
-33.781064
20
70.133330
30
0.0
11
-24.722564
21
70.133330
31
0.0
0
LINE
8
0
6
CONTINUOUS
10
-2.722564
20
70.133330
30
0.0
11
10.058866
21
70.133330
31
0.0
0
LINE
8
0
6
CONTINUOUS
10
-34.100764
20
78.610690
30
0.0
11
-34.100764
21
81.892670
31
0.0
0
LINE
8
0
6
CONTINUOUS
10
-34.100774
20
102.526060
30
0.0
11
-34.100784
21
104.872020
31
0.0
0
LINE
8
0
6
CONTINUOUS
10
-34.100784
20
75.731060
30
0.0
11
-34.100764
21
78.610690
31
0.0
0
LINE
8
0
6
CONTINUOUS
10
-34.100784
20
104.872020
30
0.0
11
-34.100794
21
106.611150
31
0.0
0
LINE
8
0
6
CONTINUOUS
10
-34.100804
20
107.676510
30
0.0
11
-34.100824
21
108.027280
31
0.0
0
LINE
8
0
6
CONTINUOUS
10
-34.100814
20
70.133330
30
0.0
11
-34.100804
21
70.510720
31
0.0
0
LINE
8
0
6
CONTINUOUS
10
-34.100784
20
73.364380
30
0.0
11
-34.100784
21
75.731060
31
0.0
0
LINE
8
0
6
CONTINUOUS
10
-34.100804
20
71.601720
30
0.0
11
-34.100784
21
73.364380
31
0.0
0
LINE
8
0
6
CONTINUOUS
10
-34.100794
20
106.611150
30
0.0
11
-34.100804
21
107.676510
31
0.0
0
LINE
8
0
6
CONTINUOUS
10
-5.638489
20
227.797121
30
0.0
11
-5.622103
21
228.702094
31
0.0
0
LINE
8
0
6
CONTINUOUS
10
-5.622103
20
228.702094
30
0.0
11
-4.278908
21
229.146406
31
0.0
0
LINE
8
0
6
CONTINUOUS
10
-2.952088
20
228.685725
30
0.0
11
-2.954276
21
229.425468
31
0.0
0
LINE
8
0
6
CONTINUOUS
10
-4.278908
20
229.146406
30
0.0
11
-2.952088
21
228.685725
31
0.0
0
LINE
8
0
6
CONTINUOUS
10
-19.345638
20
226.028854
30
0.0
11
-19.331578
21
226.805227
31
0.0
0
LINE
8
0
6
CONTINUOUS
10
19.709017
20
227.440140
30
0.0
11
21.157334
21
226.262512
31
0.0
0
LINE
8
0
6
CONTINUOUS
10
17.247378
20
227.292360
30
0.0
11
19.709017
21
227.440140
31
0.0
0
LINE
8
0
6
CONTINUOUS
10
-3.395823
20
232.607642
30
0.0
11
-3.379437
21
233.512625
31
0.0
0
LINE
8
0
6
CONTINUOUS
10
-11.058120
20
232.217490
30
0.0
11
-11.044060
21
232.993844
31
0.0
0
LINE
8
0
6
CONTINUOUS
10
-11.044060
20
232.993844
30
0.0
11
-9.891779
21
233.374984
31
0.0
0
LINE
8
0
6
CONTINUOUS
10
-7.265700
20
236.692971
30
0.0
11
-7.251630
21
237.469345
31
0.0
0
LINE
8
0
6
CONTINUOUS
10
-11.936963
20
241.106641
30
0.0
11
-10.692536
21
241.369577
31
0.0
0
LINE
8
0
6
CONTINUOUS
10
13.661549
20
210.543324
30
0.0
11
14.868061
21
210.225573
31
0.0
0
LINE
8
0
6
CONTINUOUS
10
12.589292
20
210.088722
30
0.0
11
13.661549
21
210.543324
31
0.0
0
LINE
8
0
6
CONTINUOUS
10
12.594492
20
210.888774
30
0.0
11
12.589292
21
210.088722
31
0.0
0
LINE
8
0
6
CONTINUOUS
10
5.700022
20
208.084364
30
0.0
11
6.906535
21
207.766589
31
0.0
0
LINE
8
0
6
CONTINUOUS
10
4.627756
20
207.629730
30
0.0
11
5.700022
21
208.084364
31
0.0
0
LINE
8
0
6
CONTINUOUS
10
4.633036
20
208.441744
30
0.0
11
4.627756
21
207.629730
31
0.0
0
LINE
8
0
6
CONTINUOUS
10
6.925526
20
210.966753
30
0.0
11
6.930897
21
211.792801
31
0.0
0
LINE
8
0
6
CONTINUOUS
10
6.791249
20
211.739133
30
0.0
11
6.925526
21
210.966753
31
0.0
0
LINE
8
0
6
CONTINUOUS
10
5.688060
20
221.712749
30
0.0
11
7.140081
21
221.330317
31
0.0
0
LINE
8
0
6
CONTINUOUS
10
7.301687
20
220.400760
30
0.0
11
7.307993
21
221.202772
31
0.0
0
LINE
8
0
6
CONTINUOUS
10
7.140081
20
221.330317
30
0.0
11
7.301687
21
220.400760
31
0.0
0
LINE
8
0
6
CONTINUOUS
10
-1.126761
20
219.078026
30
0.0
11
0.123138
21
219.607967
31
0.0
0
LINE
8
0
6
CONTINUOUS
10
-1.120105
20
219.952591
30
0.0
11
-1.126761
21
219.078026
31
0.0
0
LINE
8
0
6
CONTINUOUS
10
-4.779085
20
223.445241
30
0.0
11
-3.529186
21
223.975163
31
0.0
0
LINE
8
0
6
CONTINUOUS
10
-4.772301
20
224.336613
30
0.0
11
-4.779085
21
223.445241
31
0.0
0
LINE
8
0
6
CONTINUOUS
10
-10.436617
20
223.383519
30
0.0
11
-9.230104
21
223.065764
31
0.0
0
LINE
8
0
6
CONTINUOUS
10
-14.493465
20
217.221130
30
0.0
11
-13.307039
21
217.564330
31
0.0
0
LINE
8
0
6
CONTINUOUS
10
-9.416153
20
213.161671
30
0.0
11
-8.229747
21
213.504897
31
0.0
0
LINE
8
0
6
CONTINUOUS
10
-3.029176
20
209.216167
30
0.0
11
-2.942025
21
209.990896
31
0.0
0
LINE
8
0
6
CONTINUOUS
10
-3.024274
20
210.108902
30
0.0
11
-3.029176
21
209.216167
31
0.0
0
LINE
8
0
6
CONTINUOUS
10
-0.656376
20
209.902587
30
0.0
11
-0.652229
21
210.657536
31
0.0
0
LINE
8
0
6
CONTINUOUS
10
-1.755620
20
210.334103
30
0.0
11
-0.656376
21
209.902587
31
0.0
0
LINE
8
0
6
CONTINUOUS
10
-2.942025
20
209.990896
30
0.0
11
-1.755620
21
210.334103
31
0.0
0
LINE
8
0
6
CONTINUOUS
10
24.346991
20
229.849836
30
0.0
11
25.537660
21
230.470020
31
0.0
0
LINE
8
0
6
CONTINUOUS
10
24.355183
20
230.653166
30
0.0
11
24.346991
21
229.849836
31
0.0
0
LINE
8
0
6
CONTINUOUS
10
21.109432
20
221.207881
30
0.0
11
22.288620
21
220.580435
31
0.0
0
LINE
8
0
6
CONTINUOUS
10
21.445590
20
222.121249
30
0.0
11
21.109432
21
221.207881
31
0.0
0
LINE
8
0
6
CONTINUOUS
10
22.960906
20
222.407141
30
0.0
11
21.445590
21
222.121249
31
0.0
0
LINE
8
0
6
CONTINUOUS
10
24.140104
20
221.779683
30
0.0
11
22.960906
21
222.407141
31
0.0
0
LINE
8
0
6
CONTINUOUS
10
23.803956
20
220.866322
30
0.0
11
24.140104
21
221.779683
31
0.0
0
LINE
8
0
6
CONTINUOUS
10
22.288620
20
220.580435
30
0.0
11
23.803956
21
220.866322
31
0.0
0
LINE
8
0
6
CONTINUOUS
10
15.499886
20
222.260469
30
0.0
11
16.431470
21
221.502999
31
0.0
0
LINE
8
0
6
CONTINUOUS
10
37.934739
20
232.437977
30
0.0
11
37.937395
21
233.343000
31
0.0
0
LINE
8
0
6
CONTINUOUS
10
37.937395
20
233.343000
30
0.0
11
39.273804
21
233.794329
31
0.0
0
LINE
8
0
6
CONTINUOUS
10
32.898439
20
236.400329
30
0.0
11
32.901095
21
237.305349
31
0.0
0
LINE
8
0
6
CONTINUOUS
10
32.901095
20
237.305349
30
0.0
11
34.237494
21
237.756678
31
0.0
0
LINE
8
0
6
CONTINUOUS
10
43.171967
20
236.072285
30
0.0
11
43.174246
21
236.848668
31
0.0
0
LINE
8
0
6
CONTINUOUS
10
37.613343
20
239.918432
30
0.0
11
37.615633
21
240.694829
31
0.0
0
LINE
8
0
6
CONTINUOUS
10
41.269317
20
244.495424
30
0.0
11
42.289688
21
244.989478
31
0.0
0
LINE
8
0
6
CONTINUOUS
10
41.272056
20
245.283637
30
0.0
11
41.269317
21
244.495424
31
0.0
0
LINE
8
0
6
CONTINUOUS
10
48.168355
20
241.292666
30
0.0
11
49.407167
21
241.021029
31
0.0
0
LINE
8
0
6
CONTINUOUS
10
20.737082
20
218.037094
30
0.0
11
22.015927
21
217.480944
31
0.0
0
LINE
8
0
6
CONTINUOUS
10
32.625409
20
207.536838
30
0.0
11
32.617319
21
208.708036
31
0.0
0
LINE
8
0
6
CONTINUOUS
10
31.562788
20
207.998947
30
0.0
11
32.625409
21
207.536838
31
0.0
0
LINE
8
0
6
CONTINUOUS
10
28.509609
20
219.797376
30
0.0
11
29.788454
21
219.241243
31
0.0
0
LINE
8
0
6
CONTINUOUS
10
31.922832
20
222.425229
30
0.0
11
32.103967
21
223.353592
31
0.0
0
LINE
8
0
6
CONTINUOUS
10
31.916276
20
223.216419
30
0.0
11
31.922832
21
222.425229
31
0.0
0
LINE
8
0
6
CONTINUOUS
10
35.820402
20
219.305928
30
0.0
11
37.234492
21
219.666462
31
0.0
0
LINE
8
0
6
CONTINUOUS
10
37.234492
20
219.666462
30
0.0
11
38.473161
21
219.127799
31
0.0
0
LINE
8
0
6
CONTINUOUS
10
35.644951
20
218.406742
30
0.0
11
35.820402
21
219.305928
31
0.0
0
LINE
8
0
6
CONTINUOUS
10
35.638733
20
219.181136
30
0.0
11
35.644951
21
218.406742
31
0.0
0
LINE
8
0
6
CONTINUOUS
10
41.145397
20
224.023447
30
0.0
11
42.384066
21
223.484768
31
0.0
0
LINE
8
0
6
CONTINUOUS
10
53.004738
20
221.790706
30
0.0
11
54.112962
21
222.214483
31
0.0
0
LINE
8
0
6
CONTINUOUS
10
53.000325
20
222.536724
30
0.0
11
53.004738
21
221.790706
31
0.0
0
LINE
8
0
6
CONTINUOUS
10
54.112962
20
222.214483
30
0.0
11
55.292074
21
221.862979
31
0.0
0
LINE
8
0
6
CONTINUOUS
10
51.870601
20
217.220383
30
0.0
11
51.941460
21
216.445087
31
0.0
0
LINE
8
0
6
CONTINUOUS
10
49.583264
20
217.148123
30
0.0
11
50.691488
21
217.571899
31
0.0
0
LINE
8
0
6
CONTINUOUS
10
49.578853
20
217.893902
30
0.0
11
49.583264
21
217.148123
31
0.0
0
LINE
8
0
6
CONTINUOUS
10
50.691488
20
217.571899
30
0.0
11
51.870601
21
217.220383
31
0.0
0
LINE
8
0
6
CONTINUOUS
10
44.419633
20
213.059180
30
0.0
11
45.527856
21
213.482963
31
0.0
0
LINE
8
0
6
CONTINUOUS
10
44.415244
20
213.800716
30
0.0
11
44.419633
21
213.059180
31
0.0
0
LINE
8
0
6
CONTINUOUS
10
45.527856
20
213.482963
30
0.0
11
46.706969
21
213.131443
31
0.0
0
LINE
8
0
6
CONTINUOUS
10
40.315133
20
209.080967
30
0.0
11
40.308037
21
210.281153
31
0.0
0
LINE
8
0
6
CONTINUOUS
10
40.244274
20
209.856252
30
0.0
11
40.315133
21
209.080967
31
0.0
0
LINE
8
0
6
CONTINUOUS
10
37.956938
20
209.783991
30
0.0
11
39.065171
21
210.207755
31
0.0
0
LINE
8
0
6
CONTINUOUS
10
37.952533
20
210.528613
30
0.0
11
37.956938
21
209.783991
31
0.0
0
LINE
8
0
6
CONTINUOUS
10
39.065171
20
210.207755
30
0.0
11
40.244274
21
209.856252
31
0.0
0
LINE
8
0
6
CONTINUOUS
10
23.458915
20
235.347321
30
0.0
11
24.481329
21
236.063551
31
0.0
0
LINE
8
0
6
CONTINUOUS
10
23.467207
20
236.163914
30
0.0
11
23.458915
21
235.347321
31
0.0
0
LINE
8
0
6
CONTINUOUS
10
31.345840
20
243.949887
30
0.0
11
32.648340
21
243.815604
31
0.0
0
LINE
8
0
6
CONTINUOUS
10
30.496289
20
243.354781
30
0.0
11
31.345840
21
243.949887
31
0.0
0
LINE
8
0
6
CONTINUOUS
10
30.503122
20
244.167254
30
0.0
11
30.496289
21
243.354781
31
0.0
0
LINE
8
0
6
CONTINUOUS
10
32.648340
20
243.815604
30
0.0
11
33.101288
21
243.086180
31
0.0
0
LINE
8
0
6
CONTINUOUS
10
26.499343
20
240.285439
30
0.0
11
28.017643
21
240.128889
31
0.0
0
LINE
8
0
6
CONTINUOUS
10
25.509050
20
239.591713
30
0.0
11
26.499343
21
240.285439
31
0.0
0
LINE
8
0
6
CONTINUOUS
10
25.516987
20
240.399154
30
0.0
11
25.509050
21
239.591713
31
0.0
0
LINE
8
0
6
CONTINUOUS
10
28.017643
20
240.128889
30
0.0
11
28.545629
21
239.278618
31
0.0
0
LINE
8
0
6
CONTINUOUS
10
26.772590
20
249.435931
30
0.0
11
28.075089
21
249.301617
31
0.0
0
LINE
8
0
6
CONTINUOUS
10
25.923039
20
248.840786
30
0.0
11
26.772590
21
249.435931
31
0.0
0
LINE
8
0
6
CONTINUOUS
10
25.929974
20
249.665376
30
0.0
11
25.923039
21
248.840786
31
0.0
0
LINE
8
0
6
CONTINUOUS
10
7.364832
20
234.118996
30
0.0
11
8.387255
21
234.835210
31
0.0
0
LINE
8
0
6
CONTINUOUS
10
7.373728
20
234.994905
30
0.0
11
7.364832
21
234.118996
31
0.0
0
LINE
8
0
6
CONTINUOUS
10
4.114964
20
237.546665
30
0.0
11
4.642950
21
236.696414
31
0.0
0
LINE
8
0
6
CONTINUOUS
10
14.567454
20
245.458508
30
0.0
11
15.869964
21
245.324213
31
0.0
0
LINE
8
0
6
CONTINUOUS
10
13.717903
20
244.863361
30
0.0
11
14.567454
21
245.458508
31
0.0
0
LINE
8
0
6
CONTINUOUS
10
13.724989
20
245.705934
30
0.0
11
13.717903
21
244.863361
31
0.0
0
LINE
8
0
6
CONTINUOUS
10
8.923795
20
248.727865
30
0.0
11
9.592300
21
249.397855
31
0.0
0
LINE
8
0
6
CONTINUOUS
10
8.930778
20
249.585092
30
0.0
11
8.923795
21
248.727865
31
0.0
0
LINE
8
0
6
CONTINUOUS
10
18.068089
20
250.057164
30
0.0
11
19.390534
21
250.052357
31
0.0
0
LINE
8
0
6
CONTINUOUS
10
19.390534
20
250.052357
30
0.0
11
20.044474
21
249.377568
31
0.0
0
LINE
8
0
6
CONTINUOUS
10
-5.622103
20
228.702094
30
0.0
11
-5.638489
21
227.797121
31
0.0
0
LINE
8
0
6
CONTINUOUS
10
-4.278908
20
229.146406
30
0.0
11
-5.622103
21
228.702094
31
0.0
0
LINE
8
0
6
CONTINUOUS
10
-2.952088
20
228.685725
30
0.0
11
-4.278908
21
229.146406
31
0.0
0
LINE
8
0
6
CONTINUOUS
10
-2.968463
20
227.780752
30
0.0
11
-2.952088
21
228.685725
31
0.0
0
LINE
8
0
6
CONTINUOUS
10
-4.311669
20
227.336440
30
0.0
11
-2.968463
21
227.780752
31
0.0
0
LINE
8
0
6
CONTINUOUS
10
-5.638489
20
227.797121
30
0.0
11
-4.311669
21
227.336440
31
0.0
0
LINE
8
0
6
CONTINUOUS
10
-12.444081
20
227.266143
30
0.0
11
-12.430022
21
228.042495
31
0.0
0
LINE
8
0
6
CONTINUOUS
10
-12.430022
20
228.042495
30
0.0
11
-11.277740
21
228.423646
31
0.0
0
LINE
8
0
6
CONTINUOUS
10
-10.139509
20
228.028458
30
0.0
11
-10.141466
21
228.793506
31
0.0
0
LINE
8
0
6
CONTINUOUS
10
-11.277740
20
228.423646
30
0.0
11
-10.139509
21
228.028458
31
0.0
0
LINE
8
0
6
CONTINUOUS
10
-12.430022
20
228.042495
30
0.0
11
-12.444081
21
227.266143
31
0.0
0
LINE
8
0
6
CONTINUOUS
10
-11.277740
20
228.423646
30
0.0
11
-12.430022
21
228.042495
31
0.0
0
LINE
8
0
6
CONTINUOUS
10
-10.139509
20
228.028458
30
0.0
11
-11.277740
21
228.423646
31
0.0
0
LINE
8
0
6
CONTINUOUS
10
-10.153538
20
227.252103
30
0.0
11
-10.139509
21
228.028458
31
0.0
0
LINE
8
0
6
CONTINUOUS
10
-11.305840
20
226.870945
30
0.0
11
-10.153538
21
227.252103
31
0.0
0
LINE
8
0
6
CONTINUOUS
10
-12.444081
20
227.266143
30
0.0
11
-11.305840
21
226.870945
31
0.0
0
LINE
8
0
6
CONTINUOUS
10
-19.331578
20
226.805227
30
0.0
11
-18.179297
21
227.186376
31
0.0
0
LINE
8
0
6
CONTINUOUS
10
-17.041045
20
226.791154
30
0.0
11
-17.042959
21
227.539367
31
0.0
0
LINE
8
0
6
CONTINUOUS
10
-18.179297
20
227.186376
30
0.0
11
-17.041045
21
226.791154
31
0.0
0
LINE
8
0
6
CONTINUOUS
10
-19.331578
20
226.805227
30
0.0
11
-19.345638
21
226.028854
31
0.0
0
LINE
8
0
6
CONTINUOUS
10
-18.179297
20
227.186376
30
0.0
11
-19.331578
21
226.805227
31
0.0
0
LINE
8
0
6
CONTINUOUS
10
-17.041045
20
226.791154
30
0.0
11
-18.179297
21
227.186376
31
0.0
0
LINE
8
0
6
CONTINUOUS
10
-17.055095
20
226.014817
30
0.0
11
-17.041045
21
226.791154
31
0.0
0
LINE
8
0
6
CONTINUOUS
10
-18.207396
20
225.633651
30
0.0
11
-17.055095
21
226.014817
31
0.0
0
LINE
8
0
6
CONTINUOUS
10
-19.345638
20
226.028854
30
0.0
11
-18.207396
21
225.633651
31
0.0
0
LINE
8
0
6
CONTINUOUS
10
16.234086
20
225.966934
30
0.0
11
17.247378
21
227.292360
31
0.0
0
LINE
8
0
6
CONTINUOUS
10
16.223592
20
226.795114
30
0.0
11
16.234086
21
225.966934
31
0.0
0
LINE
8
0
6
CONTINUOUS
10
17.247378
20
227.292360
30
0.0
11
16.234086
21
225.966934
31
0.0
0
LINE
8
0
6
CONTINUOUS
10
19.709017
20
227.440140
30
0.0
11
17.247378
21
227.292360
31
0.0
0
LINE
8
0
6
CONTINUOUS
10
21.157334
20
226.262512
30
0.0
11
19.709017
21
227.440140
31
0.0
0
LINE
8
0
6
CONTINUOUS
10
20.144052
20
224.937066
30
0.0
11
21.157334
21
226.262512
31
0.0
0
LINE
8
0
6
CONTINUOUS
10
17.682443
20
224.789296
30
0.0
11
20.144052
21
224.937066
31
0.0
0
LINE
8
0
6
CONTINUOUS
10
16.234086
20
225.966934
30
0.0
11
17.682443
21
224.789296
31
0.0
0
LINE
8
0
6
CONTINUOUS
10
-3.379437
20
233.512625
30
0.0
11
-2.036242
21
233.956918
31
0.0
0
LINE
8
0
6
CONTINUOUS
10
-0.709422
20
233.496256
30
0.0
11
-0.711707
21
234.268884
31
0.0
0
LINE
8
0
6
CONTINUOUS
10
-2.036242
20
233.956918
30
0.0
11
-0.709422
21
233.496256
31
0.0
0
LINE
8
0
6
CONTINUOUS
10
-3.379437
20
233.512625
30
0.0
11
-3.395823
21
232.607642
31
0.0
0
LINE
8
0
6
CONTINUOUS
10
-2.036242
20
233.956918
30
0.0
11
-3.379437
21
233.512625
31
0.0
0
LINE
8
0
6
CONTINUOUS
10
-0.709422
20
233.496256
30
0.0
11
-2.036242
21
233.956918
31
0.0
0
LINE
8
0
6
CONTINUOUS
10
-0.725798
20
232.591247
30
0.0
11
-0.709422
21
233.496256
31
0.0
0
LINE
8
0
6
CONTINUOUS
10
-2.069003
20
232.146964
30
0.0
11
-0.725798
21
232.591247
31
0.0
0
LINE
8
0
6
CONTINUOUS
10
-3.395823
20
232.607642
30
0.0
11
-2.069003
21
232.146964
31
0.0
0
LINE
8
0
6
CONTINUOUS
10
-8.753537
20
232.979788
30
0.0
11
-8.755520
21
233.755044
31
0.0
0
LINE
8
0
6
CONTINUOUS
10
-9.891779
20
233.374984
30
0.0
11
-8.753537
21
232.979788
31
0.0
0
LINE
8
0
6
CONTINUOUS
10
-11.044060
20
232.993844
30
0.0
11
-11.058120
21
232.217490
31
0.0
0
LINE
8
0
6
CONTINUOUS
10
-9.891779
20
233.374984
30
0.0
11
-11.044060
21
232.993844
31
0.0
0
LINE
8
0
6
CONTINUOUS
10
-8.753537
20
232.979788
30
0.0
11
-9.891779
21
233.374984
31
0.0
0
LINE
8
0
6
CONTINUOUS
10
-8.767577
20
232.203450
30
0.0
11
-8.753537
21
232.979788
31
0.0
0
LINE
8
0
6
CONTINUOUS
10
-9.919878
20
231.822282
30
0.0
11
-8.767577
21
232.203450
31
0.0
0
LINE
8
0
6
CONTINUOUS
10
-11.058120
20
232.217490
30
0.0
11
-9.919878
21
231.822282
31
0.0
0
LINE
8
0
6
CONTINUOUS
10
-7.251630
20
237.469345
30
0.0
11
-6.099349
21
237.850497
31
0.0
0
LINE
8
0
6
CONTINUOUS
10
-4.961097
20
237.455272
30
0.0
11
-4.963114
21
238.242942
31
0.0
0
LINE
8
0
6
CONTINUOUS
10
-6.099349
20
237.850497
30
0.0
11
-4.961097
21
237.455272
31
0.0
0
LINE
8
0
6
CONTINUOUS
10
-7.251630
20
237.469345
30
0.0
11
-7.265700
21
236.692971
31
0.0
0
LINE
8
0
6
CONTINUOUS
10
-6.099349
20
237.850497
30
0.0
11
-7.251630
21
237.469345
31
0.0
0
LINE
8
0
6
CONTINUOUS
10
-4.961097
20
237.455272
30
0.0
11
-6.099349
21
237.850497
31
0.0
0
LINE
8
0
6
CONTINUOUS
10
-4.975147
20
236.678937
30
0.0
11
-4.961097
21
237.455272
31
0.0
0
LINE
8
0
6
CONTINUOUS
10
-6.127448
20
236.297769
30
0.0
11
-4.975147
21
236.678937
31
0.0
0
LINE
8
0
6
CONTINUOUS
10
-7.265700
20
236.692971
30
0.0
11
-6.127448
21
236.297769
31
0.0
0
LINE
8
0
6
CONTINUOUS
10
-6.228633
20
244.034771
30
0.0
11
-5.994102
21
244.798885
31
0.0
0
LINE
8
0
6
CONTINUOUS
10
-6.232009
20
244.897286
30
0.0
11
-6.228633
21
244.034771
31
0.0
0
LINE
8
0
6
CONTINUOUS
10
-5.994102
20
244.798885
30
0.0
11
-4.749665
21
245.061830
31
0.0
0
LINE
8
0
6
CONTINUOUS
10
-3.739759
20
244.560624
30
0.0
11
-3.742846
21
245.349193
31
0.0
0
LINE
8
0
6
CONTINUOUS
10
-4.749665
20
245.061830
30
0.0
11
-3.739759
21
244.560624
31
0.0
0
LINE
8
0
6
CONTINUOUS
10
-5.994102
20
244.798885
30
0.0
11
-6.228633
21
244.034771
31
0.0
0
LINE
8
0
6
CONTINUOUS
10
-4.749665
20
245.061830
30
0.0
11
-5.994102
21
244.798885
31
0.0
0
LINE
8
0
6
CONTINUOUS
10
-3.739759
20
244.560624
30
0.0
11
-4.749665
21
245.061830
31
0.0
0
LINE
8
0
6
CONTINUOUS
10
-3.974270
20
243.796524
30
0.0
11
-3.739759
21
244.560624
31
0.0
0
LINE
8
0
6
CONTINUOUS
10
-5.218717
20
243.533571
30
0.0
11
-3.974270
21
243.796524
31
0.0
0
LINE
8
0
6
CONTINUOUS
10
-6.228633
20
244.034771
30
0.0
11
-5.218717
21
243.533571
31
0.0
0
LINE
8
0
6
CONTINUOUS
10
-12.171503
20
240.342508
30
0.0
11
-11.936963
21
241.106641
31
0.0
0
LINE
8
0
6
CONTINUOUS
10
-12.174917
20
241.214743
30
0.0
11
-12.171503
21
240.342508
31
0.0
0
LINE
8
0
6
CONTINUOUS
10
-9.682630
20
240.868387
30
0.0
11
-9.685649
21
241.639559
31
0.0
0
LINE
8
0
6
CONTINUOUS
10
-10.692536
20
241.369577
30
0.0
11
-9.682630
21
240.868387
31
0.0
0
LINE
8
0
6
CONTINUOUS
10
-11.936963
20
241.106641
30
0.0
11
-12.171503
21
240.342508
31
0.0
0
LINE
8
0
6
CONTINUOUS
10
-10.692536
20
241.369577
30
0.0
11
-11.936963
21
241.106641
31
0.0
0
LINE
8
0
6
CONTINUOUS
10
-9.682630
20
240.868387
30
0.0
11
-10.692536
21
241.369577
31
0.0
0
LINE
8
0
6
CONTINUOUS
10
-9.917141
20
240.104263
30
0.0
11
-9.682630
21
240.868387
31
0.0
0
LINE
8
0
6
CONTINUOUS
10
-11.161588
20
239.841334
30
0.0
11
-9.917141
21
240.104263
31
0.0
0
LINE
8
0
6
CONTINUOUS
10
-12.171503
20
240.342508
30
0.0
11
-11.161588
21
239.841334
31
0.0
0
LINE
8
0
6
CONTINUOUS
10
-16.495528
20
236.006843
30
0.0
11
-16.260998
21
236.770986
31
0.0
0
LINE
8
0
6
CONTINUOUS
10
-16.498995
20
236.892513
30
0.0
11
-16.495528
21
236.006843
31
0.0
0
LINE
8
0
6
CONTINUOUS
10
-16.260998
20
236.770986
30
0.0
11
-15.016561
21
237.033909
31
0.0
0
LINE
8
0
6
CONTINUOUS
10
-14.006655
20
236.532700
30
0.0
11
-14.009629
21
237.292410
31
0.0
0
LINE
8
0
6
CONTINUOUS
10
-15.016561
20
237.033909
30
0.0
11
-14.006655
21
236.532700
31
0.0
0
LINE
8
0
6
CONTINUOUS
10
-16.260998
20
236.770986
30
0.0
11
-16.495528
21
236.006843
31
0.0
0
LINE
8
0
6
CONTINUOUS
10
-15.016561
20
237.033909
30
0.0
11
-16.260998
21
236.770986
31
0.0
0
LINE
8
0
6
CONTINUOUS
10
-14.006655
20
236.532700
30
0.0
11
-15.016561
21
237.033909
31
0.0
0
LINE
8
0
6
CONTINUOUS
10
-14.241166
20
235.768587
30
0.0
11
-14.006655
21
236.532700
31
0.0
0
LINE
8
0
6
CONTINUOUS
10
-15.485622
20
235.505651
30
0.0
11
-14.241166
21
235.768587
31
0.0
0
LINE
8
0
6
CONTINUOUS
10
-16.495528
20
236.006843
30
0.0
11
-15.485622
21
235.505651
31
0.0
0
LINE
8
0
6
CONTINUOUS
10
-19.022886
20
231.148383
30
0.0
11
-18.788346
21
231.912528
31
0.0
0
LINE
8
0
6
CONTINUOUS
10
-19.026408
20
232.048548
30
0.0
11
-19.022886
21
231.148383
31
0.0
0
LINE
8
0
6
CONTINUOUS
10
-18.788346
20
231.912528
30
0.0
11
-17.543919
21
232.175452
31
0.0
0
LINE
8
0
6
CONTINUOUS
10
-16.534003
20
231.674262
30
0.0
11
-16.536931
21
232.422288
31
0.0
0
LINE
8
0
6
CONTINUOUS
10
-17.543919
20
232.175452
30
0.0
11
-16.534003
21
231.674262
31
0.0
0
LINE
8
0
6
CONTINUOUS
10
-18.788346
20
231.912528
30
0.0
11
-19.022886
21
231.148383
31
0.0
0
LINE
8
0
6
CONTINUOUS
10
-17.543919
20
232.175452
30
0.0
11
-18.788346
21
231.912528
31
0.0
0
LINE
8
0
6
CONTINUOUS
10
-16.534003
20
231.674262
30
0.0
11
-17.543919
21
232.175452
31
0.0
0
LINE
8
0
6
CONTINUOUS
10
-16.768514
20
230.910136
30
0.0
11
-16.534003
21
231.674262
31
0.0
0
LINE
8
0
6
CONTINUOUS
10
-18.012971
20
230.647193
30
0.0
11
-16.768514
21
230.910136
31
0.0
0
LINE
8
0
6
CONTINUOUS
10
-19.022886
20
231.148383
30
0.0
11
-18.012971
21
230.647193
31
0.0
0
LINE
8
0
6
CONTINUOUS
10
12.267993
20
218.707764
30
0.0
11
13.720014
21
218.325341
31
0.0
0
LINE
8
0
6
CONTINUOUS
10
10.977550
20
218.160653
30
0.0
11
12.267993
21
218.707764
31
0.0
0
LINE
8
0
6
CONTINUOUS
10
10.984008
20
218.982047
30
0.0
11
10.977550
21
218.160653
31
0.0
0
LINE
8
0
6
CONTINUOUS
10
13.881620
20
217.395777
30
0.0
11
13.888097
21
218.219332
31
0.0
0
LINE
8
0
6
CONTINUOUS
10
13.720014
20
218.325341
30
0.0
11
13.881620
21
217.395777
31
0.0
0
LINE
8
0
6
CONTINUOUS
10
11.139156
20
217.231103
30
0.0
11
12.591186
21
216.848647
31
0.0
0
LINE
8
0
6
CONTINUOUS
10
10.977550
20
218.160653
30
0.0
11
11.139156
21
217.231103
31
0.0
0
LINE
8
0
6
CONTINUOUS
10
12.267993
20
218.707764
30
0.0
11
10.977550
21
218.160653
31
0.0
0
LINE
8
0
6
CONTINUOUS
10
13.720014
20
218.325341
30
0.0
11
12.267993
21
218.707764
31
0.0
0
LINE
8
0
6
CONTINUOUS
10
13.881620
20
217.395777
30
0.0
11
13.720014
21
218.325341
31
0.0
0
LINE
8
0
6
CONTINUOUS
10
12.591186
20
216.848647
30
0.0
11
13.881620
21
217.395777
31
0.0
0
LINE
8
0
6
CONTINUOUS
10
14.111309
20
206.729969
30
0.0
11
15.317832
21
206.412199
31
0.0
0
LINE
8
0
6
CONTINUOUS
10
13.039053
20
206.275351
30
0.0
11
14.111309
21
206.729969
31
0.0
0
LINE
8
0
6
CONTINUOUS
10
13.044188
20
207.065379
30
0.0
11
13.039053
21
206.275351
31
0.0
0
LINE
8
0
6
CONTINUOUS
10
15.452109
20
205.639802
30
0.0
11
15.457633
21
206.489387
31
0.0
0
LINE
8
0
6
CONTINUOUS
10
15.317832
20
206.412199
30
0.0
11
15.452109
21
205.639802
31
0.0
0
LINE
8
0
6
CONTINUOUS
10
13.173330
20
205.502968
30
0.0
11
14.379853
21
205.185184
31
0.0
0
LINE
8
0
6
CONTINUOUS
10
13.039053
20
206.275351
30
0.0
11
13.173330
21
205.502968
31
0.0
0
LINE
8
0
6
CONTINUOUS
10
14.111309
20
206.729969
30
0.0
11
13.039053
21
206.275351
31
0.0
0
LINE
8
0
6
CONTINUOUS
10
15.317832
20
206.412199
30
0.0
11
14.111309
21
206.729969
31
0.0
0
LINE
8
0
6
CONTINUOUS
10
15.452109
20
205.639802
30
0.0
11
15.317832
21
206.412199
31
0.0
0
LINE
8
0
6
CONTINUOUS
10
14.379853
20
205.185184
30
0.0
11
15.452109
21
205.639802
31
0.0
0
LINE
8
0
6
CONTINUOUS
10
15.002348
20
209.453173
30
0.0
11
15.007814
21
210.293840
31
0.0
0
LINE
8
0
6
CONTINUOUS
10
14.868061
20
210.225573
30
0.0
11
15.002348
21
209.453173
31
0.0
0
LINE
8
0
6
CONTINUOUS
10
12.723569
20
209.316356
30
0.0
11
13.930092
21
208.998555
31
0.0
0
LINE
8
0
6
CONTINUOUS
10
12.589292
20
210.088722
30
0.0
11
12.723569
21
209.316356
31
0.0
0
LINE
8
0
6
CONTINUOUS
10
13.661549
20
210.543324
30
0.0
11
12.589292
21
210.088722
31
0.0
0
LINE
8
0
6
CONTINUOUS
10
14.868061
20
210.225573
30
0.0
11
13.661549
21
210.543324
31
0.0
0
LINE
8
0
6
CONTINUOUS
10
15.002348
20
209.453173
30
0.0
11
14.868061
21
210.225573
31
0.0
0
LINE
8
0
6
CONTINUOUS
10
13.930092
20
208.998555
30
0.0
11
15.002348
21
209.453173
31
0.0
0
LINE
8
0
6
CONTINUOUS
10
14.444229
20
214.479846
30
0.0
11
15.850639
21
214.109442
31
0.0
0
LINE
8
0
6
CONTINUOUS
10
13.194320
20
213.949922
30
0.0
11
14.444229
21
214.479846
31
0.0
0
LINE
8
0
6
CONTINUOUS
10
13.200382
20
214.746535
30
0.0
11
13.194320
21
213.949922
31
0.0
0
LINE
8
0
6
CONTINUOUS
10
16.007169
20
213.209077
30
0.0
11
16.013631
21
214.058401
31
0.0
0
LINE
8
0
6
CONTINUOUS
10
15.850639
20
214.109442
30
0.0
11
16.007169
21
213.209077
31
0.0
0
LINE
8
0
6
CONTINUOUS
10
13.350850
20
213.049577
30
0.0
11
14.757260
21
212.679124
31
0.0
0
LINE
8
0
6
CONTINUOUS
10
13.194320
20
213.949922
30
0.0
11
13.350850
21
213.049577
31
0.0
0
LINE
8
0
6
CONTINUOUS
10
14.444229
20
214.479846
30
0.0
11
13.194320
21
213.949922
31
0.0
0
LINE
8
0
6
CONTINUOUS
10
15.850639
20
214.109442
30
0.0
11
14.444229
21
214.479846
31
0.0
0
LINE
8
0
6
CONTINUOUS
10
16.007169
20
213.209077
30
0.0
11
15.850639
21
214.109442
31
0.0
0
LINE
8
0
6
CONTINUOUS
10
14.757260
20
212.679124
30
0.0
11
16.007169
21
213.209077
31
0.0
0
LINE
8
0
6
CONTINUOUS
10
7.040822
20
206.994206
30
0.0
11
7.046210
21
207.822916
31
0.0
0
LINE
8
0
6
CONTINUOUS
10
6.906535
20
207.766589
30
0.0
11
7.040822
21
206.994206
31
0.0
0
LINE
8
0
6
CONTINUOUS
10
4.762033
20
206.857363
30
0.0
11
5.968566
21
206.539572
31
0.0
0
LINE
8
0
6
CONTINUOUS
10
4.627756
20
207.629730
30
0.0
11
4.762033
21
206.857363
31
0.0
0
LINE
8
0
6
CONTINUOUS
10
5.700022
20
208.084364
30
0.0
11
4.627756
21
207.629730
31
0.0
0
LINE
8
0
6
CONTINUOUS
10
6.906535
20
207.766589
30
0.0
11
5.700022
21
208.084364
31
0.0
0
LINE
8
0
6
CONTINUOUS
10
7.040822
20
206.994206
30
0.0
11
6.906535
21
207.766589
31
0.0
0
LINE
8
0
6
CONTINUOUS
10
5.968566
20
206.539572
30
0.0
11
7.040822
21
206.994206
31
0.0
0
LINE
8
0
6
CONTINUOUS
10
5.584726
20
212.056904
30
0.0
11
6.791249
21
211.739133
31
0.0
0
LINE
8
0
6
CONTINUOUS
10
4.512470
20
211.602288
30
0.0
11
5.555779
21
212.044631
31
0.0
0
LINE
8
0
6
CONTINUOUS
10
4.517853
20
212.430556
30
0.0
11
4.512470
21
211.602288
31
0.0
0
LINE
8
0
6
CONTINUOUS
10
4.646747
20
210.829905
30
0.0
11
5.853270
21
210.512118
31
0.0
0
LINE
8
0
6
CONTINUOUS
10
4.512470
20
211.602288
30
0.0
11
4.646747
21
210.829905
31
0.0
0
LINE
8
0
6
CONTINUOUS
10
5.584726
20
212.056904
30
0.0
11
4.512470
21
211.602288
31
0.0
0
LINE
8
0
6
CONTINUOUS
10
6.791249
20
211.739133
30
0.0
11
5.584726
21
212.056904
31
0.0
0
LINE
8
0
6
CONTINUOUS
10
6.925526
20
210.966753
30
0.0
11
6.791249
21
211.739133
31
0.0
0
LINE
8
0
6
CONTINUOUS
10
5.853270
20
210.512118
30
0.0
11
6.925526
21
210.966753
31
0.0
0
LINE
8
0
6
CONTINUOUS
10
6.542204
20
216.293532
30
0.0
11
7.948614
21
215.923112
31
0.0
0
LINE
8
0
6
CONTINUOUS
10
5.292305
20
215.763581
30
0.0
11
6.542204
21
216.293532
31
0.0
0
LINE
8
0
6
CONTINUOUS
10
5.298650
20
216.597343
30
0.0
11
5.292305
21
215.763581
31
0.0
0
LINE
8
0
6
CONTINUOUS
10
8.105144
20
215.022773
30
0.0
11
8.111282
21
215.829208
31
0.0
0
LINE
8
0
6
CONTINUOUS
10
7.948614
20
215.923112
30
0.0
11
8.105144
21
215.022773
31
0.0
0
LINE
8
0
6
CONTINUOUS
10
5.448835
20
214.863237
30
0.0
11
6.855245
21
214.492815
31
0.0
0
LINE
8
0
6
CONTINUOUS
10
5.292305
20
215.763581
30
0.0
11
5.448835
21
214.863237
31
0.0
0
LINE
8
0
6
CONTINUOUS
10
6.542204
20
216.293532
30
0.0
11
5.292305
21
215.763581
31
0.0
0
LINE
8
0
6
CONTINUOUS
10
7.948614
20
215.923112
30
0.0
11
6.542204
21
216.293532
31
0.0
0
LINE
8
0
6
CONTINUOUS
10
8.105144
20
215.022773
30
0.0
11
7.948614
21
215.923112
31
0.0
0
LINE
8
0
6
CONTINUOUS
10
6.855245
20
214.492815
30
0.0
11
8.105144
21
215.022773
31
0.0
0
LINE
8
0
6
CONTINUOUS
10
4.397616
20
221.165620
30
0.0
11
5.688060
21
221.712749
31
0.0
0
LINE
8
0
6
CONTINUOUS
10
4.404280
20
222.013116
30
0.0
11
4.397616
21
221.165620
31
0.0
0
LINE
8
0
6
CONTINUOUS
10
4.559213
20
220.236067
30
0.0
11
6.011243
21
219.853630
31
0.0
0
LINE
8
0
6
CONTINUOUS
10
4.397616
20
221.165620
30
0.0
11
4.559213
21
220.236067
31
0.0
0
LINE
8
0
6
CONTINUOUS
10
5.688060
20
221.712749
30
0.0
11
4.397616
21
221.165620
31
0.0
0
LINE
8
0
6
CONTINUOUS
10
7.140081
20
221.330317
30
0.0
11
5.688060
21
221.712749
31
0.0
0
LINE
8
0
6
CONTINUOUS
10
7.301687
20
220.400760
30
0.0
11
7.140081
21
221.330317
31
0.0
0
LINE
8
0
6
CONTINUOUS
10
6.011243
20
219.853630
30
0.0
11
7.301687
21
220.400760
31
0.0
0
LINE
8
0
6
CONTINUOUS
10
2.570929
20
226.224738
30
0.0
11
4.022950
21
225.842325
31
0.0
0
LINE
8
0
6
CONTINUOUS
10
1.280485
20
225.677628
30
0.0
11
2.570929
21
226.224738
31
0.0
0
LINE
8
0
6
CONTINUOUS
10
1.287419
20
226.559451
30
0.0
11
1.280485
21
225.677628
31
0.0
0
LINE
8
0
6
CONTINUOUS
10
4.184566
20
224.912751
30
0.0
11
4.190726
21
225.696222
31
0.0
0
LINE
8
0
6
CONTINUOUS
10
4.022950
20
225.842325
30
0.0
11
4.184566
21
224.912751
31
0.0
0
LINE
8
0
6
CONTINUOUS
10
1.442092
20
224.748078
30
0.0
11
2.894122
21
224.365622
31
0.0
0
LINE
8
0
6
CONTINUOUS
10
1.280485
20
225.677628
30
0.0
11
1.442092
21
224.748078
31
0.0
0
LINE
8
0
6
CONTINUOUS
10
2.570929
20
226.224738
30
0.0
11
1.280485
21
225.677628
31
0.0
0
LINE
8
0
6
CONTINUOUS
10
4.022950
20
225.842325
30
0.0
11
2.570929
21
226.224738
31
0.0
0
LINE
8
0
6
CONTINUOUS
10
4.184566
20
224.912751
30
0.0
11
4.022950
21
225.842325
31
0.0
0
LINE
8
0
6
CONTINUOUS
10
2.894122
20
224.365622
30
0.0
11
4.184566
21
224.912751
31
0.0
0
LINE
8
0
6
CONTINUOUS
10
0.123138
20
219.607967
30
0.0
11
1.529558
21
219.237544
31
0.0
0
LINE
8
0
6
CONTINUOUS
10
1.686078
20
218.337179
30
0.0
11
1.691989
21
219.113906
31
0.0
0
LINE
8
0
6
CONTINUOUS
10
1.529558
20
219.237544
30
0.0
11
1.686078
21
218.337179
31
0.0
0
LINE
8
0
6
CONTINUOUS
10
-0.970241
20
218.177665
30
0.0
11
0.436179
21
217.807231
31
0.0
0
LINE
8
0
6
CONTINUOUS
10
-1.126761
20
219.078026
30
0.0
11
-0.970241
21
218.177665
31
0.0
0
LINE
8
0
6
CONTINUOUS
10
0.123138
20
219.607967
30
0.0
11
-1.126761
21
219.078026
31
0.0
0
LINE
8
0
6
CONTINUOUS
10
1.529558
20
219.237544
30
0.0
11
0.123138
21
219.607967
31
0.0
0
LINE
8
0
6
CONTINUOUS
10
1.686078
20
218.337179
30
0.0
11
1.529558
21
219.237544
31
0.0
0
LINE
8
0
6
CONTINUOUS
10
0.436179
20
217.807231
30
0.0
11
1.686078
21
218.337179
31
0.0
0
LINE
8
0
6
CONTINUOUS
10
-3.529186
20
223.975163
30
0.0
11
-2.122776
21
223.604769
31
0.0
0
LINE
8
0
6
CONTINUOUS
10
-1.966246
20
222.704394
30
0.0
11
-1.960539
21
223.454222
31
0.0
0
LINE
8
0
6
CONTINUOUS
10
-2.122776
20
223.604769
30
0.0
11
-1.966246
21
222.704394
31
0.0
0
LINE
8
0
6
CONTINUOUS
10
-4.622555
20
222.544899
30
0.0
11
-3.216145
21
222.174462
31
0.0
0
LINE
8
0
6
CONTINUOUS
10
-4.779085
20
223.445241
30
0.0
11
-4.622555
21
222.544899
31
0.0
0
LINE
8
0
6
CONTINUOUS
10
-3.529186
20
223.975163
30
0.0
11
-4.779085
21
223.445241
31
0.0
0
LINE
8
0
6
CONTINUOUS
10
-2.122776
20
223.604769
30
0.0
11
-3.529186
21
223.975163
31
0.0
0
LINE
8
0
6
CONTINUOUS
10
-1.966246
20
222.704394
30
0.0
11
-2.122776
21
223.604769
31
0.0
0
LINE
8
0
6
CONTINUOUS
10
-3.216145
20
222.174462
30
0.0
11
-1.966246
21
222.704394
31
0.0
0
LINE
8
0
6
CONTINUOUS
10
-1.497954
20
214.956229
30
0.0
11
-0.291421
21
214.638469
31
0.0
0
LINE
8
0
6
CONTINUOUS
10
-2.570210
20
214.501611
30
0.0
11
-1.497954
21
214.956229
31
0.0
0
LINE
8
0
6
CONTINUOUS
10
-2.564719
20
215.346195
30
0.0
11
-2.570210
21
214.501611
31
0.0
0
LINE
8
0
6
CONTINUOUS
10
-0.157145
20
213.866049
30
0.0
11
-0.151964
21
214.662847
31
0.0
0
LINE
8
0
6
CONTINUOUS
10
-0.291421
20
214.638469
30
0.0
11
-0.157145
21
213.866049
31
0.0
0
LINE
8
0
6
CONTINUOUS
10
-2.435934
20
213.729209
30
0.0
11
-1.229401
21
213.411453
31
0.0
0
LINE
8
0
6
CONTINUOUS
10
-2.570210
20
214.501611
30
0.0
11
-2.435934
21
213.729209
31
0.0
0
LINE
8
0
6
CONTINUOUS
10
-1.497954
20
214.956229
30
0.0
11
-2.570210
21
214.501611
31
0.0
0
LINE
8
0
6
CONTINUOUS
10
-0.291421
20
214.638469
30
0.0
11
-1.497954
21
214.956229
31
0.0
0
LINE
8
0
6
CONTINUOUS
10
-0.157145
20
213.866049
30
0.0
11
-0.291421
21
214.638469
31
0.0
0
LINE
8
0
6
CONTINUOUS
10
-1.229401
20
213.411453
30
0.0
11
-0.157145
21
213.866049
31
0.0
0
LINE
8
0
6
CONTINUOUS
10
-7.008517
20
218.796545
30
0.0
11
-5.801995
21
218.478777
31
0.0
0
LINE
8
0
6
CONTINUOUS
10
-8.080773
20
218.341963
30
0.0
11
-7.008517
21
218.796545
31
0.0
0
LINE
8
0
6
CONTINUOUS
10
-8.075197
20
219.199968
30
0.0
11
-8.080773
21
218.341963
31
0.0
0
LINE
8
0
6
CONTINUOUS
10
-5.667708
20
217.706396
30
0.0
11
-5.662615
21
218.489983
31
0.0
0
LINE
8
0
6
CONTINUOUS
10
-5.801995
20
218.478777
30
0.0
11
-5.667708
21
217.706396
31
0.0
0
LINE
8
0
6
CONTINUOUS
10
-7.946497
20
217.569560
30
0.0
11
-6.739974
21
217.251759
31
0.0
0
LINE
8
0
6
CONTINUOUS
10
-8.080773
20
218.341963
30
0.0
11
-7.946497
21
217.569560
31
0.0
0
LINE
8
0
6
CONTINUOUS
10
-7.008517
20
218.796545
30
0.0
11
-8.080773
21
218.341963
31
0.0
0
LINE
8
0
6
CONTINUOUS
10
-5.801995
20
218.478777
30
0.0
11
-7.008517
21
218.796545
31
0.0
0
LINE
8
0
6
CONTINUOUS
10
-5.667708
20
217.706396
30
0.0
11
-5.801995
21
218.478777
31
0.0
0
LINE
8
0
6
CONTINUOUS
10
-6.739974
20
217.251759
30
0.0
11
-5.667708
21
217.706396
31
0.0
0
LINE
8
0
6
CONTINUOUS
10
-11.508873
20
222.928923
30
0.0
11
-10.436617
21
223.383519
31
0.0
0
LINE
8
0
6
CONTINUOUS
10
-11.503222
20
223.798484
30
0.0
11
-11.508873
21
222.928923
31
0.0
0
LINE
8
0
6
CONTINUOUS
10
-9.095817
20
222.293383
30
0.0
11
-9.090796
21
223.065629
31
0.0
0
LINE
8
0
6
CONTINUOUS
10
-9.230104
20
223.065764
30
0.0
11
-9.095817
21
222.293383
31
0.0
0
LINE
8
0
6
CONTINUOUS
10
-11.374596
20
222.156518
30
0.0
11
-10.168073
21
221.838756
31
0.0
0
LINE
8
0
6
CONTINUOUS
10
-11.508873
20
222.928923
30
0.0
11
-11.374596
21
222.156518
31
0.0
0
LINE
8
0
6
CONTINUOUS
10
-10.436617
20
223.383519
30
0.0
11
-11.508873
21
222.928923
31
0.0
0
LINE
8
0
6
CONTINUOUS
10
-9.230104
20
223.065764
30
0.0
11
-10.436617
21
223.383519
31
0.0
0
LINE
8
0
6
CONTINUOUS
10
-9.095817
20
222.293383
30
0.0
11
-9.230104
21
223.065764
31
0.0
0
LINE
8
0
6
CONTINUOUS
10
-10.168073
20
221.838756
30
0.0
11
-9.095817
21
222.293383
31
0.0
0
LINE
8
0
6
CONTINUOUS
10
-18.025214
20
221.068828
30
0.0
11
-17.938063
21
221.843576
31
0.0
0
LINE
8
0
6
CONTINUOUS
10
-18.020224
20
221.977684
30
0.0
11
-18.025214
21
221.068828
31
0.0
0
LINE
8
0
6
CONTINUOUS
10
-15.652404
20
221.755255
30
0.0
11
-15.648322
21
222.498250
31
0.0
0
LINE
8
0
6
CONTINUOUS
10
-16.751648
20
222.186773
30
0.0
11
-15.652404
21
221.755255
31
0.0
0
LINE
8
0
6
CONTINUOUS
10
-17.938063
20
221.843576
30
0.0
11
-16.751648
21
222.186773
31
0.0
0
LINE
8
0
6
CONTINUOUS
10
-18.025214
20
221.068828
30
0.0
11
-16.925970
21
220.637295
31
0.0
0
LINE
8
0
6
CONTINUOUS
10
-17.938063
20
221.843576
30
0.0
11
-18.025214
21
221.068828
31
0.0
0
LINE
8
0
6
CONTINUOUS
10
-16.751648
20
222.186773
30
0.0
11
-17.938063
21
221.843576
31
0.0
0
LINE
8
0
6
CONTINUOUS
10
-15.652404
20
221.755255
30
0.0
11
-16.751648
21
222.186773
31
0.0
0
LINE
8
0
6
CONTINUOUS
10
-15.739555
20
220.980505
30
0.0
11
-15.652404
21
221.755255
31
0.0
0
LINE
8
0
6
CONTINUOUS
10
-16.925970
20
220.637295
30
0.0
11
-15.739555
21
220.980505
31
0.0
0
LINE
8
0
6
CONTINUOUS
10
-14.580606
20
216.446401
30
0.0
11
-14.493465
21
217.221130
31
0.0
0
LINE
8
0
6
CONTINUOUS
10
-14.575623
20
217.353845
30
0.0
11
-14.580606
21
216.446401
31
0.0
0
LINE
8
0
6
CONTINUOUS
10
-12.207806
20
217.132809
30
0.0
11
-12.203717
21
217.877112
31
0.0
0
LINE
8
0
6
CONTINUOUS
10
-13.307039
20
217.564330
30
0.0
11
-12.207806
21
217.132809
31
0.0
0
LINE
8
0
6
CONTINUOUS
10
-14.580606
20
216.446401
30
0.0
11
-13.481372
21
216.014849
31
0.0
0
LINE
8
0
6
CONTINUOUS
10
-14.493465
20
217.221130
30
0.0
11
-14.580606
21
216.446401
31
0.0
0
LINE
8
0
6
CONTINUOUS
10
-13.307039
20
217.564330
30
0.0
11
-14.493465
21
217.221130
31
0.0
0
LINE
8
0
6
CONTINUOUS
10
-12.207806
20
217.132809
30
0.0
11
-13.307039
21
217.564330
31
0.0
0
LINE
8
0
6
CONTINUOUS
10
-12.294957
20
216.358056
30
0.0
11
-12.207806
21
217.132809
31
0.0
0
LINE
8
0
6
CONTINUOUS
10
-13.481372
20
216.014849
30
0.0
11
-12.294957
21
216.358056
31
0.0
0
LINE
8
0
6
CONTINUOUS
10
-9.503314
20
212.386952
30
0.0
11
-9.416153
21
213.161671
31
0.0
0
LINE
8
0
6
CONTINUOUS
10
-9.498352
20
213.290251
30
0.0
11
-9.503314
21
212.386952
31
0.0
0
LINE
8
0
6
CONTINUOUS
10
-7.130504
20
213.073379
30
0.0
11
-7.126403
21
213.819774
31
0.0
0
LINE
8
0
6
CONTINUOUS
10
-8.229747
20
213.504897
30
0.0
11
-7.130504
21
213.073379
31
0.0
0
LINE
8
0
6
CONTINUOUS
10
-9.503314
20
212.386952
30
0.0
11
-8.404070
21
211.955419
31
0.0
0
LINE
8
0
6
CONTINUOUS
10
-9.416153
20
213.161671
30
0.0
11
-9.503314
21
212.386952
31
0.0
0
LINE
8
0
6
CONTINUOUS
10
-8.229747
20
213.504897
30
0.0
11
-9.416153
21
213.161671
31
0.0
0
LINE
8
0
6
CONTINUOUS
10
-7.130504
20
213.073379
30
0.0
11
-8.229747
21
213.504897
31
0.0
0
LINE
8
0
6
CONTINUOUS
10
-7.217655
20
212.298619
30
0.0
11
-7.130504
21
213.073379
31
0.0
0
LINE
8
0
6
CONTINUOUS
10
-8.404070
20
211.955419
30
0.0
11
-7.217655
21
212.298619
31
0.0
0
LINE
8
0
6
CONTINUOUS
10
-3.029176
20
209.216167
30
0.0
11
-1.929932
21
208.784625
31
0.0
0
LINE
8
0
6
CONTINUOUS
10
-2.942025
20
209.990896
30
0.0
11
-3.029176
21
209.216167
31
0.0
0
LINE
8
0
6
CONTINUOUS
10
-1.755620
20
210.334103
30
0.0
11
-2.942025
21
209.990896
31
0.0
0
LINE
8
0
6
CONTINUOUS
10
-0.656376
20
209.902587
30
0.0
11
-1.755620
21
210.334103
31
0.0
0
LINE
8
0
6
CONTINUOUS
10
-0.743527
20
209.127825
30
0.0
11
-0.656376
21
209.902587
31
0.0
0
LINE
8
0
6
CONTINUOUS
10
-1.929932
20
208.784625
30
0.0
11
-0.743527
21
209.127825
31
0.0
0
LINE
8
0
6
CONTINUOUS
10
27.542218
20
225.961766
30
0.0
11
28.919225
21
225.493364
31
0.0
0
LINE
8
0
6
CONTINUOUS
10
26.159723
20
224.561419
30
0.0
11
26.162472
21
225.495774
31
0.0
0
LINE
8
0
6
CONTINUOUS
10
26.162472
20
225.495774
30
0.0
11
27.542218
21
225.961766
31
0.0
0
LINE
8
0
6
CONTINUOUS
10
27.536750
20
224.093003
30
0.0
11
28.916506
21
224.558958
31
0.0
0
LINE
8
0
6
CONTINUOUS
10
26.159723
20
224.561419
30
0.0
11
27.536750
21
224.093003
31
0.0
0
LINE
8
0
6
CONTINUOUS
10
26.162472
20
225.495774
30
0.0
11
26.159723
21
224.561419
31
0.0
0
LINE
8
0
6
CONTINUOUS
10
27.542218
20
225.961766
30
0.0
11
26.162472
21
225.495774
31
0.0
0
LINE
8
0
6
CONTINUOUS
10
28.919225
20
225.493364
30
0.0
11
27.542218
21
225.961766
31
0.0
0
LINE
8
0
6
CONTINUOUS
10
28.916506
20
224.558958
30
0.0
11
28.919225
21
225.493364
31
0.0
0
LINE
8
0
6
CONTINUOUS
10
10.194362
20
229.605598
30
0.0
11
11.137333
21
230.358414
31
0.0
0
LINE
8
0
6
CONTINUOUS
10
10.197414
20
230.472033
30
0.0
11
10.194362
21
229.605598
31
0.0
0
LINE
8
0
6
CONTINUOUS
10
11.137333
20
230.358414
30
0.0
11
12.719245
21
230.255518
31
0.0
0
LINE
8
0
6
CONTINUOUS
10
12.719245
20
230.255518
30
0.0
11
13.358176
21
229.399780
31
0.0
0
LINE
8
0
6
CONTINUOUS
10
12.719245
20
230.255518
30
0.0
11
11.137333
21
230.358414
31
0.0
0
LINE
8
0
6
CONTINUOUS
10
13.358176
20
229.399780
30
0.0
11
12.719245
21
230.255518
31
0.0
0
LINE
8
0
6
CONTINUOUS
10
12.415195
20
228.646949
30
0.0
11
13.358176
21
229.399780
31
0.0
0
LINE
8
0
6
CONTINUOUS
10
10.833283
20
228.749855
30
0.0
11
12.415195
21
228.646949
31
0.0
0
LINE
8
0
6
CONTINUOUS
10
10.194362
20
229.605598
30
0.0
11
10.833283
21
228.749855
31
0.0
0
LINE
8
0
6
CONTINUOUS
10
11.137333
20
230.358414
30
0.0
11
10.194362
21
229.605598
31
0.0
0
LINE
8
0
6
CONTINUOUS
10
27.047633
20
230.174840
30
0.0
11
27.366937
21
229.259447
31
0.0
0
LINE
8
0
6
CONTINUOUS
10
25.537660
20
230.470020
30
0.0
11
27.047633
21
230.174840
31
0.0
0
LINE
8
0
6
CONTINUOUS
10
27.366937
20
229.259447
30
0.0
11
27.047633
21
230.174840
31
0.0
0
LINE
8
0
6
CONTINUOUS
10
26.176248
20
228.639246
30
0.0
11
27.366937
21
229.259447
31
0.0
0
LINE
8
0
6
CONTINUOUS
10
24.666305
20
228.934462
30
0.0
11
26.176248
21
228.639246
31
0.0
0
LINE
8
0
6
CONTINUOUS
10
24.346991
20
229.849836
30
0.0
11
24.666305
21
228.934462
31
0.0
0
LINE
8
0
6
CONTINUOUS
10
25.537660
20
230.470020
30
0.0
11
24.346991
21
229.849836
31
0.0
0
LINE
8
0
6
CONTINUOUS
10
27.047633
20
230.174840
30
0.0
11
25.537660
21
230.470020
31
0.0
0
LINE
8
0
6
CONTINUOUS
10
8.343159
20
224.920046
30
0.0
11
8.994921
21
225.772575
31
0.0
0
LINE
8
0
6
CONTINUOUS
10
8.336009
20
225.789040
30
0.0
11
8.343159
21
224.920046
31
0.0
0
LINE
8
0
6
CONTINUOUS
10
8.994921
20
225.772575
30
0.0
11
10.578307
21
225.867643
31
0.0
0
LINE
8
0
6
CONTINUOUS
10
10.578307
20
225.867643
30
0.0
11
11.509901
21
225.110157
31
0.0
0
LINE
8
0
6
CONTINUOUS
10
8.994921
20
225.772575
30
0.0
11
8.343159
21
224.920046
31
0.0
0
LINE
8
0
6
CONTINUOUS
10
10.578307
20
225.867643
30
0.0
11
8.994921
21
225.772575
31
0.0
0
LINE
8
0
6
CONTINUOUS
10
11.509901
20
225.110157
30
0.0
11
10.578307
21
225.867643
31
0.0
0
LINE
8
0
6
CONTINUOUS
10
10.858139
20
224.257612
30
0.0
11
11.509901
21
225.110157
31
0.0
0
LINE
8
0
6
CONTINUOUS
10
9.274773
20
224.162551
30
0.0
11
10.858139
21
224.257612
31
0.0
0
LINE
8
0
6
CONTINUOUS
10
8.343159
20
224.920046
30
0.0
11
9.274773
21
224.162551
31
0.0
0
LINE
8
0
6
CONTINUOUS
10
21.109432
20
221.207881
30
0.0
11
21.445590
21
222.121249
31
0.0
0
LINE
8
0
6
CONTINUOUS
10
21.102152
20
222.027131
30
0.0
11
21.109432
21
221.207881
31
0.0
0
LINE
8
0
6
CONTINUOUS
10
21.445590
20
222.121249
30
0.0
11
22.960906
21
222.407141
31
0.0
0
LINE
8
0
6
CONTINUOUS
10
22.960906
20
222.407141
30
0.0
11
24.140104
21
221.779683
31
0.0
0
LINE
8
0
6
CONTINUOUS
10
13.264728
20
221.312869
30
0.0
11
13.916500
21
222.165407
31
0.0
0
LINE
8
0
6
CONTINUOUS
10
13.257713
20
222.165443
30
0.0
11
13.264728
21
221.312869
31
0.0
0
LINE
8
0
6
CONTINUOUS
10
13.916500
20
222.165407
30
0.0
11
15.499886
21
222.260469
31
0.0
0
LINE
8
0
6
CONTINUOUS
10
13.916500
20
222.165407
30
0.0
11
13.264728
21
221.312869
31
0.0
0
LINE
8
0
6
CONTINUOUS
10
15.499886
20
222.260469
30
0.0
11
13.916500
21
222.165407
31
0.0
0
LINE
8
0
6
CONTINUOUS
10
16.431470
20
221.502999
30
0.0
11
15.499886
21
222.260469
31
0.0
0
LINE
8
0
6
CONTINUOUS
10
15.779707
20
220.650438
30
0.0
11
16.431470
21
221.502999
31
0.0
0
LINE
8
0
6
CONTINUOUS
10
14.196341
20
220.555392
30
0.0
11
15.779707
21
220.650438
31
0.0
0
LINE
8
0
6
CONTINUOUS
10
13.264728
20
221.312869
30
0.0
11
14.196341
21
220.555392
31
0.0
0
LINE
8
0
6
CONTINUOUS
10
17.158134
20
231.441287
30
0.0
11
17.809906
21
232.293849
31
0.0
0
LINE
8
0
6
CONTINUOUS
10
17.151333
20
232.267836
30
0.0
11
17.158134
21
231.441287
31
0.0
0
LINE
8
0
6
CONTINUOUS
10
17.809906
20
232.293849
30
0.0
11
19.393292
21
232.388891
31
0.0
0
LINE
8
0
6
CONTINUOUS
10
19.393292
20
232.388891
30
0.0
11
20.324885
21
231.631415
31
0.0
0
LINE
8
0
6
CONTINUOUS
10
17.809906
20
232.293849
30
0.0
11
17.158134
21
231.441287
31
0.0
0
LINE
8
0
6
CONTINUOUS
10
19.393292
20
232.388891
30
0.0
11
17.809906
21
232.293849
31
0.0
0
LINE
8
0
6
CONTINUOUS
10
20.324885
20
231.631415
30
0.0
11
19.393292
21
232.388891
31
0.0
0
LINE
8
0
6
CONTINUOUS
10
19.673113
20
230.778870
30
0.0
11
20.324885
21
231.631415
31
0.0
0
LINE
8
0
6
CONTINUOUS
10
18.089757
20
230.683818
30
0.0
11
19.673113
21
230.778870
31
0.0
0
LINE
8
0
6
CONTINUOUS
10
17.158134
20
231.441287
30
0.0
11
18.089757
21
230.683818
31
0.0
0
LINE
8
0
6
CONTINUOUS
10
34.732077
20
228.453092
30
0.0
11
36.109084
21
227.984673
31
0.0
0
LINE
8
0
6
CONTINUOUS
10
33.349582
20
227.052745
30
0.0
11
33.352331
21
227.987122
31
0.0
0
LINE
8
0
6
CONTINUOUS
10
33.352331
20
227.987122
30
0.0
11
34.732077
21
228.453092
31
0.0
0
LINE
8
0
6
CONTINUOUS
10
34.726608
20
226.584312
30
0.0
11
36.106364
21
227.050287
31
0.0
0
LINE
8
0
6
CONTINUOUS
10
33.349582
20
227.052745
30
0.0
11
34.726608
21
226.584312
31
0.0
0
LINE
8
0
6
CONTINUOUS
10
33.352331
20
227.987122
30
0.0
11
33.349582
21
227.052745
31
0.0
0
LINE
8
0
6
CONTINUOUS
10
34.732077
20
228.453092
30
0.0
11
33.352331
21
227.987122
31
0.0
0
LINE
8
0
6
CONTINUOUS
10
36.109084
20
227.984673
30
0.0
11
34.732077
21
228.453092
31
0.0
0
LINE
8
0
6
CONTINUOUS
10
36.106364
20
227.050287
30
0.0
11
36.109084
21
227.984673
31
0.0
0
LINE
8
0
6
CONTINUOUS
10
41.665828
20
228.980662
30
0.0
11
42.999582
21
228.526962
31
0.0
0
LINE
8
0
6
CONTINUOUS
10
40.326774
20
227.624323
30
0.0
11
40.329429
21
228.529343
31
0.0
0
LINE
8
0
6
CONTINUOUS
10
40.329429
20
228.529343
30
0.0
11
41.665828
21
228.980662
31
0.0
0
LINE
8
0
6
CONTINUOUS
10
41.660538
20
227.170599
30
0.0
11
42.996947
21
227.621928
31
0.0
0
LINE
8
0
6
CONTINUOUS
10
40.326774
20
227.624323
30
0.0
11
41.660538
21
227.170599
31
0.0
0
LINE
8
0
6
CONTINUOUS
10
40.329429
20
228.529343
30
0.0
11
40.326774
21
227.624323
31
0.0
0
LINE
8
0
6
CONTINUOUS
10
41.665828
20
228.980662
30
0.0
11
40.329429
21
228.529343
31
0.0
0
LINE
8
0
6
CONTINUOUS
10
42.999582
20
228.526962
30
0.0
11
41.665828
21
228.980662
31
0.0
0
LINE
8
0
6
CONTINUOUS
10
42.996947
20
227.621928
30
0.0
11
42.999582
21
228.526962
31
0.0
0
LINE
8
0
6
CONTINUOUS
10
48.762406
20
227.624374
30
0.0
11
49.906593
21
227.235137
31
0.0
0
LINE
8
0
6
CONTINUOUS
10
47.613661
20
226.460786
30
0.0
11
47.615940
21
227.237171
31
0.0
0
LINE
8
0
6
CONTINUOUS
10
47.615940
20
227.237171
30
0.0
11
48.762406
21
227.624374
31
0.0
0
LINE
8
0
6
CONTINUOUS
10
48.757867
20
226.071558
30
0.0
11
49.904333
21
226.458739
31
0.0
0
LINE
8
0
6
CONTINUOUS
10
47.613661
20
226.460786
30
0.0
11
48.757867
21
226.071558
31
0.0
0
LINE
8
0
6
CONTINUOUS
10
47.615940
20
227.237171
30
0.0
11
47.613661
21
226.460786
31
0.0
0
LINE
8
0
6
CONTINUOUS
10
48.762406
20
227.624374
30
0.0
11
47.615940
21
227.237171
31
0.0
0
LINE
8
0
6
CONTINUOUS
10
49.906593
20
227.235137
30
0.0
11
48.762406
21
227.624374
31
0.0
0
LINE
8
0
6
CONTINUOUS
10
49.904333
20
226.458739
30
0.0
11
49.906593
21
227.235137
31
0.0
0
LINE
8
0
6
CONTINUOUS
10
55.772171
20
225.462411
30
0.0
11
56.918647
21
225.849592
31
0.0
0
LINE
8
0
6
CONTINUOUS
10
56.918647
20
225.849592
30
0.0
11
56.920907
21
226.625994
31
0.0
0
LINE
8
0
6
CONTINUOUS
10
55.602875
20
227.070589
30
0.0
11
56.747061
21
226.681361
31
0.0
0
LINE
8
0
6
CONTINUOUS
10
54.454129
20
225.906994
30
0.0
11
54.456409
21
226.683389
31
0.0
0
LINE
8
0
6
CONTINUOUS
10
54.456409
20
226.683389
30
0.0
11
55.602875
21
227.070589
31
0.0
0
LINE
8
0
6
CONTINUOUS
10
55.598335
20
225.517773
30
0.0
11
56.744801
21
225.904959
31
0.0
0
LINE
8
0
6
CONTINUOUS
10
54.454129
20
225.906994
30
0.0
11
55.598335
21
225.517773
31
0.0
0
LINE
8
0
6
CONTINUOUS
10
54.456409
20
226.683389
30
0.0
11
54.454129
21
225.906994
31
0.0
0
LINE
8
0
6
CONTINUOUS
10
55.602875
20
227.070589
30
0.0
11
54.456409
21
226.683389
31
0.0
0
LINE
8
0
6
CONTINUOUS
10
56.747061
20
226.681361
30
0.0
11
55.602875
21
227.070589
31
0.0
0
LINE
8
0
6
CONTINUOUS
10
56.744801
20
225.904959
30
0.0
11
56.747061
21
226.681361
31
0.0
0
LINE
8
0
6
CONTINUOUS
10
31.561633
20
233.032982
30
0.0
11
32.938640
21
232.564563
31
0.0
0
LINE
8
0
6
CONTINUOUS
10
30.179138
20
231.632619
30
0.0
11
30.181877
21
232.566991
31
0.0
0
LINE
8
0
6
CONTINUOUS
10
30.181877
20
232.566991
30
0.0
11
31.561633
21
233.032982
31
0.0
0
LINE
8
0
6
CONTINUOUS
10
31.556164
20
231.164193
30
0.0
11
32.935920
21
231.630168
31
0.0
0
LINE
8
0
6
CONTINUOUS
10
30.179138
20
231.632619
30
0.0
11
31.556164
21
231.164193
31
0.0
0
LINE
8
0
6
CONTINUOUS
10
30.181877
20
232.566991
30
0.0
11
30.179138
21
231.632619
31
0.0
0
LINE
8
0
6
CONTINUOUS
10
31.561633
20
233.032982
30
0.0
11
30.181877
21
232.566991
31
0.0
0
LINE
8
0
6
CONTINUOUS
10
32.938640
20
232.564563
30
0.0
11
31.561633
21
233.032982
31
0.0
0
LINE
8
0
6
CONTINUOUS
10
32.935920
20
231.630168
30
0.0
11
32.938640
21
232.564563
31
0.0
0
LINE
8
0
6
CONTINUOUS
10
39.273804
20
233.794329
30
0.0
11
40.607547
21
233.340636
31
0.0
0
LINE
8
0
6
CONTINUOUS
10
39.268513
20
231.984273
30
0.0
11
40.604912
21
232.435583
31
0.0
0
LINE
8
0
6
CONTINUOUS
10
37.934739
20
232.437977
30
0.0
11
39.268513
21
231.984273
31
0.0
0
LINE
8
0
6
CONTINUOUS
10
37.937395
20
233.343000
30
0.0
11
37.934739
21
232.437977
31
0.0
0
LINE
8
0
6
CONTINUOUS
10
39.273804
20
233.794329
30
0.0
11
37.937395
21
233.343000
31
0.0
0
LINE
8
0
6
CONTINUOUS
10
40.607547
20
233.340636
30
0.0
11
39.273804
21
233.794329
31
0.0
0
LINE
8
0
6
CONTINUOUS
10
40.604912
20
232.435583
30
0.0
11
40.607547
21
233.340636
31
0.0
0
LINE
8
0
6
CONTINUOUS
10
34.237494
20
237.756678
30
0.0
11
35.571247
21
237.302988
31
0.0
0
LINE
8
0
6
CONTINUOUS
10
34.232203
20
235.946613
30
0.0
11
35.568612
21
236.397952
31
0.0
0
LINE
8
0
6
CONTINUOUS
10
32.898439
20
236.400329
30
0.0
11
34.232203
21
235.946613
31
0.0
0
LINE
8
0
6
CONTINUOUS
10
32.901095
20
237.305349
30
0.0
11
32.898439
21
236.400329
31
0.0
0
LINE
8
0
6
CONTINUOUS
10
34.237494
20
237.756678
30
0.0
11
32.901095
21
237.305349
31
0.0
0
LINE
8
0
6
CONTINUOUS
10
35.571247
20
237.302988
30
0.0
11
34.237494
21
237.756678
31
0.0
0
LINE
8
0
6
CONTINUOUS
10
35.568612
20
236.397952
30
0.0
11
35.571247
21
237.302988
31
0.0
0
LINE
8
0
6
CONTINUOUS
10
47.615097
20
232.593299
30
0.0
11
48.759283
21
232.204078
31
0.0
0
LINE
8
0
6
CONTINUOUS
10
46.466351
20
231.429694
30
0.0
11
46.468631
21
232.206118
31
0.0
0
LINE
8
0
6
CONTINUOUS
10
46.468631
20
232.206118
30
0.0
11
47.615097
21
232.593299
31
0.0
0
LINE
8
0
6
CONTINUOUS
10
47.610557
20
231.040483
30
0.0
11
48.757023
21
231.427686
31
0.0
0
LINE
8
0
6
CONTINUOUS
10
46.466351
20
231.429694
30
0.0
11
47.610557
21
231.040483
31
0.0
0
LINE
8
0
6
CONTINUOUS
10
46.468631
20
232.206118
30
0.0
11
46.466351
21
231.429694
31
0.0
0
LINE
8
0
6
CONTINUOUS
10
47.615097
20
232.593299
30
0.0
11
46.468631
21
232.206118
31
0.0
0
LINE
8
0
6
CONTINUOUS
10
48.759283
20
232.204078
30
0.0
11
47.615097
21
232.593299
31
0.0
0
LINE
8
0
6
CONTINUOUS
10
48.757023
20
231.427686
30
0.0
11
48.759283
21
232.204078
31
0.0
0
LINE
8
0
6
CONTINUOUS
10
44.320712
20
237.235842
30
0.0
11
45.464899
21
236.846650
31
0.0
0
LINE
8
0
6
CONTINUOUS
10
43.174246
20
236.848668
30
0.0
11
44.320712
21
237.235842
31
0.0
0
LINE
8
0
6
CONTINUOUS
10
44.316163
20
235.683047
30
0.0
11
45.462639
21
236.070248
31
0.0
0
LINE
8
0
6
CONTINUOUS
10
43.171967
20
236.072285
30
0.0
11
44.316163
21
235.683047
31
0.0
0
LINE
8
0
6
CONTINUOUS
10
43.174246
20
236.848668
30
0.0
11
43.171967
21
236.072285
31
0.0
0
LINE
8
0
6
CONTINUOUS
10
44.320712
20
237.235842
30
0.0
11
43.174246
21
236.848668
31
0.0
0
LINE
8
0
6
CONTINUOUS
10
45.464899
20
236.846650
30
0.0
11
44.320712
21
237.235842
31
0.0
0
LINE
8
0
6
CONTINUOUS
10
45.462639
20
236.070248
30
0.0
11
45.464899
21
236.846650
31
0.0
0
LINE
8
0
6
CONTINUOUS
10
38.762089
20
241.082013
30
0.0
11
39.906285
21
240.692802
31
0.0
0
LINE
8
0
6
CONTINUOUS
10
37.615633
20
240.694829
30
0.0
11
38.762089
21
241.082013
31
0.0
0
LINE
8
0
6
CONTINUOUS
10
38.757549
20
239.529197
30
0.0
11
39.904025
21
239.916397
31
0.0
0
LINE
8
0
6
CONTINUOUS
10
37.613343
20
239.918432
30
0.0
11
38.757549
21
239.529197
31
0.0
0
LINE
8
0
6
CONTINUOUS
10
37.615633
20
240.694829
30
0.0
11
37.613343
21
239.918432
31
0.0
0
LINE
8
0
6
CONTINUOUS
10
38.762089
20
241.082013
30
0.0
11
37.615633
21
240.694829
31
0.0
0
LINE
8
0
6
CONTINUOUS
10
39.906285
20
240.692802
30
0.0
11
38.762089
21
241.082013
31
0.0
0
LINE
8
0
6
CONTINUOUS
10
39.904025
20
239.916397
30
0.0
11
39.906285
21
240.692802
31
0.0
0
LINE
8
0
6
CONTINUOUS
10
43.528500
20
244.717825
30
0.0
11
43.746960
21
243.952117
31
0.0
0
LINE
8
0
6
CONTINUOUS
10
42.289688
20
244.989478
30
0.0
11
43.528500
21
244.717825
31
0.0
0
LINE
8
0
6
CONTINUOUS
10
42.726589
20
243.458034
30
0.0
11
43.746960
21
243.952117
31
0.0
0
LINE
8
0
6
CONTINUOUS
10
41.487758
20
243.729707
30
0.0
11
42.726589
21
243.458034
31
0.0
0
LINE
8
0
6
CONTINUOUS
10
41.269317
20
244.495424
30
0.0
11
41.487758
21
243.729707
31
0.0
0
LINE
8
0
6
CONTINUOUS
10
42.289688
20
244.989478
30
0.0
11
41.269317
21
244.495424
31
0.0
0
LINE
8
0
6
CONTINUOUS
10
43.528500
20
244.717825
30
0.0
11
42.289688
21
244.989478
31
0.0
0
LINE
8
0
6
CONTINUOUS
10
43.746960
20
243.952117
30
0.0
11
43.528500
21
244.717825
31
0.0
0
LINE
8
0
6
CONTINUOUS
10
49.407167
20
241.021029
30
0.0
11
49.625628
21
240.255295
31
0.0
0
LINE
8
0
6
CONTINUOUS
10
47.147984
20
240.798586
30
0.0
11
48.168355
21
241.292666
31
0.0
0
LINE
8
0
6
CONTINUOUS
10
47.150668
20
241.570674
30
0.0
11
47.147984
21
240.798586
31
0.0
0
LINE
8
0
6
CONTINUOUS
10
48.605247
20
239.761239
30
0.0
11
49.625628
21
240.255295
31
0.0
0
LINE
8
0
6
CONTINUOUS
10
47.366425
20
240.032892
30
0.0
11
48.605247
21
239.761239
31
0.0
0
LINE
8
0
6
CONTINUOUS
10
47.147984
20
240.798586
30
0.0
11
47.366425
21
240.032892
31
0.0
0
LINE
8
0
6
CONTINUOUS
10
48.168355
20
241.292666
30
0.0
11
47.147984
21
240.798586
31
0.0
0
LINE
8
0
6
CONTINUOUS
10
49.407167
20
241.021029
30
0.0
11
48.168355
21
241.292666
31
0.0
0
LINE
8
0
6
CONTINUOUS
10
49.625628
20
240.255295
30
0.0
11
49.407167
21
241.021029
31
0.0
0
LINE
8
0
6
CONTINUOUS
10
53.740163
20
236.609266
30
0.0
11
53.958614
21
235.843573
31
0.0
0
LINE
8
0
6
CONTINUOUS
10
52.501351
20
236.880939
30
0.0
11
53.740163
21
236.609266
31
0.0
0
LINE
8
0
6
CONTINUOUS
10
51.480980
20
236.386880
30
0.0
11
52.501351
21
236.880939
31
0.0
0
LINE
8
0
6
CONTINUOUS
10
51.483619
20
237.146145
30
0.0
11
51.480980
21
236.386880
31
0.0
0
LINE
8
0
6
CONTINUOUS
10
52.938243
20
235.349528
30
0.0
11
53.958614
21
235.843573
31
0.0
0
LINE
8
0
6
CONTINUOUS
10
51.699421
20
235.621182
30
0.0
11
52.938243
21
235.349528
31
0.0
0
LINE
8
0
6
CONTINUOUS
10
51.480980
20
236.386880
30
0.0
11
51.699421
21
235.621182
31
0.0
0
LINE
8
0
6
CONTINUOUS
10
52.501351
20
236.880939
30
0.0
11
51.480980
21
236.386880
31
0.0
0
LINE
8
0
6
CONTINUOUS
10
53.740163
20
236.609266
30
0.0
11
52.501351
21
236.880939
31
0.0
0
LINE
8
0
6
CONTINUOUS
10
53.958614
20
235.843573
30
0.0
11
53.740163
21
236.609266
31
0.0
0
LINE
8
0
6
CONTINUOUS
10
56.284898
20
231.829403
30
0.0
11
56.503359
21
231.063695
31
0.0
0
LINE
8
0
6
CONTINUOUS
10
55.046086
20
232.101040
30
0.0
11
56.284898
21
231.829403
31
0.0
0
LINE
8
0
6
CONTINUOUS
10
54.025715
20
231.606983
30
0.0
11
55.046086
21
232.101040
31
0.0
0
LINE
8
0
6
CONTINUOUS
10
54.028314
20
232.354805
30
0.0
11
54.025715
21
231.606983
31
0.0
0
LINE
8
0
6
CONTINUOUS
10
55.482988
20
230.569629
30
0.0
11
56.503359
21
231.063695
31
0.0
0
LINE
8
0
6
CONTINUOUS
10
54.244156
20
230.841282
30
0.0
11
55.482988
21
230.569629
31
0.0
0
LINE
8
0
6
CONTINUOUS
10
54.025715
20
231.606983
30
0.0
11
54.244156
21
230.841282
31
0.0
0
LINE
8
0
6
CONTINUOUS
10
55.046086
20
232.101040
30
0.0
11
54.025715
21
231.606983
31
0.0
0
LINE
8
0
6
CONTINUOUS
10
56.284898
20
231.829403
30
0.0
11
55.046086
21
232.101040
31
0.0
0
LINE
8
0
6
CONTINUOUS
10
56.503359
20
231.063695
30
0.0
11
56.284898
21
231.829403
31
0.0
0
LINE
8
0
6
CONTINUOUS
10
19.277122
20
217.664883
30
0.0
11
20.737082
21
218.037094
31
0.0
0
LINE
8
0
6
CONTINUOUS
10
19.095998
20
216.736514
30
0.0
11
19.277122
21
217.664883
31
0.0
0
LINE
8
0
6
CONTINUOUS
10
19.089098
20
217.569086
30
0.0
11
19.095998
21
216.736514
31
0.0
0
LINE
8
0
6
CONTINUOUS
10
19.095998
20
216.736514
30
0.0
11
20.374832
21
216.180400
31
0.0
0
LINE
8
0
6
CONTINUOUS
10
19.277122
20
217.664883
30
0.0
11
19.095998
21
216.736514
31
0.0
0
LINE
8
0
6
CONTINUOUS
10
20.737082
20
218.037094
30
0.0
11
19.277122
21
217.664883
31
0.0
0
LINE
8
0
6
CONTINUOUS
10
22.015927
20
217.480944
30
0.0
11
20.737082
21
218.037094
31
0.0
0
LINE
8
0
6
CONTINUOUS
10
21.834802
20
216.552601
30
0.0
11
22.015927
21
217.480944
31
0.0
0
LINE
8
0
6
CONTINUOUS
10
20.374832
20
216.180400
30
0.0
11
21.834802
21
216.552601
31
0.0
0
LINE
8
0
6
CONTINUOUS
10
21.910074
20
206.390410
30
0.0
11
23.123179
21
206.699676
31
0.0
0
LINE
8
0
6
CONTINUOUS
10
24.185801
20
206.237562
30
0.0
11
24.175291
21
207.758536
31
0.0
0
LINE
8
0
6
CONTINUOUS
10
23.123179
20
206.699676
30
0.0
11
24.185801
21
206.237562
31
0.0
0
LINE
8
0
6
CONTINUOUS
10
21.759560
20
205.619014
30
0.0
11
21.910074
21
206.390410
31
0.0
0
LINE
8
0
6
CONTINUOUS
10
21.753694
20
206.467941
30
0.0
11
21.759560
21
205.619014
31
0.0
0
LINE
8
0
6
CONTINUOUS
10
21.759560
20
205.619014
30
0.0
11
22.822181
21
205.156893
31
0.0
0
LINE
8
0
6
CONTINUOUS
10
21.910074
20
206.390410
30
0.0
11
21.759560
21
205.619014
31
0.0
0
LINE
8
0
6
CONTINUOUS
10
23.123179
20
206.699676
30
0.0
11
21.910074
21
206.390410
31
0.0
0
LINE
8
0
6
CONTINUOUS
10
24.185801
20
206.237562
30
0.0
11
23.123179
21
206.699676
31
0.0
0
LINE
8
0
6
CONTINUOUS
10
24.035296
20
205.466190
30
0.0
11
24.185801
21
206.237562
31
0.0
0
LINE
8
0
6
CONTINUOUS
10
22.822181
20
205.156893
30
0.0
11
24.035296
21
205.466190
31
0.0
0
LINE
8
0
6
CONTINUOUS
10
21.111722
20
210.200630
30
0.0
11
22.324828
21
210.509886
31
0.0
0
LINE
8
0
6
CONTINUOUS
10
23.387449
20
210.047772
30
0.0
11
23.380794
21
211.011199
31
0.0
0
LINE
8
0
6
CONTINUOUS
10
22.324828
20
210.509886
30
0.0
11
23.387449
21
210.047772
31
0.0
0
LINE
8
0
6
CONTINUOUS
10
20.961208
20
209.429219
30
0.0
11
21.111722
21
210.200630
31
0.0
0
LINE
8
0
6
CONTINUOUS
10
20.955403
20
210.269331
30
0.0
11
20.961208
21
209.429219
31
0.0
0
LINE
8
0
6
CONTINUOUS
10
20.961208
20
209.429219
30
0.0
11
22.023829
21
208.967119
31
0.0
0
LINE
8
0
6
CONTINUOUS
10
21.111722
20
210.200630
30
0.0
11
20.961208
21
209.429219
31
0.0
0
LINE
8
0
6
CONTINUOUS
10
22.324828
20
210.509886
30
0.0
11
21.111722
21
210.200630
31
0.0
0
LINE
8
0
6
CONTINUOUS
10
23.387449
20
210.047772
30
0.0
11
22.324828
21
210.509886
31
0.0
0
LINE
8
0
6
CONTINUOUS
10
23.236944
20
209.276397
30
0.0
11
23.387449
21
210.047772
31
0.0
0
LINE
8
0
6
CONTINUOUS
10
22.023829
20
208.967119
30
0.0
11
23.236944
21
209.276397
31
0.0
0
LINE
8
0
6
CONTINUOUS
10
21.556077
20
214.091531
30
0.0
11
22.970167
21
214.452051
31
0.0
0
LINE
8
0
6
CONTINUOUS
10
22.970167
20
214.452051
30
0.0
11
24.208836
21
213.913366
31
0.0
0
LINE
8
0
6
CONTINUOUS
10
21.380627
20
213.192347
30
0.0
11
21.556077
21
214.091531
31
0.0
0
LINE
8
0
6
CONTINUOUS
10
21.373813
20
214.040860
30
0.0
11
21.380627
21
213.192347
31
0.0
0
LINE
8
0
6
CONTINUOUS
10
21.380627
20
213.192347
30
0.0
11
22.619296
21
212.653671
31
0.0
0
LINE
8
0
6
CONTINUOUS
10
21.556077
20
214.091531
30
0.0
11
21.380627
21
213.192347
31
0.0
0
LINE
8
0
6
CONTINUOUS
10
22.970167
20
214.452051
30
0.0
11
21.556077
21
214.091531
31
0.0
0
LINE
8
0
6
CONTINUOUS
10
24.208836
20
213.913366
30
0.0
11
22.970167
21
214.452051
31
0.0
0
LINE
8
0
6
CONTINUOUS
10
24.033396
20
213.014199
30
0.0
11
24.208836
21
213.913366
31
0.0
0
LINE
8
0
6
CONTINUOUS
10
22.619296
20
212.653671
30
0.0
11
24.033396
21
213.014199
31
0.0
0
LINE
8
0
6
CONTINUOUS
10
30.349682
20
207.689669
30
0.0
11
31.562788
21
207.998947
31
0.0
0
LINE
8
0
6
CONTINUOUS
10
30.199168
20
206.918284
30
0.0
11
30.349682
21
207.689669
31
0.0
0
LINE
8
0
6
CONTINUOUS
10
30.193450
20
207.745871
30
0.0
11
30.199168
21
206.918284
31
0.0
0
LINE
8
0
6
CONTINUOUS
10
30.199168
20
206.918284
30
0.0
11
31.261789
21
206.456163
31
0.0
0
LINE
8
0
6
CONTINUOUS
10
30.349682
20
207.689669
30
0.0
11
30.199168
21
206.918284
31
0.0
0
LINE
8
0
6
CONTINUOUS
10
31.562788
20
207.998947
30
0.0
11
30.349682
21
207.689669
31
0.0
0
LINE
8
0
6
CONTINUOUS
10
32.625409
20
207.536838
30
0.0
11
31.562788
21
207.998947
31
0.0
0
LINE
8
0
6
CONTINUOUS
10
32.474915
20
206.765446
30
0.0
11
32.625409
21
207.536838
31
0.0
0
LINE
8
0
6
CONTINUOUS
10
31.261789
20
206.456163
30
0.0
11
32.474915
21
206.765446
31
0.0
0
LINE
8
0
6
CONTINUOUS
10
29.551324
20
211.514860
30
0.0
11
30.764440
21
211.824117
31
0.0
0
LINE
8
0
6
CONTINUOUS
10
30.764440
20
211.824117
30
0.0
11
31.827061
21
211.362024
31
0.0
0
LINE
8
0
6
CONTINUOUS
10
29.400820
20
210.743454
30
0.0
11
29.551324
21
211.514860
31
0.0
0
LINE
8
0
6
CONTINUOUS
10
29.395116
20
211.568933
30
0.0
11
29.400820
21
210.743454
31
0.0
0
LINE
8
0
6
CONTINUOUS
10
29.400820
20
210.743454
30
0.0
11
30.463441
21
210.281362
31
0.0
0
LINE
8
0
6
CONTINUOUS
10
29.551324
20
211.514860
30
0.0
11
29.400820
21
210.743454
31
0.0
0
LINE
8
0
6
CONTINUOUS
10
30.764440
20
211.824117
30
0.0
11
29.551324
21
211.514860
31
0.0
0
LINE
8
0
6
CONTINUOUS
10
31.827061
20
211.362024
30
0.0
11
30.764440
21
211.824117
31
0.0
0
LINE
8
0
6
CONTINUOUS
10
31.676557
20
210.590627
30
0.0
11
31.827061
21
211.362024
31
0.0
0
LINE
8
0
6
CONTINUOUS
10
30.463441
20
210.281362
30
0.0
11
31.676557
21
210.590627
31
0.0
0
LINE
8
0
6
CONTINUOUS
10
29.495653
20
215.855578
30
0.0
11
30.909743
21
216.216092
31
0.0
0
LINE
8
0
6
CONTINUOUS
10
30.909743
20
216.216092
30
0.0
11
32.148422
21
215.677430
31
0.0
0
LINE
8
0
6
CONTINUOUS
10
29.320213
20
214.956382
30
0.0
11
29.495653
21
215.855578
31
0.0
0
LINE
8
0
6
CONTINUOUS
10
29.313744
20
215.761972
30
0.0
11
29.320213
21
214.956382
31
0.0
0
LINE
8
0
6
CONTINUOUS
10
29.320213
20
214.956382
30
0.0
11
30.558882
21
214.417712
31
0.0
0
LINE
8
0
6
CONTINUOUS
10
29.495653
20
215.855578
30
0.0
11
29.320213
21
214.956382
31
0.0
0
LINE
8
0
6
CONTINUOUS
10
30.909743
20
216.216092
30
0.0
11
29.495653
21
215.855578
31
0.0
0
LINE
8
0
6
CONTINUOUS
10
32.148422
20
215.677430
30
0.0
11
30.909743
21
216.216092
31
0.0
0
LINE
8
0
6
CONTINUOUS
10
31.972982
20
214.778234
30
0.0
11
32.148422
21
215.677430
31
0.0
0
LINE
8
0
6
CONTINUOUS
10
30.558882
20
214.417712
30
0.0
11
31.972982
21
214.778234
31
0.0
0
LINE
8
0
6
CONTINUOUS
10
27.049650
20
219.425163
30
0.0
11
28.509609
21
219.797376
31
0.0
0
LINE
8
0
6
CONTINUOUS
10
26.868525
20
218.496819
30
0.0
11
27.049650
21
219.425163
31
0.0
0
LINE
8
0
6
CONTINUOUS
10
26.861782
20
219.310521
30
0.0
11
26.868525
21
218.496819
31
0.0
0
LINE
8
0
6
CONTINUOUS
10
26.868525
20
218.496819
30
0.0
11
28.147370
21
217.940660
31
0.0
0
LINE
8
0
6
CONTINUOUS
10
27.049650
20
219.425163
30
0.0
11
26.868525
21
218.496819
31
0.0
0
LINE
8
0
6
CONTINUOUS
10
28.509609
20
219.797376
30
0.0
11
27.049650
21
219.425163
31
0.0
0
LINE
8
0
6
CONTINUOUS
10
29.788454
20
219.241243
30
0.0
11
28.509609
21
219.797376
31
0.0
0
LINE
8
0
6
CONTINUOUS
10
29.607329
20
218.312896
30
0.0
11
29.788454
21
219.241243
31
0.0
0
LINE
8
0
6
CONTINUOUS
10
28.147370
20
217.940660
30
0.0
11
29.607329
21
218.312896
31
0.0
0
LINE
8
0
6
CONTINUOUS
10
32.103967
20
223.353592
30
0.0
11
33.563926
21
223.725817
31
0.0
0
LINE
8
0
6
CONTINUOUS
10
33.563926
20
223.725817
30
0.0
11
34.842771
21
223.169665
31
0.0
0
LINE
8
0
6
CONTINUOUS
10
31.922832
20
222.425229
30
0.0
11
33.201677
21
221.869099
31
0.0
0
LINE
8
0
6
CONTINUOUS
10
32.103967
20
223.353592
30
0.0
11
31.922832
21
222.425229
31
0.0
0
LINE
8
0
6
CONTINUOUS
10
33.563926
20
223.725817
30
0.0
11
32.103967
21
223.353592
31
0.0
0
LINE
8
0
6
CONTINUOUS
10
34.842771
20
223.169665
30
0.0
11
33.563926
21
223.725817
31
0.0
0
LINE
8
0
6
CONTINUOUS
10
34.661646
20
222.241309
30
0.0
11
34.842771
21
223.169665
31
0.0
0
LINE
8
0
6
CONTINUOUS
10
33.201677
20
221.869099
30
0.0
11
34.661646
21
222.241309
31
0.0
0
LINE
8
0
6
CONTINUOUS
10
35.644951
20
218.406742
30
0.0
11
36.883621
21
217.868082
31
0.0
0
LINE
8
0
6
CONTINUOUS
10
35.820402
20
219.305928
30
0.0
11
35.644951
21
218.406742
31
0.0
0
LINE
8
0
6
CONTINUOUS
10
37.234492
20
219.666462
30
0.0
11
35.820402
21
219.305928
31
0.0
0
LINE
8
0
6
CONTINUOUS
10
38.473161
20
219.127799
30
0.0
11
37.234492
21
219.666462
31
0.0
0
LINE
8
0
6
CONTINUOUS
10
38.297730
20
218.228596
30
0.0
11
38.473161
21
219.127799
31
0.0
0
LINE
8
0
6
CONTINUOUS
10
36.883621
20
217.868082
30
0.0
11
38.297730
21
218.228596
31
0.0
0
LINE
8
0
6
CONTINUOUS
10
39.731307
20
223.662933
30
0.0
11
41.145397
21
224.023447
31
0.0
0
LINE
8
0
6
CONTINUOUS
10
39.555866
20
222.763749
30
0.0
11
39.731307
21
223.662933
31
0.0
0
LINE
8
0
6
CONTINUOUS
10
39.549848
20
223.512984
30
0.0
11
39.555866
21
222.763749
31
0.0
0
LINE
8
0
6
CONTINUOUS
10
39.555866
20
222.763749
30
0.0
11
40.794526
21
222.225070
31
0.0
0
LINE
8
0
6
CONTINUOUS
10
39.731307
20
223.662933
30
0.0
11
39.555866
21
222.763749
31
0.0
0
LINE
8
0
6
CONTINUOUS
10
41.145397
20
224.023447
30
0.0
11
39.731307
21
223.662933
31
0.0
0
LINE
8
0
6
CONTINUOUS
10
42.384066
20
223.484768
30
0.0
11
41.145397
21
224.023447
31
0.0
0
LINE
8
0
6
CONTINUOUS
10
42.208625
20
222.585601
30
0.0
11
42.384066
21
223.484768
31
0.0
0
LINE
8
0
6
CONTINUOUS
10
40.794526
20
222.225070
30
0.0
11
42.208625
21
222.585601
31
0.0
0
LINE
8
0
6
CONTINUOUS
10
36.689942
20
214.114565
30
0.0
11
37.903057
21
214.423832
31
0.0
0
LINE
8
0
6
CONTINUOUS
10
37.903057
20
214.423832
30
0.0
11
38.965678
21
213.961708
31
0.0
0
LINE
8
0
6
CONTINUOUS
10
36.539437
20
213.343179
30
0.0
11
36.689942
21
214.114565
31
0.0
0
LINE
8
0
6
CONTINUOUS
10
36.533876
20
214.148093
30
0.0
11
36.539437
21
213.343179
31
0.0
0
LINE
8
0
6
CONTINUOUS
10
36.539437
20
213.343179
30
0.0
11
37.602059
21
212.881048
31
0.0
0
LINE
8
0
6
CONTINUOUS
10
36.689942
20
214.114565
30
0.0
11
36.539437
21
213.343179
31
0.0
0
LINE
8
0
6
CONTINUOUS
10
37.903057
20
214.423832
30
0.0
11
36.689942
21
214.114565
31
0.0
0
LINE
8
0
6
CONTINUOUS
10
38.965678
20
213.961708
30
0.0
11
37.903057
21
214.423832
31
0.0
0
LINE
8
0
6
CONTINUOUS
10
38.815174
20
213.190328
30
0.0
11
38.965678
21
213.961708
31
0.0
0
LINE
8
0
6
CONTINUOUS
10
37.602059
20
212.881048
30
0.0
11
38.815174
21
213.190328
31
0.0
0
LINE
8
0
6
CONTINUOUS
10
42.441673
20
217.797071
30
0.0
11
43.654788
21
218.106349
31
0.0
0
LINE
8
0
6
CONTINUOUS
10
43.654788
20
218.106349
30
0.0
11
44.717409
21
217.644237
31
0.0
0
LINE
8
0
6
CONTINUOUS
10
42.291168
20
217.025686
30
0.0
11
42.441673
21
217.797071
31
0.0
0
LINE
8
0
6
CONTINUOUS
10
42.285757
20
217.808798
30
0.0
11
42.291168
21
217.025686
31
0.0
0
LINE
8
0
6
CONTINUOUS
10
42.291168
20
217.025686
30
0.0
11
43.353789
21
216.563565
31
0.0
0
LINE
8
0
6
CONTINUOUS
10
42.441673
20
217.797071
30
0.0
11
42.291168
21
217.025686
31
0.0
0
LINE
8
0
6
CONTINUOUS
10
43.654788
20
218.106349
30
0.0
11
42.441673
21
217.797071
31
0.0
0
LINE
8
0
6
CONTINUOUS
10
44.717409
20
217.644237
30
0.0
11
43.654788
21
218.106349
31
0.0
0
LINE
8
0
6
CONTINUOUS
10
44.566905
20
216.872845
30
0.0
11
44.717409
21
217.644237
31
0.0
0
LINE
8
0
6
CONTINUOUS
10
43.353789
20
216.563565
30
0.0
11
44.566905
21
216.872845
31
0.0
0
LINE
8
0
6
CONTINUOUS
10
46.402638
20
222.386144
30
0.0
11
47.615753
21
222.695437
31
0.0
0
LINE
8
0
6
CONTINUOUS
10
47.615753
20
222.695437
30
0.0
11
48.678374
21
222.233326
31
0.0
0
LINE
8
0
6
CONTINUOUS
10
46.252133
20
221.614752
30
0.0
11
46.402638
21
222.386144
31
0.0
0
LINE
8
0
6
CONTINUOUS
10
46.246798
20
222.386621
30
0.0
11
46.252133
21
221.614752
31
0.0
0
LINE
8
0
6
CONTINUOUS
10
46.252133
20
221.614752
30
0.0
11
47.314754
21
221.152641
31
0.0
0
LINE
8
0
6
CONTINUOUS
10
46.402638
20
222.386144
30
0.0
11
46.252133
21
221.614752
31
0.0
0
LINE
8
0
6
CONTINUOUS
10
47.615753
20
222.695437
30
0.0
11
46.402638
21
222.386144
31
0.0
0
LINE
8
0
6
CONTINUOUS
10
48.678374
20
222.233326
30
0.0
11
47.615753
21
222.695437
31
0.0
0
LINE
8
0
6
CONTINUOUS
10
48.527870
20
221.461931
30
0.0
11
48.678374
21
222.233326
31
0.0
0
LINE
8
0
6
CONTINUOUS
10
47.314754
20
221.152641
30
0.0
11
48.527870
21
221.461931
31
0.0
0
LINE
8
0
6
CONTINUOUS
10
55.292074
20
221.862979
30
0.0
11
55.362934
21
221.087673
31
0.0
0
LINE
8
0
6
CONTINUOUS
10
53.075597
20
221.015412
30
0.0
11
54.254700
21
220.663882
31
0.0
0
LINE
8
0
6
CONTINUOUS
10
53.004738
20
221.790706
30
0.0
11
53.075597
21
221.015412
31
0.0
0
LINE
8
0
6
CONTINUOUS
10
54.112962
20
222.214483
30
0.0
11
53.004738
21
221.790706
31
0.0
0
LINE
8
0
6
CONTINUOUS
10
55.292074
20
221.862979
30
0.0
11
54.112962
21
222.214483
31
0.0
0
LINE
8
0
6
CONTINUOUS
10
55.362934
20
221.087673
30
0.0
11
55.292074
21
221.862979
31
0.0
0
LINE
8
0
6
CONTINUOUS
10
54.254700
20
220.663882
30
0.0
11
55.362934
21
221.087673
31
0.0
0
LINE
8
0
6
CONTINUOUS
10
49.654124
20
216.372838
30
0.0
11
50.833226
21
216.021315
31
0.0
0
LINE
8
0
6
CONTINUOUS
10
49.583264
20
217.148123
30
0.0
11
49.654124
21
216.372838
31
0.0
0
LINE
8
0
6
CONTINUOUS
10
50.691488
20
217.571899
30
0.0
11
49.583264
21
217.148123
31
0.0
0
LINE
8
0
6
CONTINUOUS
10
51.870601
20
217.220383
30
0.0
11
50.691488
21
217.571899
31
0.0
0
LINE
8
0
6
CONTINUOUS
10
51.941460
20
216.445087
30
0.0
11
51.870601
21
217.220383
31
0.0
0
LINE
8
0
6
CONTINUOUS
10
50.833226
20
216.021315
30
0.0
11
51.941460
21
216.445087
31
0.0
0
LINE
8
0
6
CONTINUOUS
10
46.777828
20
212.356172
30
0.0
11
46.774246
21
212.961699
31
0.0
0
LINE
8
0
6
CONTINUOUS
10
46.706969
20
213.131443
30
0.0
11
46.777828
21
212.356172
31
0.0
0
LINE
8
0
6
CONTINUOUS
10
44.490492
20
212.283898
30
0.0
11
45.669595
21
211.932382
31
0.0
0
LINE
8
0
6
CONTINUOUS
10
44.419633
20
213.059180
30
0.0
11
44.490492
21
212.283898
31
0.0
0
LINE
8
0
6
CONTINUOUS
10
45.527856
20
213.482963
30
0.0
11
44.419633
21
213.059180
31
0.0
0
LINE
8
0
6
CONTINUOUS
10
46.706969
20
213.131443
30
0.0
11
45.527856
21
213.482963
31
0.0
0
LINE
8
0
6
CONTINUOUS
10
46.777828
20
212.356172
30
0.0
11
46.706969
21
213.131443
31
0.0
0
LINE
8
0
6
CONTINUOUS
10
45.669595
20
211.932382
30
0.0
11
46.777828
21
212.356172
31
0.0
0
LINE
8
0
6
CONTINUOUS
10
38.027797
20
209.008684
30
0.0
11
39.206900
21
208.657174
31
0.0
0
LINE
8
0
6
CONTINUOUS
10
37.956938
20
209.783991
30
0.0
11
38.027797
21
209.008684
31
0.0
0
LINE
8
0
6
CONTINUOUS
10
39.065171
20
210.207755
30
0.0
11
37.956938
21
209.783991
31
0.0
0
LINE
8
0
6
CONTINUOUS
10
40.244274
20
209.856252
30
0.0
11
39.065171
21
210.207755
31
0.0
0
LINE
8
0
6
CONTINUOUS
10
40.315133
20
209.080967
30
0.0
11
40.244274
21
209.856252
31
0.0
0
LINE
8
0
6
CONTINUOUS
10
39.206900
20
208.657174
30
0.0
11
40.315133
21
209.080967
31
0.0
0
LINE
8
0
6
CONTINUOUS
10
24.481329
20
236.063551
30
0.0
11
26.048863
21
235.901923
31
0.0
0
LINE
8
0
6
CONTINUOUS
10
26.048863
20
235.901923
30
0.0
11
26.593974
21
235.024067
31
0.0
0
LINE
8
0
6
CONTINUOUS
10
26.593974
20
235.024067
30
0.0
11
26.048863
21
235.901923
31
0.0
0
LINE
8
0
6
CONTINUOUS
10
25.571540
20
234.307839
30
0.0
11
26.593974
21
235.024067
31
0.0
0
LINE
8
0
6
CONTINUOUS
10
24.004026
20
234.469464
30
0.0
11
25.571540
21
234.307839
31
0.0
0
LINE
8
0
6
CONTINUOUS
10
23.458915
20
235.347321
30
0.0
11
24.004026
21
234.469464
31
0.0
0
LINE
8
0
6
CONTINUOUS
10
24.481329
20
236.063551
30
0.0
11
23.458915
21
235.347321
31
0.0
0
LINE
8
0
6
CONTINUOUS
10
26.048863
20
235.901923
30
0.0
11
24.481329
21
236.063551
31
0.0
0
LINE
8
0
6
CONTINUOUS
10
35.051096
20
247.819160
30
0.0
11
36.353595
21
247.684868
31
0.0
0
LINE
8
0
6
CONTINUOUS
10
34.201545
20
247.224051
30
0.0
11
35.051096
21
247.819160
31
0.0
0
LINE
8
0
6
CONTINUOUS
10
34.208295
20
248.026701
30
0.0
11
34.201545
21
247.224051
31
0.0
0
LINE
8
0
6
CONTINUOUS
10
36.353595
20
247.684868
30
0.0
11
36.806544
21
246.955453
31
0.0
0
LINE
8
0
6
CONTINUOUS
10
36.806544
20
246.955453
30
0.0
11
36.353595
21
247.684868
31
0.0
0
LINE
8
0
6
CONTINUOUS
10
35.956973
20
246.360327
30
0.0
11
36.806544
21
246.955453
31
0.0
0
LINE
8
0
6
CONTINUOUS
10
34.654493
20
246.494614
30
0.0
11
35.956973
21
246.360327
31
0.0
0
LINE
8
0
6
CONTINUOUS
10
34.201545
20
247.224051
30
0.0
11
34.654493
21
246.494614
31
0.0
0
LINE
8
0
6
CONTINUOUS
10
35.051096
20
247.819160
30
0.0
11
34.201545
21
247.224051
31
0.0
0
LINE
8
0
6
CONTINUOUS
10
36.353595
20
247.684868
30
0.0
11
35.051096
21
247.819160
31
0.0
0
LINE
8
0
6
CONTINUOUS
10
33.101288
20
243.086180
30
0.0
11
32.648340
21
243.815604
31
0.0
0
LINE
8
0
6
CONTINUOUS
10
32.251717
20
242.491054
30
0.0
11
33.101288
21
243.086180
31
0.0
0
LINE
8
0
6
CONTINUOUS
10
30.949237
20
242.625344
30
0.0
11
32.251717
21
242.491054
31
0.0
0
LINE
8
0
6
CONTINUOUS
10
30.496289
20
243.354781
30
0.0
11
30.949237
21
242.625344
31
0.0
0
LINE
8
0
6
CONTINUOUS
10
31.345840
20
243.949887
30
0.0
11
30.496289
21
243.354781
31
0.0
0
LINE
8
0
6
CONTINUOUS
10
32.648340
20
243.815604
30
0.0
11
31.345840
21
243.949887
31
0.0
0
LINE
8
0
6
CONTINUOUS
10
28.545629
20
239.278618
30
0.0
11
28.017643
21
240.128889
31
0.0
0
LINE
8
0
6
CONTINUOUS
10
27.555305
20
238.584900
30
0.0
11
28.545629
21
239.278618
31
0.0
0
LINE
8
0
6
CONTINUOUS
10
26.037036
20
238.741466
30
0.0
11
27.555305
21
238.584900
31
0.0
0
LINE
8
0
6
CONTINUOUS
10
25.509050
20
239.591713
30
0.0
11
26.037036
21
238.741466
31
0.0
0
LINE
8
0
6
CONTINUOUS
10
26.499343
20
240.285439
30
0.0
11
25.509050
21
239.591713
31
0.0
0
LINE
8
0
6
CONTINUOUS
10
28.017643
20
240.128889
30
0.0
11
26.499343
21
240.285439
31
0.0
0
LINE
8
0
6
CONTINUOUS
10
28.075089
20
249.301617
30
0.0
11
28.528038
21
248.572205
31
0.0
0
LINE
8
0
6
CONTINUOUS
10
28.528038
20
248.572205
30
0.0
11
28.075089
21
249.301617
31
0.0
0
LINE
8
0
6
CONTINUOUS
10
27.678477
20
247.977057
30
0.0
11
28.528038
21
248.572205
31
0.0
0
LINE
8
0
6
CONTINUOUS
10
26.375987
20
248.111371
30
0.0
11
27.678477
21
247.977057
31
0.0
0
LINE
8
0
6
CONTINUOUS
10
25.923039
20
248.840786
30
0.0
11
26.375987
21
248.111371
31
0.0
0
LINE
8
0
6
CONTINUOUS
10
26.772590
20
249.435931
30
0.0
11
25.923039
21
248.840786
31
0.0
0
LINE
8
0
6
CONTINUOUS
10
28.075089
20
249.301617
30
0.0
11
26.772590
21
249.435931
31
0.0
0
LINE
8
0
6
CONTINUOUS
10
23.501707
20
245.321700
30
0.0
11
24.804207
21
245.187428
31
0.0
0
LINE
8
0
6
CONTINUOUS
10
22.652156
20
244.726587
30
0.0
11
23.501707
21
245.321700
31
0.0
0
LINE
8
0
6
CONTINUOUS
10
22.659114
20
245.554208
30
0.0
11
22.652156
21
244.726587
31
0.0
0
LINE
8
0
6
CONTINUOUS
10
24.804207
20
245.187428
30
0.0
11
25.257145
21
244.457993
31
0.0
0
LINE
8
0
6
CONTINUOUS
10
25.257145
20
244.457993
30
0.0
11
24.804207
21
245.187428
31
0.0
0
LINE
8
0
6
CONTINUOUS
10
24.407584
20
243.862877
30
0.0
11
25.257145
21
244.457993
31
0.0
0
LINE
8
0
6
CONTINUOUS
10
23.105104
20
243.997169
30
0.0
11
24.407584
21
243.862877
31
0.0
0
LINE
8
0
6
CONTINUOUS
10
22.652156
20
244.726587
30
0.0
11
23.105104
21
243.997169
31
0.0
0
LINE
8
0
6
CONTINUOUS
10
23.501707
20
245.321700
30
0.0
11
22.652156
21
244.726587
31
0.0
0
LINE
8
0
6
CONTINUOUS
10
24.804207
20
245.187428
30
0.0
11
23.501707
21
245.321700
31
0.0
0
LINE
8
0
6
CONTINUOUS
10
18.222984
20
241.176979
30
0.0
11
19.741273
21
241.020446
31
0.0
0
LINE
8
0
6
CONTINUOUS
10
17.232680
20
240.483247
30
0.0
11
18.222984
21
241.176979
31
0.0
0
LINE
8
0
6
CONTINUOUS
10
17.241044
20
241.334032
30
0.0
11
17.232680
21
240.483247
31
0.0
0
LINE
8
0
6
CONTINUOUS
10
19.741273
20
241.020446
30
0.0
11
20.269259
21
240.170166
31
0.0
0
LINE
8
0
6
CONTINUOUS
10
20.269259
20
240.170166
30
0.0
11
19.741273
21
241.020446
31
0.0
0
LINE
8
0
6
CONTINUOUS
10
19.278936
20
239.476440
30
0.0
11
20.269259
21
240.170166
31
0.0
0
LINE
8
0
6
CONTINUOUS
10
17.760666
20
239.632981
30
0.0
11
19.278936
21
239.476440
31
0.0
0
LINE
8
0
6
CONTINUOUS
10
17.232680
20
240.483247
30
0.0
11
17.760666
21
239.632981
31
0.0
0
LINE
8
0
6
CONTINUOUS
10
18.222984
20
241.176979
30
0.0
11
17.232680
21
240.483247
31
0.0
0
LINE
8
0
6
CONTINUOUS
10
19.741273
20
241.020446
30
0.0
11
18.222984
21
241.176979
31
0.0
0
LINE
8
0
6
CONTINUOUS
10
16.198339
20
236.562957
30
0.0
11
17.765883
21
236.401345
31
0.0
0
LINE
8
0
6
CONTINUOUS
10
15.175926
20
235.846733
30
0.0
11
16.198339
21
236.562957
31
0.0
0
LINE
8
0
6
CONTINUOUS
10
15.184413
20
236.682584
30
0.0
11
15.175926
21
235.846733
31
0.0
0
LINE
8
0
6
CONTINUOUS
10
17.765883
20
236.401345
30
0.0
11
18.310994
21
235.523499
31
0.0
0
LINE
8
0
6
CONTINUOUS
10
18.310994
20
235.523499
30
0.0
11
17.765883
21
236.401345
31
0.0
0
LINE
8
0
6
CONTINUOUS
10
17.288550
20
234.807273
30
0.0
11
18.310994
21
235.523499
31
0.0
0
LINE
8
0
6
CONTINUOUS
10
15.721036
20
234.968916
30
0.0
11
17.288550
21
234.807273
31
0.0
0
LINE
8
0
6
CONTINUOUS
10
15.175926
20
235.846733
30
0.0
11
15.721036
21
234.968916
31
0.0
0
LINE
8
0
6
CONTINUOUS
10
16.198339
20
236.562957
30
0.0
11
15.175926
21
235.846733
31
0.0
0
LINE
8
0
6
CONTINUOUS
10
17.765883
20
236.401345
30
0.0
11
16.198339
21
236.562957
31
0.0
0
LINE
8
0
6
CONTINUOUS
10
8.387255
20
234.835210
30
0.0
11
9.954789
21
234.673605
31
0.0
0
LINE
8
0
6
CONTINUOUS
10
9.954789
20
234.673605
30
0.0
11
10.499900
21
233.795742
31
0.0
0
LINE
8
0
6
CONTINUOUS
10
10.499900
20
233.795742
30
0.0
11
9.954789
21
234.673605
31
0.0
0
LINE
8
0
6
CONTINUOUS
10
9.477467
20
233.079533
30
0.0
11
10.499900
21
233.795742
31
0.0
0
LINE
8
0
6
CONTINUOUS
10
7.909953
20
233.241140
30
0.0
11
9.477467
21
233.079533
31
0.0
0
LINE
8
0
6
CONTINUOUS
10
7.364832
20
234.118996
30
0.0
11
7.909953
21
233.241140
31
0.0
0
LINE
8
0
6
CONTINUOUS
10
8.387255
20
234.835210
30
0.0
11
7.364832
21
234.118996
31
0.0
0
LINE
8
0
6
CONTINUOUS
10
9.954789
20
234.673605
30
0.0
11
8.387255
21
234.835210
31
0.0
0
LINE
8
0
6
CONTINUOUS
10
9.938536
20
240.346993
30
0.0
11
11.456835
21
240.190460
31
0.0
0
LINE
8
0
6
CONTINUOUS
10
8.948242
20
239.653277
30
0.0
11
9.938536
21
240.346993
31
0.0
0
LINE
8
0
6
CONTINUOUS
10
8.956811
20
240.524878
30
0.0
11
8.948242
21
239.653277
31
0.0
0
LINE
8
0
6
CONTINUOUS
10
11.456835
20
240.190460
30
0.0
11
11.984821
21
239.340180
31
0.0
0
LINE
8
0
6
CONTINUOUS
10
11.984821
20
239.340180
30
0.0
11
11.456835
21
240.190460
31
0.0
0
LINE
8
0
6
CONTINUOUS
10
10.994498
20
238.646457
30
0.0
11
11.984821
21
239.340180
31
0.0
0
LINE
8
0
6
CONTINUOUS
10
9.476228
20
238.803004
30
0.0
11
10.994498
21
238.646457
31
0.0
0
LINE
8
0
6
CONTINUOUS
10
8.948242
20
239.653277
30
0.0
11
9.476228
21
238.803004
31
0.0
0
LINE
8
0
6
CONTINUOUS
10
9.938536
20
240.346993
30
0.0
11
8.948242
21
239.653277
31
0.0
0
LINE
8
0
6
CONTINUOUS
10
11.456835
20
240.190460
30
0.0
11
9.938536
21
240.346993
31
0.0
0
LINE
8
0
6
CONTINUOUS
10
2.596675
20
237.703198
30
0.0
11
4.114964
21
237.546665
31
0.0
0
LINE
8
0
6
CONTINUOUS
10
1.606371
20
237.009514
30
0.0
11
2.596675
21
237.703198
31
0.0
0
LINE
8
0
6
CONTINUOUS
10
1.615260
20
237.913716
30
0.0
11
1.606371
21
237.009514
31
0.0
0
LINE
8
0
6
CONTINUOUS
10
4.642950
20
236.696414
30
0.0
11
4.114964
21
237.546665
31
0.0
0
LINE
8
0
6
CONTINUOUS
10
3.652637
20
236.002698
30
0.0
11
4.642950
21
236.696414
31
0.0
0
LINE
8
0
6
CONTINUOUS
10
2.134367
20
236.159226
30
0.0
11
3.652637
21
236.002698
31
0.0
0
LINE
8
0
6
CONTINUOUS
10
1.606371
20
237.009514
30
0.0
11
2.134367
21
236.159226
31
0.0
0
LINE
8
0
6
CONTINUOUS
10
2.596675
20
237.703198
30
0.0
11
1.606371
21
237.009514
31
0.0
0
LINE
8
0
6
CONTINUOUS
10
4.114964
20
237.546665
30
0.0
11
2.596675
21
237.703198
31
0.0
0
LINE
8
0
6
CONTINUOUS
10
15.869964
20
245.324213
30
0.0
11
16.322903
21
244.594777
31
0.0
0
LINE
8
0
6
CONTINUOUS
10
16.322903
20
244.594777
30
0.0
11
15.869964
21
245.324213
31
0.0
0
LINE
8
0
6
CONTINUOUS
10
15.473342
20
243.999651
30
0.0
11
16.322903
21
244.594777
31
0.0
0
LINE
8
0
6
CONTINUOUS
10
14.170852
20
244.133946
30
0.0
11
15.473342
21
243.999651
31
0.0
0
LINE
8
0
6
CONTINUOUS
10
13.717903
20
244.863361
30
0.0
11
14.170852
21
244.133946
31
0.0
0
LINE
8
0
6
CONTINUOUS
10
14.567454
20
245.458508
30
0.0
11
13.717903
21
244.863361
31
0.0
0
LINE
8
0
6
CONTINUOUS
10
15.869964
20
245.324213
30
0.0
11
14.567454
21
245.458508
31
0.0
0
LINE
8
0
6
CONTINUOUS
10
6.224162
20
244.258408
30
0.0
11
7.526662
21
244.124097
31
0.0
0
LINE
8
0
6
CONTINUOUS
10
5.374611
20
243.663280
30
0.0
11
6.224162
21
244.258408
31
0.0
0
LINE
8
0
6
CONTINUOUS
10
5.381815
20
244.519832
30
0.0
11
5.374611
21
243.663280
31
0.0
0
LINE
8
0
6
CONTINUOUS
10
7.526662
20
244.124097
30
0.0
11
7.979611
21
243.394679
31
0.0
0
LINE
8
0
6
CONTINUOUS
10
7.979611
20
243.394679
30
0.0
11
7.526662
21
244.124097
31
0.0
0
LINE
8
0
6
CONTINUOUS
10
7.130040
20
242.799554
30
0.0
11
7.979611
21
243.394679
31
0.0
0
LINE
8
0
6
CONTINUOUS
10
5.827560
20
242.933846
30
0.0
11
7.130040
21
242.799554
31
0.0
0
LINE
8
0
6
CONTINUOUS
10
5.374611
20
243.663280
30
0.0
11
5.827560
21
242.933846
31
0.0
0
LINE
8
0
6
CONTINUOUS
10
6.224162
20
244.258408
30
0.0
11
5.374611
21
243.663280
31
0.0
0
LINE
8
0
6
CONTINUOUS
10
7.526662
20
244.124097
30
0.0
11
6.224162
21
244.258408
31
0.0
0
LINE
8
0
6
CONTINUOUS
10
-1.032571
20
241.544481
30
0.0
11
0.269929
21
241.410211
31
0.0
0
LINE
8
0
6
CONTINUOUS
10
-1.882122
20
240.949372
30
0.0
11
-1.032571
21
241.544481
31
0.0
0
LINE
8
0
6
CONTINUOUS
10
-1.874729
20
241.828342
30
0.0
11
-1.882122
21
240.949372
31
0.0
0
LINE
8
0
6
CONTINUOUS
10
0.269929
20
241.410211
30
0.0
11
0.722878
21
240.680774
31
0.0
0
LINE
8
0
6
CONTINUOUS
10
0.722878
20
240.680774
30
0.0
11
0.269929
21
241.410211
31
0.0
0
LINE
8
0
6
CONTINUOUS
10
-0.126693
20
240.085648
30
0.0
11
0.722878
21
240.680774
31
0.0
0
LINE
8
0
6
CONTINUOUS
10
-1.429173
20
240.219957
30
0.0
11
-0.126693
21
240.085648
31
0.0
0
LINE
8
0
6
CONTINUOUS
10
-1.882122
20
240.949372
30
0.0
11
-1.429173
21
240.219957
31
0.0
0
LINE
8
0
6
CONTINUOUS
10
-1.032571
20
241.544481
30
0.0
11
-1.882122
21
240.949372
31
0.0
0
LINE
8
0
6
CONTINUOUS
10
0.269929
20
241.410211
30
0.0
11
-1.032571
21
241.544481
31
0.0
0
LINE
8
0
6
CONTINUOUS
10
1.437782
20
247.650280
30
0.0
11
2.760237
21
247.645473
31
0.0
0
LINE
8
0
6
CONTINUOUS
10
0.769278
20
246.980283
30
0.0
11
1.437782
21
247.650280
31
0.0
0
LINE
8
0
6
CONTINUOUS
10
0.776433
20
247.858668
30
0.0
11
0.769278
21
246.980283
31
0.0
0
LINE
8
0
6
CONTINUOUS
10
2.760237
20
247.645473
30
0.0
11
3.414177
21
246.970664
31
0.0
0
LINE
8
0
6
CONTINUOUS
10
3.414177
20
246.970664
30
0.0
11
2.760237
21
247.645473
31
0.0
0
LINE
8
0
6
CONTINUOUS
10
2.745652
20
246.300691
30
0.0
11
3.414177
21
246.970664
31
0.0
0
LINE
8
0
6
CONTINUOUS
10
1.423218
20
246.305494
30
0.0
11
2.745652
21
246.300691
31
0.0
0
LINE
8
0
6
CONTINUOUS
10
0.769278
20
246.980283
30
0.0
11
1.423218
21
246.305494
31
0.0
0
LINE
8
0
6
CONTINUOUS
10
1.437782
20
247.650280
30
0.0
11
0.769278
21
246.980283
31
0.0
0
LINE
8
0
6
CONTINUOUS
10
2.760237
20
247.645473
30
0.0
11
1.437782
21
247.650280
31
0.0
0
LINE
8
0
6
CONTINUOUS
10
9.592300
20
249.397855
30
0.0
11
10.914744
21
249.393048
31
0.0
0
LINE
8
0
6
CONTINUOUS
10
10.914744
20
249.393048
30
0.0
11
11.568684
21
248.718256
31
0.0
0
LINE
8
0
6
CONTINUOUS
10
11.568684
20
248.718256
30
0.0
11
10.914744
21
249.393048
31
0.0
0
LINE
8
0
6
CONTINUOUS
10
10.900170
20
248.048271
30
0.0
11
11.568684
21
248.718256
31
0.0
0
LINE
8
0
6
CONTINUOUS
10
9.577735
20
248.053063
30
0.0
11
10.900170
21
248.048271
31
0.0
0
LINE
8
0
6
CONTINUOUS
10
8.923795
20
248.727865
30
0.0
11
9.577735
21
248.053063
31
0.0
0
LINE
8
0
6
CONTINUOUS
10
9.592300
20
249.397855
30
0.0
11
8.923795
21
248.727865
31
0.0
0
LINE
8
0
6
CONTINUOUS
10
10.914744
20
249.393048
30
0.0
11
9.592300
21
249.397855
31
0.0
0
LINE
8
0
6
CONTINUOUS
10
17.399585
20
249.387165
30
0.0
11
18.068089
21
250.057164
31
0.0
0
LINE
8
0
6
CONTINUOUS
10
17.406390
20
250.222650
30
0.0
11
17.399585
21
249.387165
31
0.0
0
LINE
8
0
6
CONTINUOUS
10
20.044474
20
249.377568
30
0.0
11
19.390534
21
250.052357
31
0.0
0
LINE
8
0
6
CONTINUOUS
10
19.375959
20
248.707554
30
0.0
11
20.044474
21
249.377568
31
0.0
0
LINE
8
0
6
CONTINUOUS
10
18.053525
20
248.712380
30
0.0
11
19.375959
21
248.707554
31
0.0
0
LINE
8
0
6
CONTINUOUS
10
17.399585
20
249.387165
30
0.0
11
18.053525
21
248.712380
31
0.0
0
LINE
8
0
6
CONTINUOUS
10
18.068089
20
250.057164
30
0.0
11
17.399585
21
249.387165
31
0.0
0
LINE
8
0
6
CONTINUOUS
10
19.390534
20
250.052357
30
0.0
11
18.068089
21
250.057164
31
0.0
0
LINE
8
0
6
CONTINUOUS
10
2.515430
20
229.700077
30
0.0
11
2.532349
21
230.634439
31
0.0
0
LINE
8
0
6
CONTINUOUS
10
2.532349
20
230.634439
30
0.0
11
3.919101
21
231.093139
31
0.0
0
LINE
8
0
6
CONTINUOUS
10
5.288955
20
230.617499
30
0.0
11
5.286535
21
231.411412
31
0.0
0
LINE
8
0
6
CONTINUOUS
10
3.919101
20
231.093139
30
0.0
11
5.288955
21
230.617499
31
0.0
0
LINE
8
0
6
CONTINUOUS
10
2.532349
20
230.634439
30
0.0
11
2.515430
21
229.700077
31
0.0
0
LINE
8
0
6
CONTINUOUS
10
3.919101
20
231.093139
30
0.0
11
2.532349
21
230.634439
31
0.0
0
LINE
8
0
6
CONTINUOUS
10
5.288955
20
230.617499
30
0.0
11
3.919101
21
231.093139
31
0.0
0
LINE
8
0
6
CONTINUOUS
10
5.272055
20
229.683187
30
0.0
11
5.288955
21
230.617499
31
0.0
0
LINE
8
0
6
CONTINUOUS
10
3.885283
20
229.224480
30
0.0
11
5.272055
21
229.683187
31
0.0
0
LINE
8
0
6
CONTINUOUS
10
2.515430
20
229.700077
30
0.0
11
3.885283
21
229.224480
31
0.0
0
LINE
8
0
6
CONTINUOUS
10
-21.423908
20
240.672735
30
0.0
11
-24.722564
21
235.164920
31
0.0
0
LINE
8
0
6
CONTINUOUS
10
-0.546171
20
252.806756
30
0.0
11
-8.992071
21
249.699243
31
0.0
0
LINE
8
0
6
CONTINUOUS
10
8.866209
20
254.731951
30
0.0
11
-0.546171
21
252.806756
31
0.0
0
LINE
8
0
6
CONTINUOUS
10
18.771994
20
255.461872
30
0.0
11
8.866209
21
254.731951
31
0.0
0
LINE
8
0
6
CONTINUOUS
10
28.674188
20
254.716659
30
0.0
11
18.771994
21
255.461872
31
0.0
0
LINE
8
0
6
CONTINUOUS
10
38.132537
20
252.935343
30
0.0
11
28.674188
21
254.716659
31
0.0
0
LINE
8
0
6
CONTINUOUS
10
58.832776
20
240.554970
30
0.0
11
53.543486
21
245.513552
31
0.0
0
LINE
8
0
6
CONTINUOUS
10
62.110289
20
235.029653
30
0.0
11
58.832776
21
240.554970
31
0.0
0
LINE
8
0
6
CONTINUOUS
10
63.211199
20
229.214501
30
0.0
11
62.110289
21
235.029653
31
0.0
0
LINE
8
0
6
CONTINUOUS
10
46.443612
20
208.814806
30
0.0
11
53.560250
21
212.972756
31
0.0
0
LINE
8
0
6
CONTINUOUS
10
37.987017
20
205.702300
30
0.0
11
46.443612
21
208.814806
31
0.0
0
LINE
8
0
6
CONTINUOUS
10
28.571335
20
203.781754
30
0.0
11
37.987017
21
205.702300
31
0.0
0
LINE
8
0
6
CONTINUOUS
10
18.637304
20
203.125599
30
0.0
11
28.571335
21
203.781754
31
0.0
0
LINE
8
0
6
CONTINUOUS
10
8.726873
20
203.788606
30
0.0
11
18.637304
21
203.125599
31
0.0
0
LINE
8
0
6
CONTINUOUS
10
-0.691354
20
205.730443
30
0.0
11
8.726873
21
203.788606
31
0.0
0
LINE
8
0
6
CONTINUOUS
10
53.543486
20
245.513552
30
0.0
11
46.506461
21
249.656208
31
0.0
0
LINE
8
0
6
CONTINUOUS
10
-24.734224
20
235.145451
30
0.0
11
-25.801874
21
229.283523
31
0.0
0
LINE
8
0
6
CONTINUOUS
10
-16.101513
20
245.629049
30
0.0
11
-21.423908
21
240.672735
31
0.0
0
LINE
8
0
6
CONTINUOUS
10
-8.992071
20
249.699243
30
0.0
11
-16.101513
21
245.629049
31
0.0
0
LINE
8
0
6
CONTINUOUS
10
62.206666
20
223.473749
30
0.0
11
63.211199
21
229.214501
31
0.0
0
LINE
8
0
6
CONTINUOUS
10
58.890997
20
217.937405
30
0.0
11
62.206666
21
223.473749
31
0.0
0
LINE
8
0
6
CONTINUOUS
10
53.560250
20
212.972756
30
0.0
11
58.890997
21
217.937405
31
0.0
0
LINE
8
0
6
CONTINUOUS
10
-9.134905
20
208.855472
30
0.0
11
-0.691354
21
205.730443
31
0.0
0
LINE
8
0
6
CONTINUOUS
10
-16.235165
20
213.026898
30
0.0
11
-9.134905
21
208.855472
31
0.0
0
LINE
8
0
6
CONTINUOUS
10
-21.480881
20
217.968806
30
0.0
11
-16.235165
21
213.026898
31
0.0
0
LINE
8
0
6
CONTINUOUS
10
-24.763511
20
223.501538
30
0.0
11
-21.480881
21
217.968806
31
0.0
0
LINE
8
0
6
CONTINUOUS
10
-25.801874
20
229.283523
30
0.0
11
-24.763511
21
223.501538
31
0.0
0
LINE
8
0
6
CONTINUOUS
10
46.506461
20
249.656208
30
0.0
11
38.132537
21
252.935343
31
0.0
0
LINE
8
0
6
CONTINUOUS
10
21.159977
20
193.057603
30
0.0
11
21.161777
21
193.754349
31
0.0
0
LINE
8
0
6
CONTINUOUS
10
20.922795
20
191.308271
30
0.0
11
21.159977
21
193.057603
31
0.0
0
LINE
8
0
6
CONTINUOUS
10
21.171846
20
197.670622
30
0.0
11
21.173468
21
198.297742
31
0.0
0
LINE
8
0
6
CONTINUOUS
10
21.161777
20
193.754349
30
0.0
11
21.171846
21
197.670622
31
0.0
0
LINE
8
0
6
CONTINUOUS
10
16.083252
20
203.296465
30
0.0
11
16.083154
21
203.199581
31
0.0
0
LINE
8
0
6
CONTINUOUS
10
16.077612
20
193.061545
30
0.0
11
16.313441
21
191.311852
31
0.0
0
LINE
8
0
6
CONTINUOUS
10
16.078263
20
195.188670
30
0.0
11
16.077654
21
193.198574
31
0.0
0
LINE
8
0
6
CONTINUOUS
10
16.080369
20
199.385308
30
0.0
11
16.078263
21
195.188670
31
0.0
0
LINE
8
0
6
CONTINUOUS
10
16.083154
20
203.199581
30
0.0
11
16.080369
21
199.385308
31
0.0
0
LINE
8
0
6
CONTINUOUS
10
19.743976
20
190.599407
30
0.0
11
20.922795
21
191.308271
31
0.0
0
LINE
8
0
6
CONTINUOUS
10
18.617885
20
190.351032
30
0.0
11
19.743976
21
190.599407
31
0.0
0
LINE
8
0
6
CONTINUOUS
10
17.370664
20
190.601236
30
0.0
11
18.617885
21
190.351032
31
0.0
0
LINE
8
0
6
CONTINUOUS
10
16.313441
20
191.311852
30
0.0
11
17.370664
21
190.601236
31
0.0
0
LINE
8
0
6
CONTINUOUS
10
21.173468
20
198.297742
30
0.0
11
21.173575
21
198.463302
31
0.0
0
LINE
8
0
6
CONTINUOUS
10
21.175255
20
200.867649
30
0.0
11
21.176321
21
202.068336
31
0.0
0
LINE
8
0
6
CONTINUOUS
10
21.176321
20
202.068336
30
0.0
11
21.177259
21
203.219007
31
0.0
0
LINE
8
0
6
CONTINUOUS
10
21.177259
20
203.219007
30
0.0
11
21.177330
21
203.293371
31
0.0
0
LINE
8
0
6
CONTINUOUS
10
21.173575
20
198.463302
30
0.0
11
21.175255
21
200.867649
31
0.0
0
LINE
8
0
6
CONTINUOUS
10
5.590539
20
204.435251
30
0.0
11
5.605844
21
201.084672
31
0.0
0
LINE
8
0
6
CONTINUOUS
10
4.015081
20
198.575530
30
0.0
11
4.014370
21
198.252527
31
0.0
0
LINE
8
0
6
CONTINUOUS
10
3.818284
20
108.865346
30
0.0
11
3.816908
21
108.238856
31
0.0
0
LINE
8
0
6
CONTINUOUS
10
3.816908
20
108.238856
30
0.0
11
4.352837
21
106.634669
31
0.0
0
LINE
8
0
6
CONTINUOUS
10
4.352837
20
106.634669
30
0.0
11
6.835491
21
105.539384
31
0.0
0
LINE
8
0
6
CONTINUOUS
10
7.335030
20
105.427820
30
0.0
11
10.521219
21
104.716210
31
0.0
0
LINE
8
0
6
CONTINUOUS
10
14.415218
20
104.185059
30
0.0
11
18.454644
21
104.029566
31
0.0
0
LINE
8
0
6
CONTINUOUS
10
10.521219
20
104.716210
30
0.0
11
14.415218
21
104.185059
31
0.0
0
LINE
8
0
6
CONTINUOUS
10
4.017309
20
199.590406
30
0.0
11
4.015081
21
198.575530
31
0.0
0
LINE
8
0
6
CONTINUOUS
10
5.605844
20
201.084672
30
0.0
11
5.607455
21
200.732508
31
0.0
0
LINE
8
0
6
CONTINUOUS
10
4.047427
20
200.179666
30
0.0
11
4.017309
21
199.590406
31
0.0
0
LINE
8
0
6
CONTINUOUS
10
4.278770
20
204.705709
30
0.0
11
4.047427
21
200.179666
31
0.0
0
LINE
8
0
6
CONTINUOUS
10
6.835491
20
105.539384
30
0.0
11
7.335030
21
105.427820
31
0.0
0
LINE
8
0
6
CONTINUOUS
10
4.014370
20
198.252527
30
0.0
11
3.818284
21
108.865346
31
0.0
0
LINE
8
0
6
CONTINUOUS
10
31.609029
20
201.064516
30
0.0
11
31.636865
21
204.407040
31
0.0
0
LINE
8
0
6
CONTINUOUS
10
33.192237
20
198.229896
30
0.0
11
33.192648
21
198.552918
31
0.0
0
LINE
8
0
6
CONTINUOUS
10
32.548224
20
106.612815
30
0.0
11
33.079145
21
108.216162
31
0.0
0
LINE
8
0
6
CONTINUOUS
10
33.079145
20
108.216162
30
0.0
11
33.079931
21
108.842652
31
0.0
0
LINE
8
0
6
CONTINUOUS
10
30.069003
20
105.521365
30
0.0
11
32.548224
21
106.612815
31
0.0
0
LINE
8
0
6
CONTINUOUS
10
26.385874
20
104.703907
30
0.0
11
29.569821
21
105.410582
31
0.0
0
LINE
8
0
6
CONTINUOUS
10
18.454644
20
104.029566
30
0.0
11
22.493566
21
104.178792
31
0.0
0
LINE
8
0
6
CONTINUOUS
10
22.493566
20
104.178792
30
0.0
11
26.385874
21
104.703907
31
0.0
0
LINE
8
0
6
CONTINUOUS
10
33.192648
20
198.552918
30
0.0
11
33.193926
21
199.567775
31
0.0
0
LINE
8
0
6
CONTINUOUS
10
31.606099
20
200.712340
30
0.0
11
31.609029
21
201.064516
31
0.0
0
LINE
8
0
6
CONTINUOUS
10
33.193926
20
199.567775
30
0.0
11
33.163604
21
200.157110
31
0.0
0
LINE
8
0
6
CONTINUOUS
10
33.163604
20
200.157110
30
0.0
11
32.931357
21
204.671081
31
0.0
0
LINE
8
0
6
CONTINUOUS
10
29.569821
20
105.410582
30
0.0
11
30.069003
21
105.521365
31
0.0
0
LINE
8
0
6
CONTINUOUS
10
33.079931
20
108.842652
30
0.0
11
33.192237
21
198.229896
31
0.0
0
LINE
8
0
6
CONTINUOUS
10
68.722340
20
236.920630
30
0.0
11
68.466266
21
242.435903
31
0.0
0
LINE
8
0
6
CONTINUOUS
10
-30.615057
20
245.169367
30
0.0
11
-31.061587
21
242.513051
31
0.0
0
LINE
8
0
6
CONTINUOUS
10
-29.361993
20
251.611067
30
0.0
11
-30.615057
21
245.169367
31
0.0
0
LINE
8
0
6
CONTINUOUS
10
-27.934206
20
256.690634
30
0.0
11
-28.746728
21
254.179885
31
0.0
0
LINE
8
0
6
CONTINUOUS
10
-10.416659
20
273.908016
30
0.0
11
-10.474408
21
273.882290
31
0.0
0
LINE
8
0
6
CONTINUOUS
10
-1.536730
20
277.173731
30
0.0
11
-10.416659
21
273.908016
31
0.0
0
LINE
8
0
6
CONTINUOUS
10
-1.242739
20
277.275084
30
0.0
11
-1.536730
21
277.173731
31
0.0
0
LINE
8
0
6
CONTINUOUS
10
8.508200
20
279.269618
30
0.0
11
-1.242739
21
277.275084
31
0.0
0
LINE
8
0
6
CONTINUOUS
10
8.581987
20
279.280962
30
0.0
11
8.508200
21
279.269618
31
0.0
0
LINE
8
0
6
CONTINUOUS
10
18.769717
20
279.946832
30
0.0
11
8.581987
21
279.280962
31
0.0
0
LINE
8
0
6
CONTINUOUS
10
28.953926
20
279.265167
30
0.0
11
18.769717
21
279.946832
31
0.0
0
LINE
8
0
6
CONTINUOUS
10
29.028759
20
279.253725
30
0.0
11
28.953926
21
279.265167
31
0.0
0
LINE
8
0
6
CONTINUOUS
10
38.769398
20
277.244075
30
0.0
11
29.028759
21
279.253725
31
0.0
0
LINE
8
0
6
CONTINUOUS
10
39.065398
20
277.142256
30
0.0
11
38.769398
21
277.244075
31
0.0
0
LINE
8
0
6
CONTINUOUS
10
47.928486
20
273.862794
30
0.0
11
39.065398
21
277.142256
31
0.0
0
LINE
8
0
6
CONTINUOUS
10
66.182341
20
254.106283
30
0.0
11
65.368382
21
256.618306
31
0.0
0
LINE
8
0
6
CONTINUOUS
10
68.018836
20
245.092882
30
0.0
11
66.798937
21
251.536520
31
0.0
0
LINE
8
0
6
CONTINUOUS
10
68.466266
20
242.435903
30
0.0
11
68.018836
21
245.092882
31
0.0
0
LINE
8
0
6
CONTINUOUS
10
-31.061587
20
242.513051
30
0.0
11
-31.315773
21
236.998192
31
0.0
0
LINE
8
0
6
CONTINUOUS
10
-28.746728
20
254.179885
30
0.0
11
-29.361993
21
251.611067
31
0.0
0
LINE
8
0
6
CONTINUOUS
10
66.798937
20
251.536520
30
0.0
11
66.182341
21
254.106283
31
0.0
0
LINE
8
0
6
CONTINUOUS
10
-31.315773
20
236.998192
30
0.0
11
-31.315742
21
236.800130
31
0.0
0
LINE
8
0
6
CONTINUOUS
10
68.722372
20
236.722559
30
0.0
11
68.722340
21
236.920630
31
0.0
0
LINE
8
0
6
CONTINUOUS
10
-31.315697
20
236.521182
30
0.0
11
-31.315559
21
235.721943
31
0.0
0
LINE
8
0
6
CONTINUOUS
10
68.722564
20
235.644379
30
0.0
11
68.722426
21
236.443620
31
0.0
0
LINE
8
0
6
CONTINUOUS
10
38.217686
20
205.787199
30
0.0
11
39.089199
21
205.965464
31
0.0
0
LINE
8
0
6
CONTINUOUS
10
-22.109403
20
218.271871
30
0.0
11
-25.442840
21
223.891573
31
0.0
0
LINE
8
0
6
CONTINUOUS
10
39.089199
20
205.965464
30
0.0
11
48.033887
21
209.254995
31
0.0
0
LINE
8
0
6
CONTINUOUS
10
46.874563
20
208.971417
30
0.0
11
38.283500
21
205.811941
31
0.0
0
LINE
8
0
6
CONTINUOUS
10
63.316494
20
221.363177
30
0.0
11
66.997180
21
227.509202
31
0.0
0
LINE
8
0
6
CONTINUOUS
10
62.327690
20
219.801407
30
0.0
11
63.316494
21
221.363177
31
0.0
0
LINE
8
0
6
CONTINUOUS
10
56.541150
20
214.412243
30
0.0
11
62.327690
21
219.801407
31
0.0
0
LINE
8
0
6
CONTINUOUS
10
55.507858
20
213.630425
30
0.0
11
56.541150
21
214.412243
31
0.0
0
LINE
8
0
6
CONTINUOUS
10
-24.983082
20
219.869143
30
0.0
11
-19.224311
21
214.471052
31
0.0
0
LINE
8
0
6
CONTINUOUS
10
-19.224311
20
214.471052
30
0.0
11
-18.188091
21
213.687613
31
0.0
0
LINE
8
0
6
CONTINUOUS
10
-29.622950
20
227.584145
30
0.0
11
-25.973940
21
221.432469
31
0.0
0
LINE
8
0
6
CONTINUOUS
10
-25.973940
20
221.432469
30
0.0
11
-24.983082
21
219.869143
31
0.0
0
LINE
8
0
6
CONTINUOUS
10
66.997180
20
227.509202
30
0.0
11
67.451642
21
229.110899
31
0.0
0
LINE
8
0
6
CONTINUOUS
10
67.451642
20
229.110899
30
0.0
11
68.722564
21
235.644379
31
0.0
0
LINE
8
0
6
CONTINUOUS
10
57.856937
20
254.862143
30
0.0
11
49.948805
21
259.518050
31
0.0
0
LINE
8
0
6
CONTINUOUS
10
-20.356017
20
254.922791
30
0.0
11
-26.329472
21
249.359558
31
0.0
0
LINE
8
0
6
CONTINUOUS
10
18.778940
20
265.948827
30
0.0
11
7.646734
21
265.221219
31
0.0
0
LINE
8
0
6
CONTINUOUS
10
7.646734
20
265.221219
30
0.0
11
-2.931025
21
263.057578
31
0.0
0
LINE
8
0
6
CONTINUOUS
10
49.948805
20
259.518050
30
0.0
11
40.473876
21
263.023917
31
0.0
0
LINE
8
0
6
CONTINUOUS
10
68.722405
20
236.544688
30
0.0
11
67.485134
21
243.080041
31
0.0
0
LINE
8
0
6
CONTINUOUS
10
68.722426
20
236.443620
30
0.0
11
68.722405
21
236.544688
31
0.0
0
LINE
8
0
6
CONTINUOUS
10
-26.329472
20
249.359558
30
0.0
11
-30.044807
21
243.155663
31
0.0
0
LINE
8
0
6
CONTINUOUS
10
-30.044807
20
243.155663
30
0.0
11
-31.315709
21
236.622247
31
0.0
0
LINE
8
0
6
CONTINUOUS
10
-31.315709
20
236.622247
30
0.0
11
-31.315697
21
236.521182
31
0.0
0
LINE
8
0
6
CONTINUOUS
10
-2.931025
20
263.057578
30
0.0
11
-12.423953
21
259.566423
31
0.0
0
LINE
8
0
6
CONTINUOUS
10
40.473876
20
263.023917
30
0.0
11
29.907305
21
265.203976
31
0.0
0
LINE
8
0
6
CONTINUOUS
10
67.485134
20
243.080041
30
0.0
11
63.801752
21
249.289681
31
0.0
0
LINE
8
0
6
CONTINUOUS
10
-12.423953
20
259.566423
30
0.0
11
-20.356017
21
254.922791
31
0.0
0
LINE
8
0
6
CONTINUOUS
10
29.907305
20
265.203976
30
0.0
11
18.778940
21
265.948827
31
0.0
0
LINE
8
0
6
CONTINUOUS
10
63.801752
20
249.289681
30
0.0
11
57.856937
21
254.862143
31
0.0
0
LINE
8
0
6
CONTINUOUS
10
68.705323
20
236.634915
30
0.0
11
68.722372
21
236.722559
31
0.0
0
LINE
8
0
6
CONTINUOUS
10
-31.315742
20
236.800130
30
0.0
11
-31.298659
21
236.709896
31
0.0
0
LINE
8
0
6
CONTINUOUS
10
-23.507826
20
264.315554
30
0.0
11
-23.943901
21
263.623297
31
0.0
0
LINE
8
0
6
CONTINUOUS
10
-17.909011
20
269.529879
30
0.0
11
-23.507826
21
264.315554
31
0.0
0
LINE
8
0
6
CONTINUOUS
10
-10.474408
20
273.882290
30
0.0
11
-17.909011
21
269.529879
31
0.0
0
LINE
8
0
6
CONTINUOUS
10
55.398638
20
269.473065
30
0.0
11
47.986476
21
273.836949
31
0.0
0
LINE
8
0
6
CONTINUOUS
10
60.970613
20
264.250072
30
0.0
11
55.398638
21
269.473065
31
0.0
0
LINE
8
0
6
CONTINUOUS
10
61.407598
20
263.557117
30
0.0
11
60.970613
21
264.250072
31
0.0
0
LINE
8
0
6
CONTINUOUS
10
64.895657
20
257.676787
30
0.0
11
61.407598
21
263.557117
31
0.0
0
LINE
8
0
6
CONTINUOUS
10
65.368382
20
256.618306
30
0.0
11
64.895657
21
257.676787
31
0.0
0
LINE
8
0
6
CONTINUOUS
10
-27.462199
20
257.748407
30
0.0
11
-27.934206
21
256.690634
31
0.0
0
LINE
8
0
6
CONTINUOUS
10
-23.943901
20
263.623297
30
0.0
11
-27.462199
21
257.748407
31
0.0
0
LINE
8
0
6
CONTINUOUS
10
-10.736668
20
209.300594
30
0.0
11
-1.808969
21
205.997187
31
0.0
0
LINE
8
0
6
CONTINUOUS
10
-16.644071
20
246.367961
30
0.0
11
-9.465575
21
250.570414
31
0.0
0
LINE
8
0
6
CONTINUOUS
10
62.821403
20
223.823075
30
0.0
11
59.459034
21
218.208594
31
0.0
0
LINE
8
0
6
CONTINUOUS
10
54.138356
20
246.313080
30
0.0
11
59.518391
21
241.270005
31
0.0
0
LINE
8
0
6
CONTINUOUS
10
18.772917
20
256.346489
30
0.0
11
28.844048
21
255.672369
31
0.0
0
LINE
8
0
6
CONTINUOUS
10
-18.188091
20
213.687613
30
0.0
11
-10.736668
21
209.300594
31
0.0
0
LINE
8
0
6
CONTINUOUS
10
-9.572560
20
209.015222
30
0.0
11
-16.729378
21
213.228801
31
0.0
0
LINE
8
0
6
CONTINUOUS
10
59.459034
20
218.208594
30
0.0
11
54.053058
21
213.173890
31
0.0
0
LINE
8
0
6
CONTINUOUS
10
28.844048
20
255.672369
30
0.0
11
38.406755
21
253.699464
31
0.0
0
LINE
8
0
6
CONTINUOUS
10
-9.465575
20
250.570414
30
0.0
11
-0.874522
21
253.729907
31
0.0
0
LINE
8
0
6
CONTINUOUS
10
-26.562548
20
229.806038
30
0.0
11
-25.412385
21
235.718754
31
0.0
0
LINE
8
0
6
CONTINUOUS
10
59.518391
20
241.270005
30
0.0
11
62.851838
21
235.650342
31
0.0
0
LINE
8
0
6
CONTINUOUS
10
-16.729378
20
213.228801
30
0.0
11
-22.109403
21
218.271871
31
0.0
0
LINE
8
0
6
CONTINUOUS
10
48.033887
20
209.254995
30
0.0
11
55.507858
21
213.630425
31
0.0
0
LINE
8
0
6
CONTINUOUS
10
54.053058
20
213.173890
30
0.0
11
46.874563
21
208.971417
31
0.0
0
LINE
8
0
6
CONTINUOUS
10
62.851838
20
235.650342
30
0.0
11
63.971566
21
229.735848
31
0.0
0
LINE
8
0
6
CONTINUOUS
10
38.406755
20
253.699464
30
0.0
11
46.981528
21
250.526657
31
0.0
0
LINE
8
0
6
CONTINUOUS
10
-0.874522
20
253.729907
30
0.0
11
8.698310
21
255.687997
31
0.0
0
LINE
8
0
6
CONTINUOUS
10
-25.412385
20
235.718754
30
0.0
11
-22.050016
21
241.333254
31
0.0
0
LINE
8
0
6
CONTINUOUS
10
-1.808969
20
205.997187
30
0.0
11
-0.912148
21
205.812160
31
0.0
0
LINE
8
0
6
CONTINUOUS
10
63.971566
20
229.735848
30
0.0
11
62.821403
21
223.823075
31
0.0
0
LINE
8
0
6
CONTINUOUS
10
46.981528
20
250.526657
30
0.0
11
54.138356
21
246.313080
31
0.0
0
LINE
8
0
6
CONTINUOUS
10
8.698310
20
255.687997
30
0.0
11
18.772917
21
256.346489
31
0.0
0
LINE
8
0
6
CONTINUOUS
10
-22.050016
20
241.333254
30
0.0
11
-16.644071
21
246.367961
31
0.0
0
LINE
8
0
6
CONTINUOUS
10
-25.442840
20
223.891573
30
0.0
11
-26.562548
21
229.806038
31
0.0
0
LINE
8
0
6
CONTINUOUS
10
-30.078309
20
229.186566
30
0.0
11
-29.622950
21
227.584145
31
0.0
0
LINE
8
0
6
CONTINUOUS
10
-31.315559
20
235.721943
30
0.0
11
-30.078309
21
229.186566
31
0.0
0
LINE
8
0
6
CONTINUOUS
10
-8.992110
20
249.699242
30
0.0
11
-0.546211
21
252.806755
31
0.0
0
LINE
8
0
6
CONTINUOUS
10
-0.546211
20
252.806755
30
0.0
11
8.866170
21
254.731950
31
0.0
0
LINE
8
0
6
CONTINUOUS
10
8.866170
20
254.731950
30
0.0
11
18.771955
21
255.461871
31
0.0
0
LINE
8
0
6
CONTINUOUS
10
18.771955
20
255.461871
30
0.0
11
28.674148
21
254.716658
31
0.0
0
LINE
8
0
6
CONTINUOUS
10
28.674148
20
254.716658
30
0.0
11
38.132497
21
252.935341
31
0.0
0
LINE
8
0
6
CONTINUOUS
10
53.543446
20
245.513550
30
0.0
11
58.832736
21
240.554969
31
0.0
0
LINE
8
0
6
CONTINUOUS
10
58.832736
20
240.554969
30
0.0
11
62.110249
21
235.029651
31
0.0
0
LINE
8
0
6
CONTINUOUS
10
62.110249
20
235.029651
30
0.0
11
63.211160
21
229.214499
31
0.0
0
LINE
8
0
6
CONTINUOUS
10
-24.763551
20
223.501537
30
0.0
11
-25.801913
21
229.283522
31
0.0
0
LINE
8
0
6
CONTINUOUS
10
-24.947816
20
224.365216
30
0.0
11
-24.763551
21
223.501537
31
0.0
0
LINE
8
0
6
CONTINUOUS
10
-25.801913
20
229.283522
30
0.0
11
-24.734264
21
235.145449
31
0.0
0
LINE
8
0
6
CONTINUOUS
10
-16.644071
20
246.367961
30
0.0
11
-22.050016
21
241.333254
31
0.0
0
LINE
8
0
6
CONTINUOUS
10
54.138356
20
246.313080
30
0.0
11
46.981528
21
250.526657
31
0.0
0
LINE
8
0
6
CONTINUOUS
10
59.518391
20
241.270005
30
0.0
11
54.138356
21
246.313080
31
0.0
0
LINE
8
0
6
CONTINUOUS
10
54.053058
20
213.173890
30
0.0
11
59.459034
21
218.208594
31
0.0
0
LINE
8
0
6
CONTINUOUS
10
-16.729378
20
213.228801
30
0.0
11
-9.572560
21
209.015222
31
0.0
0
LINE
8
0
6
CONTINUOUS
10
-21.423947
20
240.672733
30
0.0
11
-16.101553
21
245.629048
31
0.0
0
LINE
8
0
6
CONTINUOUS
10
-16.101553
20
245.629048
30
0.0
11
-8.992110
21
249.699242
31
0.0
0
LINE
8
0
6
CONTINUOUS
10
38.132497
20
252.935341
30
0.0
11
46.506422
21
249.656207
31
0.0
0
LINE
8
0
6
CONTINUOUS
10
46.506422
20
249.656207
30
0.0
11
53.543446
21
245.513550
31
0.0
0
LINE
8
0
6
CONTINUOUS
10
-22.050016
20
241.333254
30
0.0
11
-25.412385
21
235.718754
31
0.0
0
LINE
8
0
6
CONTINUOUS
10
-9.465575
20
250.570414
30
0.0
11
-16.644071
21
246.367961
31
0.0
0
LINE
8
0
6
CONTINUOUS
10
62.851838
20
235.650342
30
0.0
11
59.518391
21
241.270005
31
0.0
0
LINE
8
0
6
CONTINUOUS
10
63.971566
20
229.735848
30
0.0
11
62.851838
21
235.650342
31
0.0
0
LINE
8
0
6
CONTINUOUS
10
62.821403
20
223.823075
30
0.0
11
63.971566
21
229.735848
31
0.0
0
LINE
8
0
6
CONTINUOUS
10
59.459034
20
218.208594
30
0.0
11
62.821403
21
223.823075
31
0.0
0
LINE
8
0
6
CONTINUOUS
10
46.874563
20
208.971417
30
0.0
11
54.053058
21
213.173890
31
0.0
0
LINE
8
0
6
CONTINUOUS
10
38.283500
20
205.811941
30
0.0
11
46.874563
21
208.971417
31
0.0
0
LINE
8
0
6
CONTINUOUS
10
-22.109403
20
218.271871
30
0.0
11
-16.729378
21
213.228801
31
0.0
0
LINE
8
0
6
CONTINUOUS
10
-25.442840
20
223.891573
30
0.0
11
-22.109403
21
218.271871
31
0.0
0
LINE
8
0
6
CONTINUOUS
10
-26.562548
20
229.806038
30
0.0
11
-25.442840
21
223.891573
31
0.0
0
LINE
8
0
6
CONTINUOUS
10
-25.412385
20
235.718754
30
0.0
11
-26.562548
21
229.806038
31
0.0
0
LINE
8
0
6
CONTINUOUS
10
-24.734264
20
235.145449
30
0.0
11
-21.423947
21
240.672733
31
0.0
0
LINE
8
0
6
CONTINUOUS
10
25.787906
20
68.664020
30
0.0
11
25.787905
21
70.133330
31
0.0
0
LINE
8
0
6
CONTINUOUS
10
9.787896
20
68.664020
30
0.0
11
9.787896
21
70.133330
31
0.0
0
LINE
8
0
6
CONTINUOUS
10
25.787906
20
50.056430
30
0.0
11
25.787906
21
68.664020
31
0.0
0
LINE
8
0
6
CONTINUOUS
10
9.787896
20
50.056430
30
0.0
11
9.787896
21
68.664020
31
0.0
0
LINE
8
0
6
CONTINUOUS
10
25.787896
20
32.731520
30
0.0
11
25.787906
21
50.056430
31
0.0
0
LINE
8
0
6
CONTINUOUS
10
9.787896
20
32.731520
30
0.0
11
9.787896
21
50.056430
31
0.0
0
LINE
8
0
6
CONTINUOUS
10
25.787906
20
16.271900
30
0.0
11
25.787896
21
32.731520
31
0.0
0
LINE
8
0
6
CONTINUOUS
10
9.787896
20
16.271900
30
0.0
11
9.787896
21
32.731520
31
0.0
0
LINE
8
0
6
CONTINUOUS
10
25.787906
20
0.260210
30
0.0
11
25.787906
21
16.271900
31
0.0
0
LINE
8
0
6
CONTINUOUS
10
9.787896
20
0.260210
30
0.0
11
9.787896
21
16.271900
31
0.0
0
LINE
8
0
6
CONTINUOUS
10
25.787906
20
-15.720970
30
0.0
11
25.787906
21
0.260210
31
0.0
0
LINE
8
0
6
CONTINUOUS
10
9.787896
20
-15.720990
30
0.0
11
9.787896
21
0.260210
31
0.0
0
LINE
8
0
6
CONTINUOUS
10
25.787896
20
-32.089000
30
0.0
11
25.787906
21
-15.720970
31
0.0
0
LINE
8
0
6
CONTINUOUS
10
9.787896
20
-32.089020
30
0.0
11
9.787896
21
-15.720990
31
0.0
0
LINE
8
0
6
CONTINUOUS
10
25.787896
20
-49.261260
30
0.0
11
25.787896
21
-32.089000
31
0.0
0
LINE
8
0
6
CONTINUOUS
10
9.787906
20
-49.261280
30
0.0
11
9.787896
21
-32.089020
31
0.0
0
LINE
8
0
6
CONTINUOUS
10
25.787906
20
-67.655160
30
0.0
11
25.787896
21
-49.261260
31
0.0
0
LINE
8
0
6
CONTINUOUS
10
9.787896
20
-67.655140
30
0.0
11
9.787906
21
-49.261280
31
0.0
0
LINE
8
0
6
CONTINUOUS
10
10.859687
20
-319.558450
30
0.0
11
13.787897
21
-322.476890
31
0.0
0
LINE
8
0
6
CONTINUOUS
10
25.787897
20
-334.500000
30
0.0
11
24.716097
21
-333.441540
31
0.0
0
LINE
8
0
6
CONTINUOUS
10
13.787897
20
-322.476890
30
0.0
11
17.787907
21
-326.473310
31
0.0
0
LINE
8
0
6
CONTINUOUS
10
21.787907
20
-330.476910
30
0.0
11
24.716107
21
-333.414870
31
0.0
0
LINE
8
0
6
CONTINUOUS
10
17.787887
20
-326.526680
30
0.0
11
13.787877
21
-322.523120
31
0.0
0
LINE
8
0
6
CONTINUOUS
10
24.716097
20
-333.441540
30
0.0
11
21.787897
21
-330.523100
31
0.0
0
LINE
8
0
6
CONTINUOUS
10
17.787907
20
-326.473310
30
0.0
11
21.787907
21
-330.476910
31
0.0
0
LINE
8
0
6
CONTINUOUS
10
10.859677
20
-319.585160
30
0.0
11
9.787887
21
-318.499990
31
0.0
0
LINE
8
0
6
CONTINUOUS
10
9.787887
20
-318.499990
30
0.0
11
10.859687
21
-319.558450
31
0.0
0
LINE
8
0
6
CONTINUOUS
10
9.787896
20
-67.655140
30
0.0
11
9.787889
21
-254.422107
31
0.0
0
LINE
8
0
6
CONTINUOUS
10
9.787888
20
-277.422107
30
0.0
11
9.787887
21
-318.499990
31
0.0
0
LINE
8
0
6
CONTINUOUS
10
13.787877
20
-322.523120
30
0.0
11
10.859677
21
-319.585160
31
0.0
0
LINE
8
0
6
CONTINUOUS
10
25.787897
20
-334.500000
30
0.0
11
25.787899
21
-277.422107
31
0.0
0
LINE
8
0
6
CONTINUOUS
10
25.787900
20
-254.422107
30
0.0
11
25.787906
21
-67.655160
31
0.0
0
LINE
8
0
6
CONTINUOUS
10
24.716107
20
-333.414870
30
0.0
11
25.787897
21
-334.500000
31
0.0
0
LINE
8
0
6
CONTINUOUS
10
21.787897
20
-330.523100
30
0.0
11
17.787887
21
-326.526680
31
0.0
0
LINE
8
0
6
CONTINUOUS
10
6.905554
20
105.523736
30
0.0
11
7.016328
21
103.760781
31
0.0
0
LINE
8
0
6
CONTINUOUS
10
29.990657
20
105.503978
30
0.0
11
28.664819
21
83.922429
31
0.0
0
LINE
8
0
6
CONTINUOUS
10
28.285896
20
82.210447
30
0.0
11
28.638520
21
83.494250
31
0.0
0
LINE
8
0
6
CONTINUOUS
10
27.263907
20
81.014510
30
0.0
11
28.285896
21
82.210447
31
0.0
0
LINE
8
0
6
CONTINUOUS
10
28.664819
20
83.922429
30
0.0
11
28.638520
21
83.494250
31
0.0
0
LINE
8
0
6
CONTINUOUS
10
36.977436
20
-277.422107
30
0.0
11
39.277436
21
-277.422107
31
0.0
0
LINE
8
0
6
CONTINUOUS
10
19.677436
20
-254.422107
30
0.0
11
13.677436
21
-254.422107
31
0.0
0
LINE
8
0
6
CONTINUOUS
10
0.477436
20
-254.422107
30
0.0
11
-6.522574
21
-254.422107
31
0.0
0
LINE
8
0
6
CONTINUOUS
10
-6.522574
20
-254.422107
30
0.0
11
-13.722564
21
-254.422107
31
0.0
0
LINE
8
0
6
CONTINUOUS
10
25.077436
20
-277.422107
30
0.0
11
29.877436
21
-277.422107
31
0.0
0
LINE
8
0
6
CONTINUOUS
10
-13.722564
20
-277.422107
30
0.0
11
-6.522574
21
-277.422107
31
0.0
0
LINE
8
0
6
CONTINUOUS
10
-6.522574
20
-277.422107
30
0.0
11
0.477436
21
-277.422107
31
0.0
0
LINE
8
0
6
CONTINUOUS
10
29.877436
20
-254.422107
30
0.0
11
25.077436
21
-254.422107
31
0.0
0
LINE
8
0
6
CONTINUOUS
10
25.077436
20
-254.422107
30
0.0
11
19.677436
21
-254.422107
31
0.0
0
LINE
8
0
6
CONTINUOUS
10
13.677436
20
-277.422107
30
0.0
11
19.677426
21
-277.422107
31
0.0
0
LINE
8
0
6
CONTINUOUS
10
29.877436
20
-277.422107
30
0.0
11
33.877426
21
-277.422107
31
0.0
0
LINE
8
0
6
CONTINUOUS
10
7.277426
20
-277.422107
30
0.0
11
13.677436
21
-277.422107
31
0.0
0
LINE
8
0
6
CONTINUOUS
10
19.677426
20
-277.422107
30
0.0
11
25.077436
21
-277.422107
31
0.0
0
LINE
8
0
6
CONTINUOUS
10
40.677436
20
-254.422107
30
0.0
11
39.277436
21
-254.422107
31
0.0
0
LINE
8
0
6
CONTINUOUS
10
36.977436
20
-254.422107
30
0.0
11
33.877426
21
-254.422107
31
0.0
0
LINE
8
0
6
CONTINUOUS
10
33.877426
20
-277.422107
30
0.0
11
36.977436
21
-277.422107
31
0.0
0
LINE
8
0
6
CONTINUOUS
10
39.277436
20
-254.422107
30
0.0
11
36.977436
21
-254.422107
31
0.0
0
LINE
8
0
6
CONTINUOUS
10
7.277426
20
-254.422107
30
0.0
11
0.477436
21
-254.422107
31
0.0
0
LINE
8
0
6
CONTINUOUS
10
41.277436
20
-254.422107
30
0.0
11
40.677436
21
-254.422107
31
0.0
0
LINE
8
0
6
CONTINUOUS
10
41.277436
20
-254.922107
30
0.0
11
41.277436
21
-254.422107
31
0.0
0
LINE
8
0
6
CONTINUOUS
10
39.277436
20
-277.422107
30
0.0
11
40.677436
21
-277.422107
31
0.0
0
LINE
8
0
6
CONTINUOUS
10
41.277436
20
-277.422107
30
0.0
11
41.277436
21
-276.922107
31
0.0
0
LINE
8
0
6
CONTINUOUS
10
40.677436
20
-277.422107
30
0.0
11
41.277436
21
-277.422107
31
0.0
0
LINE
8
0
6
CONTINUOUS
10
0.477436
20
-277.422107
30
0.0
11
7.277426
21
-277.422107
31
0.0
0
LINE
8
0
6
CONTINUOUS
10
13.677436
20
-254.422107
30
0.0
11
7.277426
21
-254.422107
31
0.0
0
LINE
8
0
6
CONTINUOUS
10
33.877426
20
-254.422107
30
0.0
11
29.877436
21
-254.422107
31
0.0
0
LINE
8
0
6
CONTINUOUS
10
41.277436
20
-276.922107
30
0.0
11
41.277436
21
-254.922107
31
0.0
0
LINE
8
0
6
CONTINUOUS
10
-66.722564
20
-277.422107
30
0.0
11
-64.422564
21
-277.422107
31
0.0
0
LINE
8
0
6
CONTINUOUS
10
-41.122564
20
-254.422107
30
0.0
11
-47.122564
21
-254.422107
31
0.0
0
LINE
8
0
6
CONTINUOUS
10
-20.922554
20
-254.422107
30
0.0
11
-27.922564
21
-254.422107
31
0.0
0
LINE
8
0
6
CONTINUOUS
10
-13.722564
20
-254.422107
30
0.0
11
-20.922554
21
-254.422107
31
0.0
0
LINE
8
0
6
CONTINUOUS
10
-57.322564
20
-277.422107
30
0.0
11
-52.522564
21
-277.422107
31
0.0
0
LINE
8
0
6
CONTINUOUS
10
-20.922554
20
-277.422107
30
0.0
11
-13.722564
21
-277.422107
31
0.0
0
LINE
8
0
6
CONTINUOUS
10
-27.922564
20
-277.422107
30
0.0
11
-20.922554
21
-277.422107
31
0.0
0
LINE
8
0
6
CONTINUOUS
10
-52.522564
20
-254.422107
30
0.0
11
-57.322564
21
-254.422107
31
0.0
0
LINE
8
0
6
CONTINUOUS
10
-47.122564
20
-254.422107
30
0.0
11
-52.522564
21
-254.422107
31
0.0
0
LINE
8
0
6
CONTINUOUS
10
-47.122554
20
-277.422107
30
0.0
11
-41.122564
21
-277.422107
31
0.0
0
LINE
8
0
6
CONTINUOUS
10
-61.322554
20
-277.422107
30
0.0
11
-57.322564
21
-277.422107
31
0.0
0
LINE
8
0
6
CONTINUOUS
10
-41.122564
20
-277.422107
30
0.0
11
-34.722554
21
-277.422107
31
0.0
0
LINE
8
0
6
CONTINUOUS
10
-52.522564
20
-277.422107
30
0.0
11
-47.122554
21
-277.422107
31
0.0
0
LINE
8
0
6
CONTINUOUS
10
-66.722564
20
-254.422107
30
0.0
11
-68.122564
21
-254.422107
31
0.0
0
LINE
8
0
6
CONTINUOUS
10
-61.322554
20
-254.422107
30
0.0
11
-64.422564
21
-254.422107
31
0.0
0
LINE
8
0
6
CONTINUOUS
10
-64.422564
20
-277.422107
30
0.0
11
-61.322554
21
-277.422107
31
0.0
0
LINE
8
0
6
CONTINUOUS
10
-64.422564
20
-254.422107
30
0.0
11
-66.722564
21
-254.422107
31
0.0
0
LINE
8
0
6
CONTINUOUS
10
-27.922564
20
-254.422107
30
0.0
11
-34.722554
21
-254.422107
31
0.0
0
LINE
8
0
6
CONTINUOUS
10
-68.722564
20
-254.422107
30
0.0
11
-68.722564
21
-254.922107
31
0.0
0
LINE
8
0
6
CONTINUOUS
10
-68.122564
20
-254.422107
30
0.0
11
-68.722564
21
-254.422107
31
0.0
0
LINE
8
0
6
CONTINUOUS
10
-68.122564
20
-277.422107
30
0.0
11
-66.722564
21
-277.422107
31
0.0
0
LINE
8
0
6
CONTINUOUS
10
-68.722564
20
-277.422107
30
0.0
11
-68.122564
21
-277.422107
31
0.0
0
LINE
8
0
6
CONTINUOUS
10
-68.722564
20
-276.922107
30
0.0
11
-68.722564
21
-277.422107
31
0.0
0
LINE
8
0
6
CONTINUOUS
10
-34.722554
20
-277.422107
30
0.0
11
-27.922564
21
-277.422107
31
0.0
0
LINE
8
0
6
CONTINUOUS
10
-34.722554
20
-254.422107
30
0.0
11
-41.122564
21
-254.422107
31
0.0
0
LINE
8
0
6
CONTINUOUS
10
-57.322564
20
-254.422107
30
0.0
11
-61.322554
21
-254.422107
31
0.0
0
LINE
8
0
6
CONTINUOUS
10
-68.722564
20
-254.922107
30
0.0
11
-68.722564
21
-276.922107
31
0.0
0
LINE
8
0
6
CONTINUOUS
10
15.507695
20
95.951999
30
0.0
11
18.426063
21
95.557816
31
0.0
0
LINE
8
0
6
CONTINUOUS
10
9.253936
20
100.261079
30
0.0
11
8.532823
21
101.015548
31
0.0
0
LINE
8
0
6
CONTINUOUS
10
10.387051
20
98.937122
30
0.0
11
12.097713
21
97.618454
31
0.0
0
LINE
8
0
6
CONTINUOUS
10
15.332527
20
207.116964
30
0.0
11
15.457633
21
206.489387
31
0.0
0
LINE
8
0
6
CONTINUOUS
10
13.044188
20
207.065379
30
0.0
11
13.520574
21
207.238245
31
0.0
0
LINE
8
0
6
CONTINUOUS
10
-17.547098
20
232.987986
30
0.0
11
-17.409015
21
232.909984
31
0.0
0
LINE
8
0
6
CONTINUOUS
10
-18.791834
20
232.803580
30
0.0
11
-19.026408
21
232.048548
31
0.0
0
LINE
8
0
6
CONTINUOUS
10
41.272056
20
245.283637
30
0.0
11
42.292712
21
245.860228
31
0.0
0
LINE
8
0
6
CONTINUOUS
10
-14.488762
20
218.077296
30
0.0
11
-14.575623
21
217.353845
31
0.0
0
LINE
8
0
6
CONTINUOUS
10
-14.488762
20
218.077296
30
0.0
11
-13.458115
21
218.299789
31
0.0
0
LINE
8
0
6
CONTINUOUS
10
-11.940553
20
242.023899
30
0.0
11
-12.163160
21
241.254676
31
0.0
0
LINE
8
0
6
CONTINUOUS
10
-5.997699
20
245.718465
30
0.0
11
-6.232009
21
244.897286
31
0.0
0
LINE
8
0
6
CONTINUOUS
10
54.108305
20
223.002040
30
0.0
11
55.286914
21
222.735289
31
0.0
0
LINE
8
0
6
CONTINUOUS
10
-2.937539
20
210.807860
30
0.0
11
-2.368963
21
210.938258
31
0.0
0
LINE
8
0
6
CONTINUOUS
10
-2.937539
20
210.807860
30
0.0
11
-3.024274
21
210.108902
31
0.0
0
LINE
8
0
6
CONTINUOUS
10
-9.411555
20
213.999089
30
0.0
11
-9.498352
21
213.290251
31
0.0
0
LINE
8
0
6
CONTINUOUS
10
-9.411555
20
213.999089
30
0.0
11
-8.552561
21
214.187259
31
0.0
0
LINE
8
0
6
CONTINUOUS
10
-17.933261
20
222.717801
30
0.0
11
-16.747333
21
222.972175
31
0.0
0
LINE
8
0
6
CONTINUOUS
10
-16.747333
20
222.972175
30
0.0
11
-16.550260
21
222.885441
31
0.0
0
LINE
8
0
6
CONTINUOUS
10
-18.181360
20
227.994437
30
0.0
11
-17.787265
21
227.832700
31
0.0
0
LINE
8
0
6
CONTINUOUS
10
-19.333856
20
227.696621
30
0.0
11
-18.181360
21
227.994437
31
0.0
0
LINE
8
0
6
CONTINUOUS
10
45.893624
20
214.147782
30
0.0
11
46.701990
21
213.973053
31
0.0
0
LINE
8
0
6
CONTINUOUS
10
27.186496
20
250.299947
30
0.0
11
28.082805
21
250.218811
31
0.0
0
LINE
8
0
6
CONTINUOUS
10
9.599803
20
250.318752
30
0.0
11
8.930778
21
249.585092
31
0.0
0
LINE
8
0
6
CONTINUOUS
10
-4.885503
20
245.914982
30
0.0
11
-4.753118
21
245.944406
31
0.0
0
LINE
8
0
6
CONTINUOUS
10
-15.019820
20
237.866995
30
0.0
11
-14.385781
21
237.502307
31
0.0
0
LINE
8
0
6
CONTINUOUS
10
-16.264515
20
237.670296
30
0.0
11
-15.019820
21
237.866995
31
0.0
0
LINE
8
0
6
CONTINUOUS
10
8.987951
20
226.619675
30
0.0
11
10.571692
21
226.671613
31
0.0
0
LINE
8
0
6
CONTINUOUS
10
1.920038
20
226.784893
30
0.0
11
2.577378
21
227.044682
31
0.0
0
LINE
8
0
6
CONTINUOUS
10
4.482914
20
222.040360
30
0.0
11
5.694362
21
222.514030
31
0.0
0
LINE
8
0
6
CONTINUOUS
10
13.909834
20
222.975287
30
0.0
11
13.257713
21
222.165443
31
0.0
0
LINE
8
0
6
CONTINUOUS
10
13.726186
20
219.110176
30
0.0
11
13.888097
21
218.219332
31
0.0
0
LINE
8
0
6
CONTINUOUS
10
32.097508
20
224.133034
30
0.0
11
33.557205
21
224.536620
31
0.0
0
LINE
8
0
6
CONTINUOUS
10
24.355183
20
230.653166
30
0.0
11
25.546289
21
231.316233
31
0.0
0
LINE
8
0
6
CONTINUOUS
10
9.651966
20
235.548600
30
0.0
11
9.963295
21
235.510784
31
0.0
0
LINE
8
0
6
CONTINUOUS
10
4.404280
20
222.013116
30
0.0
11
4.482914
21
222.040360
31
0.0
0
LINE
8
0
6
CONTINUOUS
10
-1.120105
20
219.952591
30
0.0
11
0.129056
21
220.385357
31
0.0
0
LINE
8
0
6
CONTINUOUS
10
5.298650
20
216.597343
30
0.0
11
6.547864
21
217.036933
31
0.0
0
LINE
8
0
6
CONTINUOUS
10
15.856378
20
214.863585
30
0.0
11
16.013631
21
214.058401
31
0.0
0
LINE
8
0
6
CONTINUOUS
10
37.939323
20
234.116411
30
0.0
11
39.275972
21
234.664866
31
0.0
0
LINE
8
0
6
CONTINUOUS
10
24.049825
20
236.594813
30
0.0
11
24.490269
21
236.943754
31
0.0
0
LINE
8
0
6
CONTINUOUS
10
-2.038812
20
234.826709
30
0.0
11
-0.711707
21
234.268884
31
0.0
0
LINE
8
0
6
CONTINUOUS
10
2.529633
20
231.526254
30
0.0
11
2.512812
21
230.559629
31
0.0
0
LINE
8
0
6
CONTINUOUS
10
-4.281356
20
229.974901
30
0.0
11
-2.954276
21
229.425468
31
0.0
0
LINE
8
0
6
CONTINUOUS
10
-5.624784
20
229.609339
30
0.0
11
-4.281356
21
229.974901
31
0.0
0
LINE
8
0
6
CONTINUOUS
10
-8.075197
20
219.199968
30
0.0
11
-7.003371
21
219.587769
31
0.0
0
LINE
8
0
6
CONTINUOUS
10
-7.003371
20
219.587769
30
0.0
11
-5.797092
21
219.232794
31
0.0
0
LINE
8
0
6
CONTINUOUS
10
-13.458115
20
218.299789
30
0.0
11
-13.302802
21
218.336016
31
0.0
0
LINE
8
0
6
CONTINUOUS
10
-2.564719
20
215.346195
30
0.0
11
-1.492891
21
215.734706
31
0.0
0
LINE
8
0
6
CONTINUOUS
10
-8.552561
20
214.187259
30
0.0
11
-8.225577
21
214.264413
31
0.0
0
LINE
8
0
6
CONTINUOUS
10
6.796226
20
212.504612
30
0.0
11
6.930897
21
211.792801
31
0.0
0
LINE
8
0
6
CONTINUOUS
10
14.873104
20
211.000823
30
0.0
11
15.007814
21
210.293840
31
0.0
0
LINE
8
0
6
CONTINUOUS
10
14.116093
20
207.465750
30
0.0
11
15.322748
21
207.168293
31
0.0
0
LINE
8
0
6
CONTINUOUS
10
12.594492
20
210.888774
30
0.0
11
13.666457
21
211.298272
31
0.0
0
LINE
8
0
6
CONTINUOUS
10
44.415244
20
213.800716
30
0.0
11
45.523388
21
214.238225
31
0.0
0
LINE
8
0
6
CONTINUOUS
10
49.578853
20
217.893902
30
0.0
11
50.686913
21
218.345632
31
0.0
0
LINE
8
0
6
CONTINUOUS
10
-6.101533
20
238.704958
30
0.0
11
-4.963114
21
238.242942
31
0.0
0
LINE
8
0
6
CONTINUOUS
10
-14.385781
20
237.502307
30
0.0
11
-14.009629
21
237.292410
31
0.0
0
LINE
8
0
6
CONTINUOUS
10
-9.893927
20
234.215801
30
0.0
11
-8.755520
21
233.755044
31
0.0
0
LINE
8
0
6
CONTINUOUS
10
-11.279853
20
229.249721
30
0.0
11
-10.141466
21
228.793506
31
0.0
0
LINE
8
0
6
CONTINUOUS
10
-23.222564
20
71.297857
30
0.0
11
-24.266499
21
70.510760
31
0.0
0
LINE
8
0
6
CONTINUOUS
10
-4.222564
20
71.297882
30
0.0
11
-3.178605
21
70.510760
31
0.0
0
LINE
8
0
6
CONTINUOUS
10
-21.522564
20
72.308143
30
0.0
11
-22.491345
21
71.601730
31
0.0
0
LINE
8
0
6
CONTINUOUS
10
-5.922564
20
72.308182
30
0.0
11
-4.953747
21
71.601746
31
0.0
0
LINE
8
0
6
CONTINUOUS
10
-18.584796
20
73.364394
30
0.0
11
-16.522564
21
74.058715
31
0.0
0
LINE
8
0
6
CONTINUOUS
10
-10.922564
20
74.058729
30
0.0
11
-8.860256
21
73.364403
31
0.0
0
LINE
8
0
6
CONTINUOUS
10
-24.322564
20
107.676982
30
0.0
11
-24.722564
21
107.942507
31
0.0
0
LINE
8
0
6
CONTINUOUS
10
-3.122564
20
107.676976
30
0.0
11
-2.722564
21
107.942501
31
0.0
0
LINE
8
0
6
CONTINUOUS
10
-18.860852
20
104.872035
30
0.0
11
-16.522564
21
104.096197
31
0.0
0
LINE
8
0
6
CONTINUOUS
10
-16.522564
20
104.096197
30
0.0
11
-13.722564
21
103.770420
31
0.0
0
LINE
8
0
6
CONTINUOUS
10
-10.922564
20
104.096189
30
0.0
11
-8.584206
21
104.872045
31
0.0
0
LINE
8
0
6
CONTINUOUS
10
-13.722564
20
103.770420
30
0.0
11
-10.922564
21
104.096189
31
0.0
0
ENDSEC
0
EOF
