999
Erzeugt mit innoplus bad 
0
SECTION
2
HEADER
9
$ACADVER
1
AC1009
9
$DWGCODEPAGE
3
ISO8859-1
0
ENDSEC
0
SECTION
2
TABLES
0
TABLE
2
LAYER
70
1
0
LAYER
2
0
70
0
62
7
6
CONTINUOUS
0
ENDTAB
0
ENDSEC
0
SECTION
2
ENTITIES
0
LINE
8
0
6
CONTINUOUS
10
-31.110759
20
120.327814
30
0.0
11
-31.110759
21
119.827964
31
0.0
0
LINE
8
0
6
CONTINUOUS
10
-30.610759
20
120.327814
30
0.0
11
-31.110759
21
120.327814
31
0.0
0
LINE
8
0
6
CONTINUOUS
10
-31.110759
20
119.827964
30
0.0
11
-31.110759
21
57.324591
31
0.0
0
LINE
8
0
6
CONTINUOUS
10
-9.110759
20
57.324551
30
0.0
11
-9.110759
21
119.827964
31
0.0
0
LINE
8
0
6
CONTINUOUS
10
-9.110759
20
120.327814
30
0.0
11
-9.610759
21
120.327814
31
0.0
0
LINE
8
0
6
CONTINUOUS
10
-9.110759
20
119.827964
30
0.0
11
-9.110759
21
120.327814
31
0.0
0
LINE
8
0
6
CONTINUOUS
10
-22.910759
20
46.727724
30
0.0
11
-20.110759
21
46.327834
31
0.0
0
LINE
8
0
6
CONTINUOUS
10
-25.610759
20
47.827383
30
0.0
11
-22.910759
21
46.727724
31
0.0
0
LINE
8
0
6
CONTINUOUS
10
-27.910759
20
49.526873
30
0.0
11
-25.610759
21
47.827383
31
0.0
0
LINE
8
0
6
CONTINUOUS
10
-29.610759
20
51.826202
30
0.0
11
-27.910759
21
49.526873
31
0.0
0
LINE
8
0
6
CONTINUOUS
10
-30.710759
20
54.525381
30
0.0
11
-29.610759
21
51.826202
31
0.0
0
LINE
8
0
6
CONTINUOUS
10
-31.110759
20
57.324551
30
0.0
11
-30.710759
21
54.525381
31
0.0
0
LINE
8
0
6
CONTINUOUS
10
-20.110759
20
120.327814
30
0.0
11
-30.610759
21
120.327814
31
0.0
0
LINE
8
0
6
CONTINUOUS
10
-30.610769
20
120.327834
30
0.0
11
-31.110759
21
120.327834
31
0.0
0
LINE
8
0
6
CONTINUOUS
10
-20.110759
20
46.327834
30
0.0
11
-17.310759
21
46.727724
31
0.0
0
LINE
8
0
6
CONTINUOUS
10
-17.310759
20
46.727724
30
0.0
11
-14.610759
21
47.827383
31
0.0
0
LINE
8
0
6
CONTINUOUS
10
-14.610759
20
47.827383
30
0.0
11
-12.310759
21
49.526873
31
0.0
0
LINE
8
0
6
CONTINUOUS
10
-12.310759
20
49.526873
30
0.0
11
-10.610759
21
51.826202
31
0.0
0
LINE
8
0
6
CONTINUOUS
10
-10.610759
20
51.826202
30
0.0
11
-9.510759
21
54.525381
31
0.0
0
LINE
8
0
6
CONTINUOUS
10
-9.510759
20
54.525381
30
0.0
11
-9.110759
21
57.324551
31
0.0
0
LINE
8
0
6
CONTINUOUS
10
-9.610759
20
120.327814
30
0.0
11
-20.110759
21
120.327814
31
0.0
0
LINE
8
0
6
CONTINUOUS
10
-9.110799
20
120.327834
30
0.0
11
-9.610789
21
120.327834
31
0.0
0
LINE
8
0
6
CONTINUOUS
10
-20.110779
20
120.327834
30
0.0
11
-30.610769
21
120.327834
31
0.0
0
LINE
8
0
6
CONTINUOUS
10
-9.610789
20
120.327834
30
0.0
11
-20.110779
21
120.327834
31
0.0
0
LINE
8
0
6
CONTINUOUS
10
-61.621329
20
46.039304
30
0.0
11
-45.980119
21
46.019744
31
0.0
0
LINE
8
0
6
CONTINUOUS
10
-45.867649
20
54.447744
30
0.0
11
-45.980079
21
54.444624
31
0.0
0
LINE
8
0
6
CONTINUOUS
10
-45.980119
20
46.019744
30
0.0
11
-45.867699
21
46.023044
31
0.0
0
LINE
8
0
6
CONTINUOUS
10
-45.867699
20
46.050444
30
0.0
11
-45.867699
21
46.279654
31
0.0
0
LINE
8
0
6
CONTINUOUS
10
-45.867699
20
46.279654
30
0.0
11
-45.867699
21
46.695084
31
0.0
0
LINE
8
0
6
CONTINUOUS
10
-45.867699
20
46.695084
30
0.0
11
-45.867699
21
47.268374
31
0.0
0
LINE
8
0
6
CONTINUOUS
10
-45.867699
20
47.268374
30
0.0
11
-45.867699
21
47.960484
31
0.0
0
LINE
8
0
6
CONTINUOUS
10
-45.867689
20
50.257194
30
0.0
11
-45.867689
21
50.921904
31
0.0
0
LINE
8
0
6
CONTINUOUS
10
-45.867679
20
51.456444
30
0.0
11
-45.867679
21
51.824394
31
0.0
0
LINE
8
0
6
CONTINUOUS
10
-45.867649
20
54.447744
30
0.0
11
-45.867679
21
51.824394
31
0.0
0
LINE
8
0
6
CONTINUOUS
10
-45.867699
20
48.724254
30
0.0
11
-45.867699
21
47.960484
31
0.0
0
LINE
8
0
6
CONTINUOUS
10
-45.867699
20
49.507604
30
0.0
11
-45.867699
21
48.724254
31
0.0
0
LINE
8
0
6
CONTINUOUS
10
-45.867689
20
50.257194
30
0.0
11
-45.867699
21
49.507604
31
0.0
0
LINE
8
0
6
CONTINUOUS
10
-45.867679
20
51.456444
30
0.0
11
-45.867689
21
50.921904
31
0.0
0
LINE
8
0
6
CONTINUOUS
10
-61.621359
20
76.904174
30
0.0
11
-62.333999
21
76.904184
31
0.0
0
LINE
8
0
6
CONTINUOUS
10
-62.334099
20
61.228614
30
0.0
11
-62.334159
21
56.304864
31
0.0
0
LINE
8
0
6
CONTINUOUS
10
-62.334359
20
39.334334
30
0.0
11
-61.621709
21
39.334324
31
0.0
0
LINE
8
0
6
CONTINUOUS
10
-61.621709
20
39.334324
30
0.0
11
-41.360989
21
39.334154
31
0.0
0
LINE
8
0
6
CONTINUOUS
10
-41.360609
20
76.904024
30
0.0
11
-61.621359
21
76.904174
31
0.0
0
LINE
8
0
6
CONTINUOUS
10
-41.360989
20
39.334154
30
0.0
11
-41.070359
21
39.334154
31
0.0
0
LINE
8
0
6
CONTINUOUS
10
-41.070359
20
39.334154
30
0.0
11
-41.070339
21
39.504664
31
0.0
0
LINE
8
0
6
CONTINUOUS
10
-41.070339
20
39.504664
30
0.0
11
-41.070309
21
40.943674
31
0.0
0
LINE
8
0
6
CONTINUOUS
10
-41.070309
20
40.943674
30
0.0
11
-41.070269
21
43.553234
31
0.0
0
LINE
8
0
6
CONTINUOUS
10
-41.070269
20
43.553234
30
0.0
11
-41.070219
21
47.155424
31
0.0
0
LINE
8
0
6
CONTINUOUS
10
-41.070219
20
47.155424
30
0.0
11
-41.070179
21
51.504674
31
0.0
0
LINE
8
0
6
CONTINUOUS
10
-41.070119
20
56.304724
30
0.0
11
-41.070079
21
61.228514
31
0.0
0
LINE
8
0
6
CONTINUOUS
10
-41.070079
20
61.228514
30
0.0
11
-41.070049
21
65.940304
31
0.0
0
LINE
8
0
6
CONTINUOUS
10
-41.070049
20
65.940304
30
0.0
11
-41.070009
21
70.119084
31
0.0
0
LINE
8
0
6
CONTINUOUS
10
-41.070009
20
70.119084
30
0.0
11
-41.069989
21
73.480134
31
0.0
0
LINE
8
0
6
CONTINUOUS
10
-41.069989
20
73.480134
30
0.0
11
-41.069979
21
75.794374
31
0.0
0
LINE
8
0
6
CONTINUOUS
10
-41.069989
20
76.904024
30
0.0
11
-41.360609
21
76.904024
31
0.0
0
LINE
8
0
6
CONTINUOUS
10
-41.069979
20
75.794374
30
0.0
11
-41.069989
21
76.904024
31
0.0
0
LINE
8
0
6
CONTINUOUS
10
-62.334109
20
51.847614
30
0.0
11
-62.334109
21
51.481074
31
0.0
0
LINE
8
0
6
CONTINUOUS
10
-62.334149
20
46.043734
30
0.0
11
-61.621329
21
46.039304
31
0.0
0
LINE
8
0
6
CONTINUOUS
10
-62.334149
20
46.303444
30
0.0
11
-62.334149
21
46.072714
31
0.0
0
LINE
8
0
6
CONTINUOUS
10
-62.334149
20
46.720184
30
0.0
11
-62.334149
21
46.303444
31
0.0
0
LINE
8
0
6
CONTINUOUS
10
-62.334149
20
47.294544
30
0.0
11
-62.334149
21
46.720184
31
0.0
0
LINE
8
0
6
CONTINUOUS
10
-62.334139
20
47.987364
30
0.0
11
-62.334149
21
47.294544
31
0.0
0
LINE
8
0
6
CONTINUOUS
10
-62.334139
20
48.751464
30
0.0
11
-62.334139
21
47.987364
31
0.0
0
LINE
8
0
6
CONTINUOUS
10
-62.334129
20
49.534754
30
0.0
11
-62.334139
21
48.751464
31
0.0
0
LINE
8
0
6
CONTINUOUS
10
-62.334129
20
50.283854
30
0.0
11
-62.334129
21
49.534754
31
0.0
0
LINE
8
0
6
CONTINUOUS
10
-62.334119
20
50.947704
30
0.0
11
-62.334129
21
50.283854
31
0.0
0
LINE
8
0
6
CONTINUOUS
10
-62.334109
20
51.481074
30
0.0
11
-62.334119
21
50.947704
31
0.0
0
LINE
8
0
6
CONTINUOUS
10
-62.334079
20
54.458084
30
0.0
11
-62.334109
21
51.847614
31
0.0
0
LINE
8
0
6
CONTINUOUS
10
-61.621269
20
54.458924
30
0.0
11
-62.334079
21
54.458084
31
0.0
0
LINE
8
0
6
CONTINUOUS
10
-45.980079
20
54.444624
30
0.0
11
-61.621269
21
54.458924
31
0.0
0
LINE
8
0
6
CONTINUOUS
10
-62.334359
20
39.334334
30
0.0
11
-62.334339
21
39.504794
31
0.0
0
LINE
8
0
6
CONTINUOUS
10
-62.334339
20
39.504794
30
0.0
11
-62.334319
21
40.943854
31
0.0
0
LINE
8
0
6
CONTINUOUS
10
-62.334319
20
40.943854
30
0.0
11
-62.334279
21
43.553354
31
0.0
0
LINE
8
0
6
CONTINUOUS
10
-62.334279
20
43.553354
30
0.0
11
-62.334229
21
47.155524
31
0.0
0
LINE
8
0
6
CONTINUOUS
10
-62.334099
20
61.228614
30
0.0
11
-62.334059
21
65.940404
31
0.0
0
LINE
8
0
6
CONTINUOUS
10
-62.334059
20
65.940404
30
0.0
11
-62.334019
21
70.119224
31
0.0
0
LINE
8
0
6
CONTINUOUS
10
-62.334019
20
70.119224
30
0.0
11
-62.334009
21
73.480254
31
0.0
0
LINE
8
0
6
CONTINUOUS
10
-62.334009
20
73.480254
30
0.0
11
-62.333989
21
75.794484
31
0.0
0
LINE
8
0
6
CONTINUOUS
10
-62.333989
20
75.794484
30
0.0
11
-62.333999
21
76.904184
31
0.0
0
LINE
8
0
6
CONTINUOUS
10
-41.070119
20
56.304724
30
0.0
11
-41.070179
21
51.504674
31
0.0
0
LINE
8
0
6
CONTINUOUS
10
-62.334159
20
56.304864
30
0.0
11
-62.334079
21
54.458084
31
0.0
0
LINE
8
0
6
CONTINUOUS
10
-62.334079
20
54.458084
30
0.0
11
-61.621269
21
54.458924
31
0.0
0
LINE
8
0
6
CONTINUOUS
10
-31.684739
20
75.776924
30
0.0
11
-31.684739
21
75.862434
31
0.0
0
LINE
8
0
6
CONTINUOUS
10
-31.684739
20
75.776924
30
0.0
11
-31.934739
21
75.776924
31
0.0
0
LINE
8
0
6
CONTINUOUS
10
-31.684739
20
75.542014
30
0.0
11
-31.684739
21
75.776924
31
0.0
0
LINE
8
0
6
CONTINUOUS
10
-37.683619
20
75.776904
30
0.0
11
-37.683619
21
75.541984
31
0.0
0
LINE
8
0
6
CONTINUOUS
10
-37.683619
20
75.776904
30
0.0
11
-37.433619
21
75.776904
31
0.0
0
LINE
8
0
6
CONTINUOUS
10
-37.683619
20
75.862404
30
0.0
11
-37.683619
21
75.776904
31
0.0
0
LINE
8
0
6
CONTINUOUS
10
-31.684749
20
76.617684
30
0.0
11
-31.934749
21
76.617674
31
0.0
0
LINE
8
0
6
CONTINUOUS
10
-31.684749
20
76.532184
30
0.0
11
-31.684749
21
76.617684
31
0.0
0
LINE
8
0
6
CONTINUOUS
10
-37.683619
20
76.617664
30
0.0
11
-37.683619
21
76.532154
31
0.0
0
LINE
8
0
6
CONTINUOUS
10
-37.433619
20
76.617654
30
0.0
11
-37.683619
21
76.617664
31
0.0
0
LINE
8
0
6
CONTINUOUS
10
-31.684749
20
76.532184
30
0.0
11
-31.684739
21
75.862434
31
0.0
0
LINE
8
0
6
CONTINUOUS
10
-31.934739
20
75.776924
30
0.0
11
-37.433619
21
75.776904
31
0.0
0
LINE
8
0
6
CONTINUOUS
10
-37.683619
20
76.532154
30
0.0
11
-37.683619
21
75.862404
31
0.0
0
LINE
8
0
6
CONTINUOUS
10
-31.934749
20
76.617674
30
0.0
11
-37.433619
21
76.617654
31
0.0
0
LINE
8
0
6
CONTINUOUS
10
-40.488959
20
39.202894
30
0.0
11
-40.169209
21
39.202894
31
0.0
0
LINE
8
0
6
CONTINUOUS
10
-40.488959
20
39.580154
30
0.0
11
-40.488959
21
39.202894
31
0.0
0
LINE
8
0
6
CONTINUOUS
10
-40.488959
20
40.671064
30
0.0
11
-40.488959
21
39.580154
31
0.0
0
LINE
8
0
6
CONTINUOUS
10
-40.488969
20
44.800314
30
0.0
11
-40.488969
21
42.433714
31
0.0
0
LINE
8
0
6
CONTINUOUS
10
-40.488969
20
42.433714
30
0.0
11
-40.488959
21
40.671064
31
0.0
0
LINE
8
0
6
CONTINUOUS
10
-40.169209
20
39.202894
30
0.0
11
-2.564616
21
39.202997
31
0.0
0
LINE
8
0
6
CONTINUOUS
10
-40.488979
20
47.680024
30
0.0
11
-40.488969
21
44.800314
31
0.0
0
LINE
8
0
6
CONTINUOUS
10
-40.489039
20
68.733594
30
0.0
11
-40.489039
21
65.464044
31
0.0
0
LINE
8
0
6
CONTINUOUS
10
-40.489039
20
65.464044
30
0.0
11
-40.489029
21
61.913414
31
0.0
0
LINE
8
0
6
CONTINUOUS
10
-40.489029
20
61.913414
30
0.0
11
-40.489019
21
58.218194
31
0.0
0
LINE
8
0
6
CONTINUOUS
10
-40.489019
20
58.218194
30
0.0
11
-40.488999
21
54.520384
31
0.0
0
LINE
8
0
6
CONTINUOUS
10
20.318911
20
55.620604
30
0.0
11
20.318911
21
55.836744
31
0.0
0
LINE
8
0
6
CONTINUOUS
10
20.318891
20
61.913594
30
0.0
11
20.318881
21
65.464214
31
0.0
0
LINE
8
0
6
CONTINUOUS
10
20.318881
20
65.464214
30
0.0
11
20.318871
21
68.733784
31
0.0
0
LINE
8
0
6
CONTINUOUS
10
20.318871
20
71.596634
30
0.0
11
20.318851
21
73.942794
31
0.0
0
LINE
8
0
6
CONTINUOUS
10
20.318871
20
68.733784
30
0.0
11
20.318871
21
71.596634
31
0.0
0
LINE
8
0
6
CONTINUOUS
10
20.318911
20
58.218374
30
0.0
11
20.318891
21
61.913594
31
0.0
0
LINE
8
0
6
CONTINUOUS
10
20.318911
20
55.836744
30
0.0
11
20.318911
21
58.218374
31
0.0
0
LINE
8
0
6
CONTINUOUS
10
19.689888
20
55.933164
30
0.0
11
20.318911
21
55.836744
31
0.0
0
LINE
8
0
6
CONTINUOUS
10
-40.489069
20
76.747434
30
0.0
11
-40.489069
21
75.681904
31
0.0
0
LINE
8
0
6
CONTINUOUS
10
-40.489069
20
77.098314
30
0.0
11
-40.489069
21
76.747434
31
0.0
0
LINE
8
0
6
CONTINUOUS
10
-40.169329
20
77.098314
30
0.0
11
-40.489069
21
77.098314
31
0.0
0
LINE
8
0
6
CONTINUOUS
10
16.813231
20
77.098474
30
0.0
11
12.243271
21
77.098464
31
0.0
0
LINE
8
0
6
CONTINUOUS
10
12.243271
20
77.098464
30
0.0
11
7.230921
21
77.098444
31
0.0
0
LINE
8
0
6
CONTINUOUS
10
7.230921
20
77.098444
30
0.0
11
3.670601
21
77.098434
31
0.0
0
LINE
8
0
6
CONTINUOUS
10
19.918281
20
77.098484
30
0.0
11
16.813231
21
77.098474
31
0.0
0
LINE
8
0
6
CONTINUOUS
10
20.318841
20
77.098474
30
0.0
11
19.918281
21
77.098484
31
0.0
0
LINE
8
0
6
CONTINUOUS
10
20.318831
20
76.747624
30
0.0
11
20.318841
21
77.098474
31
0.0
0
LINE
8
0
6
CONTINUOUS
10
20.318851
20
73.942794
30
0.0
11
20.318851
21
75.682064
31
0.0
0
LINE
8
0
6
CONTINUOUS
10
20.318851
20
75.682064
30
0.0
11
20.318831
21
76.747624
31
0.0
0
LINE
8
0
6
CONTINUOUS
10
3.670601
20
77.098434
30
0.0
11
-9.110759
21
77.098399
31
0.0
0
LINE
8
0
6
CONTINUOUS
10
-31.110759
20
77.098338
30
0.0
11
-40.169329
21
77.098314
31
0.0
0
LINE
8
0
6
CONTINUOUS
10
-40.489039
20
68.733594
30
0.0
11
-40.489049
21
71.596464
31
0.0
0
LINE
8
0
6
CONTINUOUS
10
-40.489049
20
71.596464
30
0.0
11
-40.489059
21
73.942624
31
0.0
0
LINE
8
0
6
CONTINUOUS
10
-40.489059
20
73.942624
30
0.0
11
-40.489069
21
75.681904
31
0.0
0
LINE
8
0
6
CONTINUOUS
10
-40.488979
20
47.680024
30
0.0
11
-40.488989
21
50.962074
31
0.0
0
LINE
8
0
6
CONTINUOUS
10
-40.488989
20
50.962074
30
0.0
11
-40.488999
21
54.520384
31
0.0
0
LINE
8
0
6
CONTINUOUS
10
7.649363
20
55.566868
30
0.0
11
3.406971
21
54.416701
31
0.0
0
LINE
8
0
6
CONTINUOUS
10
-0.782351
20
-25.624844
30
0.0
11
-0.807235
21
-30.239030
31
0.0
0
LINE
8
0
6
CONTINUOUS
10
12.047160
20
56.014954
30
0.0
11
7.649363
21
55.566868
31
0.0
0
LINE
8
0
6
CONTINUOUS
10
-2.373825
20
-24.145183
30
0.0
11
-2.373114
21
-24.380443
31
0.0
0
LINE
8
0
6
CONTINUOUS
10
3.406971
20
54.416701
30
0.0
11
-0.394151
21
52.422593
31
0.0
0
LINE
8
0
6
CONTINUOUS
10
-0.394151
20
52.422593
30
0.0
11
-2.061744
21
49.160386
31
0.0
0
LINE
8
0
6
CONTINUOUS
10
-2.571287
20
41.417554
30
0.0
11
-2.569911
21
40.961349
31
0.0
0
LINE
8
0
6
CONTINUOUS
10
-2.526181
20
42.103041
30
0.0
11
-2.571287
21
41.417554
31
0.0
0
LINE
8
0
6
CONTINUOUS
10
-2.370886
20
-25.119599
30
0.0
11
-0.956798
21
-26.947774
31
0.0
0
LINE
8
0
6
CONTINUOUS
10
-0.956798
20
-26.947774
30
0.0
11
-0.789775
21
-27.001557
31
0.0
0
LINE
8
0
6
CONTINUOUS
10
-0.780740
20
-25.326545
30
0.0
11
-0.782351
21
-25.624844
31
0.0
0
LINE
8
0
6
CONTINUOUS
10
-2.105122
20
48.501351
30
0.0
11
-2.526181
21
42.103041
31
0.0
0
LINE
8
0
6
CONTINUOUS
10
-2.373114
20
-24.380443
30
0.0
11
-2.370886
21
-25.119599
31
0.0
0
LINE
8
0
6
CONTINUOUS
10
-2.061744
20
49.160386
30
0.0
11
-2.105122
21
48.501351
31
0.0
0
LINE
8
0
6
CONTINUOUS
10
-2.569911
20
40.961349
30
0.0
11
-2.373825
21
-24.145183
31
0.0
0
LINE
8
0
6
CONTINUOUS
10
20.690078
20
54.439236
30
0.0
11
16.445701
21
55.578339
31
0.0
0
LINE
8
0
6
CONTINUOUS
10
25.266113
20
-30.196337
30
0.0
11
25.220834
21
-25.590941
31
0.0
0
LINE
8
0
6
CONTINUOUS
10
16.445701
20
55.578339
30
0.0
11
12.047160
21
56.014954
31
0.0
0
LINE
8
0
6
CONTINUOUS
10
26.804453
20
-24.342398
30
0.0
11
26.804042
21
-24.107132
31
0.0
0
LINE
8
0
6
CONTINUOUS
10
24.494643
20
52.455046
30
0.0
11
20.690078
21
54.439236
31
0.0
0
LINE
8
0
6
CONTINUOUS
10
26.167922
20
49.197202
30
0.0
11
24.494643
21
52.455046
31
0.0
0
LINE
8
0
6
CONTINUOUS
10
26.690950
20
41.455709
30
0.0
11
26.644646
21
42.141081
31
0.0
0
LINE
8
0
6
CONTINUOUS
10
26.691736
20
40.999504
30
0.0
11
26.690950
21
41.455709
31
0.0
0
LINE
8
0
6
CONTINUOUS
10
25.392497
20
-26.913422
30
0.0
11
26.805731
21
-25.081548
31
0.0
0
LINE
8
0
6
CONTINUOUS
10
25.234341
20
-26.964769
30
0.0
11
25.392497
21
-26.913422
31
0.0
0
LINE
8
0
6
CONTINUOUS
10
25.220834
20
-25.590941
30
0.0
11
25.217904
21
-25.292639
31
0.0
0
LINE
8
0
6
CONTINUOUS
10
26.644646
20
42.141081
30
0.0
11
26.212444
21
48.538276
31
0.0
0
LINE
8
0
6
CONTINUOUS
10
26.805731
20
-25.081548
30
0.0
11
26.804453
21
-24.342398
31
0.0
0
LINE
8
0
6
CONTINUOUS
10
26.212444
20
48.538276
30
0.0
11
26.167922
21
49.197202
31
0.0
0
LINE
8
0
6
CONTINUOUS
10
26.804042
20
-24.107132
30
0.0
11
26.691736
21
40.999504
31
0.0
0
LINE
8
0
6
CONTINUOUS
10
62.334145
20
-77.570226
30
0.0
11
62.078071
21
-73.570933
31
0.0
0
LINE
8
0
6
CONTINUOUS
10
62.078071
20
-73.570933
30
0.0
11
60.813660
21
-64.608211
31
0.0
0
LINE
8
0
6
CONTINUOUS
10
60.813660
20
-64.608211
30
0.0
11
60.377577
21
-62.762648
31
0.0
0
LINE
8
0
6
CONTINUOUS
10
59.761405
20
-60.954121
30
0.0
11
56.145133
21
-52.628588
31
0.0
0
LINE
8
0
6
CONTINUOUS
10
56.145133
20
-52.628588
30
0.0
11
55.393678
21
-51.022220
31
0.0
0
LINE
8
0
6
CONTINUOUS
10
48.922107
20
-42.769943
30
0.0
11
41.487514
21
-36.770233
31
0.0
0
LINE
8
0
6
CONTINUOUS
10
41.487514
20
-36.770233
30
0.0
11
32.589951
21
-32.260288
31
0.0
0
LINE
8
0
6
CONTINUOUS
10
32.589951
20
-32.260288
30
0.0
11
22.675602
21
-29.466298
31
0.0
0
LINE
8
0
6
CONTINUOUS
10
22.675602
20
-29.466298
30
0.0
11
12.241656
21
-28.528378
31
0.0
0
LINE
8
0
6
CONTINUOUS
10
12.241656
20
-28.528378
30
0.0
11
1.811132
21
-29.493523
31
0.0
0
LINE
8
0
6
CONTINUOUS
10
1.811132
20
-29.493523
30
0.0
11
-8.092737
21
-32.313374
31
0.0
0
LINE
8
0
6
CONTINUOUS
10
-8.092737
20
-32.313374
30
0.0
11
-16.973410
21
-36.846498
31
0.0
0
LINE
8
0
6
CONTINUOUS
10
-16.973410
20
-36.846498
30
0.0
11
-24.385562
21
-42.865600
31
0.0
0
LINE
8
0
6
CONTINUOUS
10
-31.582529
20
-52.743056
30
0.0
11
-35.167674
21
-61.077981
31
0.0
0
LINE
8
0
6
CONTINUOUS
10
-30.830883
20
-51.134734
30
0.0
11
-31.582529
21
-52.743056
31
0.0
0
LINE
8
0
6
CONTINUOUS
10
-36.218841
20
-64.734844
30
0.0
11
-37.449782
21
-73.700713
31
0.0
0
LINE
8
0
6
CONTINUOUS
10
-35.783362
20
-62.888121
30
0.0
11
-36.218841
21
-64.734844
31
0.0
0
LINE
8
0
6
CONTINUOUS
10
-37.449782
20
-73.700713
30
0.0
11
-37.703968
21
-77.700683
31
0.0
0
LINE
8
0
6
CONTINUOUS
10
60.377577
20
-62.762648
30
0.0
11
59.761405
21
-60.954121
31
0.0
0
LINE
8
0
6
CONTINUOUS
10
-35.167674
20
-61.077981
30
0.0
11
-35.783362
21
-62.888121
31
0.0
0
LINE
8
0
6
CONTINUOUS
10
-32.717700
20
-95.406550
30
0.0
11
-26.744245
21
-103.076268
31
0.0
0
LINE
8
0
6
CONTINUOUS
10
1.258506
20
-117.270117
30
0.0
11
12.390712
21
-118.270820
31
0.0
0
LINE
8
0
6
CONTINUOUS
10
43.560577
20
-109.396120
30
0.0
11
51.468709
21
-102.974256
31
0.0
0
LINE
8
0
6
CONTINUOUS
10
34.085658
20
-114.232567
30
0.0
11
43.560577
21
-109.396120
31
0.0
0
LINE
8
0
6
CONTINUOUS
10
-36.433035
20
-86.852917
30
0.0
11
-32.717700
21
-95.406550
31
0.0
0
LINE
8
0
6
CONTINUOUS
10
-37.703937
20
-77.844319
30
0.0
11
-36.433035
21
-86.852917
31
0.0
0
LINE
8
0
6
CONTINUOUS
10
-37.703968
20
-77.700683
30
0.0
11
-37.703937
21
-77.844319
31
0.0
0
LINE
8
0
6
CONTINUOUS
10
62.334177
20
-77.713860
30
0.0
11
62.334145
21
-77.570226
31
0.0
0
LINE
8
0
6
CONTINUOUS
10
61.096916
20
-86.725731
30
0.0
11
62.334177
21
-77.713860
31
0.0
0
LINE
8
0
6
CONTINUOUS
10
-9.319253
20
-114.289161
30
0.0
11
1.258506
21
-117.270117
31
0.0
0
LINE
8
0
6
CONTINUOUS
10
57.413524
20
-95.288999
30
0.0
11
61.096916
21
-86.725731
31
0.0
0
LINE
8
0
6
CONTINUOUS
10
-18.812181
20
-109.477462
30
0.0
11
-9.319253
21
-114.289161
31
0.0
0
LINE
8
0
6
CONTINUOUS
10
23.519077
20
-117.241082
30
0.0
11
34.085658
21
-114.232567
31
0.0
0
LINE
8
0
6
CONTINUOUS
10
12.390712
20
-118.270820
30
0.0
11
23.519077
21
-117.241082
31
0.0
0
LINE
8
0
6
CONTINUOUS
10
51.468709
20
-102.974256
30
0.0
11
57.413524
21
-95.288999
31
0.0
0
LINE
8
0
6
CONTINUOUS
10
-26.744245
20
-103.076268
30
0.0
11
-18.812181
21
-109.477462
31
0.0
0
LINE
8
0
6
CONTINUOUS
10
-37.703754
20
-78.626246
30
0.0
11
-36.432853
21
-87.634853
31
0.0
0
LINE
8
0
6
CONTINUOUS
10
-37.703892
20
-78.046606
30
0.0
11
-37.703754
21
-78.626246
31
0.0
0
LINE
8
0
6
CONTINUOUS
10
62.334369
20
-78.495799
30
0.0
11
62.334231
21
-77.916149
31
0.0
0
LINE
8
0
6
CONTINUOUS
10
61.097108
20
-87.507648
30
0.0
11
62.334369
21
-78.495799
31
0.0
0
LINE
8
0
6
CONTINUOUS
10
-25.521183
20
-105.608757
30
0.0
11
-17.837330
21
-111.809647
31
0.0
0
LINE
8
0
6
CONTINUOUS
10
-26.379397
20
-104.828254
30
0.0
11
-25.521183
21
-105.608757
31
0.0
0
LINE
8
0
6
CONTINUOUS
10
51.103925
20
-104.727198
30
0.0
11
56.993275
21
-97.113639
31
0.0
0
LINE
8
0
6
CONTINUOUS
10
12.389130
20
-120.327834
30
0.0
11
23.169255
21
-119.330311
31
0.0
0
LINE
8
0
6
CONTINUOUS
10
23.169255
20
-119.330311
30
0.0
11
33.405175
21
-116.415954
31
0.0
0
LINE
8
0
6
CONTINUOUS
10
-17.837330
20
-111.809647
30
0.0
11
-8.641465
21
-116.470788
31
0.0
0
LINE
8
0
6
CONTINUOUS
10
60.642305
20
-88.630239
30
0.0
11
61.097108
21
-87.507648
31
0.0
0
LINE
8
0
6
CONTINUOUS
10
56.993275
20
-97.113639
30
0.0
11
60.642305
21
-88.630239
31
0.0
0
LINE
8
0
6
CONTINUOUS
10
33.405175
20
-116.415954
30
0.0
11
42.583596
21
-111.730858
31
0.0
0
LINE
8
0
6
CONTINUOUS
10
-8.641465
20
-116.470788
30
0.0
11
1.605284
21
-119.358430
31
0.0
0
LINE
8
0
6
CONTINUOUS
10
-35.977816
20
-88.756259
30
0.0
11
-32.297139
21
-97.230097
31
0.0
0
LINE
8
0
6
CONTINUOUS
10
-36.432853
20
-87.634853
30
0.0
11
-35.977816
21
-88.756259
31
0.0
0
LINE
8
0
6
CONTINUOUS
10
50.244258
20
-105.509952
30
0.0
11
51.103925
21
-104.727198
31
0.0
0
LINE
8
0
6
CONTINUOUS
10
42.583596
20
-111.730858
30
0.0
11
50.244258
21
-105.509952
31
0.0
0
LINE
8
0
6
CONTINUOUS
10
1.605284
20
-119.358430
30
0.0
11
12.389130
21
-120.327834
31
0.0
0
LINE
8
0
6
CONTINUOUS
10
-32.297139
20
-97.230097
30
0.0
11
-26.379397
21
-104.828254
31
0.0
0
LINE
8
0
6
CONTINUOUS
10
62.334210
20
-77.842864
30
0.0
11
62.325217
21
-77.779120
31
0.0
0
LINE
8
0
6
CONTINUOUS
10
-37.694944
20
-77.908067
30
0.0
11
-37.703904
21
-77.973331
31
0.0
0
LINE
8
0
6
CONTINUOUS
10
54.957287
20
-50.379683
30
0.0
11
49.300600
21
-43.116723
31
0.0
0
LINE
8
0
6
CONTINUOUS
10
49.300600
20
-43.116723
30
0.0
11
48.922107
21
-42.769943
31
0.0
0
LINE
8
0
6
CONTINUOUS
10
-24.764680
20
-43.213349
30
0.0
11
-30.394223
21
-50.491059
31
0.0
0
LINE
8
0
6
CONTINUOUS
10
-24.385562
20
-42.865600
30
0.0
11
-24.764680
21
-43.213349
31
0.0
0
LINE
8
0
6
CONTINUOUS
10
55.393678
20
-51.022220
30
0.0
11
54.957287
21
-50.379683
31
0.0
0
LINE
8
0
6
CONTINUOUS
10
-30.394223
20
-50.491059
30
0.0
11
-30.830883
21
-51.134734
31
0.0
0
LINE
8
0
6
CONTINUOUS
10
19.399711
20
78.738514
30
0.0
11
19.399711
21
77.098482
31
0.0
0
LINE
8
0
6
CONTINUOUS
10
3.399701
20
78.738494
30
0.0
11
3.399701
21
77.098433
31
0.0
0
LINE
8
0
6
CONTINUOUS
10
19.399701
20
84.933274
30
0.0
11
19.399711
21
78.738514
31
0.0
0
LINE
8
0
6
CONTINUOUS
10
3.399701
20
84.933264
30
0.0
11
3.399701
21
78.738494
31
0.0
0
LINE
8
0
6
CONTINUOUS
10
19.399711
20
89.478944
30
0.0
11
19.399701
21
84.933274
31
0.0
0
LINE
8
0
6
CONTINUOUS
10
3.399701
20
89.478924
30
0.0
11
3.399701
21
84.933264
31
0.0
0
LINE
8
0
6
CONTINUOUS
10
19.399711
20
92.926514
30
0.0
11
19.399711
21
89.478944
31
0.0
0
LINE
8
0
6
CONTINUOUS
10
3.399701
20
92.926494
30
0.0
11
3.399701
21
89.478924
31
0.0
0
LINE
8
0
6
CONTINUOUS
10
19.399711
20
95.138064
30
0.0
11
19.399711
21
92.926514
31
0.0
0
LINE
8
0
6
CONTINUOUS
10
3.399701
20
95.138044
30
0.0
11
3.399701
21
92.926494
31
0.0
0
LINE
8
0
6
CONTINUOUS
10
19.399701
20
96.369354
30
0.0
11
19.399711
21
95.138064
31
0.0
0
LINE
8
0
6
CONTINUOUS
10
3.399701
20
96.369334
30
0.0
11
3.399701
21
95.138044
31
0.0
0
LINE
8
0
6
CONTINUOUS
10
19.399701
20
96.876124
30
0.0
11
19.399701
21
96.369354
31
0.0
0
LINE
8
0
6
CONTINUOUS
10
3.399711
20
96.876104
30
0.0
11
3.399701
21
96.369334
31
0.0
0
LINE
8
0
6
CONTINUOUS
10
18.327901
20
100.914104
30
0.0
11
19.399711
21
96.914124
31
0.0
0
LINE
8
0
6
CONTINUOUS
10
7.399701
20
103.842284
30
0.0
11
11.399701
21
104.914074
31
0.0
0
LINE
8
0
6
CONTINUOUS
10
15.399701
20
103.842284
30
0.0
11
18.327901
21
100.914104
31
0.0
0
LINE
8
0
6
CONTINUOUS
10
4.471482
20
100.914084
30
0.0
11
3.399692
21
96.914104
31
0.0
0
LINE
8
0
6
CONTINUOUS
10
3.399701
20
96.914104
30
0.0
11
4.471501
21
100.914084
31
0.0
0
LINE
8
0
6
CONTINUOUS
10
7.399682
20
103.842284
30
0.0
11
4.471482
21
100.914084
31
0.0
0
LINE
8
0
6
CONTINUOUS
10
4.471501
20
100.914084
30
0.0
11
7.399701
21
103.842284
31
0.0
0
LINE
8
0
6
CONTINUOUS
10
11.399701
20
104.914074
30
0.0
11
15.399701
21
103.842284
31
0.0
0
LINE
8
0
6
CONTINUOUS
10
22.974640
20
53.247772
30
0.0
11
22.276624
21
59.594907
31
0.0
0
LINE
8
0
6
CONTINUOUS
10
20.898638
20
64.278838
30
0.0
11
20.318869
21
64.941770
31
0.0
0
LINE
8
0
6
CONTINUOUS
10
21.909569
20
62.134058
30
0.0
11
20.898638
21
64.278838
31
0.0
0
LINE
8
0
6
CONTINUOUS
10
22.250325
20
59.834091
30
0.0
11
21.909569
21
62.134058
31
0.0
0
LINE
8
0
6
CONTINUOUS
10
22.276624
20
59.594907
30
0.0
11
22.250325
21
59.834091
31
0.0
0
LINE
8
0
6
CONTINUOUS
10
12.714866
20
59.068714
30
0.0
11
15.028998
21
58.714997
31
0.0
0
ENDSEC
0
EOF
