999
Erzeugt mit innoplus bad 
0
SECTION
2
HEADER
9
$ACADVER
1
AC1009
9
$DWGCODEPAGE
3
ISO8859-1
0
ENDSEC
0
SECTION
2
TABLES
0
TABLE
2
LAYER
70
1
0
LAYER
2
0
70
0
62
7
6
CONTINUOUS
0
ENDTAB
0
ENDSEC
0
SECTION
2
ENTITIES
0
LINE
8
0
6
CONTINUOUS
10
-9.110759
20
-281.706772
30
0.0
11
-9.110759
21
-281.125962
31
0.0
0
LINE
8
0
6
CONTINUOUS
10
-31.110759
20
-281.125962
30
0.0
11
-31.110759
21
-281.706772
31
0.0
0
LINE
8
0
6
CONTINUOUS
10
-9.110759
20
-281.125962
30
0.0
11
-9.110759
21
70.210807
31
0.0
0
LINE
8
0
6
CONTINUOUS
10
-9.110759
20
107.942501
30
0.0
11
-9.110759
21
206.335233
31
0.0
0
LINE
8
0
6
CONTINUOUS
10
-9.110759
20
276.737625
30
0.0
11
-9.110759
21
281.065132
31
0.0
0
LINE
8
0
6
CONTINUOUS
10
-31.110759
20
281.065132
30
0.0
11
-31.110759
21
262.323078
31
0.0
0
LINE
8
0
6
CONTINUOUS
10
-31.110759
20
219.624942
30
0.0
11
-31.110759
21
107.942507
31
0.0
0
LINE
8
0
6
CONTINUOUS
10
-31.110759
20
70.210801
30
0.0
11
-31.110759
21
-281.125962
31
0.0
0
LINE
8
0
6
CONTINUOUS
10
-31.110759
20
-281.706772
30
0.0
11
-31.110759
21
-281.921412
31
0.0
0
LINE
8
0
6
CONTINUOUS
10
-9.110759
20
-281.921412
30
0.0
11
-9.110759
21
-281.706772
31
0.0
0
LINE
8
0
6
CONTINUOUS
10
-9.110759
20
281.065132
30
0.0
11
-9.110759
21
281.607772
31
0.0
0
LINE
8
0
6
CONTINUOUS
10
-31.110759
20
281.607772
30
0.0
11
-31.110759
21
281.065132
31
0.0
0
LINE
8
0
6
CONTINUOUS
10
-22.910759
20
282.422132
30
0.0
11
-20.110759
21
282.422132
31
0.0
0
LINE
8
0
6
CONTINUOUS
10
-25.610759
20
282.422132
30
0.0
11
-22.910759
21
282.422132
31
0.0
0
LINE
8
0
6
CONTINUOUS
10
-27.910759
20
282.422132
30
0.0
11
-25.610759
21
282.422132
31
0.0
0
LINE
8
0
6
CONTINUOUS
10
-29.610759
20
282.422132
30
0.0
11
-27.910759
21
282.422132
31
0.0
0
LINE
8
0
6
CONTINUOUS
10
-30.710759
20
282.422132
30
0.0
11
-29.610759
21
282.422132
31
0.0
0
LINE
8
0
6
CONTINUOUS
10
-31.110759
20
333.790690
30
0.0
11
-31.110759
21
283.130902
31
0.0
0
LINE
8
0
6
CONTINUOUS
10
-31.110759
20
283.130902
30
0.0
11
-31.110759
21
282.422132
31
0.0
0
LINE
8
0
6
CONTINUOUS
10
-31.110759
20
282.422132
30
0.0
11
-30.710759
21
282.422132
31
0.0
0
LINE
8
0
6
CONTINUOUS
10
-20.110759
20
282.422132
30
0.0
11
-17.310759
21
282.422132
31
0.0
0
LINE
8
0
6
CONTINUOUS
10
-17.310759
20
282.422132
30
0.0
11
-14.610759
21
282.422132
31
0.0
0
LINE
8
0
6
CONTINUOUS
10
-14.610759
20
282.422132
30
0.0
11
-12.310759
21
282.422132
31
0.0
0
LINE
8
0
6
CONTINUOUS
10
-12.310759
20
282.422132
30
0.0
11
-10.610759
21
282.422132
31
0.0
0
LINE
8
0
6
CONTINUOUS
10
-10.610759
20
282.422132
30
0.0
11
-9.510759
21
282.422132
31
0.0
0
LINE
8
0
6
CONTINUOUS
10
-9.110759
20
283.130902
30
0.0
11
-9.110759
21
333.790690
31
0.0
0
LINE
8
0
6
CONTINUOUS
10
-9.110759
20
282.422132
30
0.0
11
-9.110759
21
283.130902
31
0.0
0
LINE
8
0
6
CONTINUOUS
10
-9.510759
20
282.422132
30
0.0
11
-9.110759
21
282.422132
31
0.0
0
LINE
8
0
6
CONTINUOUS
10
-9.110759
20
281.921372
30
0.0
11
-9.610759
21
282.422132
31
0.0
0
LINE
8
0
6
CONTINUOUS
10
-17.310759
20
281.921372
30
0.0
11
-20.110759
21
281.921372
31
0.0
0
LINE
8
0
6
CONTINUOUS
10
-14.610759
20
281.921372
30
0.0
11
-17.310759
21
281.921372
31
0.0
0
LINE
8
0
6
CONTINUOUS
10
-12.310759
20
281.921372
30
0.0
11
-14.610759
21
281.921372
31
0.0
0
LINE
8
0
6
CONTINUOUS
10
-10.610759
20
281.921372
30
0.0
11
-12.310759
21
281.921372
31
0.0
0
LINE
8
0
6
CONTINUOUS
10
-9.510759
20
281.921372
30
0.0
11
-10.610759
21
281.921372
31
0.0
0
LINE
8
0
6
CONTINUOUS
10
-9.110759
20
281.921372
30
0.0
11
-9.510759
21
281.921372
31
0.0
0
LINE
8
0
6
CONTINUOUS
10
-9.110759
20
281.607772
30
0.0
11
-9.110759
21
281.921372
31
0.0
0
LINE
8
0
6
CONTINUOUS
10
-17.310759
20
-281.921412
30
0.0
11
-20.110759
21
-281.921412
31
0.0
0
LINE
8
0
6
CONTINUOUS
10
-20.110759
20
-282.422112
30
0.0
11
-17.410759
21
-282.422112
31
0.0
0
LINE
8
0
6
CONTINUOUS
10
-14.610759
20
-281.921412
30
0.0
11
-17.310759
21
-281.921412
31
0.0
0
LINE
8
0
6
CONTINUOUS
10
-17.410759
20
-282.422112
30
0.0
11
-14.910759
21
-282.422112
31
0.0
0
LINE
8
0
6
CONTINUOUS
10
-14.910759
20
-282.422112
30
0.0
11
-12.710759
21
-282.422112
31
0.0
0
LINE
8
0
6
CONTINUOUS
10
-12.310759
20
-281.921412
30
0.0
11
-14.610759
21
-281.921412
31
0.0
0
LINE
8
0
6
CONTINUOUS
10
-12.710759
20
-282.422112
30
0.0
11
-11.010759
21
-282.422112
31
0.0
0
LINE
8
0
6
CONTINUOUS
10
-10.610759
20
-281.921412
30
0.0
11
-12.310759
21
-281.921412
31
0.0
0
LINE
8
0
6
CONTINUOUS
10
-9.510759
20
-281.921412
30
0.0
11
-10.610759
21
-281.921412
31
0.0
0
LINE
8
0
6
CONTINUOUS
10
-11.010759
20
-282.422112
30
0.0
11
-10.010759
21
-282.422112
31
0.0
0
LINE
8
0
6
CONTINUOUS
10
-9.110759
20
-281.921412
30
0.0
11
-9.510759
21
-281.921412
31
0.0
0
LINE
8
0
6
CONTINUOUS
10
-9.610759
20
-282.422112
30
0.0
11
-9.110759
21
-281.921412
31
0.0
0
LINE
8
0
6
CONTINUOUS
10
-10.010759
20
-282.422112
30
0.0
11
-9.610759
21
-282.422112
31
0.0
0
LINE
8
0
6
CONTINUOUS
10
-30.610759
20
282.422132
30
0.0
11
-31.110759
21
281.921372
31
0.0
0
LINE
8
0
6
CONTINUOUS
10
-20.110759
20
281.921372
30
0.0
11
-22.910759
21
281.921372
31
0.0
0
LINE
8
0
6
CONTINUOUS
10
-22.910759
20
281.921372
30
0.0
11
-25.610759
21
281.921372
31
0.0
0
LINE
8
0
6
CONTINUOUS
10
-25.610759
20
281.921372
30
0.0
11
-27.910759
21
281.921372
31
0.0
0
LINE
8
0
6
CONTINUOUS
10
-27.910759
20
281.921372
30
0.0
11
-29.610759
21
281.921372
31
0.0
0
LINE
8
0
6
CONTINUOUS
10
-29.610759
20
281.921372
30
0.0
11
-30.710759
21
281.921372
31
0.0
0
LINE
8
0
6
CONTINUOUS
10
-31.110759
20
281.921372
30
0.0
11
-31.110759
21
281.607772
31
0.0
0
LINE
8
0
6
CONTINUOUS
10
-30.710759
20
281.921372
30
0.0
11
-31.110759
21
281.921372
31
0.0
0
LINE
8
0
6
CONTINUOUS
10
-20.110759
20
-281.921412
30
0.0
11
-22.910759
21
-281.921412
31
0.0
0
LINE
8
0
6
CONTINUOUS
10
-22.810759
20
-282.422112
30
0.0
11
-20.110759
21
-282.422112
31
0.0
0
LINE
8
0
6
CONTINUOUS
10
-22.910759
20
-281.921412
30
0.0
11
-25.610759
21
-281.921412
31
0.0
0
LINE
8
0
6
CONTINUOUS
10
-25.310759
20
-282.422112
30
0.0
11
-22.810759
21
-282.422112
31
0.0
0
LINE
8
0
6
CONTINUOUS
10
-27.510759
20
-282.422112
30
0.0
11
-25.310759
21
-282.422112
31
0.0
0
LINE
8
0
6
CONTINUOUS
10
-25.610759
20
-281.921412
30
0.0
11
-27.910759
21
-281.921412
31
0.0
0
LINE
8
0
6
CONTINUOUS
10
-29.210759
20
-282.422112
30
0.0
11
-27.510759
21
-282.422112
31
0.0
0
LINE
8
0
6
CONTINUOUS
10
-27.910759
20
-281.921412
30
0.0
11
-29.610759
21
-281.921412
31
0.0
0
LINE
8
0
6
CONTINUOUS
10
-29.610759
20
-281.921412
30
0.0
11
-30.710759
21
-281.921412
31
0.0
0
LINE
8
0
6
CONTINUOUS
10
-30.210759
20
-282.422112
30
0.0
11
-29.210759
21
-282.422112
31
0.0
0
LINE
8
0
6
CONTINUOUS
10
-31.110759
20
-281.921412
30
0.0
11
-30.610759
21
-282.422112
31
0.0
0
LINE
8
0
6
CONTINUOUS
10
-30.710759
20
-281.921412
30
0.0
11
-31.110759
21
-281.921412
31
0.0
0
LINE
8
0
6
CONTINUOUS
10
-30.610759
20
-282.422112
30
0.0
11
-30.210759
21
-282.422112
31
0.0
0
LINE
8
0
6
CONTINUOUS
10
-20.110759
20
334.500000
30
0.0
11
-22.910759
21
334.500000
31
0.0
0
LINE
8
0
6
CONTINUOUS
10
-22.910759
20
334.500000
30
0.0
11
-25.610759
21
334.500000
31
0.0
0
LINE
8
0
6
CONTINUOUS
10
-25.610759
20
334.500000
30
0.0
11
-27.910759
21
334.500000
31
0.0
0
LINE
8
0
6
CONTINUOUS
10
-27.910759
20
334.500000
30
0.0
11
-29.610759
21
334.500000
31
0.0
0
LINE
8
0
6
CONTINUOUS
10
-29.610759
20
334.500000
30
0.0
11
-30.710759
21
334.500000
31
0.0
0
LINE
8
0
6
CONTINUOUS
10
-31.110759
20
334.500000
30
0.0
11
-31.110759
21
333.790690
31
0.0
0
LINE
8
0
6
CONTINUOUS
10
-30.710759
20
334.500000
30
0.0
11
-31.110759
21
334.500000
31
0.0
0
LINE
8
0
6
CONTINUOUS
10
-17.310759
20
334.500000
30
0.0
11
-20.110759
21
334.500000
31
0.0
0
LINE
8
0
6
CONTINUOUS
10
-14.610759
20
334.500000
30
0.0
11
-17.310759
21
334.500000
31
0.0
0
LINE
8
0
6
CONTINUOUS
10
-12.310759
20
334.500000
30
0.0
11
-14.610759
21
334.500000
31
0.0
0
LINE
8
0
6
CONTINUOUS
10
-10.610759
20
334.500000
30
0.0
11
-12.310759
21
334.500000
31
0.0
0
LINE
8
0
6
CONTINUOUS
10
-9.510759
20
334.500000
30
0.0
11
-10.610759
21
334.500000
31
0.0
0
LINE
8
0
6
CONTINUOUS
10
-9.110759
20
334.500000
30
0.0
11
-9.510759
21
334.500000
31
0.0
0
LINE
8
0
6
CONTINUOUS
10
-9.110759
20
333.790690
30
0.0
11
-9.110759
21
334.500000
31
0.0
0
LINE
8
0
6
CONTINUOUS
10
-22.910769
20
-334.500000
30
0.0
11
-20.110779
21
-334.500000
31
0.0
0
LINE
8
0
6
CONTINUOUS
10
-25.610769
20
-334.500000
30
0.0
11
-22.910769
21
-334.500000
31
0.0
0
LINE
8
0
6
CONTINUOUS
10
-27.910769
20
-334.500000
30
0.0
11
-25.610769
21
-334.500000
31
0.0
0
LINE
8
0
6
CONTINUOUS
10
-29.610789
20
-334.500000
30
0.0
11
-27.910769
21
-334.500000
31
0.0
0
LINE
8
0
6
CONTINUOUS
10
-30.710789
20
-334.500000
30
0.0
11
-29.610789
21
-334.500000
31
0.0
0
LINE
8
0
6
CONTINUOUS
10
-31.110759
20
-283.131482
30
0.0
11
-31.110759
21
-333.791240
31
0.0
0
LINE
8
0
6
CONTINUOUS
10
-31.110759
20
-333.791240
30
0.0
11
-31.110759
21
-334.500000
31
0.0
0
LINE
8
0
6
CONTINUOUS
10
-31.110759
20
-334.500000
30
0.0
11
-30.710789
21
-334.500000
31
0.0
0
LINE
8
0
6
CONTINUOUS
10
-20.110779
20
-334.500000
30
0.0
11
-17.310789
21
-334.500000
31
0.0
0
LINE
8
0
6
CONTINUOUS
10
-17.310789
20
-334.500000
30
0.0
11
-14.610789
21
-334.500000
31
0.0
0
LINE
8
0
6
CONTINUOUS
10
-14.610789
20
-334.500000
30
0.0
11
-12.310789
21
-334.500000
31
0.0
0
LINE
8
0
6
CONTINUOUS
10
-12.310789
20
-334.500000
30
0.0
11
-10.610769
21
-334.500000
31
0.0
0
LINE
8
0
6
CONTINUOUS
10
-10.610769
20
-334.500000
30
0.0
11
-9.510769
21
-334.500000
31
0.0
0
LINE
8
0
6
CONTINUOUS
10
-9.110799
20
-333.791240
30
0.0
11
-9.110799
21
-283.131482
31
0.0
0
LINE
8
0
6
CONTINUOUS
10
-9.110799
20
-334.500000
30
0.0
11
-9.110799
21
-333.791240
31
0.0
0
LINE
8
0
6
CONTINUOUS
10
-9.510769
20
-334.500000
30
0.0
11
-9.110799
21
-334.500000
31
0.0
0
LINE
8
0
6
CONTINUOUS
10
-20.110779
20
-282.422112
30
0.0
11
-22.910769
21
-282.422112
31
0.0
0
LINE
8
0
6
CONTINUOUS
10
-22.910769
20
-282.422112
30
0.0
11
-25.610769
21
-282.422112
31
0.0
0
LINE
8
0
6
CONTINUOUS
10
-25.610769
20
-282.422112
30
0.0
11
-27.910769
21
-282.422112
31
0.0
0
LINE
8
0
6
CONTINUOUS
10
-27.910769
20
-282.422112
30
0.0
11
-29.610789
21
-282.422112
31
0.0
0
LINE
8
0
6
CONTINUOUS
10
-29.610789
20
-282.422112
30
0.0
11
-30.710789
21
-282.422112
31
0.0
0
LINE
8
0
6
CONTINUOUS
10
-31.110759
20
-282.422112
30
0.0
11
-31.110759
21
-283.131482
31
0.0
0
LINE
8
0
6
CONTINUOUS
10
-30.710789
20
-282.422112
30
0.0
11
-31.110759
21
-282.422112
31
0.0
0
LINE
8
0
6
CONTINUOUS
10
-17.310789
20
-282.422112
30
0.0
11
-20.110779
21
-282.422112
31
0.0
0
LINE
8
0
6
CONTINUOUS
10
-14.610789
20
-282.422112
30
0.0
11
-17.310789
21
-282.422112
31
0.0
0
LINE
8
0
6
CONTINUOUS
10
-12.310789
20
-282.422112
30
0.0
11
-14.610789
21
-282.422112
31
0.0
0
LINE
8
0
6
CONTINUOUS
10
-10.610769
20
-282.422112
30
0.0
11
-12.310789
21
-282.422112
31
0.0
0
LINE
8
0
6
CONTINUOUS
10
-9.510769
20
-282.422112
30
0.0
11
-10.610769
21
-282.422112
31
0.0
0
LINE
8
0
6
CONTINUOUS
10
-9.110799
20
-282.422112
30
0.0
11
-9.510769
21
-282.422112
31
0.0
0
LINE
8
0
6
CONTINUOUS
10
-9.110799
20
-283.131482
30
0.0
11
-9.110799
21
-282.422112
31
0.0
0
LINE
8
0
6
CONTINUOUS
10
-45.980119
20
116.357620
30
0.0
11
-61.621319
21
116.359530
31
0.0
0
LINE
8
0
6
CONTINUOUS
10
-45.867699
20
113.864370
30
0.0
11
-45.867699
21
114.614040
31
0.0
0
LINE
8
0
6
CONTINUOUS
10
-45.867699
20
114.614040
30
0.0
11
-45.867699
21
115.278980
31
0.0
0
LINE
8
0
6
CONTINUOUS
10
-45.867699
20
115.278980
30
0.0
11
-45.867699
21
115.813640
31
0.0
0
LINE
8
0
6
CONTINUOUS
10
-45.867699
20
115.813640
30
0.0
11
-45.867699
21
116.181690
31
0.0
0
LINE
8
0
6
CONTINUOUS
10
-45.867699
20
116.357890
30
0.0
11
-45.980119
21
116.357620
31
0.0
0
LINE
8
0
6
CONTINUOUS
10
-45.867699
20
113.080680
30
0.0
11
-45.867689
21
112.316710
31
0.0
0
LINE
8
0
6
CONTINUOUS
10
-45.867699
20
113.864370
30
0.0
11
-45.867699
21
113.080680
31
0.0
0
LINE
8
0
6
CONTINUOUS
10
-45.867699
20
116.357890
30
0.0
11
-45.867699
21
116.181690
31
0.0
0
LINE
8
0
6
CONTINUOUS
10
-45.980079
20
105.288740
30
0.0
11
-45.867659
21
105.290270
31
0.0
0
LINE
8
0
6
CONTINUOUS
10
-45.867689
20
112.316710
30
0.0
11
-45.867659
21
105.290270
31
0.0
0
LINE
8
0
6
CONTINUOUS
10
-62.334269
20
70.610780
30
0.0
11
-62.334229
21
70.254830
31
0.0
0
LINE
8
0
6
CONTINUOUS
10
-62.334229
20
70.254830
30
0.0
11
-61.621579
21
70.254830
31
0.0
0
LINE
8
0
6
CONTINUOUS
10
-62.334229
20
104.402210
30
0.0
11
-62.334279
21
101.040920
31
0.0
0
LINE
8
0
6
CONTINUOUS
10
-62.334279
20
101.040920
30
0.0
11
-62.334319
21
96.861890
31
0.0
0
LINE
8
0
6
CONTINUOUS
10
-62.334319
20
96.861890
30
0.0
11
-62.334339
21
92.149820
31
0.0
0
LINE
8
0
6
CONTINUOUS
10
-62.334339
20
92.149820
30
0.0
11
-62.334359
21
87.225850
31
0.0
0
LINE
8
0
6
CONTINUOUS
10
-62.334359
20
87.225850
30
0.0
11
-62.334369
21
82.425580
31
0.0
0
LINE
8
0
6
CONTINUOUS
10
-62.334369
20
82.425580
30
0.0
11
-62.334349
21
78.076100
31
0.0
0
LINE
8
0
6
CONTINUOUS
10
-62.334349
20
78.076100
30
0.0
11
-62.334339
21
74.473850
31
0.0
0
LINE
8
0
6
CONTINUOUS
10
-62.334339
20
74.473850
30
0.0
11
-62.334299
21
71.864290
31
0.0
0
LINE
8
0
6
CONTINUOUS
10
-62.334299
20
71.864290
30
0.0
11
-62.334269
21
70.610780
31
0.0
0
LINE
8
0
6
CONTINUOUS
10
-61.621579
20
70.254830
30
0.0
11
-41.360839
21
70.254750
31
0.0
0
LINE
8
0
6
CONTINUOUS
10
-41.070269
20
101.040850
30
0.0
11
-41.070219
21
104.402090
31
0.0
0
LINE
8
0
6
CONTINUOUS
10
-41.070119
20
107.826350
30
0.0
11
-41.360759
21
107.826350
31
0.0
0
LINE
8
0
6
CONTINUOUS
10
-41.360839
20
70.254750
30
0.0
11
-41.070209
21
70.254750
31
0.0
0
LINE
8
0
6
CONTINUOUS
10
-62.334149
20
113.079460
30
0.0
11
-62.334149
21
112.316480
31
0.0
0
LINE
8
0
6
CONTINUOUS
10
-62.334149
20
113.861890
30
0.0
11
-62.334149
21
113.079460
31
0.0
0
LINE
8
0
6
CONTINUOUS
10
-62.334149
20
114.610410
30
0.0
11
-62.334149
21
113.861890
31
0.0
0
LINE
8
0
6
CONTINUOUS
10
-62.334149
20
115.274210
30
0.0
11
-62.334149
21
114.610410
31
0.0
0
LINE
8
0
6
CONTINUOUS
10
-62.334149
20
115.807880
30
0.0
11
-62.334149
21
115.274210
31
0.0
0
LINE
8
0
6
CONTINUOUS
10
-62.334139
20
116.175010
30
0.0
11
-62.334149
21
115.807880
31
0.0
0
LINE
8
0
6
CONTINUOUS
10
-62.334139
20
116.350680
30
0.0
11
-62.334139
21
116.175010
31
0.0
0
LINE
8
0
6
CONTINUOUS
10
-61.621319
20
116.359530
30
0.0
11
-62.334139
21
116.350680
31
0.0
0
LINE
8
0
6
CONTINUOUS
10
-41.070339
20
78.075990
30
0.0
11
-41.070319
21
74.473730
31
0.0
0
LINE
8
0
6
CONTINUOUS
10
-41.070359
20
82.425470
30
0.0
11
-41.070339
21
78.075990
31
0.0
0
LINE
8
0
6
CONTINUOUS
10
-61.621289
20
105.296870
30
0.0
11
-45.980079
21
105.288740
31
0.0
0
LINE
8
0
6
CONTINUOUS
10
-41.360759
20
107.826350
30
0.0
11
-45.867651
21
107.826359
31
0.0
0
LINE
8
0
6
CONTINUOUS
10
-62.334109
20
105.294270
30
0.0
11
-61.621289
21
105.296870
31
0.0
0
LINE
8
0
6
CONTINUOUS
10
-62.334149
20
112.316480
30
0.0
11
-62.334109
21
105.294270
31
0.0
0
LINE
8
0
6
CONTINUOUS
10
-62.334109
20
105.294270
30
0.0
11
-62.334229
21
104.402210
31
0.0
0
LINE
8
0
6
CONTINUOUS
10
-61.621289
20
105.296870
30
0.0
11
-62.334109
21
105.294270
31
0.0
0
LINE
8
0
6
CONTINUOUS
10
-41.070289
20
71.864170
30
0.0
11
-41.070259
21
70.425160
31
0.0
0
LINE
8
0
6
CONTINUOUS
10
-41.070319
20
74.473730
30
0.0
11
-41.070289
21
71.864170
31
0.0
0
LINE
8
0
6
CONTINUOUS
10
-41.070359
20
87.225770
30
0.0
11
-41.070359
21
82.425470
31
0.0
0
LINE
8
0
6
CONTINUOUS
10
-41.070339
20
92.149740
30
0.0
11
-41.070359
21
87.225770
31
0.0
0
LINE
8
0
6
CONTINUOUS
10
-41.070309
20
96.861810
30
0.0
11
-41.070339
21
92.149740
31
0.0
0
LINE
8
0
6
CONTINUOUS
10
-41.070269
20
101.040850
30
0.0
11
-41.070309
21
96.861810
31
0.0
0
LINE
8
0
6
CONTINUOUS
10
-41.070179
20
106.716510
30
0.0
11
-41.070219
21
104.402090
31
0.0
0
LINE
8
0
6
CONTINUOUS
10
-41.070119
20
107.826350
30
0.0
11
-41.070179
21
106.716510
31
0.0
0
LINE
8
0
6
CONTINUOUS
10
-41.070259
20
70.425160
30
0.0
11
-41.070209
21
70.254750
31
0.0
0
LINE
8
0
6
CONTINUOUS
10
-40.488959
20
85.450870
30
0.0
11
-40.488959
21
81.892670
31
0.0
0
LINE
8
0
6
CONTINUOUS
10
-40.488959
20
89.148530
30
0.0
11
-40.488959
21
85.450870
31
0.0
0
LINE
8
0
6
CONTINUOUS
10
-40.488959
20
92.843600
30
0.0
11
-40.488959
21
89.148530
31
0.0
0
LINE
8
0
6
CONTINUOUS
10
-40.488959
20
96.394010
30
0.0
11
-40.488959
21
92.843600
31
0.0
0
LINE
8
0
6
CONTINUOUS
10
-40.488969
20
102.526060
30
0.0
11
-40.488969
21
99.663400
31
0.0
0
LINE
8
0
6
CONTINUOUS
10
-40.488969
20
99.663400
30
0.0
11
-40.488959
21
96.394010
31
0.0
0
LINE
8
0
6
CONTINUOUS
10
0.875302
20
103.224113
30
0.0
11
0.296121
21
104.481670
31
0.0
0
LINE
8
0
6
CONTINUOUS
10
20.318951
20
98.522920
30
0.0
11
20.106164
21
98.525304
31
0.0
0
LINE
8
0
6
CONTINUOUS
10
20.318961
20
89.148570
30
0.0
11
20.318961
21
92.843640
31
0.0
0
LINE
8
0
6
CONTINUOUS
10
20.318961
20
85.450870
30
0.0
11
20.318961
21
89.148570
31
0.0
0
LINE
8
0
6
CONTINUOUS
10
1.089511
20
102.526100
30
0.0
11
0.009081
21
104.872060
31
0.0
0
LINE
8
0
6
CONTINUOUS
10
20.318961
20
78.610690
30
0.0
11
20.318961
21
81.892710
31
0.0
0
LINE
8
0
6
CONTINUOUS
10
20.318961
20
81.892710
30
0.0
11
20.318961
21
85.450870
31
0.0
0
LINE
8
0
6
CONTINUOUS
10
20.318961
20
92.843640
30
0.0
11
20.318951
21
96.394050
31
0.0
0
LINE
8
0
6
CONTINUOUS
10
20.318951
20
96.394050
30
0.0
11
20.318961
21
98.499760
31
0.0
0
LINE
8
0
6
CONTINUOUS
10
-40.169269
20
108.027280
30
0.0
11
-40.489019
21
108.027280
31
0.0
0
LINE
8
0
6
CONTINUOUS
10
0.556502
20
104.900789
30
0.0
11
0.296121
21
104.481670
31
0.0
0
LINE
8
0
6
CONTINUOUS
10
0.009081
20
104.872060
30
0.0
11
0.507860
21
105.674916
31
0.0
0
LINE
8
0
6
CONTINUOUS
10
-2.500603
20
108.027280
30
0.0
11
-9.110759
21
108.027280
31
0.0
0
LINE
8
0
6
CONTINUOUS
10
-31.110759
20
108.027280
30
0.0
11
-40.169269
21
108.027280
31
0.0
0
LINE
8
0
6
CONTINUOUS
10
-40.488999
20
71.601720
30
0.0
11
-40.488999
21
70.510720
31
0.0
0
LINE
8
0
6
CONTINUOUS
10
-40.489009
20
70.133330
30
0.0
11
-40.169259
21
70.133330
31
0.0
0
LINE
8
0
6
CONTINUOUS
10
12.141201
20
70.070080
30
0.0
11
16.756871
21
70.133330
31
0.0
0
LINE
8
0
6
CONTINUOUS
10
7.232161
20
70.099840
30
0.0
11
12.141201
21
70.070080
31
0.0
0
LINE
8
0
6
CONTINUOUS
10
3.670671
20
70.133330
30
0.0
11
7.232161
21
70.099840
31
0.0
0
LINE
8
0
6
CONTINUOUS
10
16.756871
20
70.133330
30
0.0
11
19.918341
21
70.133330
31
0.0
0
LINE
8
0
6
CONTINUOUS
10
20.318911
20
70.510720
30
0.0
11
20.318931
21
71.601760
31
0.0
0
LINE
8
0
6
CONTINUOUS
10
20.318931
20
71.601760
30
0.0
11
20.318941
21
73.364420
31
0.0
0
LINE
8
0
6
CONTINUOUS
10
20.318941
20
75.731020
30
0.0
11
20.318961
21
78.610690
31
0.0
0
LINE
8
0
6
CONTINUOUS
10
20.318941
20
73.364420
30
0.0
11
20.318941
21
75.731020
31
0.0
0
LINE
8
0
6
CONTINUOUS
10
20.318891
20
70.133410
30
0.0
11
20.318911
21
70.510720
31
0.0
0
LINE
8
0
6
CONTINUOUS
10
19.918341
20
70.133330
30
0.0
11
20.318891
21
70.133410
31
0.0
0
LINE
8
0
6
CONTINUOUS
10
-40.169259
20
70.133330
30
0.0
11
-31.110759
21
70.133330
31
0.0
0
LINE
8
0
6
CONTINUOUS
10
-9.110759
20
70.133330
30
0.0
11
3.670671
21
70.133330
31
0.0
0
LINE
8
0
6
CONTINUOUS
10
-40.488959
20
78.610690
30
0.0
11
-40.488959
21
81.892670
31
0.0
0
LINE
8
0
6
CONTINUOUS
10
-40.488969
20
102.526060
30
0.0
11
-40.488979
21
104.872020
31
0.0
0
LINE
8
0
6
CONTINUOUS
10
-40.488979
20
75.731060
30
0.0
11
-40.488959
21
78.610690
31
0.0
0
LINE
8
0
6
CONTINUOUS
10
-40.488979
20
104.872020
30
0.0
11
-40.488989
21
106.611150
31
0.0
0
LINE
8
0
6
CONTINUOUS
10
-40.488999
20
107.676510
30
0.0
11
-40.489019
21
108.027280
31
0.0
0
LINE
8
0
6
CONTINUOUS
10
-40.489009
20
70.133330
30
0.0
11
-40.488999
21
70.510720
31
0.0
0
LINE
8
0
6
CONTINUOUS
10
-40.488979
20
73.364380
30
0.0
11
-40.488979
21
75.731060
31
0.0
0
LINE
8
0
6
CONTINUOUS
10
-40.488999
20
71.601720
30
0.0
11
-40.488979
21
73.364380
31
0.0
0
LINE
8
0
6
CONTINUOUS
10
-40.488989
20
106.611150
30
0.0
11
-40.488999
21
107.676510
31
0.0
0
LINE
8
0
6
CONTINUOUS
10
-12.026684
20
227.797121
30
0.0
11
-12.010298
21
228.702094
31
0.0
0
LINE
8
0
6
CONTINUOUS
10
-12.010298
20
228.702094
30
0.0
11
-10.667103
21
229.146406
31
0.0
0
LINE
8
0
6
CONTINUOUS
10
-9.340283
20
228.685725
30
0.0
11
-9.342471
21
229.425468
31
0.0
0
LINE
8
0
6
CONTINUOUS
10
-10.667103
20
229.146406
30
0.0
11
-9.340283
21
228.685725
31
0.0
0
LINE
8
0
6
CONTINUOUS
10
-25.733833
20
226.028854
30
0.0
11
-25.719773
21
226.805227
31
0.0
0
LINE
8
0
6
CONTINUOUS
10
13.320822
20
227.440140
30
0.0
11
14.769139
21
226.262512
31
0.0
0
LINE
8
0
6
CONTINUOUS
10
10.859183
20
227.292360
30
0.0
11
13.320822
21
227.440140
31
0.0
0
LINE
8
0
6
CONTINUOUS
10
-9.784018
20
232.607642
30
0.0
11
-9.767632
21
233.512625
31
0.0
0
LINE
8
0
6
CONTINUOUS
10
-17.446315
20
232.217490
30
0.0
11
-17.432255
21
232.993844
31
0.0
0
LINE
8
0
6
CONTINUOUS
10
-17.432255
20
232.993844
30
0.0
11
-16.279974
21
233.374984
31
0.0
0
LINE
8
0
6
CONTINUOUS
10
-13.653895
20
236.692971
30
0.0
11
-13.639825
21
237.469345
31
0.0
0
LINE
8
0
6
CONTINUOUS
10
-18.325158
20
241.106641
30
0.0
11
-17.080731
21
241.369577
31
0.0
0
LINE
8
0
6
CONTINUOUS
10
7.273354
20
210.543324
30
0.0
11
8.479866
21
210.225573
31
0.0
0
LINE
8
0
6
CONTINUOUS
10
6.201097
20
210.088722
30
0.0
11
7.273354
21
210.543324
31
0.0
0
LINE
8
0
6
CONTINUOUS
10
6.206297
20
210.888774
30
0.0
11
6.201097
21
210.088722
31
0.0
0
LINE
8
0
6
CONTINUOUS
10
-0.688173
20
208.084364
30
0.0
11
0.518340
21
207.766589
31
0.0
0
LINE
8
0
6
CONTINUOUS
10
-1.760439
20
207.629730
30
0.0
11
-0.688173
21
208.084364
31
0.0
0
LINE
8
0
6
CONTINUOUS
10
-1.755159
20
208.441744
30
0.0
11
-1.760439
21
207.629730
31
0.0
0
LINE
8
0
6
CONTINUOUS
10
0.537331
20
210.966753
30
0.0
11
0.542702
21
211.792801
31
0.0
0
LINE
8
0
6
CONTINUOUS
10
0.403054
20
211.739133
30
0.0
11
0.537331
21
210.966753
31
0.0
0
LINE
8
0
6
CONTINUOUS
10
-0.700135
20
221.712749
30
0.0
11
0.751886
21
221.330317
31
0.0
0
LINE
8
0
6
CONTINUOUS
10
0.913492
20
220.400760
30
0.0
11
0.919798
21
221.202772
31
0.0
0
LINE
8
0
6
CONTINUOUS
10
0.751886
20
221.330317
30
0.0
11
0.913492
21
220.400760
31
0.0
0
LINE
8
0
6
CONTINUOUS
10
-7.514956
20
219.078026
30
0.0
11
-6.265057
21
219.607967
31
0.0
0
LINE
8
0
6
CONTINUOUS
10
-7.508300
20
219.952591
30
0.0
11
-7.514956
21
219.078026
31
0.0
0
LINE
8
0
6
CONTINUOUS
10
-11.167280
20
223.445241
30
0.0
11
-9.917381
21
223.975163
31
0.0
0
LINE
8
0
6
CONTINUOUS
10
-11.160496
20
224.336613
30
0.0
11
-11.167280
21
223.445241
31
0.0
0
LINE
8
0
6
CONTINUOUS
10
-16.824812
20
223.383519
30
0.0
11
-15.618299
21
223.065764
31
0.0
0
LINE
8
0
6
CONTINUOUS
10
-20.881660
20
217.221130
30
0.0
11
-19.695234
21
217.564330
31
0.0
0
LINE
8
0
6
CONTINUOUS
10
-15.804348
20
213.161671
30
0.0
11
-14.617942
21
213.504897
31
0.0
0
LINE
8
0
6
CONTINUOUS
10
-9.417371
20
209.216167
30
0.0
11
-9.330220
21
209.990896
31
0.0
0
LINE
8
0
6
CONTINUOUS
10
-9.412469
20
210.108902
30
0.0
11
-9.417371
21
209.216167
31
0.0
0
LINE
8
0
6
CONTINUOUS
10
-7.044571
20
209.902587
30
0.0
11
-7.040424
21
210.657536
31
0.0
0
LINE
8
0
6
CONTINUOUS
10
-8.143815
20
210.334103
30
0.0
11
-7.044571
21
209.902587
31
0.0
0
LINE
8
0
6
CONTINUOUS
10
-9.330220
20
209.990896
30
0.0
11
-8.143815
21
210.334103
31
0.0
0
LINE
8
0
6
CONTINUOUS
10
17.958796
20
229.849836
30
0.0
11
19.149465
21
230.470020
31
0.0
0
LINE
8
0
6
CONTINUOUS
10
17.966988
20
230.653166
30
0.0
11
17.958796
21
229.849836
31
0.0
0
LINE
8
0
6
CONTINUOUS
10
14.721237
20
221.207881
30
0.0
11
15.900425
21
220.580435
31
0.0
0
LINE
8
0
6
CONTINUOUS
10
15.057395
20
222.121249
30
0.0
11
14.721237
21
221.207881
31
0.0
0
LINE
8
0
6
CONTINUOUS
10
16.572711
20
222.407141
30
0.0
11
15.057395
21
222.121249
31
0.0
0
LINE
8
0
6
CONTINUOUS
10
17.751909
20
221.779683
30
0.0
11
16.572711
21
222.407141
31
0.0
0
LINE
8
0
6
CONTINUOUS
10
17.415761
20
220.866322
30
0.0
11
17.751909
21
221.779683
31
0.0
0
LINE
8
0
6
CONTINUOUS
10
15.900425
20
220.580435
30
0.0
11
17.415761
21
220.866322
31
0.0
0
LINE
8
0
6
CONTINUOUS
10
9.111691
20
222.260469
30
0.0
11
10.043275
21
221.502999
31
0.0
0
LINE
8
0
6
CONTINUOUS
10
31.546544
20
232.437977
30
0.0
11
31.549200
21
233.343000
31
0.0
0
LINE
8
0
6
CONTINUOUS
10
31.549200
20
233.343000
30
0.0
11
32.885609
21
233.794329
31
0.0
0
LINE
8
0
6
CONTINUOUS
10
26.510244
20
236.400329
30
0.0
11
26.512900
21
237.305349
31
0.0
0
LINE
8
0
6
CONTINUOUS
10
26.512900
20
237.305349
30
0.0
11
27.849299
21
237.756678
31
0.0
0
LINE
8
0
6
CONTINUOUS
10
36.783772
20
236.072285
30
0.0
11
36.786051
21
236.848668
31
0.0
0
LINE
8
0
6
CONTINUOUS
10
31.225148
20
239.918432
30
0.0
11
31.227438
21
240.694829
31
0.0
0
LINE
8
0
6
CONTINUOUS
10
34.881122
20
244.495424
30
0.0
11
35.901493
21
244.989478
31
0.0
0
LINE
8
0
6
CONTINUOUS
10
34.883861
20
245.283637
30
0.0
11
34.881122
21
244.495424
31
0.0
0
LINE
8
0
6
CONTINUOUS
10
41.780160
20
241.292666
30
0.0
11
43.018972
21
241.021029
31
0.0
0
LINE
8
0
6
CONTINUOUS
10
14.348887
20
218.037094
30
0.0
11
15.627732
21
217.480944
31
0.0
0
LINE
8
0
6
CONTINUOUS
10
26.237214
20
207.536838
30
0.0
11
26.229124
21
208.708036
31
0.0
0
LINE
8
0
6
CONTINUOUS
10
25.174593
20
207.998947
30
0.0
11
26.237214
21
207.536838
31
0.0
0
LINE
8
0
6
CONTINUOUS
10
22.121414
20
219.797376
30
0.0
11
23.400259
21
219.241243
31
0.0
0
LINE
8
0
6
CONTINUOUS
10
25.534637
20
222.425229
30
0.0
11
25.715772
21
223.353592
31
0.0
0
LINE
8
0
6
CONTINUOUS
10
25.528081
20
223.216419
30
0.0
11
25.534637
21
222.425229
31
0.0
0
LINE
8
0
6
CONTINUOUS
10
29.432207
20
219.305928
30
0.0
11
30.846297
21
219.666462
31
0.0
0
LINE
8
0
6
CONTINUOUS
10
30.846297
20
219.666462
30
0.0
11
32.084966
21
219.127799
31
0.0
0
LINE
8
0
6
CONTINUOUS
10
29.256756
20
218.406742
30
0.0
11
29.432207
21
219.305928
31
0.0
0
LINE
8
0
6
CONTINUOUS
10
29.250538
20
219.181136
30
0.0
11
29.256756
21
218.406742
31
0.0
0
LINE
8
0
6
CONTINUOUS
10
34.757202
20
224.023447
30
0.0
11
35.995871
21
223.484768
31
0.0
0
LINE
8
0
6
CONTINUOUS
10
46.616543
20
221.790706
30
0.0
11
47.724767
21
222.214483
31
0.0
0
LINE
8
0
6
CONTINUOUS
10
46.612130
20
222.536724
30
0.0
11
46.616543
21
221.790706
31
0.0
0
LINE
8
0
6
CONTINUOUS
10
47.724767
20
222.214483
30
0.0
11
48.903879
21
221.862979
31
0.0
0
LINE
8
0
6
CONTINUOUS
10
45.482406
20
217.220383
30
0.0
11
45.553265
21
216.445087
31
0.0
0
LINE
8
0
6
CONTINUOUS
10
43.195069
20
217.148123
30
0.0
11
44.303293
21
217.571899
31
0.0
0
LINE
8
0
6
CONTINUOUS
10
43.190658
20
217.893902
30
0.0
11
43.195069
21
217.148123
31
0.0
0
LINE
8
0
6
CONTINUOUS
10
44.303293
20
217.571899
30
0.0
11
45.482406
21
217.220383
31
0.0
0
LINE
8
0
6
CONTINUOUS
10
38.031438
20
213.059180
30
0.0
11
39.139661
21
213.482963
31
0.0
0
LINE
8
0
6
CONTINUOUS
10
38.027049
20
213.800716
30
0.0
11
38.031438
21
213.059180
31
0.0
0
LINE
8
0
6
CONTINUOUS
10
39.139661
20
213.482963
30
0.0
11
40.318774
21
213.131443
31
0.0
0
LINE
8
0
6
CONTINUOUS
10
33.926938
20
209.080967
30
0.0
11
33.919842
21
210.281153
31
0.0
0
LINE
8
0
6
CONTINUOUS
10
33.856079
20
209.856252
30
0.0
11
33.926938
21
209.080967
31
0.0
0
LINE
8
0
6
CONTINUOUS
10
31.568743
20
209.783991
30
0.0
11
32.676976
21
210.207755
31
0.0
0
LINE
8
0
6
CONTINUOUS
10
31.564338
20
210.528613
30
0.0
11
31.568743
21
209.783991
31
0.0
0
LINE
8
0
6
CONTINUOUS
10
32.676976
20
210.207755
30
0.0
11
33.856079
21
209.856252
31
0.0
0
LINE
8
0
6
CONTINUOUS
10
17.070720
20
235.347321
30
0.0
11
18.093134
21
236.063551
31
0.0
0
LINE
8
0
6
CONTINUOUS
10
17.079012
20
236.163914
30
0.0
11
17.070720
21
235.347321
31
0.0
0
LINE
8
0
6
CONTINUOUS
10
24.957645
20
243.949887
30
0.0
11
26.260145
21
243.815604
31
0.0
0
LINE
8
0
6
CONTINUOUS
10
24.108094
20
243.354781
30
0.0
11
24.957645
21
243.949887
31
0.0
0
LINE
8
0
6
CONTINUOUS
10
24.114927
20
244.167254
30
0.0
11
24.108094
21
243.354781
31
0.0
0
LINE
8
0
6
CONTINUOUS
10
26.260145
20
243.815604
30
0.0
11
26.713093
21
243.086180
31
0.0
0
LINE
8
0
6
CONTINUOUS
10
20.111148
20
240.285439
30
0.0
11
21.629448
21
240.128889
31
0.0
0
LINE
8
0
6
CONTINUOUS
10
19.120855
20
239.591713
30
0.0
11
20.111148
21
240.285439
31
0.0
0
LINE
8
0
6
CONTINUOUS
10
19.128792
20
240.399154
30
0.0
11
19.120855
21
239.591713
31
0.0
0
LINE
8
0
6
CONTINUOUS
10
21.629448
20
240.128889
30
0.0
11
22.157434
21
239.278618
31
0.0
0
LINE
8
0
6
CONTINUOUS
10
20.384395
20
249.435931
30
0.0
11
21.686894
21
249.301617
31
0.0
0
LINE
8
0
6
CONTINUOUS
10
19.534844
20
248.840786
30
0.0
11
20.384395
21
249.435931
31
0.0
0
LINE
8
0
6
CONTINUOUS
10
19.541779
20
249.665376
30
0.0
11
19.534844
21
248.840786
31
0.0
0
LINE
8
0
6
CONTINUOUS
10
0.976637
20
234.118996
30
0.0
11
1.999060
21
234.835210
31
0.0
0
LINE
8
0
6
CONTINUOUS
10
0.985533
20
234.994905
30
0.0
11
0.976637
21
234.118996
31
0.0
0
LINE
8
0
6
CONTINUOUS
10
-2.273231
20
237.546665
30
0.0
11
-1.745245
21
236.696414
31
0.0
0
LINE
8
0
6
CONTINUOUS
10
8.179259
20
245.458508
30
0.0
11
9.481769
21
245.324213
31
0.0
0
LINE
8
0
6
CONTINUOUS
10
7.329708
20
244.863361
30
0.0
11
8.179259
21
245.458508
31
0.0
0
LINE
8
0
6
CONTINUOUS
10
7.336794
20
245.705934
30
0.0
11
7.329708
21
244.863361
31
0.0
0
LINE
8
0
6
CONTINUOUS
10
2.535600
20
248.727865
30
0.0
11
3.204105
21
249.397855
31
0.0
0
LINE
8
0
6
CONTINUOUS
10
2.542583
20
249.585092
30
0.0
11
2.535600
21
248.727865
31
0.0
0
LINE
8
0
6
CONTINUOUS
10
11.679894
20
250.057164
30
0.0
11
13.002339
21
250.052357
31
0.0
0
LINE
8
0
6
CONTINUOUS
10
13.002339
20
250.052357
30
0.0
11
13.656279
21
249.377568
31
0.0
0
LINE
8
0
6
CONTINUOUS
10
-12.010298
20
228.702094
30
0.0
11
-12.026684
21
227.797121
31
0.0
0
LINE
8
0
6
CONTINUOUS
10
-10.667103
20
229.146406
30
0.0
11
-12.010298
21
228.702094
31
0.0
0
LINE
8
0
6
CONTINUOUS
10
-9.340283
20
228.685725
30
0.0
11
-10.667103
21
229.146406
31
0.0
0
LINE
8
0
6
CONTINUOUS
10
-9.356658
20
227.780752
30
0.0
11
-9.340283
21
228.685725
31
0.0
0
LINE
8
0
6
CONTINUOUS
10
-10.699864
20
227.336440
30
0.0
11
-9.356658
21
227.780752
31
0.0
0
LINE
8
0
6
CONTINUOUS
10
-12.026684
20
227.797121
30
0.0
11
-10.699864
21
227.336440
31
0.0
0
LINE
8
0
6
CONTINUOUS
10
-18.832276
20
227.266143
30
0.0
11
-18.818217
21
228.042495
31
0.0
0
LINE
8
0
6
CONTINUOUS
10
-18.818217
20
228.042495
30
0.0
11
-17.665935
21
228.423646
31
0.0
0
LINE
8
0
6
CONTINUOUS
10
-16.527704
20
228.028458
30
0.0
11
-16.529661
21
228.793506
31
0.0
0
LINE
8
0
6
CONTINUOUS
10
-17.665935
20
228.423646
30
0.0
11
-16.527704
21
228.028458
31
0.0
0
LINE
8
0
6
CONTINUOUS
10
-18.818217
20
228.042495
30
0.0
11
-18.832276
21
227.266143
31
0.0
0
LINE
8
0
6
CONTINUOUS
10
-17.665935
20
228.423646
30
0.0
11
-18.818217
21
228.042495
31
0.0
0
LINE
8
0
6
CONTINUOUS
10
-16.527704
20
228.028458
30
0.0
11
-17.665935
21
228.423646
31
0.0
0
LINE
8
0
6
CONTINUOUS
10
-16.541733
20
227.252103
30
0.0
11
-16.527704
21
228.028458
31
0.0
0
LINE
8
0
6
CONTINUOUS
10
-17.694035
20
226.870945
30
0.0
11
-16.541733
21
227.252103
31
0.0
0
LINE
8
0
6
CONTINUOUS
10
-18.832276
20
227.266143
30
0.0
11
-17.694035
21
226.870945
31
0.0
0
LINE
8
0
6
CONTINUOUS
10
-25.719773
20
226.805227
30
0.0
11
-24.567492
21
227.186376
31
0.0
0
LINE
8
0
6
CONTINUOUS
10
-23.429240
20
226.791154
30
0.0
11
-23.431154
21
227.539367
31
0.0
0
LINE
8
0
6
CONTINUOUS
10
-24.567492
20
227.186376
30
0.0
11
-23.429240
21
226.791154
31
0.0
0
LINE
8
0
6
CONTINUOUS
10
-25.719773
20
226.805227
30
0.0
11
-25.733833
21
226.028854
31
0.0
0
LINE
8
0
6
CONTINUOUS
10
-24.567492
20
227.186376
30
0.0
11
-25.719773
21
226.805227
31
0.0
0
LINE
8
0
6
CONTINUOUS
10
-23.429240
20
226.791154
30
0.0
11
-24.567492
21
227.186376
31
0.0
0
LINE
8
0
6
CONTINUOUS
10
-23.443290
20
226.014817
30
0.0
11
-23.429240
21
226.791154
31
0.0
0
LINE
8
0
6
CONTINUOUS
10
-24.595591
20
225.633651
30
0.0
11
-23.443290
21
226.014817
31
0.0
0
LINE
8
0
6
CONTINUOUS
10
-25.733833
20
226.028854
30
0.0
11
-24.595591
21
225.633651
31
0.0
0
LINE
8
0
6
CONTINUOUS
10
9.845891
20
225.966934
30
0.0
11
10.859183
21
227.292360
31
0.0
0
LINE
8
0
6
CONTINUOUS
10
9.835397
20
226.795114
30
0.0
11
9.845891
21
225.966934
31
0.0
0
LINE
8
0
6
CONTINUOUS
10
10.859183
20
227.292360
30
0.0
11
9.845891
21
225.966934
31
0.0
0
LINE
8
0
6
CONTINUOUS
10
13.320822
20
227.440140
30
0.0
11
10.859183
21
227.292360
31
0.0
0
LINE
8
0
6
CONTINUOUS
10
14.769139
20
226.262512
30
0.0
11
13.320822
21
227.440140
31
0.0
0
LINE
8
0
6
CONTINUOUS
10
13.755857
20
224.937066
30
0.0
11
14.769139
21
226.262512
31
0.0
0
LINE
8
0
6
CONTINUOUS
10
11.294248
20
224.789296
30
0.0
11
13.755857
21
224.937066
31
0.0
0
LINE
8
0
6
CONTINUOUS
10
9.845891
20
225.966934
30
0.0
11
11.294248
21
224.789296
31
0.0
0
LINE
8
0
6
CONTINUOUS
10
-9.767632
20
233.512625
30
0.0
11
-8.424437
21
233.956918
31
0.0
0
LINE
8
0
6
CONTINUOUS
10
-7.097617
20
233.496256
30
0.0
11
-7.099902
21
234.268884
31
0.0
0
LINE
8
0
6
CONTINUOUS
10
-8.424437
20
233.956918
30
0.0
11
-7.097617
21
233.496256
31
0.0
0
LINE
8
0
6
CONTINUOUS
10
-9.767632
20
233.512625
30
0.0
11
-9.784018
21
232.607642
31
0.0
0
LINE
8
0
6
CONTINUOUS
10
-8.424437
20
233.956918
30
0.0
11
-9.767632
21
233.512625
31
0.0
0
LINE
8
0
6
CONTINUOUS
10
-7.097617
20
233.496256
30
0.0
11
-8.424437
21
233.956918
31
0.0
0
LINE
8
0
6
CONTINUOUS
10
-7.113993
20
232.591247
30
0.0
11
-7.097617
21
233.496256
31
0.0
0
LINE
8
0
6
CONTINUOUS
10
-8.457198
20
232.146964
30
0.0
11
-7.113993
21
232.591247
31
0.0
0
LINE
8
0
6
CONTINUOUS
10
-9.784018
20
232.607642
30
0.0
11
-8.457198
21
232.146964
31
0.0
0
LINE
8
0
6
CONTINUOUS
10
-15.141732
20
232.979788
30
0.0
11
-15.143715
21
233.755044
31
0.0
0
LINE
8
0
6
CONTINUOUS
10
-16.279974
20
233.374984
30
0.0
11
-15.141732
21
232.979788
31
0.0
0
LINE
8
0
6
CONTINUOUS
10
-17.432255
20
232.993844
30
0.0
11
-17.446315
21
232.217490
31
0.0
0
LINE
8
0
6
CONTINUOUS
10
-16.279974
20
233.374984
30
0.0
11
-17.432255
21
232.993844
31
0.0
0
LINE
8
0
6
CONTINUOUS
10
-15.141732
20
232.979788
30
0.0
11
-16.279974
21
233.374984
31
0.0
0
LINE
8
0
6
CONTINUOUS
10
-15.155772
20
232.203450
30
0.0
11
-15.141732
21
232.979788
31
0.0
0
LINE
8
0
6
CONTINUOUS
10
-16.308073
20
231.822282
30
0.0
11
-15.155772
21
232.203450
31
0.0
0
LINE
8
0
6
CONTINUOUS
10
-17.446315
20
232.217490
30
0.0
11
-16.308073
21
231.822282
31
0.0
0
LINE
8
0
6
CONTINUOUS
10
-13.639825
20
237.469345
30
0.0
11
-12.487544
21
237.850497
31
0.0
0
LINE
8
0
6
CONTINUOUS
10
-11.349292
20
237.455272
30
0.0
11
-11.351309
21
238.242942
31
0.0
0
LINE
8
0
6
CONTINUOUS
10
-12.487544
20
237.850497
30
0.0
11
-11.349292
21
237.455272
31
0.0
0
LINE
8
0
6
CONTINUOUS
10
-13.639825
20
237.469345
30
0.0
11
-13.653895
21
236.692971
31
0.0
0
LINE
8
0
6
CONTINUOUS
10
-12.487544
20
237.850497
30
0.0
11
-13.639825
21
237.469345
31
0.0
0
LINE
8
0
6
CONTINUOUS
10
-11.349292
20
237.455272
30
0.0
11
-12.487544
21
237.850497
31
0.0
0
LINE
8
0
6
CONTINUOUS
10
-11.363342
20
236.678937
30
0.0
11
-11.349292
21
237.455272
31
0.0
0
LINE
8
0
6
CONTINUOUS
10
-12.515643
20
236.297769
30
0.0
11
-11.363342
21
236.678937
31
0.0
0
LINE
8
0
6
CONTINUOUS
10
-13.653895
20
236.692971
30
0.0
11
-12.515643
21
236.297769
31
0.0
0
LINE
8
0
6
CONTINUOUS
10
-12.616828
20
244.034771
30
0.0
11
-12.382297
21
244.798885
31
0.0
0
LINE
8
0
6
CONTINUOUS
10
-12.620204
20
244.897286
30
0.0
11
-12.616828
21
244.034771
31
0.0
0
LINE
8
0
6
CONTINUOUS
10
-12.382297
20
244.798885
30
0.0
11
-11.137860
21
245.061830
31
0.0
0
LINE
8
0
6
CONTINUOUS
10
-10.127954
20
244.560624
30
0.0
11
-10.131041
21
245.349193
31
0.0
0
LINE
8
0
6
CONTINUOUS
10
-11.137860
20
245.061830
30
0.0
11
-10.127954
21
244.560624
31
0.0
0
LINE
8
0
6
CONTINUOUS
10
-12.382297
20
244.798885
30
0.0
11
-12.616828
21
244.034771
31
0.0
0
LINE
8
0
6
CONTINUOUS
10
-11.137860
20
245.061830
30
0.0
11
-12.382297
21
244.798885
31
0.0
0
LINE
8
0
6
CONTINUOUS
10
-10.127954
20
244.560624
30
0.0
11
-11.137860
21
245.061830
31
0.0
0
LINE
8
0
6
CONTINUOUS
10
-10.362465
20
243.796524
30
0.0
11
-10.127954
21
244.560624
31
0.0
0
LINE
8
0
6
CONTINUOUS
10
-11.606912
20
243.533571
30
0.0
11
-10.362465
21
243.796524
31
0.0
0
LINE
8
0
6
CONTINUOUS
10
-12.616828
20
244.034771
30
0.0
11
-11.606912
21
243.533571
31
0.0
0
LINE
8
0
6
CONTINUOUS
10
-18.559698
20
240.342508
30
0.0
11
-18.325158
21
241.106641
31
0.0
0
LINE
8
0
6
CONTINUOUS
10
-18.563112
20
241.214743
30
0.0
11
-18.559698
21
240.342508
31
0.0
0
LINE
8
0
6
CONTINUOUS
10
-16.070825
20
240.868387
30
0.0
11
-16.073844
21
241.639559
31
0.0
0
LINE
8
0
6
CONTINUOUS
10
-17.080731
20
241.369577
30
0.0
11
-16.070825
21
240.868387
31
0.0
0
LINE
8
0
6
CONTINUOUS
10
-18.325158
20
241.106641
30
0.0
11
-18.559698
21
240.342508
31
0.0
0
LINE
8
0
6
CONTINUOUS
10
-17.080731
20
241.369577
30
0.0
11
-18.325158
21
241.106641
31
0.0
0
LINE
8
0
6
CONTINUOUS
10
-16.070825
20
240.868387
30
0.0
11
-17.080731
21
241.369577
31
0.0
0
LINE
8
0
6
CONTINUOUS
10
-16.305336
20
240.104263
30
0.0
11
-16.070825
21
240.868387
31
0.0
0
LINE
8
0
6
CONTINUOUS
10
-17.549783
20
239.841334
30
0.0
11
-16.305336
21
240.104263
31
0.0
0
LINE
8
0
6
CONTINUOUS
10
-18.559698
20
240.342508
30
0.0
11
-17.549783
21
239.841334
31
0.0
0
LINE
8
0
6
CONTINUOUS
10
-22.883723
20
236.006843
30
0.0
11
-22.649193
21
236.770986
31
0.0
0
LINE
8
0
6
CONTINUOUS
10
-22.887190
20
236.892513
30
0.0
11
-22.883723
21
236.006843
31
0.0
0
LINE
8
0
6
CONTINUOUS
10
-22.649193
20
236.770986
30
0.0
11
-21.404756
21
237.033909
31
0.0
0
LINE
8
0
6
CONTINUOUS
10
-20.394850
20
236.532700
30
0.0
11
-20.397824
21
237.292410
31
0.0
0
LINE
8
0
6
CONTINUOUS
10
-21.404756
20
237.033909
30
0.0
11
-20.394850
21
236.532700
31
0.0
0
LINE
8
0
6
CONTINUOUS
10
-22.649193
20
236.770986
30
0.0
11
-22.883723
21
236.006843
31
0.0
0
LINE
8
0
6
CONTINUOUS
10
-21.404756
20
237.033909
30
0.0
11
-22.649193
21
236.770986
31
0.0
0
LINE
8
0
6
CONTINUOUS
10
-20.394850
20
236.532700
30
0.0
11
-21.404756
21
237.033909
31
0.0
0
LINE
8
0
6
CONTINUOUS
10
-20.629361
20
235.768587
30
0.0
11
-20.394850
21
236.532700
31
0.0
0
LINE
8
0
6
CONTINUOUS
10
-21.873817
20
235.505651
30
0.0
11
-20.629361
21
235.768587
31
0.0
0
LINE
8
0
6
CONTINUOUS
10
-22.883723
20
236.006843
30
0.0
11
-21.873817
21
235.505651
31
0.0
0
LINE
8
0
6
CONTINUOUS
10
-25.411081
20
231.148383
30
0.0
11
-25.176541
21
231.912528
31
0.0
0
LINE
8
0
6
CONTINUOUS
10
-25.414603
20
232.048548
30
0.0
11
-25.411081
21
231.148383
31
0.0
0
LINE
8
0
6
CONTINUOUS
10
-25.176541
20
231.912528
30
0.0
11
-23.932114
21
232.175452
31
0.0
0
LINE
8
0
6
CONTINUOUS
10
-22.922198
20
231.674262
30
0.0
11
-22.925126
21
232.422288
31
0.0
0
LINE
8
0
6
CONTINUOUS
10
-23.932114
20
232.175452
30
0.0
11
-22.922198
21
231.674262
31
0.0
0
LINE
8
0
6
CONTINUOUS
10
-25.176541
20
231.912528
30
0.0
11
-25.411081
21
231.148383
31
0.0
0
LINE
8
0
6
CONTINUOUS
10
-23.932114
20
232.175452
30
0.0
11
-25.176541
21
231.912528
31
0.0
0
LINE
8
0
6
CONTINUOUS
10
-22.922198
20
231.674262
30
0.0
11
-23.932114
21
232.175452
31
0.0
0
LINE
8
0
6
CONTINUOUS
10
-23.156709
20
230.910136
30
0.0
11
-22.922198
21
231.674262
31
0.0
0
LINE
8
0
6
CONTINUOUS
10
-24.401166
20
230.647193
30
0.0
11
-23.156709
21
230.910136
31
0.0
0
LINE
8
0
6
CONTINUOUS
10
-25.411081
20
231.148383
30
0.0
11
-24.401166
21
230.647193
31
0.0
0
LINE
8
0
6
CONTINUOUS
10
5.879798
20
218.707764
30
0.0
11
7.331819
21
218.325341
31
0.0
0
LINE
8
0
6
CONTINUOUS
10
4.589355
20
218.160653
30
0.0
11
5.879798
21
218.707764
31
0.0
0
LINE
8
0
6
CONTINUOUS
10
4.595813
20
218.982047
30
0.0
11
4.589355
21
218.160653
31
0.0
0
LINE
8
0
6
CONTINUOUS
10
7.493425
20
217.395777
30
0.0
11
7.499902
21
218.219332
31
0.0
0
LINE
8
0
6
CONTINUOUS
10
7.331819
20
218.325341
30
0.0
11
7.493425
21
217.395777
31
0.0
0
LINE
8
0
6
CONTINUOUS
10
4.750961
20
217.231103
30
0.0
11
6.202991
21
216.848647
31
0.0
0
LINE
8
0
6
CONTINUOUS
10
4.589355
20
218.160653
30
0.0
11
4.750961
21
217.231103
31
0.0
0
LINE
8
0
6
CONTINUOUS
10
5.879798
20
218.707764
30
0.0
11
4.589355
21
218.160653
31
0.0
0
LINE
8
0
6
CONTINUOUS
10
7.331819
20
218.325341
30
0.0
11
5.879798
21
218.707764
31
0.0
0
LINE
8
0
6
CONTINUOUS
10
7.493425
20
217.395777
30
0.0
11
7.331819
21
218.325341
31
0.0
0
LINE
8
0
6
CONTINUOUS
10
6.202991
20
216.848647
30
0.0
11
7.493425
21
217.395777
31
0.0
0
LINE
8
0
6
CONTINUOUS
10
7.723114
20
206.729969
30
0.0
11
8.929637
21
206.412199
31
0.0
0
LINE
8
0
6
CONTINUOUS
10
6.650858
20
206.275351
30
0.0
11
7.723114
21
206.729969
31
0.0
0
LINE
8
0
6
CONTINUOUS
10
6.655993
20
207.065379
30
0.0
11
6.650858
21
206.275351
31
0.0
0
LINE
8
0
6
CONTINUOUS
10
9.063914
20
205.639802
30
0.0
11
9.069438
21
206.489387
31
0.0
0
LINE
8
0
6
CONTINUOUS
10
8.929637
20
206.412199
30
0.0
11
9.063914
21
205.639802
31
0.0
0
LINE
8
0
6
CONTINUOUS
10
6.785135
20
205.502968
30
0.0
11
7.991658
21
205.185184
31
0.0
0
LINE
8
0
6
CONTINUOUS
10
6.650858
20
206.275351
30
0.0
11
6.785135
21
205.502968
31
0.0
0
LINE
8
0
6
CONTINUOUS
10
7.723114
20
206.729969
30
0.0
11
6.650858
21
206.275351
31
0.0
0
LINE
8
0
6
CONTINUOUS
10
8.929637
20
206.412199
30
0.0
11
7.723114
21
206.729969
31
0.0
0
LINE
8
0
6
CONTINUOUS
10
9.063914
20
205.639802
30
0.0
11
8.929637
21
206.412199
31
0.0
0
LINE
8
0
6
CONTINUOUS
10
7.991658
20
205.185184
30
0.0
11
9.063914
21
205.639802
31
0.0
0
LINE
8
0
6
CONTINUOUS
10
8.614153
20
209.453173
30
0.0
11
8.619619
21
210.293840
31
0.0
0
LINE
8
0
6
CONTINUOUS
10
8.479866
20
210.225573
30
0.0
11
8.614153
21
209.453173
31
0.0
0
LINE
8
0
6
CONTINUOUS
10
6.335374
20
209.316356
30
0.0
11
7.541897
21
208.998555
31
0.0
0
LINE
8
0
6
CONTINUOUS
10
6.201097
20
210.088722
30
0.0
11
6.335374
21
209.316356
31
0.0
0
LINE
8
0
6
CONTINUOUS
10
7.273354
20
210.543324
30
0.0
11
6.201097
21
210.088722
31
0.0
0
LINE
8
0
6
CONTINUOUS
10
8.479866
20
210.225573
30
0.0
11
7.273354
21
210.543324
31
0.0
0
LINE
8
0
6
CONTINUOUS
10
8.614153
20
209.453173
30
0.0
11
8.479866
21
210.225573
31
0.0
0
LINE
8
0
6
CONTINUOUS
10
7.541897
20
208.998555
30
0.0
11
8.614153
21
209.453173
31
0.0
0
LINE
8
0
6
CONTINUOUS
10
8.056034
20
214.479846
30
0.0
11
9.462444
21
214.109442
31
0.0
0
LINE
8
0
6
CONTINUOUS
10
6.806125
20
213.949922
30
0.0
11
8.056034
21
214.479846
31
0.0
0
LINE
8
0
6
CONTINUOUS
10
6.812187
20
214.746535
30
0.0
11
6.806125
21
213.949922
31
0.0
0
LINE
8
0
6
CONTINUOUS
10
9.618974
20
213.209077
30
0.0
11
9.625436
21
214.058401
31
0.0
0
LINE
8
0
6
CONTINUOUS
10
9.462444
20
214.109442
30
0.0
11
9.618974
21
213.209077
31
0.0
0
LINE
8
0
6
CONTINUOUS
10
6.962655
20
213.049577
30
0.0
11
8.369065
21
212.679124
31
0.0
0
LINE
8
0
6
CONTINUOUS
10
6.806125
20
213.949922
30
0.0
11
6.962655
21
213.049577
31
0.0
0
LINE
8
0
6
CONTINUOUS
10
8.056034
20
214.479846
30
0.0
11
6.806125
21
213.949922
31
0.0
0
LINE
8
0
6
CONTINUOUS
10
9.462444
20
214.109442
30
0.0
11
8.056034
21
214.479846
31
0.0
0
LINE
8
0
6
CONTINUOUS
10
9.618974
20
213.209077
30
0.0
11
9.462444
21
214.109442
31
0.0
0
LINE
8
0
6
CONTINUOUS
10
8.369065
20
212.679124
30
0.0
11
9.618974
21
213.209077
31
0.0
0
LINE
8
0
6
CONTINUOUS
10
0.652627
20
206.994206
30
0.0
11
0.658015
21
207.822916
31
0.0
0
LINE
8
0
6
CONTINUOUS
10
0.518340
20
207.766589
30
0.0
11
0.652627
21
206.994206
31
0.0
0
LINE
8
0
6
CONTINUOUS
10
-1.626162
20
206.857363
30
0.0
11
-0.419629
21
206.539572
31
0.0
0
LINE
8
0
6
CONTINUOUS
10
-1.760439
20
207.629730
30
0.0
11
-1.626162
21
206.857363
31
0.0
0
LINE
8
0
6
CONTINUOUS
10
-0.688173
20
208.084364
30
0.0
11
-1.760439
21
207.629730
31
0.0
0
LINE
8
0
6
CONTINUOUS
10
0.518340
20
207.766589
30
0.0
11
-0.688173
21
208.084364
31
0.0
0
LINE
8
0
6
CONTINUOUS
10
0.652627
20
206.994206
30
0.0
11
0.518340
21
207.766589
31
0.0
0
LINE
8
0
6
CONTINUOUS
10
-0.419629
20
206.539572
30
0.0
11
0.652627
21
206.994206
31
0.0
0
LINE
8
0
6
CONTINUOUS
10
-0.803469
20
212.056904
30
0.0
11
0.403054
21
211.739133
31
0.0
0
LINE
8
0
6
CONTINUOUS
10
-1.875725
20
211.602288
30
0.0
11
-0.832416
21
212.044631
31
0.0
0
LINE
8
0
6
CONTINUOUS
10
-1.870342
20
212.430556
30
0.0
11
-1.875725
21
211.602288
31
0.0
0
LINE
8
0
6
CONTINUOUS
10
-1.741448
20
210.829905
30
0.0
11
-0.534925
21
210.512118
31
0.0
0
LINE
8
0
6
CONTINUOUS
10
-1.875725
20
211.602288
30
0.0
11
-1.741448
21
210.829905
31
0.0
0
LINE
8
0
6
CONTINUOUS
10
-0.803469
20
212.056904
30
0.0
11
-1.875725
21
211.602288
31
0.0
0
LINE
8
0
6
CONTINUOUS
10
0.403054
20
211.739133
30
0.0
11
-0.803469
21
212.056904
31
0.0
0
LINE
8
0
6
CONTINUOUS
10
0.537331
20
210.966753
30
0.0
11
0.403054
21
211.739133
31
0.0
0
LINE
8
0
6
CONTINUOUS
10
-0.534925
20
210.512118
30
0.0
11
0.537331
21
210.966753
31
0.0
0
LINE
8
0
6
CONTINUOUS
10
0.154009
20
216.293532
30
0.0
11
1.560419
21
215.923112
31
0.0
0
LINE
8
0
6
CONTINUOUS
10
-1.095890
20
215.763581
30
0.0
11
0.154009
21
216.293532
31
0.0
0
LINE
8
0
6
CONTINUOUS
10
-1.089545
20
216.597343
30
0.0
11
-1.095890
21
215.763581
31
0.0
0
LINE
8
0
6
CONTINUOUS
10
1.716949
20
215.022773
30
0.0
11
1.723087
21
215.829208
31
0.0
0
LINE
8
0
6
CONTINUOUS
10
1.560419
20
215.923112
30
0.0
11
1.716949
21
215.022773
31
0.0
0
LINE
8
0
6
CONTINUOUS
10
-0.939360
20
214.863237
30
0.0
11
0.467050
21
214.492815
31
0.0
0
LINE
8
0
6
CONTINUOUS
10
-1.095890
20
215.763581
30
0.0
11
-0.939360
21
214.863237
31
0.0
0
LINE
8
0
6
CONTINUOUS
10
0.154009
20
216.293532
30
0.0
11
-1.095890
21
215.763581
31
0.0
0
LINE
8
0
6
CONTINUOUS
10
1.560419
20
215.923112
30
0.0
11
0.154009
21
216.293532
31
0.0
0
LINE
8
0
6
CONTINUOUS
10
1.716949
20
215.022773
30
0.0
11
1.560419
21
215.923112
31
0.0
0
LINE
8
0
6
CONTINUOUS
10
0.467050
20
214.492815
30
0.0
11
1.716949
21
215.022773
31
0.0
0
LINE
8
0
6
CONTINUOUS
10
-1.990579
20
221.165620
30
0.0
11
-0.700135
21
221.712749
31
0.0
0
LINE
8
0
6
CONTINUOUS
10
-1.983915
20
222.013116
30
0.0
11
-1.990579
21
221.165620
31
0.0
0
LINE
8
0
6
CONTINUOUS
10
-1.828982
20
220.236067
30
0.0
11
-0.376952
21
219.853630
31
0.0
0
LINE
8
0
6
CONTINUOUS
10
-1.990579
20
221.165620
30
0.0
11
-1.828982
21
220.236067
31
0.0
0
LINE
8
0
6
CONTINUOUS
10
-0.700135
20
221.712749
30
0.0
11
-1.990579
21
221.165620
31
0.0
0
LINE
8
0
6
CONTINUOUS
10
0.751886
20
221.330317
30
0.0
11
-0.700135
21
221.712749
31
0.0
0
LINE
8
0
6
CONTINUOUS
10
0.913492
20
220.400760
30
0.0
11
0.751886
21
221.330317
31
0.0
0
LINE
8
0
6
CONTINUOUS
10
-0.376952
20
219.853630
30
0.0
11
0.913492
21
220.400760
31
0.0
0
LINE
8
0
6
CONTINUOUS
10
-3.817266
20
226.224738
30
0.0
11
-2.365245
21
225.842325
31
0.0
0
LINE
8
0
6
CONTINUOUS
10
-5.107710
20
225.677628
30
0.0
11
-3.817266
21
226.224738
31
0.0
0
LINE
8
0
6
CONTINUOUS
10
-5.100776
20
226.559451
30
0.0
11
-5.107710
21
225.677628
31
0.0
0
LINE
8
0
6
CONTINUOUS
10
-2.203629
20
224.912751
30
0.0
11
-2.197469
21
225.696222
31
0.0
0
LINE
8
0
6
CONTINUOUS
10
-2.365245
20
225.842325
30
0.0
11
-2.203629
21
224.912751
31
0.0
0
LINE
8
0
6
CONTINUOUS
10
-4.946103
20
224.748078
30
0.0
11
-3.494073
21
224.365622
31
0.0
0
LINE
8
0
6
CONTINUOUS
10
-5.107710
20
225.677628
30
0.0
11
-4.946103
21
224.748078
31
0.0
0
LINE
8
0
6
CONTINUOUS
10
-3.817266
20
226.224738
30
0.0
11
-5.107710
21
225.677628
31
0.0
0
LINE
8
0
6
CONTINUOUS
10
-2.365245
20
225.842325
30
0.0
11
-3.817266
21
226.224738
31
0.0
0
LINE
8
0
6
CONTINUOUS
10
-2.203629
20
224.912751
30
0.0
11
-2.365245
21
225.842325
31
0.0
0
LINE
8
0
6
CONTINUOUS
10
-3.494073
20
224.365622
30
0.0
11
-2.203629
21
224.912751
31
0.0
0
LINE
8
0
6
CONTINUOUS
10
-6.265057
20
219.607967
30
0.0
11
-4.858637
21
219.237544
31
0.0
0
LINE
8
0
6
CONTINUOUS
10
-4.702117
20
218.337179
30
0.0
11
-4.696206
21
219.113906
31
0.0
0
LINE
8
0
6
CONTINUOUS
10
-4.858637
20
219.237544
30
0.0
11
-4.702117
21
218.337179
31
0.0
0
LINE
8
0
6
CONTINUOUS
10
-7.358436
20
218.177665
30
0.0
11
-5.952016
21
217.807231
31
0.0
0
LINE
8
0
6
CONTINUOUS
10
-7.514956
20
219.078026
30
0.0
11
-7.358436
21
218.177665
31
0.0
0
LINE
8
0
6
CONTINUOUS
10
-6.265057
20
219.607967
30
0.0
11
-7.514956
21
219.078026
31
0.0
0
LINE
8
0
6
CONTINUOUS
10
-4.858637
20
219.237544
30
0.0
11
-6.265057
21
219.607967
31
0.0
0
LINE
8
0
6
CONTINUOUS
10
-4.702117
20
218.337179
30
0.0
11
-4.858637
21
219.237544
31
0.0
0
LINE
8
0
6
CONTINUOUS
10
-5.952016
20
217.807231
30
0.0
11
-4.702117
21
218.337179
31
0.0
0
LINE
8
0
6
CONTINUOUS
10
-9.917381
20
223.975163
30
0.0
11
-8.510971
21
223.604769
31
0.0
0
LINE
8
0
6
CONTINUOUS
10
-8.354441
20
222.704394
30
0.0
11
-8.348734
21
223.454222
31
0.0
0
LINE
8
0
6
CONTINUOUS
10
-8.510971
20
223.604769
30
0.0
11
-8.354441
21
222.704394
31
0.0
0
LINE
8
0
6
CONTINUOUS
10
-11.010750
20
222.544899
30
0.0
11
-9.604340
21
222.174462
31
0.0
0
LINE
8
0
6
CONTINUOUS
10
-11.167280
20
223.445241
30
0.0
11
-11.010750
21
222.544899
31
0.0
0
LINE
8
0
6
CONTINUOUS
10
-9.917381
20
223.975163
30
0.0
11
-11.167280
21
223.445241
31
0.0
0
LINE
8
0
6
CONTINUOUS
10
-8.510971
20
223.604769
30
0.0
11
-9.917381
21
223.975163
31
0.0
0
LINE
8
0
6
CONTINUOUS
10
-8.354441
20
222.704394
30
0.0
11
-8.510971
21
223.604769
31
0.0
0
LINE
8
0
6
CONTINUOUS
10
-9.604340
20
222.174462
30
0.0
11
-8.354441
21
222.704394
31
0.0
0
LINE
8
0
6
CONTINUOUS
10
-7.886149
20
214.956229
30
0.0
11
-6.679616
21
214.638469
31
0.0
0
LINE
8
0
6
CONTINUOUS
10
-8.958405
20
214.501611
30
0.0
11
-7.886149
21
214.956229
31
0.0
0
LINE
8
0
6
CONTINUOUS
10
-8.952914
20
215.346195
30
0.0
11
-8.958405
21
214.501611
31
0.0
0
LINE
8
0
6
CONTINUOUS
10
-6.545340
20
213.866049
30
0.0
11
-6.540159
21
214.662847
31
0.0
0
LINE
8
0
6
CONTINUOUS
10
-6.679616
20
214.638469
30
0.0
11
-6.545340
21
213.866049
31
0.0
0
LINE
8
0
6
CONTINUOUS
10
-8.824129
20
213.729209
30
0.0
11
-7.617596
21
213.411453
31
0.0
0
LINE
8
0
6
CONTINUOUS
10
-8.958405
20
214.501611
30
0.0
11
-8.824129
21
213.729209
31
0.0
0
LINE
8
0
6
CONTINUOUS
10
-7.886149
20
214.956229
30
0.0
11
-8.958405
21
214.501611
31
0.0
0
LINE
8
0
6
CONTINUOUS
10
-6.679616
20
214.638469
30
0.0
11
-7.886149
21
214.956229
31
0.0
0
LINE
8
0
6
CONTINUOUS
10
-6.545340
20
213.866049
30
0.0
11
-6.679616
21
214.638469
31
0.0
0
LINE
8
0
6
CONTINUOUS
10
-7.617596
20
213.411453
30
0.0
11
-6.545340
21
213.866049
31
0.0
0
LINE
8
0
6
CONTINUOUS
10
-13.396712
20
218.796545
30
0.0
11
-12.190190
21
218.478777
31
0.0
0
LINE
8
0
6
CONTINUOUS
10
-14.468968
20
218.341963
30
0.0
11
-13.396712
21
218.796545
31
0.0
0
LINE
8
0
6
CONTINUOUS
10
-14.463392
20
219.199968
30
0.0
11
-14.468968
21
218.341963
31
0.0
0
LINE
8
0
6
CONTINUOUS
10
-12.055903
20
217.706396
30
0.0
11
-12.050810
21
218.489983
31
0.0
0
LINE
8
0
6
CONTINUOUS
10
-12.190190
20
218.478777
30
0.0
11
-12.055903
21
217.706396
31
0.0
0
LINE
8
0
6
CONTINUOUS
10
-14.334692
20
217.569560
30
0.0
11
-13.128169
21
217.251759
31
0.0
0
LINE
8
0
6
CONTINUOUS
10
-14.468968
20
218.341963
30
0.0
11
-14.334692
21
217.569560
31
0.0
0
LINE
8
0
6
CONTINUOUS
10
-13.396712
20
218.796545
30
0.0
11
-14.468968
21
218.341963
31
0.0
0
LINE
8
0
6
CONTINUOUS
10
-12.190190
20
218.478777
30
0.0
11
-13.396712
21
218.796545
31
0.0
0
LINE
8
0
6
CONTINUOUS
10
-12.055903
20
217.706396
30
0.0
11
-12.190190
21
218.478777
31
0.0
0
LINE
8
0
6
CONTINUOUS
10
-13.128169
20
217.251759
30
0.0
11
-12.055903
21
217.706396
31
0.0
0
LINE
8
0
6
CONTINUOUS
10
-17.897068
20
222.928923
30
0.0
11
-16.824812
21
223.383519
31
0.0
0
LINE
8
0
6
CONTINUOUS
10
-17.891417
20
223.798484
30
0.0
11
-17.897068
21
222.928923
31
0.0
0
LINE
8
0
6
CONTINUOUS
10
-15.484012
20
222.293383
30
0.0
11
-15.478991
21
223.065629
31
0.0
0
LINE
8
0
6
CONTINUOUS
10
-15.618299
20
223.065764
30
0.0
11
-15.484012
21
222.293383
31
0.0
0
LINE
8
0
6
CONTINUOUS
10
-17.762791
20
222.156518
30
0.0
11
-16.556268
21
221.838756
31
0.0
0
LINE
8
0
6
CONTINUOUS
10
-17.897068
20
222.928923
30
0.0
11
-17.762791
21
222.156518
31
0.0
0
LINE
8
0
6
CONTINUOUS
10
-16.824812
20
223.383519
30
0.0
11
-17.897068
21
222.928923
31
0.0
0
LINE
8
0
6
CONTINUOUS
10
-15.618299
20
223.065764
30
0.0
11
-16.824812
21
223.383519
31
0.0
0
LINE
8
0
6
CONTINUOUS
10
-15.484012
20
222.293383
30
0.0
11
-15.618299
21
223.065764
31
0.0
0
LINE
8
0
6
CONTINUOUS
10
-16.556268
20
221.838756
30
0.0
11
-15.484012
21
222.293383
31
0.0
0
LINE
8
0
6
CONTINUOUS
10
-24.413409
20
221.068828
30
0.0
11
-24.326258
21
221.843576
31
0.0
0
LINE
8
0
6
CONTINUOUS
10
-24.408419
20
221.977684
30
0.0
11
-24.413409
21
221.068828
31
0.0
0
LINE
8
0
6
CONTINUOUS
10
-22.040599
20
221.755255
30
0.0
11
-22.036517
21
222.498250
31
0.0
0
LINE
8
0
6
CONTINUOUS
10
-23.139843
20
222.186773
30
0.0
11
-22.040599
21
221.755255
31
0.0
0
LINE
8
0
6
CONTINUOUS
10
-24.326258
20
221.843576
30
0.0
11
-23.139843
21
222.186773
31
0.0
0
LINE
8
0
6
CONTINUOUS
10
-24.413409
20
221.068828
30
0.0
11
-23.314165
21
220.637295
31
0.0
0
LINE
8
0
6
CONTINUOUS
10
-24.326258
20
221.843576
30
0.0
11
-24.413409
21
221.068828
31
0.0
0
LINE
8
0
6
CONTINUOUS
10
-23.139843
20
222.186773
30
0.0
11
-24.326258
21
221.843576
31
0.0
0
LINE
8
0
6
CONTINUOUS
10
-22.040599
20
221.755255
30
0.0
11
-23.139843
21
222.186773
31
0.0
0
LINE
8
0
6
CONTINUOUS
10
-22.127750
20
220.980505
30
0.0
11
-22.040599
21
221.755255
31
0.0
0
LINE
8
0
6
CONTINUOUS
10
-23.314165
20
220.637295
30
0.0
11
-22.127750
21
220.980505
31
0.0
0
LINE
8
0
6
CONTINUOUS
10
-20.968801
20
216.446401
30
0.0
11
-20.881660
21
217.221130
31
0.0
0
LINE
8
0
6
CONTINUOUS
10
-20.963818
20
217.353845
30
0.0
11
-20.968801
21
216.446401
31
0.0
0
LINE
8
0
6
CONTINUOUS
10
-18.596001
20
217.132809
30
0.0
11
-18.591912
21
217.877112
31
0.0
0
LINE
8
0
6
CONTINUOUS
10
-19.695234
20
217.564330
30
0.0
11
-18.596001
21
217.132809
31
0.0
0
LINE
8
0
6
CONTINUOUS
10
-20.968801
20
216.446401
30
0.0
11
-19.869567
21
216.014849
31
0.0
0
LINE
8
0
6
CONTINUOUS
10
-20.881660
20
217.221130
30
0.0
11
-20.968801
21
216.446401
31
0.0
0
LINE
8
0
6
CONTINUOUS
10
-19.695234
20
217.564330
30
0.0
11
-20.881660
21
217.221130
31
0.0
0
LINE
8
0
6
CONTINUOUS
10
-18.596001
20
217.132809
30
0.0
11
-19.695234
21
217.564330
31
0.0
0
LINE
8
0
6
CONTINUOUS
10
-18.683152
20
216.358056
30
0.0
11
-18.596001
21
217.132809
31
0.0
0
LINE
8
0
6
CONTINUOUS
10
-19.869567
20
216.014849
30
0.0
11
-18.683152
21
216.358056
31
0.0
0
LINE
8
0
6
CONTINUOUS
10
-15.891509
20
212.386952
30
0.0
11
-15.804348
21
213.161671
31
0.0
0
LINE
8
0
6
CONTINUOUS
10
-15.886547
20
213.290251
30
0.0
11
-15.891509
21
212.386952
31
0.0
0
LINE
8
0
6
CONTINUOUS
10
-13.518699
20
213.073379
30
0.0
11
-13.514598
21
213.819774
31
0.0
0
LINE
8
0
6
CONTINUOUS
10
-14.617942
20
213.504897
30
0.0
11
-13.518699
21
213.073379
31
0.0
0
LINE
8
0
6
CONTINUOUS
10
-15.891509
20
212.386952
30
0.0
11
-14.792265
21
211.955419
31
0.0
0
LINE
8
0
6
CONTINUOUS
10
-15.804348
20
213.161671
30
0.0
11
-15.891509
21
212.386952
31
0.0
0
LINE
8
0
6
CONTINUOUS
10
-14.617942
20
213.504897
30
0.0
11
-15.804348
21
213.161671
31
0.0
0
LINE
8
0
6
CONTINUOUS
10
-13.518699
20
213.073379
30
0.0
11
-14.617942
21
213.504897
31
0.0
0
LINE
8
0
6
CONTINUOUS
10
-13.605850
20
212.298619
30
0.0
11
-13.518699
21
213.073379
31
0.0
0
LINE
8
0
6
CONTINUOUS
10
-14.792265
20
211.955419
30
0.0
11
-13.605850
21
212.298619
31
0.0
0
LINE
8
0
6
CONTINUOUS
10
-9.417371
20
209.216167
30
0.0
11
-8.318127
21
208.784625
31
0.0
0
LINE
8
0
6
CONTINUOUS
10
-9.330220
20
209.990896
30
0.0
11
-9.417371
21
209.216167
31
0.0
0
LINE
8
0
6
CONTINUOUS
10
-8.143815
20
210.334103
30
0.0
11
-9.330220
21
209.990896
31
0.0
0
LINE
8
0
6
CONTINUOUS
10
-7.044571
20
209.902587
30
0.0
11
-8.143815
21
210.334103
31
0.0
0
LINE
8
0
6
CONTINUOUS
10
-7.131722
20
209.127825
30
0.0
11
-7.044571
21
209.902587
31
0.0
0
LINE
8
0
6
CONTINUOUS
10
-8.318127
20
208.784625
30
0.0
11
-7.131722
21
209.127825
31
0.0
0
LINE
8
0
6
CONTINUOUS
10
21.154023
20
225.961766
30
0.0
11
22.531030
21
225.493364
31
0.0
0
LINE
8
0
6
CONTINUOUS
10
19.771528
20
224.561419
30
0.0
11
19.774277
21
225.495774
31
0.0
0
LINE
8
0
6
CONTINUOUS
10
19.774277
20
225.495774
30
0.0
11
21.154023
21
225.961766
31
0.0
0
LINE
8
0
6
CONTINUOUS
10
21.148555
20
224.093003
30
0.0
11
22.528311
21
224.558958
31
0.0
0
LINE
8
0
6
CONTINUOUS
10
19.771528
20
224.561419
30
0.0
11
21.148555
21
224.093003
31
0.0
0
LINE
8
0
6
CONTINUOUS
10
19.774277
20
225.495774
30
0.0
11
19.771528
21
224.561419
31
0.0
0
LINE
8
0
6
CONTINUOUS
10
21.154023
20
225.961766
30
0.0
11
19.774277
21
225.495774
31
0.0
0
LINE
8
0
6
CONTINUOUS
10
22.531030
20
225.493364
30
0.0
11
21.154023
21
225.961766
31
0.0
0
LINE
8
0
6
CONTINUOUS
10
22.528311
20
224.558958
30
0.0
11
22.531030
21
225.493364
31
0.0
0
LINE
8
0
6
CONTINUOUS
10
3.806167
20
229.605598
30
0.0
11
4.749138
21
230.358414
31
0.0
0
LINE
8
0
6
CONTINUOUS
10
3.809219
20
230.472033
30
0.0
11
3.806167
21
229.605598
31
0.0
0
LINE
8
0
6
CONTINUOUS
10
4.749138
20
230.358414
30
0.0
11
6.331050
21
230.255518
31
0.0
0
LINE
8
0
6
CONTINUOUS
10
6.331050
20
230.255518
30
0.0
11
6.969981
21
229.399780
31
0.0
0
LINE
8
0
6
CONTINUOUS
10
6.331050
20
230.255518
30
0.0
11
4.749138
21
230.358414
31
0.0
0
LINE
8
0
6
CONTINUOUS
10
6.969981
20
229.399780
30
0.0
11
6.331050
21
230.255518
31
0.0
0
LINE
8
0
6
CONTINUOUS
10
6.027000
20
228.646949
30
0.0
11
6.969981
21
229.399780
31
0.0
0
LINE
8
0
6
CONTINUOUS
10
4.445088
20
228.749855
30
0.0
11
6.027000
21
228.646949
31
0.0
0
LINE
8
0
6
CONTINUOUS
10
3.806167
20
229.605598
30
0.0
11
4.445088
21
228.749855
31
0.0
0
LINE
8
0
6
CONTINUOUS
10
4.749138
20
230.358414
30
0.0
11
3.806167
21
229.605598
31
0.0
0
LINE
8
0
6
CONTINUOUS
10
20.659438
20
230.174840
30
0.0
11
20.978742
21
229.259447
31
0.0
0
LINE
8
0
6
CONTINUOUS
10
19.149465
20
230.470020
30
0.0
11
20.659438
21
230.174840
31
0.0
0
LINE
8
0
6
CONTINUOUS
10
20.978742
20
229.259447
30
0.0
11
20.659438
21
230.174840
31
0.0
0
LINE
8
0
6
CONTINUOUS
10
19.788053
20
228.639246
30
0.0
11
20.978742
21
229.259447
31
0.0
0
LINE
8
0
6
CONTINUOUS
10
18.278110
20
228.934462
30
0.0
11
19.788053
21
228.639246
31
0.0
0
LINE
8
0
6
CONTINUOUS
10
17.958796
20
229.849836
30
0.0
11
18.278110
21
228.934462
31
0.0
0
LINE
8
0
6
CONTINUOUS
10
19.149465
20
230.470020
30
0.0
11
17.958796
21
229.849836
31
0.0
0
LINE
8
0
6
CONTINUOUS
10
20.659438
20
230.174840
30
0.0
11
19.149465
21
230.470020
31
0.0
0
LINE
8
0
6
CONTINUOUS
10
1.954964
20
224.920046
30
0.0
11
2.606726
21
225.772575
31
0.0
0
LINE
8
0
6
CONTINUOUS
10
1.947814
20
225.789040
30
0.0
11
1.954964
21
224.920046
31
0.0
0
LINE
8
0
6
CONTINUOUS
10
2.606726
20
225.772575
30
0.0
11
4.190112
21
225.867643
31
0.0
0
LINE
8
0
6
CONTINUOUS
10
4.190112
20
225.867643
30
0.0
11
5.121706
21
225.110157
31
0.0
0
LINE
8
0
6
CONTINUOUS
10
2.606726
20
225.772575
30
0.0
11
1.954964
21
224.920046
31
0.0
0
LINE
8
0
6
CONTINUOUS
10
4.190112
20
225.867643
30
0.0
11
2.606726
21
225.772575
31
0.0
0
LINE
8
0
6
CONTINUOUS
10
5.121706
20
225.110157
30
0.0
11
4.190112
21
225.867643
31
0.0
0
LINE
8
0
6
CONTINUOUS
10
4.469944
20
224.257612
30
0.0
11
5.121706
21
225.110157
31
0.0
0
LINE
8
0
6
CONTINUOUS
10
2.886578
20
224.162551
30
0.0
11
4.469944
21
224.257612
31
0.0
0
LINE
8
0
6
CONTINUOUS
10
1.954964
20
224.920046
30
0.0
11
2.886578
21
224.162551
31
0.0
0
LINE
8
0
6
CONTINUOUS
10
14.721237
20
221.207881
30
0.0
11
15.057395
21
222.121249
31
0.0
0
LINE
8
0
6
CONTINUOUS
10
14.713957
20
222.027131
30
0.0
11
14.721237
21
221.207881
31
0.0
0
LINE
8
0
6
CONTINUOUS
10
15.057395
20
222.121249
30
0.0
11
16.572711
21
222.407141
31
0.0
0
LINE
8
0
6
CONTINUOUS
10
16.572711
20
222.407141
30
0.0
11
17.751909
21
221.779683
31
0.0
0
LINE
8
0
6
CONTINUOUS
10
6.876533
20
221.312869
30
0.0
11
7.528305
21
222.165407
31
0.0
0
LINE
8
0
6
CONTINUOUS
10
6.869518
20
222.165443
30
0.0
11
6.876533
21
221.312869
31
0.0
0
LINE
8
0
6
CONTINUOUS
10
7.528305
20
222.165407
30
0.0
11
9.111691
21
222.260469
31
0.0
0
LINE
8
0
6
CONTINUOUS
10
7.528305
20
222.165407
30
0.0
11
6.876533
21
221.312869
31
0.0
0
LINE
8
0
6
CONTINUOUS
10
9.111691
20
222.260469
30
0.0
11
7.528305
21
222.165407
31
0.0
0
LINE
8
0
6
CONTINUOUS
10
10.043275
20
221.502999
30
0.0
11
9.111691
21
222.260469
31
0.0
0
LINE
8
0
6
CONTINUOUS
10
9.391512
20
220.650438
30
0.0
11
10.043275
21
221.502999
31
0.0
0
LINE
8
0
6
CONTINUOUS
10
7.808146
20
220.555392
30
0.0
11
9.391512
21
220.650438
31
0.0
0
LINE
8
0
6
CONTINUOUS
10
6.876533
20
221.312869
30
0.0
11
7.808146
21
220.555392
31
0.0
0
LINE
8
0
6
CONTINUOUS
10
10.769939
20
231.441287
30
0.0
11
11.421711
21
232.293849
31
0.0
0
LINE
8
0
6
CONTINUOUS
10
10.763138
20
232.267836
30
0.0
11
10.769939
21
231.441287
31
0.0
0
LINE
8
0
6
CONTINUOUS
10
11.421711
20
232.293849
30
0.0
11
13.005097
21
232.388891
31
0.0
0
LINE
8
0
6
CONTINUOUS
10
13.005097
20
232.388891
30
0.0
11
13.936690
21
231.631415
31
0.0
0
LINE
8
0
6
CONTINUOUS
10
11.421711
20
232.293849
30
0.0
11
10.769939
21
231.441287
31
0.0
0
LINE
8
0
6
CONTINUOUS
10
13.005097
20
232.388891
30
0.0
11
11.421711
21
232.293849
31
0.0
0
LINE
8
0
6
CONTINUOUS
10
13.936690
20
231.631415
30
0.0
11
13.005097
21
232.388891
31
0.0
0
LINE
8
0
6
CONTINUOUS
10
13.284918
20
230.778870
30
0.0
11
13.936690
21
231.631415
31
0.0
0
LINE
8
0
6
CONTINUOUS
10
11.701562
20
230.683818
30
0.0
11
13.284918
21
230.778870
31
0.0
0
LINE
8
0
6
CONTINUOUS
10
10.769939
20
231.441287
30
0.0
11
11.701562
21
230.683818
31
0.0
0
LINE
8
0
6
CONTINUOUS
10
28.343882
20
228.453092
30
0.0
11
29.720889
21
227.984673
31
0.0
0
LINE
8
0
6
CONTINUOUS
10
26.961387
20
227.052745
30
0.0
11
26.964136
21
227.987122
31
0.0
0
LINE
8
0
6
CONTINUOUS
10
26.964136
20
227.987122
30
0.0
11
28.343882
21
228.453092
31
0.0
0
LINE
8
0
6
CONTINUOUS
10
28.338413
20
226.584312
30
0.0
11
29.718169
21
227.050287
31
0.0
0
LINE
8
0
6
CONTINUOUS
10
26.961387
20
227.052745
30
0.0
11
28.338413
21
226.584312
31
0.0
0
LINE
8
0
6
CONTINUOUS
10
26.964136
20
227.987122
30
0.0
11
26.961387
21
227.052745
31
0.0
0
LINE
8
0
6
CONTINUOUS
10
28.343882
20
228.453092
30
0.0
11
26.964136
21
227.987122
31
0.0
0
LINE
8
0
6
CONTINUOUS
10
29.720889
20
227.984673
30
0.0
11
28.343882
21
228.453092
31
0.0
0
LINE
8
0
6
CONTINUOUS
10
29.718169
20
227.050287
30
0.0
11
29.720889
21
227.984673
31
0.0
0
LINE
8
0
6
CONTINUOUS
10
35.277633
20
228.980662
30
0.0
11
36.611387
21
228.526962
31
0.0
0
LINE
8
0
6
CONTINUOUS
10
33.938579
20
227.624323
30
0.0
11
33.941234
21
228.529343
31
0.0
0
LINE
8
0
6
CONTINUOUS
10
33.941234
20
228.529343
30
0.0
11
35.277633
21
228.980662
31
0.0
0
LINE
8
0
6
CONTINUOUS
10
35.272343
20
227.170599
30
0.0
11
36.608752
21
227.621928
31
0.0
0
LINE
8
0
6
CONTINUOUS
10
33.938579
20
227.624323
30
0.0
11
35.272343
21
227.170599
31
0.0
0
LINE
8
0
6
CONTINUOUS
10
33.941234
20
228.529343
30
0.0
11
33.938579
21
227.624323
31
0.0
0
LINE
8
0
6
CONTINUOUS
10
35.277633
20
228.980662
30
0.0
11
33.941234
21
228.529343
31
0.0
0
LINE
8
0
6
CONTINUOUS
10
36.611387
20
228.526962
30
0.0
11
35.277633
21
228.980662
31
0.0
0
LINE
8
0
6
CONTINUOUS
10
36.608752
20
227.621928
30
0.0
11
36.611387
21
228.526962
31
0.0
0
LINE
8
0
6
CONTINUOUS
10
42.374211
20
227.624374
30
0.0
11
43.518398
21
227.235137
31
0.0
0
LINE
8
0
6
CONTINUOUS
10
41.225466
20
226.460786
30
0.0
11
41.227745
21
227.237171
31
0.0
0
LINE
8
0
6
CONTINUOUS
10
41.227745
20
227.237171
30
0.0
11
42.374211
21
227.624374
31
0.0
0
LINE
8
0
6
CONTINUOUS
10
42.369672
20
226.071558
30
0.0
11
43.516138
21
226.458739
31
0.0
0
LINE
8
0
6
CONTINUOUS
10
41.225466
20
226.460786
30
0.0
11
42.369672
21
226.071558
31
0.0
0
LINE
8
0
6
CONTINUOUS
10
41.227745
20
227.237171
30
0.0
11
41.225466
21
226.460786
31
0.0
0
LINE
8
0
6
CONTINUOUS
10
42.374211
20
227.624374
30
0.0
11
41.227745
21
227.237171
31
0.0
0
LINE
8
0
6
CONTINUOUS
10
43.518398
20
227.235137
30
0.0
11
42.374211
21
227.624374
31
0.0
0
LINE
8
0
6
CONTINUOUS
10
43.516138
20
226.458739
30
0.0
11
43.518398
21
227.235137
31
0.0
0
LINE
8
0
6
CONTINUOUS
10
49.383976
20
225.462411
30
0.0
11
50.530452
21
225.849592
31
0.0
0
LINE
8
0
6
CONTINUOUS
10
50.530452
20
225.849592
30
0.0
11
50.532712
21
226.625994
31
0.0
0
LINE
8
0
6
CONTINUOUS
10
49.214680
20
227.070589
30
0.0
11
50.358866
21
226.681361
31
0.0
0
LINE
8
0
6
CONTINUOUS
10
48.065934
20
225.906994
30
0.0
11
48.068214
21
226.683389
31
0.0
0
LINE
8
0
6
CONTINUOUS
10
48.068214
20
226.683389
30
0.0
11
49.214680
21
227.070589
31
0.0
0
LINE
8
0
6
CONTINUOUS
10
49.210140
20
225.517773
30
0.0
11
50.356606
21
225.904959
31
0.0
0
LINE
8
0
6
CONTINUOUS
10
48.065934
20
225.906994
30
0.0
11
49.210140
21
225.517773
31
0.0
0
LINE
8
0
6
CONTINUOUS
10
48.068214
20
226.683389
30
0.0
11
48.065934
21
225.906994
31
0.0
0
LINE
8
0
6
CONTINUOUS
10
49.214680
20
227.070589
30
0.0
11
48.068214
21
226.683389
31
0.0
0
LINE
8
0
6
CONTINUOUS
10
50.358866
20
226.681361
30
0.0
11
49.214680
21
227.070589
31
0.0
0
LINE
8
0
6
CONTINUOUS
10
50.356606
20
225.904959
30
0.0
11
50.358866
21
226.681361
31
0.0
0
LINE
8
0
6
CONTINUOUS
10
25.173438
20
233.032982
30
0.0
11
26.550445
21
232.564563
31
0.0
0
LINE
8
0
6
CONTINUOUS
10
23.790943
20
231.632619
30
0.0
11
23.793682
21
232.566991
31
0.0
0
LINE
8
0
6
CONTINUOUS
10
23.793682
20
232.566991
30
0.0
11
25.173438
21
233.032982
31
0.0
0
LINE
8
0
6
CONTINUOUS
10
25.167969
20
231.164193
30
0.0
11
26.547725
21
231.630168
31
0.0
0
LINE
8
0
6
CONTINUOUS
10
23.790943
20
231.632619
30
0.0
11
25.167969
21
231.164193
31
0.0
0
LINE
8
0
6
CONTINUOUS
10
23.793682
20
232.566991
30
0.0
11
23.790943
21
231.632619
31
0.0
0
LINE
8
0
6
CONTINUOUS
10
25.173438
20
233.032982
30
0.0
11
23.793682
21
232.566991
31
0.0
0
LINE
8
0
6
CONTINUOUS
10
26.550445
20
232.564563
30
0.0
11
25.173438
21
233.032982
31
0.0
0
LINE
8
0
6
CONTINUOUS
10
26.547725
20
231.630168
30
0.0
11
26.550445
21
232.564563
31
0.0
0
LINE
8
0
6
CONTINUOUS
10
32.885609
20
233.794329
30
0.0
11
34.219352
21
233.340636
31
0.0
0
LINE
8
0
6
CONTINUOUS
10
32.880318
20
231.984273
30
0.0
11
34.216717
21
232.435583
31
0.0
0
LINE
8
0
6
CONTINUOUS
10
31.546544
20
232.437977
30
0.0
11
32.880318
21
231.984273
31
0.0
0
LINE
8
0
6
CONTINUOUS
10
31.549200
20
233.343000
30
0.0
11
31.546544
21
232.437977
31
0.0
0
LINE
8
0
6
CONTINUOUS
10
32.885609
20
233.794329
30
0.0
11
31.549200
21
233.343000
31
0.0
0
LINE
8
0
6
CONTINUOUS
10
34.219352
20
233.340636
30
0.0
11
32.885609
21
233.794329
31
0.0
0
LINE
8
0
6
CONTINUOUS
10
34.216717
20
232.435583
30
0.0
11
34.219352
21
233.340636
31
0.0
0
LINE
8
0
6
CONTINUOUS
10
27.849299
20
237.756678
30
0.0
11
29.183052
21
237.302988
31
0.0
0
LINE
8
0
6
CONTINUOUS
10
27.844008
20
235.946613
30
0.0
11
29.180417
21
236.397952
31
0.0
0
LINE
8
0
6
CONTINUOUS
10
26.510244
20
236.400329
30
0.0
11
27.844008
21
235.946613
31
0.0
0
LINE
8
0
6
CONTINUOUS
10
26.512900
20
237.305349
30
0.0
11
26.510244
21
236.400329
31
0.0
0
LINE
8
0
6
CONTINUOUS
10
27.849299
20
237.756678
30
0.0
11
26.512900
21
237.305349
31
0.0
0
LINE
8
0
6
CONTINUOUS
10
29.183052
20
237.302988
30
0.0
11
27.849299
21
237.756678
31
0.0
0
LINE
8
0
6
CONTINUOUS
10
29.180417
20
236.397952
30
0.0
11
29.183052
21
237.302988
31
0.0
0
LINE
8
0
6
CONTINUOUS
10
41.226902
20
232.593299
30
0.0
11
42.371088
21
232.204078
31
0.0
0
LINE
8
0
6
CONTINUOUS
10
40.078156
20
231.429694
30
0.0
11
40.080436
21
232.206118
31
0.0
0
LINE
8
0
6
CONTINUOUS
10
40.080436
20
232.206118
30
0.0
11
41.226902
21
232.593299
31
0.0
0
LINE
8
0
6
CONTINUOUS
10
41.222362
20
231.040483
30
0.0
11
42.368828
21
231.427686
31
0.0
0
LINE
8
0
6
CONTINUOUS
10
40.078156
20
231.429694
30
0.0
11
41.222362
21
231.040483
31
0.0
0
LINE
8
0
6
CONTINUOUS
10
40.080436
20
232.206118
30
0.0
11
40.078156
21
231.429694
31
0.0
0
LINE
8
0
6
CONTINUOUS
10
41.226902
20
232.593299
30
0.0
11
40.080436
21
232.206118
31
0.0
0
LINE
8
0
6
CONTINUOUS
10
42.371088
20
232.204078
30
0.0
11
41.226902
21
232.593299
31
0.0
0
LINE
8
0
6
CONTINUOUS
10
42.368828
20
231.427686
30
0.0
11
42.371088
21
232.204078
31
0.0
0
LINE
8
0
6
CONTINUOUS
10
37.932517
20
237.235842
30
0.0
11
39.076704
21
236.846650
31
0.0
0
LINE
8
0
6
CONTINUOUS
10
36.786051
20
236.848668
30
0.0
11
37.932517
21
237.235842
31
0.0
0
LINE
8
0
6
CONTINUOUS
10
37.927968
20
235.683047
30
0.0
11
39.074444
21
236.070248
31
0.0
0
LINE
8
0
6
CONTINUOUS
10
36.783772
20
236.072285
30
0.0
11
37.927968
21
235.683047
31
0.0
0
LINE
8
0
6
CONTINUOUS
10
36.786051
20
236.848668
30
0.0
11
36.783772
21
236.072285
31
0.0
0
LINE
8
0
6
CONTINUOUS
10
37.932517
20
237.235842
30
0.0
11
36.786051
21
236.848668
31
0.0
0
LINE
8
0
6
CONTINUOUS
10
39.076704
20
236.846650
30
0.0
11
37.932517
21
237.235842
31
0.0
0
LINE
8
0
6
CONTINUOUS
10
39.074444
20
236.070248
30
0.0
11
39.076704
21
236.846650
31
0.0
0
LINE
8
0
6
CONTINUOUS
10
32.373894
20
241.082013
30
0.0
11
33.518090
21
240.692802
31
0.0
0
LINE
8
0
6
CONTINUOUS
10
31.227438
20
240.694829
30
0.0
11
32.373894
21
241.082013
31
0.0
0
LINE
8
0
6
CONTINUOUS
10
32.369354
20
239.529197
30
0.0
11
33.515830
21
239.916397
31
0.0
0
LINE
8
0
6
CONTINUOUS
10
31.225148
20
239.918432
30
0.0
11
32.369354
21
239.529197
31
0.0
0
LINE
8
0
6
CONTINUOUS
10
31.227438
20
240.694829
30
0.0
11
31.225148
21
239.918432
31
0.0
0
LINE
8
0
6
CONTINUOUS
10
32.373894
20
241.082013
30
0.0
11
31.227438
21
240.694829
31
0.0
0
LINE
8
0
6
CONTINUOUS
10
33.518090
20
240.692802
30
0.0
11
32.373894
21
241.082013
31
0.0
0
LINE
8
0
6
CONTINUOUS
10
33.515830
20
239.916397
30
0.0
11
33.518090
21
240.692802
31
0.0
0
LINE
8
0
6
CONTINUOUS
10
37.140305
20
244.717825
30
0.0
11
37.358765
21
243.952117
31
0.0
0
LINE
8
0
6
CONTINUOUS
10
35.901493
20
244.989478
30
0.0
11
37.140305
21
244.717825
31
0.0
0
LINE
8
0
6
CONTINUOUS
10
36.338394
20
243.458034
30
0.0
11
37.358765
21
243.952117
31
0.0
0
LINE
8
0
6
CONTINUOUS
10
35.099563
20
243.729707
30
0.0
11
36.338394
21
243.458034
31
0.0
0
LINE
8
0
6
CONTINUOUS
10
34.881122
20
244.495424
30
0.0
11
35.099563
21
243.729707
31
0.0
0
LINE
8
0
6
CONTINUOUS
10
35.901493
20
244.989478
30
0.0
11
34.881122
21
244.495424
31
0.0
0
LINE
8
0
6
CONTINUOUS
10
37.140305
20
244.717825
30
0.0
11
35.901493
21
244.989478
31
0.0
0
LINE
8
0
6
CONTINUOUS
10
37.358765
20
243.952117
30
0.0
11
37.140305
21
244.717825
31
0.0
0
LINE
8
0
6
CONTINUOUS
10
43.018972
20
241.021029
30
0.0
11
43.237433
21
240.255295
31
0.0
0
LINE
8
0
6
CONTINUOUS
10
40.759789
20
240.798586
30
0.0
11
41.780160
21
241.292666
31
0.0
0
LINE
8
0
6
CONTINUOUS
10
40.762473
20
241.570674
30
0.0
11
40.759789
21
240.798586
31
0.0
0
LINE
8
0
6
CONTINUOUS
10
42.217052
20
239.761239
30
0.0
11
43.237433
21
240.255295
31
0.0
0
LINE
8
0
6
CONTINUOUS
10
40.978230
20
240.032892
30
0.0
11
42.217052
21
239.761239
31
0.0
0
LINE
8
0
6
CONTINUOUS
10
40.759789
20
240.798586
30
0.0
11
40.978230
21
240.032892
31
0.0
0
LINE
8
0
6
CONTINUOUS
10
41.780160
20
241.292666
30
0.0
11
40.759789
21
240.798586
31
0.0
0
LINE
8
0
6
CONTINUOUS
10
43.018972
20
241.021029
30
0.0
11
41.780160
21
241.292666
31
0.0
0
LINE
8
0
6
CONTINUOUS
10
43.237433
20
240.255295
30
0.0
11
43.018972
21
241.021029
31
0.0
0
LINE
8
0
6
CONTINUOUS
10
47.351968
20
236.609266
30
0.0
11
47.570419
21
235.843573
31
0.0
0
LINE
8
0
6
CONTINUOUS
10
46.113156
20
236.880939
30
0.0
11
47.351968
21
236.609266
31
0.0
0
LINE
8
0
6
CONTINUOUS
10
45.092785
20
236.386880
30
0.0
11
46.113156
21
236.880939
31
0.0
0
LINE
8
0
6
CONTINUOUS
10
45.095424
20
237.146145
30
0.0
11
45.092785
21
236.386880
31
0.0
0
LINE
8
0
6
CONTINUOUS
10
46.550048
20
235.349528
30
0.0
11
47.570419
21
235.843573
31
0.0
0
LINE
8
0
6
CONTINUOUS
10
45.311226
20
235.621182
30
0.0
11
46.550048
21
235.349528
31
0.0
0
LINE
8
0
6
CONTINUOUS
10
45.092785
20
236.386880
30
0.0
11
45.311226
21
235.621182
31
0.0
0
LINE
8
0
6
CONTINUOUS
10
46.113156
20
236.880939
30
0.0
11
45.092785
21
236.386880
31
0.0
0
LINE
8
0
6
CONTINUOUS
10
47.351968
20
236.609266
30
0.0
11
46.113156
21
236.880939
31
0.0
0
LINE
8
0
6
CONTINUOUS
10
47.570419
20
235.843573
30
0.0
11
47.351968
21
236.609266
31
0.0
0
LINE
8
0
6
CONTINUOUS
10
49.896703
20
231.829403
30
0.0
11
50.115164
21
231.063695
31
0.0
0
LINE
8
0
6
CONTINUOUS
10
48.657891
20
232.101040
30
0.0
11
49.896703
21
231.829403
31
0.0
0
LINE
8
0
6
CONTINUOUS
10
47.637520
20
231.606983
30
0.0
11
48.657891
21
232.101040
31
0.0
0
LINE
8
0
6
CONTINUOUS
10
47.640119
20
232.354805
30
0.0
11
47.637520
21
231.606983
31
0.0
0
LINE
8
0
6
CONTINUOUS
10
49.094793
20
230.569629
30
0.0
11
50.115164
21
231.063695
31
0.0
0
LINE
8
0
6
CONTINUOUS
10
47.855961
20
230.841282
30
0.0
11
49.094793
21
230.569629
31
0.0
0
LINE
8
0
6
CONTINUOUS
10
47.637520
20
231.606983
30
0.0
11
47.855961
21
230.841282
31
0.0
0
LINE
8
0
6
CONTINUOUS
10
48.657891
20
232.101040
30
0.0
11
47.637520
21
231.606983
31
0.0
0
LINE
8
0
6
CONTINUOUS
10
49.896703
20
231.829403
30
0.0
11
48.657891
21
232.101040
31
0.0
0
LINE
8
0
6
CONTINUOUS
10
50.115164
20
231.063695
30
0.0
11
49.896703
21
231.829403
31
0.0
0
LINE
8
0
6
CONTINUOUS
10
12.888927
20
217.664883
30
0.0
11
14.348887
21
218.037094
31
0.0
0
LINE
8
0
6
CONTINUOUS
10
12.707803
20
216.736514
30
0.0
11
12.888927
21
217.664883
31
0.0
0
LINE
8
0
6
CONTINUOUS
10
12.700903
20
217.569086
30
0.0
11
12.707803
21
216.736514
31
0.0
0
LINE
8
0
6
CONTINUOUS
10
12.707803
20
216.736514
30
0.0
11
13.986637
21
216.180400
31
0.0
0
LINE
8
0
6
CONTINUOUS
10
12.888927
20
217.664883
30
0.0
11
12.707803
21
216.736514
31
0.0
0
LINE
8
0
6
CONTINUOUS
10
14.348887
20
218.037094
30
0.0
11
12.888927
21
217.664883
31
0.0
0
LINE
8
0
6
CONTINUOUS
10
15.627732
20
217.480944
30
0.0
11
14.348887
21
218.037094
31
0.0
0
LINE
8
0
6
CONTINUOUS
10
15.446607
20
216.552601
30
0.0
11
15.627732
21
217.480944
31
0.0
0
LINE
8
0
6
CONTINUOUS
10
13.986637
20
216.180400
30
0.0
11
15.446607
21
216.552601
31
0.0
0
LINE
8
0
6
CONTINUOUS
10
15.521879
20
206.390410
30
0.0
11
16.734984
21
206.699676
31
0.0
0
LINE
8
0
6
CONTINUOUS
10
17.797606
20
206.237562
30
0.0
11
17.787096
21
207.758536
31
0.0
0
LINE
8
0
6
CONTINUOUS
10
16.734984
20
206.699676
30
0.0
11
17.797606
21
206.237562
31
0.0
0
LINE
8
0
6
CONTINUOUS
10
15.371365
20
205.619014
30
0.0
11
15.521879
21
206.390410
31
0.0
0
LINE
8
0
6
CONTINUOUS
10
15.365499
20
206.467941
30
0.0
11
15.371365
21
205.619014
31
0.0
0
LINE
8
0
6
CONTINUOUS
10
15.371365
20
205.619014
30
0.0
11
16.433986
21
205.156893
31
0.0
0
LINE
8
0
6
CONTINUOUS
10
15.521879
20
206.390410
30
0.0
11
15.371365
21
205.619014
31
0.0
0
LINE
8
0
6
CONTINUOUS
10
16.734984
20
206.699676
30
0.0
11
15.521879
21
206.390410
31
0.0
0
LINE
8
0
6
CONTINUOUS
10
17.797606
20
206.237562
30
0.0
11
16.734984
21
206.699676
31
0.0
0
LINE
8
0
6
CONTINUOUS
10
17.647101
20
205.466190
30
0.0
11
17.797606
21
206.237562
31
0.0
0
LINE
8
0
6
CONTINUOUS
10
16.433986
20
205.156893
30
0.0
11
17.647101
21
205.466190
31
0.0
0
LINE
8
0
6
CONTINUOUS
10
14.723527
20
210.200630
30
0.0
11
15.936633
21
210.509886
31
0.0
0
LINE
8
0
6
CONTINUOUS
10
16.999254
20
210.047772
30
0.0
11
16.992599
21
211.011199
31
0.0
0
LINE
8
0
6
CONTINUOUS
10
15.936633
20
210.509886
30
0.0
11
16.999254
21
210.047772
31
0.0
0
LINE
8
0
6
CONTINUOUS
10
14.573013
20
209.429219
30
0.0
11
14.723527
21
210.200630
31
0.0
0
LINE
8
0
6
CONTINUOUS
10
14.567208
20
210.269331
30
0.0
11
14.573013
21
209.429219
31
0.0
0
LINE
8
0
6
CONTINUOUS
10
14.573013
20
209.429219
30
0.0
11
15.635634
21
208.967119
31
0.0
0
LINE
8
0
6
CONTINUOUS
10
14.723527
20
210.200630
30
0.0
11
14.573013
21
209.429219
31
0.0
0
LINE
8
0
6
CONTINUOUS
10
15.936633
20
210.509886
30
0.0
11
14.723527
21
210.200630
31
0.0
0
LINE
8
0
6
CONTINUOUS
10
16.999254
20
210.047772
30
0.0
11
15.936633
21
210.509886
31
0.0
0
LINE
8
0
6
CONTINUOUS
10
16.848749
20
209.276397
30
0.0
11
16.999254
21
210.047772
31
0.0
0
LINE
8
0
6
CONTINUOUS
10
15.635634
20
208.967119
30
0.0
11
16.848749
21
209.276397
31
0.0
0
LINE
8
0
6
CONTINUOUS
10
15.167882
20
214.091531
30
0.0
11
16.581972
21
214.452051
31
0.0
0
LINE
8
0
6
CONTINUOUS
10
16.581972
20
214.452051
30
0.0
11
17.820641
21
213.913366
31
0.0
0
LINE
8
0
6
CONTINUOUS
10
14.992432
20
213.192347
30
0.0
11
15.167882
21
214.091531
31
0.0
0
LINE
8
0
6
CONTINUOUS
10
14.985618
20
214.040860
30
0.0
11
14.992432
21
213.192347
31
0.0
0
LINE
8
0
6
CONTINUOUS
10
14.992432
20
213.192347
30
0.0
11
16.231101
21
212.653671
31
0.0
0
LINE
8
0
6
CONTINUOUS
10
15.167882
20
214.091531
30
0.0
11
14.992432
21
213.192347
31
0.0
0
LINE
8
0
6
CONTINUOUS
10
16.581972
20
214.452051
30
0.0
11
15.167882
21
214.091531
31
0.0
0
LINE
8
0
6
CONTINUOUS
10
17.820641
20
213.913366
30
0.0
11
16.581972
21
214.452051
31
0.0
0
LINE
8
0
6
CONTINUOUS
10
17.645201
20
213.014199
30
0.0
11
17.820641
21
213.913366
31
0.0
0
LINE
8
0
6
CONTINUOUS
10
16.231101
20
212.653671
30
0.0
11
17.645201
21
213.014199
31
0.0
0
LINE
8
0
6
CONTINUOUS
10
23.961487
20
207.689669
30
0.0
11
25.174593
21
207.998947
31
0.0
0
LINE
8
0
6
CONTINUOUS
10
23.810973
20
206.918284
30
0.0
11
23.961487
21
207.689669
31
0.0
0
LINE
8
0
6
CONTINUOUS
10
23.805255
20
207.745871
30
0.0
11
23.810973
21
206.918284
31
0.0
0
LINE
8
0
6
CONTINUOUS
10
23.810973
20
206.918284
30
0.0
11
24.873594
21
206.456163
31
0.0
0
LINE
8
0
6
CONTINUOUS
10
23.961487
20
207.689669
30
0.0
11
23.810973
21
206.918284
31
0.0
0
LINE
8
0
6
CONTINUOUS
10
25.174593
20
207.998947
30
0.0
11
23.961487
21
207.689669
31
0.0
0
LINE
8
0
6
CONTINUOUS
10
26.237214
20
207.536838
30
0.0
11
25.174593
21
207.998947
31
0.0
0
LINE
8
0
6
CONTINUOUS
10
26.086720
20
206.765446
30
0.0
11
26.237214
21
207.536838
31
0.0
0
LINE
8
0
6
CONTINUOUS
10
24.873594
20
206.456163
30
0.0
11
26.086720
21
206.765446
31
0.0
0
LINE
8
0
6
CONTINUOUS
10
23.163129
20
211.514860
30
0.0
11
24.376245
21
211.824117
31
0.0
0
LINE
8
0
6
CONTINUOUS
10
24.376245
20
211.824117
30
0.0
11
25.438866
21
211.362024
31
0.0
0
LINE
8
0
6
CONTINUOUS
10
23.012625
20
210.743454
30
0.0
11
23.163129
21
211.514860
31
0.0
0
LINE
8
0
6
CONTINUOUS
10
23.006921
20
211.568933
30
0.0
11
23.012625
21
210.743454
31
0.0
0
LINE
8
0
6
CONTINUOUS
10
23.012625
20
210.743454
30
0.0
11
24.075246
21
210.281362
31
0.0
0
LINE
8
0
6
CONTINUOUS
10
23.163129
20
211.514860
30
0.0
11
23.012625
21
210.743454
31
0.0
0
LINE
8
0
6
CONTINUOUS
10
24.376245
20
211.824117
30
0.0
11
23.163129
21
211.514860
31
0.0
0
LINE
8
0
6
CONTINUOUS
10
25.438866
20
211.362024
30
0.0
11
24.376245
21
211.824117
31
0.0
0
LINE
8
0
6
CONTINUOUS
10
25.288362
20
210.590627
30
0.0
11
25.438866
21
211.362024
31
0.0
0
LINE
8
0
6
CONTINUOUS
10
24.075246
20
210.281362
30
0.0
11
25.288362
21
210.590627
31
0.0
0
LINE
8
0
6
CONTINUOUS
10
23.107458
20
215.855578
30
0.0
11
24.521548
21
216.216092
31
0.0
0
LINE
8
0
6
CONTINUOUS
10
24.521548
20
216.216092
30
0.0
11
25.760227
21
215.677430
31
0.0
0
LINE
8
0
6
CONTINUOUS
10
22.932018
20
214.956382
30
0.0
11
23.107458
21
215.855578
31
0.0
0
LINE
8
0
6
CONTINUOUS
10
22.925549
20
215.761972
30
0.0
11
22.932018
21
214.956382
31
0.0
0
LINE
8
0
6
CONTINUOUS
10
22.932018
20
214.956382
30
0.0
11
24.170687
21
214.417712
31
0.0
0
LINE
8
0
6
CONTINUOUS
10
23.107458
20
215.855578
30
0.0
11
22.932018
21
214.956382
31
0.0
0
LINE
8
0
6
CONTINUOUS
10
24.521548
20
216.216092
30
0.0
11
23.107458
21
215.855578
31
0.0
0
LINE
8
0
6
CONTINUOUS
10
25.760227
20
215.677430
30
0.0
11
24.521548
21
216.216092
31
0.0
0
LINE
8
0
6
CONTINUOUS
10
25.584787
20
214.778234
30
0.0
11
25.760227
21
215.677430
31
0.0
0
LINE
8
0
6
CONTINUOUS
10
24.170687
20
214.417712
30
0.0
11
25.584787
21
214.778234
31
0.0
0
LINE
8
0
6
CONTINUOUS
10
20.661455
20
219.425163
30
0.0
11
22.121414
21
219.797376
31
0.0
0
LINE
8
0
6
CONTINUOUS
10
20.480330
20
218.496819
30
0.0
11
20.661455
21
219.425163
31
0.0
0
LINE
8
0
6
CONTINUOUS
10
20.473587
20
219.310521
30
0.0
11
20.480330
21
218.496819
31
0.0
0
LINE
8
0
6
CONTINUOUS
10
20.480330
20
218.496819
30
0.0
11
21.759175
21
217.940660
31
0.0
0
LINE
8
0
6
CONTINUOUS
10
20.661455
20
219.425163
30
0.0
11
20.480330
21
218.496819
31
0.0
0
LINE
8
0
6
CONTINUOUS
10
22.121414
20
219.797376
30
0.0
11
20.661455
21
219.425163
31
0.0
0
LINE
8
0
6
CONTINUOUS
10
23.400259
20
219.241243
30
0.0
11
22.121414
21
219.797376
31
0.0
0
LINE
8
0
6
CONTINUOUS
10
23.219134
20
218.312896
30
0.0
11
23.400259
21
219.241243
31
0.0
0
LINE
8
0
6
CONTINUOUS
10
21.759175
20
217.940660
30
0.0
11
23.219134
21
218.312896
31
0.0
0
LINE
8
0
6
CONTINUOUS
10
25.715772
20
223.353592
30
0.0
11
27.175731
21
223.725817
31
0.0
0
LINE
8
0
6
CONTINUOUS
10
27.175731
20
223.725817
30
0.0
11
28.454576
21
223.169665
31
0.0
0
LINE
8
0
6
CONTINUOUS
10
25.534637
20
222.425229
30
0.0
11
26.813482
21
221.869099
31
0.0
0
LINE
8
0
6
CONTINUOUS
10
25.715772
20
223.353592
30
0.0
11
25.534637
21
222.425229
31
0.0
0
LINE
8
0
6
CONTINUOUS
10
27.175731
20
223.725817
30
0.0
11
25.715772
21
223.353592
31
0.0
0
LINE
8
0
6
CONTINUOUS
10
28.454576
20
223.169665
30
0.0
11
27.175731
21
223.725817
31
0.0
0
LINE
8
0
6
CONTINUOUS
10
28.273451
20
222.241309
30
0.0
11
28.454576
21
223.169665
31
0.0
0
LINE
8
0
6
CONTINUOUS
10
26.813482
20
221.869099
30
0.0
11
28.273451
21
222.241309
31
0.0
0
LINE
8
0
6
CONTINUOUS
10
29.256756
20
218.406742
30
0.0
11
30.495426
21
217.868082
31
0.0
0
LINE
8
0
6
CONTINUOUS
10
29.432207
20
219.305928
30
0.0
11
29.256756
21
218.406742
31
0.0
0
LINE
8
0
6
CONTINUOUS
10
30.846297
20
219.666462
30
0.0
11
29.432207
21
219.305928
31
0.0
0
LINE
8
0
6
CONTINUOUS
10
32.084966
20
219.127799
30
0.0
11
30.846297
21
219.666462
31
0.0
0
LINE
8
0
6
CONTINUOUS
10
31.909535
20
218.228596
30
0.0
11
32.084966
21
219.127799
31
0.0
0
LINE
8
0
6
CONTINUOUS
10
30.495426
20
217.868082
30
0.0
11
31.909535
21
218.228596
31
0.0
0
LINE
8
0
6
CONTINUOUS
10
33.343112
20
223.662933
30
0.0
11
34.757202
21
224.023447
31
0.0
0
LINE
8
0
6
CONTINUOUS
10
33.167671
20
222.763749
30
0.0
11
33.343112
21
223.662933
31
0.0
0
LINE
8
0
6
CONTINUOUS
10
33.161653
20
223.512984
30
0.0
11
33.167671
21
222.763749
31
0.0
0
LINE
8
0
6
CONTINUOUS
10
33.167671
20
222.763749
30
0.0
11
34.406331
21
222.225070
31
0.0
0
LINE
8
0
6
CONTINUOUS
10
33.343112
20
223.662933
30
0.0
11
33.167671
21
222.763749
31
0.0
0
LINE
8
0
6
CONTINUOUS
10
34.757202
20
224.023447
30
0.0
11
33.343112
21
223.662933
31
0.0
0
LINE
8
0
6
CONTINUOUS
10
35.995871
20
223.484768
30
0.0
11
34.757202
21
224.023447
31
0.0
0
LINE
8
0
6
CONTINUOUS
10
35.820430
20
222.585601
30
0.0
11
35.995871
21
223.484768
31
0.0
0
LINE
8
0
6
CONTINUOUS
10
34.406331
20
222.225070
30
0.0
11
35.820430
21
222.585601
31
0.0
0
LINE
8
0
6
CONTINUOUS
10
30.301747
20
214.114565
30
0.0
11
31.514862
21
214.423832
31
0.0
0
LINE
8
0
6
CONTINUOUS
10
31.514862
20
214.423832
30
0.0
11
32.577483
21
213.961708
31
0.0
0
LINE
8
0
6
CONTINUOUS
10
30.151242
20
213.343179
30
0.0
11
30.301747
21
214.114565
31
0.0
0
LINE
8
0
6
CONTINUOUS
10
30.145681
20
214.148093
30
0.0
11
30.151242
21
213.343179
31
0.0
0
LINE
8
0
6
CONTINUOUS
10
30.151242
20
213.343179
30
0.0
11
31.213864
21
212.881048
31
0.0
0
LINE
8
0
6
CONTINUOUS
10
30.301747
20
214.114565
30
0.0
11
30.151242
21
213.343179
31
0.0
0
LINE
8
0
6
CONTINUOUS
10
31.514862
20
214.423832
30
0.0
11
30.301747
21
214.114565
31
0.0
0
LINE
8
0
6
CONTINUOUS
10
32.577483
20
213.961708
30
0.0
11
31.514862
21
214.423832
31
0.0
0
LINE
8
0
6
CONTINUOUS
10
32.426979
20
213.190328
30
0.0
11
32.577483
21
213.961708
31
0.0
0
LINE
8
0
6
CONTINUOUS
10
31.213864
20
212.881048
30
0.0
11
32.426979
21
213.190328
31
0.0
0
LINE
8
0
6
CONTINUOUS
10
36.053478
20
217.797071
30
0.0
11
37.266593
21
218.106349
31
0.0
0
LINE
8
0
6
CONTINUOUS
10
37.266593
20
218.106349
30
0.0
11
38.329214
21
217.644237
31
0.0
0
LINE
8
0
6
CONTINUOUS
10
35.902973
20
217.025686
30
0.0
11
36.053478
21
217.797071
31
0.0
0
LINE
8
0
6
CONTINUOUS
10
35.897562
20
217.808798
30
0.0
11
35.902973
21
217.025686
31
0.0
0
LINE
8
0
6
CONTINUOUS
10
35.902973
20
217.025686
30
0.0
11
36.965594
21
216.563565
31
0.0
0
LINE
8
0
6
CONTINUOUS
10
36.053478
20
217.797071
30
0.0
11
35.902973
21
217.025686
31
0.0
0
LINE
8
0
6
CONTINUOUS
10
37.266593
20
218.106349
30
0.0
11
36.053478
21
217.797071
31
0.0
0
LINE
8
0
6
CONTINUOUS
10
38.329214
20
217.644237
30
0.0
11
37.266593
21
218.106349
31
0.0
0
LINE
8
0
6
CONTINUOUS
10
38.178710
20
216.872845
30
0.0
11
38.329214
21
217.644237
31
0.0
0
LINE
8
0
6
CONTINUOUS
10
36.965594
20
216.563565
30
0.0
11
38.178710
21
216.872845
31
0.0
0
LINE
8
0
6
CONTINUOUS
10
40.014443
20
222.386144
30
0.0
11
41.227558
21
222.695437
31
0.0
0
LINE
8
0
6
CONTINUOUS
10
41.227558
20
222.695437
30
0.0
11
42.290179
21
222.233326
31
0.0
0
LINE
8
0
6
CONTINUOUS
10
39.863938
20
221.614752
30
0.0
11
40.014443
21
222.386144
31
0.0
0
LINE
8
0
6
CONTINUOUS
10
39.858603
20
222.386621
30
0.0
11
39.863938
21
221.614752
31
0.0
0
LINE
8
0
6
CONTINUOUS
10
39.863938
20
221.614752
30
0.0
11
40.926559
21
221.152641
31
0.0
0
LINE
8
0
6
CONTINUOUS
10
40.014443
20
222.386144
30
0.0
11
39.863938
21
221.614752
31
0.0
0
LINE
8
0
6
CONTINUOUS
10
41.227558
20
222.695437
30
0.0
11
40.014443
21
222.386144
31
0.0
0
LINE
8
0
6
CONTINUOUS
10
42.290179
20
222.233326
30
0.0
11
41.227558
21
222.695437
31
0.0
0
LINE
8
0
6
CONTINUOUS
10
42.139675
20
221.461931
30
0.0
11
42.290179
21
222.233326
31
0.0
0
LINE
8
0
6
CONTINUOUS
10
40.926559
20
221.152641
30
0.0
11
42.139675
21
221.461931
31
0.0
0
LINE
8
0
6
CONTINUOUS
10
48.903879
20
221.862979
30
0.0
11
48.974739
21
221.087673
31
0.0
0
LINE
8
0
6
CONTINUOUS
10
46.687402
20
221.015412
30
0.0
11
47.866505
21
220.663882
31
0.0
0
LINE
8
0
6
CONTINUOUS
10
46.616543
20
221.790706
30
0.0
11
46.687402
21
221.015412
31
0.0
0
LINE
8
0
6
CONTINUOUS
10
47.724767
20
222.214483
30
0.0
11
46.616543
21
221.790706
31
0.0
0
LINE
8
0
6
CONTINUOUS
10
48.903879
20
221.862979
30
0.0
11
47.724767
21
222.214483
31
0.0
0
LINE
8
0
6
CONTINUOUS
10
48.974739
20
221.087673
30
0.0
11
48.903879
21
221.862979
31
0.0
0
LINE
8
0
6
CONTINUOUS
10
47.866505
20
220.663882
30
0.0
11
48.974739
21
221.087673
31
0.0
0
LINE
8
0
6
CONTINUOUS
10
43.265929
20
216.372838
30
0.0
11
44.445031
21
216.021315
31
0.0
0
LINE
8
0
6
CONTINUOUS
10
43.195069
20
217.148123
30
0.0
11
43.265929
21
216.372838
31
0.0
0
LINE
8
0
6
CONTINUOUS
10
44.303293
20
217.571899
30
0.0
11
43.195069
21
217.148123
31
0.0
0
LINE
8
0
6
CONTINUOUS
10
45.482406
20
217.220383
30
0.0
11
44.303293
21
217.571899
31
0.0
0
LINE
8
0
6
CONTINUOUS
10
45.553265
20
216.445087
30
0.0
11
45.482406
21
217.220383
31
0.0
0
LINE
8
0
6
CONTINUOUS
10
44.445031
20
216.021315
30
0.0
11
45.553265
21
216.445087
31
0.0
0
LINE
8
0
6
CONTINUOUS
10
40.389633
20
212.356172
30
0.0
11
40.386051
21
212.961699
31
0.0
0
LINE
8
0
6
CONTINUOUS
10
40.318774
20
213.131443
30
0.0
11
40.389633
21
212.356172
31
0.0
0
LINE
8
0
6
CONTINUOUS
10
38.102297
20
212.283898
30
0.0
11
39.281400
21
211.932382
31
0.0
0
LINE
8
0
6
CONTINUOUS
10
38.031438
20
213.059180
30
0.0
11
38.102297
21
212.283898
31
0.0
0
LINE
8
0
6
CONTINUOUS
10
39.139661
20
213.482963
30
0.0
11
38.031438
21
213.059180
31
0.0
0
LINE
8
0
6
CONTINUOUS
10
40.318774
20
213.131443
30
0.0
11
39.139661
21
213.482963
31
0.0
0
LINE
8
0
6
CONTINUOUS
10
40.389633
20
212.356172
30
0.0
11
40.318774
21
213.131443
31
0.0
0
LINE
8
0
6
CONTINUOUS
10
39.281400
20
211.932382
30
0.0
11
40.389633
21
212.356172
31
0.0
0
LINE
8
0
6
CONTINUOUS
10
31.639602
20
209.008684
30
0.0
11
32.818705
21
208.657174
31
0.0
0
LINE
8
0
6
CONTINUOUS
10
31.568743
20
209.783991
30
0.0
11
31.639602
21
209.008684
31
0.0
0
LINE
8
0
6
CONTINUOUS
10
32.676976
20
210.207755
30
0.0
11
31.568743
21
209.783991
31
0.0
0
LINE
8
0
6
CONTINUOUS
10
33.856079
20
209.856252
30
0.0
11
32.676976
21
210.207755
31
0.0
0
LINE
8
0
6
CONTINUOUS
10
33.926938
20
209.080967
30
0.0
11
33.856079
21
209.856252
31
0.0
0
LINE
8
0
6
CONTINUOUS
10
32.818705
20
208.657174
30
0.0
11
33.926938
21
209.080967
31
0.0
0
LINE
8
0
6
CONTINUOUS
10
18.093134
20
236.063551
30
0.0
11
19.660668
21
235.901923
31
0.0
0
LINE
8
0
6
CONTINUOUS
10
19.660668
20
235.901923
30
0.0
11
20.205779
21
235.024067
31
0.0
0
LINE
8
0
6
CONTINUOUS
10
20.205779
20
235.024067
30
0.0
11
19.660668
21
235.901923
31
0.0
0
LINE
8
0
6
CONTINUOUS
10
19.183345
20
234.307839
30
0.0
11
20.205779
21
235.024067
31
0.0
0
LINE
8
0
6
CONTINUOUS
10
17.615831
20
234.469464
30
0.0
11
19.183345
21
234.307839
31
0.0
0
LINE
8
0
6
CONTINUOUS
10
17.070720
20
235.347321
30
0.0
11
17.615831
21
234.469464
31
0.0
0
LINE
8
0
6
CONTINUOUS
10
18.093134
20
236.063551
30
0.0
11
17.070720
21
235.347321
31
0.0
0
LINE
8
0
6
CONTINUOUS
10
19.660668
20
235.901923
30
0.0
11
18.093134
21
236.063551
31
0.0
0
LINE
8
0
6
CONTINUOUS
10
28.662901
20
247.819160
30
0.0
11
29.965400
21
247.684868
31
0.0
0
LINE
8
0
6
CONTINUOUS
10
27.813350
20
247.224051
30
0.0
11
28.662901
21
247.819160
31
0.0
0
LINE
8
0
6
CONTINUOUS
10
27.820100
20
248.026701
30
0.0
11
27.813350
21
247.224051
31
0.0
0
LINE
8
0
6
CONTINUOUS
10
29.965400
20
247.684868
30
0.0
11
30.418349
21
246.955453
31
0.0
0
LINE
8
0
6
CONTINUOUS
10
30.418349
20
246.955453
30
0.0
11
29.965400
21
247.684868
31
0.0
0
LINE
8
0
6
CONTINUOUS
10
29.568778
20
246.360327
30
0.0
11
30.418349
21
246.955453
31
0.0
0
LINE
8
0
6
CONTINUOUS
10
28.266298
20
246.494614
30
0.0
11
29.568778
21
246.360327
31
0.0
0
LINE
8
0
6
CONTINUOUS
10
27.813350
20
247.224051
30
0.0
11
28.266298
21
246.494614
31
0.0
0
LINE
8
0
6
CONTINUOUS
10
28.662901
20
247.819160
30
0.0
11
27.813350
21
247.224051
31
0.0
0
LINE
8
0
6
CONTINUOUS
10
29.965400
20
247.684868
30
0.0
11
28.662901
21
247.819160
31
0.0
0
LINE
8
0
6
CONTINUOUS
10
26.713093
20
243.086180
30
0.0
11
26.260145
21
243.815604
31
0.0
0
LINE
8
0
6
CONTINUOUS
10
25.863522
20
242.491054
30
0.0
11
26.713093
21
243.086180
31
0.0
0
LINE
8
0
6
CONTINUOUS
10
24.561042
20
242.625344
30
0.0
11
25.863522
21
242.491054
31
0.0
0
LINE
8
0
6
CONTINUOUS
10
24.108094
20
243.354781
30
0.0
11
24.561042
21
242.625344
31
0.0
0
LINE
8
0
6
CONTINUOUS
10
24.957645
20
243.949887
30
0.0
11
24.108094
21
243.354781
31
0.0
0
LINE
8
0
6
CONTINUOUS
10
26.260145
20
243.815604
30
0.0
11
24.957645
21
243.949887
31
0.0
0
LINE
8
0
6
CONTINUOUS
10
22.157434
20
239.278618
30
0.0
11
21.629448
21
240.128889
31
0.0
0
LINE
8
0
6
CONTINUOUS
10
21.167110
20
238.584900
30
0.0
11
22.157434
21
239.278618
31
0.0
0
LINE
8
0
6
CONTINUOUS
10
19.648841
20
238.741466
30
0.0
11
21.167110
21
238.584900
31
0.0
0
LINE
8
0
6
CONTINUOUS
10
19.120855
20
239.591713
30
0.0
11
19.648841
21
238.741466
31
0.0
0
LINE
8
0
6
CONTINUOUS
10
20.111148
20
240.285439
30
0.0
11
19.120855
21
239.591713
31
0.0
0
LINE
8
0
6
CONTINUOUS
10
21.629448
20
240.128889
30
0.0
11
20.111148
21
240.285439
31
0.0
0
LINE
8
0
6
CONTINUOUS
10
21.686894
20
249.301617
30
0.0
11
22.139843
21
248.572205
31
0.0
0
LINE
8
0
6
CONTINUOUS
10
22.139843
20
248.572205
30
0.0
11
21.686894
21
249.301617
31
0.0
0
LINE
8
0
6
CONTINUOUS
10
21.290282
20
247.977057
30
0.0
11
22.139843
21
248.572205
31
0.0
0
LINE
8
0
6
CONTINUOUS
10
19.987792
20
248.111371
30
0.0
11
21.290282
21
247.977057
31
0.0
0
LINE
8
0
6
CONTINUOUS
10
19.534844
20
248.840786
30
0.0
11
19.987792
21
248.111371
31
0.0
0
LINE
8
0
6
CONTINUOUS
10
20.384395
20
249.435931
30
0.0
11
19.534844
21
248.840786
31
0.0
0
LINE
8
0
6
CONTINUOUS
10
21.686894
20
249.301617
30
0.0
11
20.384395
21
249.435931
31
0.0
0
LINE
8
0
6
CONTINUOUS
10
17.113512
20
245.321700
30
0.0
11
18.416012
21
245.187428
31
0.0
0
LINE
8
0
6
CONTINUOUS
10
16.263961
20
244.726587
30
0.0
11
17.113512
21
245.321700
31
0.0
0
LINE
8
0
6
CONTINUOUS
10
16.270919
20
245.554208
30
0.0
11
16.263961
21
244.726587
31
0.0
0
LINE
8
0
6
CONTINUOUS
10
18.416012
20
245.187428
30
0.0
11
18.868950
21
244.457993
31
0.0
0
LINE
8
0
6
CONTINUOUS
10
18.868950
20
244.457993
30
0.0
11
18.416012
21
245.187428
31
0.0
0
LINE
8
0
6
CONTINUOUS
10
18.019389
20
243.862877
30
0.0
11
18.868950
21
244.457993
31
0.0
0
LINE
8
0
6
CONTINUOUS
10
16.716909
20
243.997169
30
0.0
11
18.019389
21
243.862877
31
0.0
0
LINE
8
0
6
CONTINUOUS
10
16.263961
20
244.726587
30
0.0
11
16.716909
21
243.997169
31
0.0
0
LINE
8
0
6
CONTINUOUS
10
17.113512
20
245.321700
30
0.0
11
16.263961
21
244.726587
31
0.0
0
LINE
8
0
6
CONTINUOUS
10
18.416012
20
245.187428
30
0.0
11
17.113512
21
245.321700
31
0.0
0
LINE
8
0
6
CONTINUOUS
10
11.834789
20
241.176979
30
0.0
11
13.353078
21
241.020446
31
0.0
0
LINE
8
0
6
CONTINUOUS
10
10.844485
20
240.483247
30
0.0
11
11.834789
21
241.176979
31
0.0
0
LINE
8
0
6
CONTINUOUS
10
10.852849
20
241.334032
30
0.0
11
10.844485
21
240.483247
31
0.0
0
LINE
8
0
6
CONTINUOUS
10
13.353078
20
241.020446
30
0.0
11
13.881064
21
240.170166
31
0.0
0
LINE
8
0
6
CONTINUOUS
10
13.881064
20
240.170166
30
0.0
11
13.353078
21
241.020446
31
0.0
0
LINE
8
0
6
CONTINUOUS
10
12.890741
20
239.476440
30
0.0
11
13.881064
21
240.170166
31
0.0
0
LINE
8
0
6
CONTINUOUS
10
11.372471
20
239.632981
30
0.0
11
12.890741
21
239.476440
31
0.0
0
LINE
8
0
6
CONTINUOUS
10
10.844485
20
240.483247
30
0.0
11
11.372471
21
239.632981
31
0.0
0
LINE
8
0
6
CONTINUOUS
10
11.834789
20
241.176979
30
0.0
11
10.844485
21
240.483247
31
0.0
0
LINE
8
0
6
CONTINUOUS
10
13.353078
20
241.020446
30
0.0
11
11.834789
21
241.176979
31
0.0
0
LINE
8
0
6
CONTINUOUS
10
9.810144
20
236.562957
30
0.0
11
11.377688
21
236.401345
31
0.0
0
LINE
8
0
6
CONTINUOUS
10
8.787731
20
235.846733
30
0.0
11
9.810144
21
236.562957
31
0.0
0
LINE
8
0
6
CONTINUOUS
10
8.796218
20
236.682584
30
0.0
11
8.787731
21
235.846733
31
0.0
0
LINE
8
0
6
CONTINUOUS
10
11.377688
20
236.401345
30
0.0
11
11.922799
21
235.523499
31
0.0
0
LINE
8
0
6
CONTINUOUS
10
11.922799
20
235.523499
30
0.0
11
11.377688
21
236.401345
31
0.0
0
LINE
8
0
6
CONTINUOUS
10
10.900355
20
234.807273
30
0.0
11
11.922799
21
235.523499
31
0.0
0
LINE
8
0
6
CONTINUOUS
10
9.332841
20
234.968916
30
0.0
11
10.900355
21
234.807273
31
0.0
0
LINE
8
0
6
CONTINUOUS
10
8.787731
20
235.846733
30
0.0
11
9.332841
21
234.968916
31
0.0
0
LINE
8
0
6
CONTINUOUS
10
9.810144
20
236.562957
30
0.0
11
8.787731
21
235.846733
31
0.0
0
LINE
8
0
6
CONTINUOUS
10
11.377688
20
236.401345
30
0.0
11
9.810144
21
236.562957
31
0.0
0
LINE
8
0
6
CONTINUOUS
10
1.999060
20
234.835210
30
0.0
11
3.566594
21
234.673605
31
0.0
0
LINE
8
0
6
CONTINUOUS
10
3.566594
20
234.673605
30
0.0
11
4.111705
21
233.795742
31
0.0
0
LINE
8
0
6
CONTINUOUS
10
4.111705
20
233.795742
30
0.0
11
3.566594
21
234.673605
31
0.0
0
LINE
8
0
6
CONTINUOUS
10
3.089272
20
233.079533
30
0.0
11
4.111705
21
233.795742
31
0.0
0
LINE
8
0
6
CONTINUOUS
10
1.521758
20
233.241140
30
0.0
11
3.089272
21
233.079533
31
0.0
0
LINE
8
0
6
CONTINUOUS
10
0.976637
20
234.118996
30
0.0
11
1.521758
21
233.241140
31
0.0
0
LINE
8
0
6
CONTINUOUS
10
1.999060
20
234.835210
30
0.0
11
0.976637
21
234.118996
31
0.0
0
LINE
8
0
6
CONTINUOUS
10
3.566594
20
234.673605
30
0.0
11
1.999060
21
234.835210
31
0.0
0
LINE
8
0
6
CONTINUOUS
10
3.550341
20
240.346993
30
0.0
11
5.068640
21
240.190460
31
0.0
0
LINE
8
0
6
CONTINUOUS
10
2.560047
20
239.653277
30
0.0
11
3.550341
21
240.346993
31
0.0
0
LINE
8
0
6
CONTINUOUS
10
2.568616
20
240.524878
30
0.0
11
2.560047
21
239.653277
31
0.0
0
LINE
8
0
6
CONTINUOUS
10
5.068640
20
240.190460
30
0.0
11
5.596626
21
239.340180
31
0.0
0
LINE
8
0
6
CONTINUOUS
10
5.596626
20
239.340180
30
0.0
11
5.068640
21
240.190460
31
0.0
0
LINE
8
0
6
CONTINUOUS
10
4.606303
20
238.646457
30
0.0
11
5.596626
21
239.340180
31
0.0
0
LINE
8
0
6
CONTINUOUS
10
3.088033
20
238.803004
30
0.0
11
4.606303
21
238.646457
31
0.0
0
LINE
8
0
6
CONTINUOUS
10
2.560047
20
239.653277
30
0.0
11
3.088033
21
238.803004
31
0.0
0
LINE
8
0
6
CONTINUOUS
10
3.550341
20
240.346993
30
0.0
11
2.560047
21
239.653277
31
0.0
0
LINE
8
0
6
CONTINUOUS
10
5.068640
20
240.190460
30
0.0
11
3.550341
21
240.346993
31
0.0
0
LINE
8
0
6
CONTINUOUS
10
-3.791520
20
237.703198
30
0.0
11
-2.273231
21
237.546665
31
0.0
0
LINE
8
0
6
CONTINUOUS
10
-4.781824
20
237.009514
30
0.0
11
-3.791520
21
237.703198
31
0.0
0
LINE
8
0
6
CONTINUOUS
10
-4.772935
20
237.913716
30
0.0
11
-4.781824
21
237.009514
31
0.0
0
LINE
8
0
6
CONTINUOUS
10
-1.745245
20
236.696414
30
0.0
11
-2.273231
21
237.546665
31
0.0
0
LINE
8
0
6
CONTINUOUS
10
-2.735558
20
236.002698
30
0.0
11
-1.745245
21
236.696414
31
0.0
0
LINE
8
0
6
CONTINUOUS
10
-4.253828
20
236.159226
30
0.0
11
-2.735558
21
236.002698
31
0.0
0
LINE
8
0
6
CONTINUOUS
10
-4.781824
20
237.009514
30
0.0
11
-4.253828
21
236.159226
31
0.0
0
LINE
8
0
6
CONTINUOUS
10
-3.791520
20
237.703198
30
0.0
11
-4.781824
21
237.009514
31
0.0
0
LINE
8
0
6
CONTINUOUS
10
-2.273231
20
237.546665
30
0.0
11
-3.791520
21
237.703198
31
0.0
0
LINE
8
0
6
CONTINUOUS
10
9.481769
20
245.324213
30
0.0
11
9.934708
21
244.594777
31
0.0
0
LINE
8
0
6
CONTINUOUS
10
9.934708
20
244.594777
30
0.0
11
9.481769
21
245.324213
31
0.0
0
LINE
8
0
6
CONTINUOUS
10
9.085147
20
243.999651
30
0.0
11
9.934708
21
244.594777
31
0.0
0
LINE
8
0
6
CONTINUOUS
10
7.782657
20
244.133946
30
0.0
11
9.085147
21
243.999651
31
0.0
0
LINE
8
0
6
CONTINUOUS
10
7.329708
20
244.863361
30
0.0
11
7.782657
21
244.133946
31
0.0
0
LINE
8
0
6
CONTINUOUS
10
8.179259
20
245.458508
30
0.0
11
7.329708
21
244.863361
31
0.0
0
LINE
8
0
6
CONTINUOUS
10
9.481769
20
245.324213
30
0.0
11
8.179259
21
245.458508
31
0.0
0
LINE
8
0
6
CONTINUOUS
10
-0.164033
20
244.258408
30
0.0
11
1.138467
21
244.124097
31
0.0
0
LINE
8
0
6
CONTINUOUS
10
-1.013584
20
243.663280
30
0.0
11
-0.164033
21
244.258408
31
0.0
0
LINE
8
0
6
CONTINUOUS
10
-1.006380
20
244.519832
30
0.0
11
-1.013584
21
243.663280
31
0.0
0
LINE
8
0
6
CONTINUOUS
10
1.138467
20
244.124097
30
0.0
11
1.591416
21
243.394679
31
0.0
0
LINE
8
0
6
CONTINUOUS
10
1.591416
20
243.394679
30
0.0
11
1.138467
21
244.124097
31
0.0
0
LINE
8
0
6
CONTINUOUS
10
0.741845
20
242.799554
30
0.0
11
1.591416
21
243.394679
31
0.0
0
LINE
8
0
6
CONTINUOUS
10
-0.560635
20
242.933846
30
0.0
11
0.741845
21
242.799554
31
0.0
0
LINE
8
0
6
CONTINUOUS
10
-1.013584
20
243.663280
30
0.0
11
-0.560635
21
242.933846
31
0.0
0
LINE
8
0
6
CONTINUOUS
10
-0.164033
20
244.258408
30
0.0
11
-1.013584
21
243.663280
31
0.0
0
LINE
8
0
6
CONTINUOUS
10
1.138467
20
244.124097
30
0.0
11
-0.164033
21
244.258408
31
0.0
0
LINE
8
0
6
CONTINUOUS
10
-7.420766
20
241.544481
30
0.0
11
-6.118266
21
241.410211
31
0.0
0
LINE
8
0
6
CONTINUOUS
10
-8.270317
20
240.949372
30
0.0
11
-7.420766
21
241.544481
31
0.0
0
LINE
8
0
6
CONTINUOUS
10
-8.262924
20
241.828342
30
0.0
11
-8.270317
21
240.949372
31
0.0
0
LINE
8
0
6
CONTINUOUS
10
-6.118266
20
241.410211
30
0.0
11
-5.665317
21
240.680774
31
0.0
0
LINE
8
0
6
CONTINUOUS
10
-5.665317
20
240.680774
30
0.0
11
-6.118266
21
241.410211
31
0.0
0
LINE
8
0
6
CONTINUOUS
10
-6.514888
20
240.085648
30
0.0
11
-5.665317
21
240.680774
31
0.0
0
LINE
8
0
6
CONTINUOUS
10
-7.817368
20
240.219957
30
0.0
11
-6.514888
21
240.085648
31
0.0
0
LINE
8
0
6
CONTINUOUS
10
-8.270317
20
240.949372
30
0.0
11
-7.817368
21
240.219957
31
0.0
0
LINE
8
0
6
CONTINUOUS
10
-7.420766
20
241.544481
30
0.0
11
-8.270317
21
240.949372
31
0.0
0
LINE
8
0
6
CONTINUOUS
10
-6.118266
20
241.410211
30
0.0
11
-7.420766
21
241.544481
31
0.0
0
LINE
8
0
6
CONTINUOUS
10
-4.950413
20
247.650280
30
0.0
11
-3.627958
21
247.645473
31
0.0
0
LINE
8
0
6
CONTINUOUS
10
-5.618917
20
246.980283
30
0.0
11
-4.950413
21
247.650280
31
0.0
0
LINE
8
0
6
CONTINUOUS
10
-5.611762
20
247.858668
30
0.0
11
-5.618917
21
246.980283
31
0.0
0
LINE
8
0
6
CONTINUOUS
10
-3.627958
20
247.645473
30
0.0
11
-2.974018
21
246.970664
31
0.0
0
LINE
8
0
6
CONTINUOUS
10
-2.974018
20
246.970664
30
0.0
11
-3.627958
21
247.645473
31
0.0
0
LINE
8
0
6
CONTINUOUS
10
-3.642543
20
246.300691
30
0.0
11
-2.974018
21
246.970664
31
0.0
0
LINE
8
0
6
CONTINUOUS
10
-4.964977
20
246.305494
30
0.0
11
-3.642543
21
246.300691
31
0.0
0
LINE
8
0
6
CONTINUOUS
10
-5.618917
20
246.980283
30
0.0
11
-4.964977
21
246.305494
31
0.0
0
LINE
8
0
6
CONTINUOUS
10
-4.950413
20
247.650280
30
0.0
11
-5.618917
21
246.980283
31
0.0
0
LINE
8
0
6
CONTINUOUS
10
-3.627958
20
247.645473
30
0.0
11
-4.950413
21
247.650280
31
0.0
0
LINE
8
0
6
CONTINUOUS
10
3.204105
20
249.397855
30
0.0
11
4.526549
21
249.393048
31
0.0
0
LINE
8
0
6
CONTINUOUS
10
4.526549
20
249.393048
30
0.0
11
5.180489
21
248.718256
31
0.0
0
LINE
8
0
6
CONTINUOUS
10
5.180489
20
248.718256
30
0.0
11
4.526549
21
249.393048
31
0.0
0
LINE
8
0
6
CONTINUOUS
10
4.511975
20
248.048271
30
0.0
11
5.180489
21
248.718256
31
0.0
0
LINE
8
0
6
CONTINUOUS
10
3.189540
20
248.053063
30
0.0
11
4.511975
21
248.048271
31
0.0
0
LINE
8
0
6
CONTINUOUS
10
2.535600
20
248.727865
30
0.0
11
3.189540
21
248.053063
31
0.0
0
LINE
8
0
6
CONTINUOUS
10
3.204105
20
249.397855
30
0.0
11
2.535600
21
248.727865
31
0.0
0
LINE
8
0
6
CONTINUOUS
10
4.526549
20
249.393048
30
0.0
11
3.204105
21
249.397855
31
0.0
0
LINE
8
0
6
CONTINUOUS
10
11.011390
20
249.387165
30
0.0
11
11.679894
21
250.057164
31
0.0
0
LINE
8
0
6
CONTINUOUS
10
11.018195
20
250.222650
30
0.0
11
11.011390
21
249.387165
31
0.0
0
LINE
8
0
6
CONTINUOUS
10
13.656279
20
249.377568
30
0.0
11
13.002339
21
250.052357
31
0.0
0
LINE
8
0
6
CONTINUOUS
10
12.987764
20
248.707554
30
0.0
11
13.656279
21
249.377568
31
0.0
0
LINE
8
0
6
CONTINUOUS
10
11.665330
20
248.712380
30
0.0
11
12.987764
21
248.707554
31
0.0
0
LINE
8
0
6
CONTINUOUS
10
11.011390
20
249.387165
30
0.0
11
11.665330
21
248.712380
31
0.0
0
LINE
8
0
6
CONTINUOUS
10
11.679894
20
250.057164
30
0.0
11
11.011390
21
249.387165
31
0.0
0
LINE
8
0
6
CONTINUOUS
10
13.002339
20
250.052357
30
0.0
11
11.679894
21
250.057164
31
0.0
0
LINE
8
0
6
CONTINUOUS
10
-3.872765
20
229.700077
30
0.0
11
-3.855846
21
230.634439
31
0.0
0
LINE
8
0
6
CONTINUOUS
10
-3.855846
20
230.634439
30
0.0
11
-2.469094
21
231.093139
31
0.0
0
LINE
8
0
6
CONTINUOUS
10
-1.099240
20
230.617499
30
0.0
11
-1.101660
21
231.411412
31
0.0
0
LINE
8
0
6
CONTINUOUS
10
-2.469094
20
231.093139
30
0.0
11
-1.099240
21
230.617499
31
0.0
0
LINE
8
0
6
CONTINUOUS
10
-3.855846
20
230.634439
30
0.0
11
-3.872765
21
229.700077
31
0.0
0
LINE
8
0
6
CONTINUOUS
10
-2.469094
20
231.093139
30
0.0
11
-3.855846
21
230.634439
31
0.0
0
LINE
8
0
6
CONTINUOUS
10
-1.099240
20
230.617499
30
0.0
11
-2.469094
21
231.093139
31
0.0
0
LINE
8
0
6
CONTINUOUS
10
-1.116140
20
229.683187
30
0.0
11
-1.099240
21
230.617499
31
0.0
0
LINE
8
0
6
CONTINUOUS
10
-2.502912
20
229.224480
30
0.0
11
-1.116140
21
229.683187
31
0.0
0
LINE
8
0
6
CONTINUOUS
10
-3.872765
20
229.700077
30
0.0
11
-2.502912
21
229.224480
31
0.0
0
LINE
8
0
6
CONTINUOUS
10
-27.812103
20
240.672735
30
0.0
11
-31.110759
21
235.164920
31
0.0
0
LINE
8
0
6
CONTINUOUS
10
-6.934366
20
252.806756
30
0.0
11
-15.380266
21
249.699243
31
0.0
0
LINE
8
0
6
CONTINUOUS
10
2.478014
20
254.731951
30
0.0
11
-6.934366
21
252.806756
31
0.0
0
LINE
8
0
6
CONTINUOUS
10
12.383799
20
255.461872
30
0.0
11
2.478014
21
254.731951
31
0.0
0
LINE
8
0
6
CONTINUOUS
10
22.285993
20
254.716659
30
0.0
11
12.383799
21
255.461872
31
0.0
0
LINE
8
0
6
CONTINUOUS
10
31.744342
20
252.935343
30
0.0
11
22.285993
21
254.716659
31
0.0
0
LINE
8
0
6
CONTINUOUS
10
52.444581
20
240.554970
30
0.0
11
47.155291
21
245.513552
31
0.0
0
LINE
8
0
6
CONTINUOUS
10
55.722094
20
235.029653
30
0.0
11
52.444581
21
240.554970
31
0.0
0
LINE
8
0
6
CONTINUOUS
10
56.823004
20
229.214501
30
0.0
11
55.722094
21
235.029653
31
0.0
0
LINE
8
0
6
CONTINUOUS
10
40.055417
20
208.814806
30
0.0
11
47.172055
21
212.972756
31
0.0
0
LINE
8
0
6
CONTINUOUS
10
31.598822
20
205.702300
30
0.0
11
40.055417
21
208.814806
31
0.0
0
LINE
8
0
6
CONTINUOUS
10
22.183140
20
203.781754
30
0.0
11
31.598822
21
205.702300
31
0.0
0
LINE
8
0
6
CONTINUOUS
10
12.249109
20
203.125599
30
0.0
11
22.183140
21
203.781754
31
0.0
0
LINE
8
0
6
CONTINUOUS
10
2.338678
20
203.788606
30
0.0
11
12.249109
21
203.125599
31
0.0
0
LINE
8
0
6
CONTINUOUS
10
-7.079549
20
205.730443
30
0.0
11
2.338678
21
203.788606
31
0.0
0
LINE
8
0
6
CONTINUOUS
10
47.155291
20
245.513552
30
0.0
11
40.118266
21
249.656208
31
0.0
0
LINE
8
0
6
CONTINUOUS
10
-31.122419
20
235.145451
30
0.0
11
-32.190069
21
229.283523
31
0.0
0
LINE
8
0
6
CONTINUOUS
10
-22.489708
20
245.629049
30
0.0
11
-27.812103
21
240.672735
31
0.0
0
LINE
8
0
6
CONTINUOUS
10
-15.380266
20
249.699243
30
0.0
11
-22.489708
21
245.629049
31
0.0
0
LINE
8
0
6
CONTINUOUS
10
55.818471
20
223.473749
30
0.0
11
56.823004
21
229.214501
31
0.0
0
LINE
8
0
6
CONTINUOUS
10
52.502802
20
217.937405
30
0.0
11
55.818471
21
223.473749
31
0.0
0
LINE
8
0
6
CONTINUOUS
10
47.172055
20
212.972756
30
0.0
11
52.502802
21
217.937405
31
0.0
0
LINE
8
0
6
CONTINUOUS
10
-15.523100
20
208.855472
30
0.0
11
-7.079549
21
205.730443
31
0.0
0
LINE
8
0
6
CONTINUOUS
10
-22.623360
20
213.026898
30
0.0
11
-15.523100
21
208.855472
31
0.0
0
LINE
8
0
6
CONTINUOUS
10
-27.869076
20
217.968806
30
0.0
11
-22.623360
21
213.026898
31
0.0
0
LINE
8
0
6
CONTINUOUS
10
-31.151706
20
223.501538
30
0.0
11
-27.869076
21
217.968806
31
0.0
0
LINE
8
0
6
CONTINUOUS
10
-32.190069
20
229.283523
30
0.0
11
-31.151706
21
223.501538
31
0.0
0
LINE
8
0
6
CONTINUOUS
10
40.118266
20
249.656208
30
0.0
11
31.744342
21
252.935343
31
0.0
0
LINE
8
0
6
CONTINUOUS
10
14.771782
20
193.057603
30
0.0
11
14.773582
21
193.754349
31
0.0
0
LINE
8
0
6
CONTINUOUS
10
14.534600
20
191.308271
30
0.0
11
14.771782
21
193.057603
31
0.0
0
LINE
8
0
6
CONTINUOUS
10
14.783651
20
197.670622
30
0.0
11
14.785273
21
198.297742
31
0.0
0
LINE
8
0
6
CONTINUOUS
10
14.773582
20
193.754349
30
0.0
11
14.783651
21
197.670622
31
0.0
0
LINE
8
0
6
CONTINUOUS
10
9.695057
20
203.296465
30
0.0
11
9.694959
21
203.199581
31
0.0
0
LINE
8
0
6
CONTINUOUS
10
9.689417
20
193.061545
30
0.0
11
9.925246
21
191.311852
31
0.0
0
LINE
8
0
6
CONTINUOUS
10
9.690068
20
195.188670
30
0.0
11
9.689459
21
193.198574
31
0.0
0
LINE
8
0
6
CONTINUOUS
10
9.692174
20
199.385308
30
0.0
11
9.690068
21
195.188670
31
0.0
0
LINE
8
0
6
CONTINUOUS
10
9.694959
20
203.199581
30
0.0
11
9.692174
21
199.385308
31
0.0
0
LINE
8
0
6
CONTINUOUS
10
13.355781
20
190.599407
30
0.0
11
14.534600
21
191.308271
31
0.0
0
LINE
8
0
6
CONTINUOUS
10
12.229690
20
190.351032
30
0.0
11
13.355781
21
190.599407
31
0.0
0
LINE
8
0
6
CONTINUOUS
10
10.982469
20
190.601236
30
0.0
11
12.229690
21
190.351032
31
0.0
0
LINE
8
0
6
CONTINUOUS
10
9.925246
20
191.311852
30
0.0
11
10.982469
21
190.601236
31
0.0
0
LINE
8
0
6
CONTINUOUS
10
14.785273
20
198.297742
30
0.0
11
14.785380
21
198.463302
31
0.0
0
LINE
8
0
6
CONTINUOUS
10
14.787060
20
200.867649
30
0.0
11
14.788126
21
202.068336
31
0.0
0
LINE
8
0
6
CONTINUOUS
10
14.788126
20
202.068336
30
0.0
11
14.789064
21
203.219007
31
0.0
0
LINE
8
0
6
CONTINUOUS
10
14.789064
20
203.219007
30
0.0
11
14.789135
21
203.293371
31
0.0
0
LINE
8
0
6
CONTINUOUS
10
14.785380
20
198.463302
30
0.0
11
14.787060
21
200.867649
31
0.0
0
LINE
8
0
6
CONTINUOUS
10
-0.797656
20
204.435251
30
0.0
11
-0.782351
21
201.084672
31
0.0
0
LINE
8
0
6
CONTINUOUS
10
-2.373114
20
198.575530
30
0.0
11
-2.373825
21
198.252527
31
0.0
0
LINE
8
0
6
CONTINUOUS
10
-2.569911
20
108.865346
30
0.0
11
-2.571287
21
108.238856
31
0.0
0
LINE
8
0
6
CONTINUOUS
10
-2.571287
20
108.238856
30
0.0
11
-2.035358
21
106.634669
31
0.0
0
LINE
8
0
6
CONTINUOUS
10
-2.035358
20
106.634669
30
0.0
11
0.447296
21
105.539384
31
0.0
0
LINE
8
0
6
CONTINUOUS
10
0.946835
20
105.427820
30
0.0
11
4.133024
21
104.716210
31
0.0
0
LINE
8
0
6
CONTINUOUS
10
8.027023
20
104.185059
30
0.0
11
12.066449
21
104.029566
31
0.0
0
LINE
8
0
6
CONTINUOUS
10
4.133024
20
104.716210
30
0.0
11
8.027023
21
104.185059
31
0.0
0
LINE
8
0
6
CONTINUOUS
10
-2.370886
20
199.590406
30
0.0
11
-2.373114
21
198.575530
31
0.0
0
LINE
8
0
6
CONTINUOUS
10
-0.782351
20
201.084672
30
0.0
11
-0.780740
21
200.732508
31
0.0
0
LINE
8
0
6
CONTINUOUS
10
-2.340768
20
200.179666
30
0.0
11
-2.370886
21
199.590406
31
0.0
0
LINE
8
0
6
CONTINUOUS
10
-2.109425
20
204.705709
30
0.0
11
-2.340768
21
200.179666
31
0.0
0
LINE
8
0
6
CONTINUOUS
10
0.447296
20
105.539384
30
0.0
11
0.946835
21
105.427820
31
0.0
0
LINE
8
0
6
CONTINUOUS
10
-2.373825
20
198.252527
30
0.0
11
-2.569911
21
108.865346
31
0.0
0
LINE
8
0
6
CONTINUOUS
10
25.220834
20
201.064516
30
0.0
11
25.248670
21
204.407040
31
0.0
0
LINE
8
0
6
CONTINUOUS
10
26.804042
20
198.229896
30
0.0
11
26.804453
21
198.552918
31
0.0
0
LINE
8
0
6
CONTINUOUS
10
26.160029
20
106.612815
30
0.0
11
26.690950
21
108.216162
31
0.0
0
LINE
8
0
6
CONTINUOUS
10
26.690950
20
108.216162
30
0.0
11
26.691736
21
108.842652
31
0.0
0
LINE
8
0
6
CONTINUOUS
10
23.680808
20
105.521365
30
0.0
11
26.160029
21
106.612815
31
0.0
0
LINE
8
0
6
CONTINUOUS
10
19.997679
20
104.703907
30
0.0
11
23.181626
21
105.410582
31
0.0
0
LINE
8
0
6
CONTINUOUS
10
12.066449
20
104.029566
30
0.0
11
16.105371
21
104.178792
31
0.0
0
LINE
8
0
6
CONTINUOUS
10
16.105371
20
104.178792
30
0.0
11
19.997679
21
104.703907
31
0.0
0
LINE
8
0
6
CONTINUOUS
10
26.804453
20
198.552918
30
0.0
11
26.805731
21
199.567775
31
0.0
0
LINE
8
0
6
CONTINUOUS
10
25.217904
20
200.712340
30
0.0
11
25.220834
21
201.064516
31
0.0
0
LINE
8
0
6
CONTINUOUS
10
26.805731
20
199.567775
30
0.0
11
26.775409
21
200.157110
31
0.0
0
LINE
8
0
6
CONTINUOUS
10
26.775409
20
200.157110
30
0.0
11
26.543162
21
204.671081
31
0.0
0
LINE
8
0
6
CONTINUOUS
10
23.181626
20
105.410582
30
0.0
11
23.680808
21
105.521365
31
0.0
0
LINE
8
0
6
CONTINUOUS
10
26.691736
20
108.842652
30
0.0
11
26.804042
21
198.229896
31
0.0
0
LINE
8
0
6
CONTINUOUS
10
62.334145
20
236.920630
30
0.0
11
62.078071
21
242.435903
31
0.0
0
LINE
8
0
6
CONTINUOUS
10
-37.003252
20
245.169367
30
0.0
11
-37.449782
21
242.513051
31
0.0
0
LINE
8
0
6
CONTINUOUS
10
-35.750188
20
251.611067
30
0.0
11
-37.003252
21
245.169367
31
0.0
0
LINE
8
0
6
CONTINUOUS
10
-34.322401
20
256.690634
30
0.0
11
-35.134923
21
254.179885
31
0.0
0
LINE
8
0
6
CONTINUOUS
10
-16.804854
20
273.908016
30
0.0
11
-16.862603
21
273.882290
31
0.0
0
LINE
8
0
6
CONTINUOUS
10
-7.924925
20
277.173731
30
0.0
11
-16.804854
21
273.908016
31
0.0
0
LINE
8
0
6
CONTINUOUS
10
-7.630934
20
277.275084
30
0.0
11
-7.924925
21
277.173731
31
0.0
0
LINE
8
0
6
CONTINUOUS
10
2.120005
20
279.269618
30
0.0
11
-7.630934
21
277.275084
31
0.0
0
LINE
8
0
6
CONTINUOUS
10
2.193792
20
279.280962
30
0.0
11
2.120005
21
279.269618
31
0.0
0
LINE
8
0
6
CONTINUOUS
10
12.381522
20
279.946832
30
0.0
11
2.193792
21
279.280962
31
0.0
0
LINE
8
0
6
CONTINUOUS
10
22.565731
20
279.265167
30
0.0
11
12.381522
21
279.946832
31
0.0
0
LINE
8
0
6
CONTINUOUS
10
22.640564
20
279.253725
30
0.0
11
22.565731
21
279.265167
31
0.0
0
LINE
8
0
6
CONTINUOUS
10
32.381203
20
277.244075
30
0.0
11
22.640564
21
279.253725
31
0.0
0
LINE
8
0
6
CONTINUOUS
10
32.677203
20
277.142256
30
0.0
11
32.381203
21
277.244075
31
0.0
0
LINE
8
0
6
CONTINUOUS
10
41.540291
20
273.862794
30
0.0
11
32.677203
21
277.142256
31
0.0
0
LINE
8
0
6
CONTINUOUS
10
59.794146
20
254.106283
30
0.0
11
58.980187
21
256.618306
31
0.0
0
LINE
8
0
6
CONTINUOUS
10
61.630641
20
245.092882
30
0.0
11
60.410742
21
251.536520
31
0.0
0
LINE
8
0
6
CONTINUOUS
10
62.078071
20
242.435903
30
0.0
11
61.630641
21
245.092882
31
0.0
0
LINE
8
0
6
CONTINUOUS
10
-37.449782
20
242.513051
30
0.0
11
-37.703968
21
236.998192
31
0.0
0
LINE
8
0
6
CONTINUOUS
10
-35.134923
20
254.179885
30
0.0
11
-35.750188
21
251.611067
31
0.0
0
LINE
8
0
6
CONTINUOUS
10
60.410742
20
251.536520
30
0.0
11
59.794146
21
254.106283
31
0.0
0
LINE
8
0
6
CONTINUOUS
10
-37.703968
20
236.998192
30
0.0
11
-37.703937
21
236.800130
31
0.0
0
LINE
8
0
6
CONTINUOUS
10
62.334177
20
236.722559
30
0.0
11
62.334145
21
236.920630
31
0.0
0
LINE
8
0
6
CONTINUOUS
10
-37.703892
20
236.521182
30
0.0
11
-37.703754
21
235.721943
31
0.0
0
LINE
8
0
6
CONTINUOUS
10
62.334369
20
235.644379
30
0.0
11
62.334231
21
236.443620
31
0.0
0
LINE
8
0
6
CONTINUOUS
10
31.829491
20
205.787199
30
0.0
11
32.701004
21
205.965464
31
0.0
0
LINE
8
0
6
CONTINUOUS
10
-28.497598
20
218.271871
30
0.0
11
-31.831035
21
223.891573
31
0.0
0
LINE
8
0
6
CONTINUOUS
10
32.701004
20
205.965464
30
0.0
11
41.645692
21
209.254995
31
0.0
0
LINE
8
0
6
CONTINUOUS
10
40.486368
20
208.971417
30
0.0
11
31.895305
21
205.811941
31
0.0
0
LINE
8
0
6
CONTINUOUS
10
56.928299
20
221.363177
30
0.0
11
60.608985
21
227.509202
31
0.0
0
LINE
8
0
6
CONTINUOUS
10
55.939495
20
219.801407
30
0.0
11
56.928299
21
221.363177
31
0.0
0
LINE
8
0
6
CONTINUOUS
10
50.152955
20
214.412243
30
0.0
11
55.939495
21
219.801407
31
0.0
0
LINE
8
0
6
CONTINUOUS
10
49.119663
20
213.630425
30
0.0
11
50.152955
21
214.412243
31
0.0
0
LINE
8
0
6
CONTINUOUS
10
-31.371277
20
219.869143
30
0.0
11
-25.612506
21
214.471052
31
0.0
0
LINE
8
0
6
CONTINUOUS
10
-25.612506
20
214.471052
30
0.0
11
-24.576286
21
213.687613
31
0.0
0
LINE
8
0
6
CONTINUOUS
10
-36.011145
20
227.584145
30
0.0
11
-32.362135
21
221.432469
31
0.0
0
LINE
8
0
6
CONTINUOUS
10
-32.362135
20
221.432469
30
0.0
11
-31.371277
21
219.869143
31
0.0
0
LINE
8
0
6
CONTINUOUS
10
60.608985
20
227.509202
30
0.0
11
61.063447
21
229.110899
31
0.0
0
LINE
8
0
6
CONTINUOUS
10
61.063447
20
229.110899
30
0.0
11
62.334369
21
235.644379
31
0.0
0
LINE
8
0
6
CONTINUOUS
10
51.468742
20
254.862143
30
0.0
11
43.560610
21
259.518050
31
0.0
0
LINE
8
0
6
CONTINUOUS
10
-26.744212
20
254.922791
30
0.0
11
-32.717667
21
249.359558
31
0.0
0
LINE
8
0
6
CONTINUOUS
10
12.390745
20
265.948827
30
0.0
11
1.258539
21
265.221219
31
0.0
0
LINE
8
0
6
CONTINUOUS
10
1.258539
20
265.221219
30
0.0
11
-9.319220
21
263.057578
31
0.0
0
LINE
8
0
6
CONTINUOUS
10
43.560610
20
259.518050
30
0.0
11
34.085681
21
263.023917
31
0.0
0
LINE
8
0
6
CONTINUOUS
10
62.334210
20
236.544688
30
0.0
11
61.096939
21
243.080041
31
0.0
0
LINE
8
0
6
CONTINUOUS
10
62.334231
20
236.443620
30
0.0
11
62.334210
21
236.544688
31
0.0
0
LINE
8
0
6
CONTINUOUS
10
-32.717667
20
249.359558
30
0.0
11
-36.433002
21
243.155663
31
0.0
0
LINE
8
0
6
CONTINUOUS
10
-36.433002
20
243.155663
30
0.0
11
-37.703904
21
236.622247
31
0.0
0
LINE
8
0
6
CONTINUOUS
10
-37.703904
20
236.622247
30
0.0
11
-37.703892
21
236.521182
31
0.0
0
LINE
8
0
6
CONTINUOUS
10
-9.319220
20
263.057578
30
0.0
11
-18.812148
21
259.566423
31
0.0
0
LINE
8
0
6
CONTINUOUS
10
34.085681
20
263.023917
30
0.0
11
23.519110
21
265.203976
31
0.0
0
LINE
8
0
6
CONTINUOUS
10
61.096939
20
243.080041
30
0.0
11
57.413557
21
249.289681
31
0.0
0
LINE
8
0
6
CONTINUOUS
10
-18.812148
20
259.566423
30
0.0
11
-26.744212
21
254.922791
31
0.0
0
LINE
8
0
6
CONTINUOUS
10
23.519110
20
265.203976
30
0.0
11
12.390745
21
265.948827
31
0.0
0
LINE
8
0
6
CONTINUOUS
10
57.413557
20
249.289681
30
0.0
11
51.468742
21
254.862143
31
0.0
0
LINE
8
0
6
CONTINUOUS
10
62.317128
20
236.634915
30
0.0
11
62.334177
21
236.722559
31
0.0
0
LINE
8
0
6
CONTINUOUS
10
-37.703937
20
236.800130
30
0.0
11
-37.686854
21
236.709896
31
0.0
0
LINE
8
0
6
CONTINUOUS
10
-29.896021
20
264.315554
30
0.0
11
-30.332096
21
263.623297
31
0.0
0
LINE
8
0
6
CONTINUOUS
10
-24.297206
20
269.529879
30
0.0
11
-29.896021
21
264.315554
31
0.0
0
LINE
8
0
6
CONTINUOUS
10
-16.862603
20
273.882290
30
0.0
11
-24.297206
21
269.529879
31
0.0
0
LINE
8
0
6
CONTINUOUS
10
49.010443
20
269.473065
30
0.0
11
41.598281
21
273.836949
31
0.0
0
LINE
8
0
6
CONTINUOUS
10
54.582418
20
264.250072
30
0.0
11
49.010443
21
269.473065
31
0.0
0
LINE
8
0
6
CONTINUOUS
10
55.019403
20
263.557117
30
0.0
11
54.582418
21
264.250072
31
0.0
0
LINE
8
0
6
CONTINUOUS
10
58.507462
20
257.676787
30
0.0
11
55.019403
21
263.557117
31
0.0
0
LINE
8
0
6
CONTINUOUS
10
58.980187
20
256.618306
30
0.0
11
58.507462
21
257.676787
31
0.0
0
LINE
8
0
6
CONTINUOUS
10
-33.850394
20
257.748407
30
0.0
11
-34.322401
21
256.690634
31
0.0
0
LINE
8
0
6
CONTINUOUS
10
-30.332096
20
263.623297
30
0.0
11
-33.850394
21
257.748407
31
0.0
0
LINE
8
0
6
CONTINUOUS
10
-17.124863
20
209.300594
30
0.0
11
-8.197164
21
205.997187
31
0.0
0
LINE
8
0
6
CONTINUOUS
10
-23.032266
20
246.367961
30
0.0
11
-15.853770
21
250.570414
31
0.0
0
LINE
8
0
6
CONTINUOUS
10
56.433208
20
223.823075
30
0.0
11
53.070839
21
218.208594
31
0.0
0
LINE
8
0
6
CONTINUOUS
10
47.750161
20
246.313080
30
0.0
11
53.130196
21
241.270005
31
0.0
0
LINE
8
0
6
CONTINUOUS
10
12.384722
20
256.346489
30
0.0
11
22.455853
21
255.672369
31
0.0
0
LINE
8
0
6
CONTINUOUS
10
-24.576286
20
213.687613
30
0.0
11
-17.124863
21
209.300594
31
0.0
0
LINE
8
0
6
CONTINUOUS
10
-15.960755
20
209.015222
30
0.0
11
-23.117573
21
213.228801
31
0.0
0
LINE
8
0
6
CONTINUOUS
10
53.070839
20
218.208594
30
0.0
11
47.664863
21
213.173890
31
0.0
0
LINE
8
0
6
CONTINUOUS
10
22.455853
20
255.672369
30
0.0
11
32.018560
21
253.699464
31
0.0
0
LINE
8
0
6
CONTINUOUS
10
-15.853770
20
250.570414
30
0.0
11
-7.262717
21
253.729907
31
0.0
0
LINE
8
0
6
CONTINUOUS
10
-32.950743
20
229.806038
30
0.0
11
-31.800580
21
235.718754
31
0.0
0
LINE
8
0
6
CONTINUOUS
10
53.130196
20
241.270005
30
0.0
11
56.463643
21
235.650342
31
0.0
0
LINE
8
0
6
CONTINUOUS
10
-23.117573
20
213.228801
30
0.0
11
-28.497598
21
218.271871
31
0.0
0
LINE
8
0
6
CONTINUOUS
10
41.645692
20
209.254995
30
0.0
11
49.119663
21
213.630425
31
0.0
0
LINE
8
0
6
CONTINUOUS
10
47.664863
20
213.173890
30
0.0
11
40.486368
21
208.971417
31
0.0
0
LINE
8
0
6
CONTINUOUS
10
56.463643
20
235.650342
30
0.0
11
57.583371
21
229.735848
31
0.0
0
LINE
8
0
6
CONTINUOUS
10
32.018560
20
253.699464
30
0.0
11
40.593333
21
250.526657
31
0.0
0
LINE
8
0
6
CONTINUOUS
10
-7.262717
20
253.729907
30
0.0
11
2.310115
21
255.687997
31
0.0
0
LINE
8
0
6
CONTINUOUS
10
-31.800580
20
235.718754
30
0.0
11
-28.438211
21
241.333254
31
0.0
0
LINE
8
0
6
CONTINUOUS
10
-8.197164
20
205.997187
30
0.0
11
-7.300343
21
205.812160
31
0.0
0
LINE
8
0
6
CONTINUOUS
10
57.583371
20
229.735848
30
0.0
11
56.433208
21
223.823075
31
0.0
0
LINE
8
0
6
CONTINUOUS
10
40.593333
20
250.526657
30
0.0
11
47.750161
21
246.313080
31
0.0
0
LINE
8
0
6
CONTINUOUS
10
2.310115
20
255.687997
30
0.0
11
12.384722
21
256.346489
31
0.0
0
LINE
8
0
6
CONTINUOUS
10
-28.438211
20
241.333254
30
0.0
11
-23.032266
21
246.367961
31
0.0
0
LINE
8
0
6
CONTINUOUS
10
-31.831035
20
223.891573
30
0.0
11
-32.950743
21
229.806038
31
0.0
0
LINE
8
0
6
CONTINUOUS
10
-36.466504
20
229.186566
30
0.0
11
-36.011145
21
227.584145
31
0.0
0
LINE
8
0
6
CONTINUOUS
10
-37.703754
20
235.721943
30
0.0
11
-36.466504
21
229.186566
31
0.0
0
LINE
8
0
6
CONTINUOUS
10
-15.380305
20
249.699242
30
0.0
11
-6.934406
21
252.806755
31
0.0
0
LINE
8
0
6
CONTINUOUS
10
-6.934406
20
252.806755
30
0.0
11
2.477975
21
254.731950
31
0.0
0
LINE
8
0
6
CONTINUOUS
10
2.477975
20
254.731950
30
0.0
11
12.383760
21
255.461871
31
0.0
0
LINE
8
0
6
CONTINUOUS
10
12.383760
20
255.461871
30
0.0
11
22.285953
21
254.716658
31
0.0
0
LINE
8
0
6
CONTINUOUS
10
22.285953
20
254.716658
30
0.0
11
31.744302
21
252.935341
31
0.0
0
LINE
8
0
6
CONTINUOUS
10
47.155251
20
245.513550
30
0.0
11
52.444541
21
240.554969
31
0.0
0
LINE
8
0
6
CONTINUOUS
10
52.444541
20
240.554969
30
0.0
11
55.722054
21
235.029651
31
0.0
0
LINE
8
0
6
CONTINUOUS
10
55.722054
20
235.029651
30
0.0
11
56.822965
21
229.214499
31
0.0
0
LINE
8
0
6
CONTINUOUS
10
-31.151746
20
223.501537
30
0.0
11
-32.190108
21
229.283522
31
0.0
0
LINE
8
0
6
CONTINUOUS
10
-31.336011
20
224.365216
30
0.0
11
-31.151746
21
223.501537
31
0.0
0
LINE
8
0
6
CONTINUOUS
10
-32.190108
20
229.283522
30
0.0
11
-31.122459
21
235.145449
31
0.0
0
LINE
8
0
6
CONTINUOUS
10
-23.032266
20
246.367961
30
0.0
11
-28.438211
21
241.333254
31
0.0
0
LINE
8
0
6
CONTINUOUS
10
47.750161
20
246.313080
30
0.0
11
40.593333
21
250.526657
31
0.0
0
LINE
8
0
6
CONTINUOUS
10
53.130196
20
241.270005
30
0.0
11
47.750161
21
246.313080
31
0.0
0
LINE
8
0
6
CONTINUOUS
10
47.664863
20
213.173890
30
0.0
11
53.070839
21
218.208594
31
0.0
0
LINE
8
0
6
CONTINUOUS
10
-23.117573
20
213.228801
30
0.0
11
-15.960755
21
209.015222
31
0.0
0
LINE
8
0
6
CONTINUOUS
10
-27.812142
20
240.672733
30
0.0
11
-22.489748
21
245.629048
31
0.0
0
LINE
8
0
6
CONTINUOUS
10
-22.489748
20
245.629048
30
0.0
11
-15.380305
21
249.699242
31
0.0
0
LINE
8
0
6
CONTINUOUS
10
31.744302
20
252.935341
30
0.0
11
40.118227
21
249.656207
31
0.0
0
LINE
8
0
6
CONTINUOUS
10
40.118227
20
249.656207
30
0.0
11
47.155251
21
245.513550
31
0.0
0
LINE
8
0
6
CONTINUOUS
10
-28.438211
20
241.333254
30
0.0
11
-31.800580
21
235.718754
31
0.0
0
LINE
8
0
6
CONTINUOUS
10
-15.853770
20
250.570414
30
0.0
11
-23.032266
21
246.367961
31
0.0
0
LINE
8
0
6
CONTINUOUS
10
56.463643
20
235.650342
30
0.0
11
53.130196
21
241.270005
31
0.0
0
LINE
8
0
6
CONTINUOUS
10
57.583371
20
229.735848
30
0.0
11
56.463643
21
235.650342
31
0.0
0
LINE
8
0
6
CONTINUOUS
10
56.433208
20
223.823075
30
0.0
11
57.583371
21
229.735848
31
0.0
0
LINE
8
0
6
CONTINUOUS
10
53.070839
20
218.208594
30
0.0
11
56.433208
21
223.823075
31
0.0
0
LINE
8
0
6
CONTINUOUS
10
40.486368
20
208.971417
30
0.0
11
47.664863
21
213.173890
31
0.0
0
LINE
8
0
6
CONTINUOUS
10
31.895305
20
205.811941
30
0.0
11
40.486368
21
208.971417
31
0.0
0
LINE
8
0
6
CONTINUOUS
10
-28.497598
20
218.271871
30
0.0
11
-23.117573
21
213.228801
31
0.0
0
LINE
8
0
6
CONTINUOUS
10
-31.831035
20
223.891573
30
0.0
11
-28.497598
21
218.271871
31
0.0
0
LINE
8
0
6
CONTINUOUS
10
-32.950743
20
229.806038
30
0.0
11
-31.831035
21
223.891573
31
0.0
0
LINE
8
0
6
CONTINUOUS
10
-31.800580
20
235.718754
30
0.0
11
-32.950743
21
229.806038
31
0.0
0
LINE
8
0
6
CONTINUOUS
10
-31.122459
20
235.145449
30
0.0
11
-27.812142
21
240.672733
31
0.0
0
LINE
8
0
6
CONTINUOUS
10
19.399711
20
68.664020
30
0.0
11
19.399710
21
70.133330
31
0.0
0
LINE
8
0
6
CONTINUOUS
10
3.399701
20
68.664020
30
0.0
11
3.399701
21
70.133330
31
0.0
0
LINE
8
0
6
CONTINUOUS
10
19.399711
20
50.056430
30
0.0
11
19.399711
21
68.664020
31
0.0
0
LINE
8
0
6
CONTINUOUS
10
3.399701
20
50.056430
30
0.0
11
3.399701
21
68.664020
31
0.0
0
LINE
8
0
6
CONTINUOUS
10
19.399701
20
32.731520
30
0.0
11
19.399711
21
50.056430
31
0.0
0
LINE
8
0
6
CONTINUOUS
10
3.399701
20
32.731520
30
0.0
11
3.399701
21
50.056430
31
0.0
0
LINE
8
0
6
CONTINUOUS
10
19.399711
20
16.271900
30
0.0
11
19.399701
21
32.731520
31
0.0
0
LINE
8
0
6
CONTINUOUS
10
3.399701
20
16.271900
30
0.0
11
3.399701
21
32.731520
31
0.0
0
LINE
8
0
6
CONTINUOUS
10
19.399711
20
0.260210
30
0.0
11
19.399711
21
16.271900
31
0.0
0
LINE
8
0
6
CONTINUOUS
10
3.399701
20
0.260210
30
0.0
11
3.399701
21
16.271900
31
0.0
0
LINE
8
0
6
CONTINUOUS
10
19.399711
20
-15.720970
30
0.0
11
19.399711
21
0.260210
31
0.0
0
LINE
8
0
6
CONTINUOUS
10
3.399701
20
-15.720990
30
0.0
11
3.399701
21
0.260210
31
0.0
0
LINE
8
0
6
CONTINUOUS
10
19.399701
20
-32.089000
30
0.0
11
19.399711
21
-15.720970
31
0.0
0
LINE
8
0
6
CONTINUOUS
10
3.399701
20
-32.089020
30
0.0
11
3.399701
21
-15.720990
31
0.0
0
LINE
8
0
6
CONTINUOUS
10
19.399701
20
-49.261260
30
0.0
11
19.399701
21
-32.089000
31
0.0
0
LINE
8
0
6
CONTINUOUS
10
3.399711
20
-49.261280
30
0.0
11
3.399701
21
-32.089020
31
0.0
0
LINE
8
0
6
CONTINUOUS
10
19.399711
20
-67.655160
30
0.0
11
19.399701
21
-49.261260
31
0.0
0
LINE
8
0
6
CONTINUOUS
10
3.399701
20
-67.655140
30
0.0
11
3.399711
21
-49.261280
31
0.0
0
LINE
8
0
6
CONTINUOUS
10
4.471492
20
-319.558450
30
0.0
11
7.399702
21
-322.476890
31
0.0
0
LINE
8
0
6
CONTINUOUS
10
19.399702
20
-334.500000
30
0.0
11
18.327902
21
-333.441540
31
0.0
0
LINE
8
0
6
CONTINUOUS
10
7.399702
20
-322.476890
30
0.0
11
11.399712
21
-326.473310
31
0.0
0
LINE
8
0
6
CONTINUOUS
10
15.399712
20
-330.476910
30
0.0
11
18.327912
21
-333.414870
31
0.0
0
LINE
8
0
6
CONTINUOUS
10
11.399692
20
-326.526680
30
0.0
11
7.399682
21
-322.523120
31
0.0
0
LINE
8
0
6
CONTINUOUS
10
18.327902
20
-333.441540
30
0.0
11
15.399702
21
-330.523100
31
0.0
0
LINE
8
0
6
CONTINUOUS
10
11.399712
20
-326.473310
30
0.0
11
15.399712
21
-330.476910
31
0.0
0
LINE
8
0
6
CONTINUOUS
10
4.471482
20
-319.585160
30
0.0
11
3.399692
21
-318.499990
31
0.0
0
LINE
8
0
6
CONTINUOUS
10
3.399692
20
-318.499990
30
0.0
11
4.471492
21
-319.558450
31
0.0
0
LINE
8
0
6
CONTINUOUS
10
3.399701
20
-67.655140
30
0.0
11
3.399692
21
-318.499990
31
0.0
0
LINE
8
0
6
CONTINUOUS
10
7.399682
20
-322.523120
30
0.0
11
4.471482
21
-319.585160
31
0.0
0
LINE
8
0
6
CONTINUOUS
10
19.399702
20
-334.500000
30
0.0
11
19.399711
21
-67.655160
31
0.0
0
LINE
8
0
6
CONTINUOUS
10
18.327912
20
-333.414870
30
0.0
11
19.399702
21
-334.500000
31
0.0
0
LINE
8
0
6
CONTINUOUS
10
15.399702
20
-330.523100
30
0.0
11
11.399692
21
-326.526680
31
0.0
0
LINE
8
0
6
CONTINUOUS
10
0.517359
20
105.523736
30
0.0
11
0.628133
21
103.760781
31
0.0
0
LINE
8
0
6
CONTINUOUS
10
23.602462
20
105.503978
30
0.0
11
22.276624
21
83.922429
31
0.0
0
LINE
8
0
6
CONTINUOUS
10
21.897701
20
82.210447
30
0.0
11
22.250325
21
83.494250
31
0.0
0
LINE
8
0
6
CONTINUOUS
10
20.875712
20
81.014510
30
0.0
11
21.897701
21
82.210447
31
0.0
0
LINE
8
0
6
CONTINUOUS
10
22.276624
20
83.922429
30
0.0
11
22.250325
21
83.494250
31
0.0
0
LINE
8
0
6
CONTINUOUS
10
-15.799750
20
213.999089
30
0.0
11
-15.886547
21
213.290251
31
0.0
0
LINE
8
0
6
CONTINUOUS
10
-15.799750
20
213.999089
30
0.0
11
-14.940756
21
214.187259
31
0.0
0
LINE
8
0
6
CONTINUOUS
10
-20.876957
20
218.077296
30
0.0
11
-20.963818
21
217.353845
31
0.0
0
LINE
8
0
6
CONTINUOUS
10
-20.876957
20
218.077296
30
0.0
11
-19.846310
21
218.299789
31
0.0
0
LINE
8
0
6
CONTINUOUS
10
-12.385894
20
245.718465
30
0.0
11
-12.620204
21
244.897286
31
0.0
0
LINE
8
0
6
CONTINUOUS
10
-24.321456
20
222.717801
30
0.0
11
-23.135528
21
222.972175
31
0.0
0
LINE
8
0
6
CONTINUOUS
10
-23.135528
20
222.972175
30
0.0
11
-22.938455
21
222.885441
31
0.0
0
LINE
8
0
6
CONTINUOUS
10
-18.328748
20
242.023899
30
0.0
11
-18.551355
21
241.254676
31
0.0
0
LINE
8
0
6
CONTINUOUS
10
-24.569555
20
227.994437
30
0.0
11
-24.175460
21
227.832700
31
0.0
0
LINE
8
0
6
CONTINUOUS
10
-25.722051
20
227.696621
30
0.0
11
-24.569555
21
227.994437
31
0.0
0
LINE
8
0
6
CONTINUOUS
10
39.505429
20
214.147782
30
0.0
11
40.313795
21
213.973053
31
0.0
0
LINE
8
0
6
CONTINUOUS
10
-23.935293
20
232.987986
30
0.0
11
-23.797210
21
232.909984
31
0.0
0
LINE
8
0
6
CONTINUOUS
10
-25.180029
20
232.803580
30
0.0
11
-25.414603
21
232.048548
31
0.0
0
LINE
8
0
6
CONTINUOUS
10
8.944332
20
207.116964
30
0.0
11
9.069438
21
206.489387
31
0.0
0
LINE
8
0
6
CONTINUOUS
10
6.655993
20
207.065379
30
0.0
11
7.132379
21
207.238245
31
0.0
0
LINE
8
0
6
CONTINUOUS
10
34.883861
20
245.283637
30
0.0
11
35.904517
21
245.860228
31
0.0
0
LINE
8
0
6
CONTINUOUS
10
-11.273698
20
245.914982
30
0.0
11
-11.141313
21
245.944406
31
0.0
0
LINE
8
0
6
CONTINUOUS
10
7.337991
20
219.110176
30
0.0
11
7.499902
21
218.219332
31
0.0
0
LINE
8
0
6
CONTINUOUS
10
7.521639
20
222.975287
30
0.0
11
6.869518
21
222.165443
31
0.0
0
LINE
8
0
6
CONTINUOUS
10
-1.905281
20
222.040360
30
0.0
11
-0.693833
21
222.514030
31
0.0
0
LINE
8
0
6
CONTINUOUS
10
2.599756
20
226.619675
30
0.0
11
4.183497
21
226.671613
31
0.0
0
LINE
8
0
6
CONTINUOUS
10
-4.468157
20
226.784893
30
0.0
11
-3.810817
21
227.044682
31
0.0
0
LINE
8
0
6
CONTINUOUS
10
3.263771
20
235.548600
30
0.0
11
3.575100
21
235.510784
31
0.0
0
LINE
8
0
6
CONTINUOUS
10
17.966988
20
230.653166
30
0.0
11
19.158094
21
231.316233
31
0.0
0
LINE
8
0
6
CONTINUOUS
10
31.551128
20
234.116411
30
0.0
11
32.887777
21
234.664866
31
0.0
0
LINE
8
0
6
CONTINUOUS
10
38.027049
20
213.800716
30
0.0
11
39.135193
21
214.238225
31
0.0
0
LINE
8
0
6
CONTINUOUS
10
-3.858562
20
231.526254
30
0.0
11
-3.875383
21
230.559629
31
0.0
0
LINE
8
0
6
CONTINUOUS
10
-10.669551
20
229.974901
30
0.0
11
-9.342471
21
229.425468
31
0.0
0
LINE
8
0
6
CONTINUOUS
10
-12.012979
20
229.609339
30
0.0
11
-10.669551
21
229.974901
31
0.0
0
LINE
8
0
6
CONTINUOUS
10
-8.427007
20
234.826709
30
0.0
11
-7.099902
21
234.268884
31
0.0
0
LINE
8
0
6
CONTINUOUS
10
0.408031
20
212.504612
30
0.0
11
0.542702
21
211.792801
31
0.0
0
LINE
8
0
6
CONTINUOUS
10
-8.952914
20
215.346195
30
0.0
11
-7.881086
21
215.734706
31
0.0
0
LINE
8
0
6
CONTINUOUS
10
-14.940756
20
214.187259
30
0.0
11
-14.613772
21
214.264413
31
0.0
0
LINE
8
0
6
CONTINUOUS
10
-14.463392
20
219.199968
30
0.0
11
-13.391566
21
219.587769
31
0.0
0
LINE
8
0
6
CONTINUOUS
10
-13.391566
20
219.587769
30
0.0
11
-12.185287
21
219.232794
31
0.0
0
LINE
8
0
6
CONTINUOUS
10
-19.846310
20
218.299789
30
0.0
11
-19.690997
21
218.336016
31
0.0
0
LINE
8
0
6
CONTINUOUS
10
-12.489728
20
238.704958
30
0.0
11
-11.351309
21
238.242942
31
0.0
0
LINE
8
0
6
CONTINUOUS
10
-20.773976
20
237.502307
30
0.0
11
-20.397824
21
237.292410
31
0.0
0
LINE
8
0
6
CONTINUOUS
10
-16.282122
20
234.215801
30
0.0
11
-15.143715
21
233.755044
31
0.0
0
LINE
8
0
6
CONTINUOUS
10
-17.668048
20
229.249721
30
0.0
11
-16.529661
21
228.793506
31
0.0
0
LINE
8
0
6
CONTINUOUS
10
8.484909
20
211.000823
30
0.0
11
8.619619
21
210.293840
31
0.0
0
LINE
8
0
6
CONTINUOUS
10
7.727898
20
207.465750
30
0.0
11
8.934553
21
207.168293
31
0.0
0
LINE
8
0
6
CONTINUOUS
10
6.206297
20
210.888774
30
0.0
11
7.278262
21
211.298272
31
0.0
0
LINE
8
0
6
CONTINUOUS
10
47.720110
20
223.002040
30
0.0
11
48.898719
21
222.735289
31
0.0
0
LINE
8
0
6
CONTINUOUS
10
-9.325734
20
210.807860
30
0.0
11
-8.757158
21
210.938258
31
0.0
0
LINE
8
0
6
CONTINUOUS
10
-9.325734
20
210.807860
30
0.0
11
-9.412469
21
210.108902
31
0.0
0
LINE
8
0
6
CONTINUOUS
10
3.211608
20
250.318752
30
0.0
11
2.542583
21
249.585092
31
0.0
0
LINE
8
0
6
CONTINUOUS
10
20.798301
20
250.299947
30
0.0
11
21.694610
21
250.218811
31
0.0
0
LINE
8
0
6
CONTINUOUS
10
-21.408015
20
237.866995
30
0.0
11
-20.773976
21
237.502307
31
0.0
0
LINE
8
0
6
CONTINUOUS
10
-22.652710
20
237.670296
30
0.0
11
-21.408015
21
237.866995
31
0.0
0
LINE
8
0
6
CONTINUOUS
10
9.119500
20
95.951999
30
0.0
11
12.037868
21
95.557816
31
0.0
0
LINE
8
0
6
CONTINUOUS
10
2.865741
20
100.261079
30
0.0
11
2.144628
21
101.015548
31
0.0
0
LINE
8
0
6
CONTINUOUS
10
3.998856
20
98.937122
30
0.0
11
5.709518
21
97.618454
31
0.0
0
LINE
8
0
6
CONTINUOUS
10
17.661630
20
236.594813
30
0.0
11
18.102074
21
236.943754
31
0.0
0
LINE
8
0
6
CONTINUOUS
10
25.709313
20
224.133034
30
0.0
11
27.169010
21
224.536620
31
0.0
0
LINE
8
0
6
CONTINUOUS
10
9.468183
20
214.863585
30
0.0
11
9.625436
21
214.058401
31
0.0
0
LINE
8
0
6
CONTINUOUS
10
-1.089545
20
216.597343
30
0.0
11
0.159669
21
217.036933
31
0.0
0
LINE
8
0
6
CONTINUOUS
10
-1.983915
20
222.013116
30
0.0
11
-1.905281
21
222.040360
31
0.0
0
LINE
8
0
6
CONTINUOUS
10
-7.508300
20
219.952591
30
0.0
11
-6.259139
21
220.385357
31
0.0
0
LINE
8
0
6
CONTINUOUS
10
43.190658
20
217.893902
30
0.0
11
44.298718
21
218.345632
31
0.0
0
LINE
8
0
6
CONTINUOUS
10
-29.610759
20
71.297857
30
0.0
11
-30.654694
21
70.510760
31
0.0
0
LINE
8
0
6
CONTINUOUS
10
-10.610759
20
71.297882
30
0.0
11
-9.566800
21
70.510760
31
0.0
0
LINE
8
0
6
CONTINUOUS
10
-27.910759
20
72.308143
30
0.0
11
-28.879540
21
71.601730
31
0.0
0
LINE
8
0
6
CONTINUOUS
10
-12.310759
20
72.308182
30
0.0
11
-11.341942
21
71.601746
31
0.0
0
LINE
8
0
6
CONTINUOUS
10
-24.972991
20
73.364394
30
0.0
11
-22.910759
21
74.058715
31
0.0
0
LINE
8
0
6
CONTINUOUS
10
-17.310759
20
74.058729
30
0.0
11
-15.248451
21
73.364403
31
0.0
0
LINE
8
0
6
CONTINUOUS
10
-30.710759
20
107.676982
30
0.0
11
-31.110759
21
107.942507
31
0.0
0
LINE
8
0
6
CONTINUOUS
10
-9.510759
20
107.676976
30
0.0
11
-9.110759
21
107.942501
31
0.0
0
LINE
8
0
6
CONTINUOUS
10
-25.249047
20
104.872035
30
0.0
11
-22.910759
21
104.096197
31
0.0
0
LINE
8
0
6
CONTINUOUS
10
-22.910759
20
104.096197
30
0.0
11
-20.110759
21
103.770420
31
0.0
0
LINE
8
0
6
CONTINUOUS
10
-17.310759
20
104.096189
30
0.0
11
-14.972401
21
104.872045
31
0.0
0
LINE
8
0
6
CONTINUOUS
10
-20.110759
20
103.770420
30
0.0
11
-17.310759
21
104.096189
31
0.0
0
ENDSEC
0
EOF
