999
Erzeugt mit innoplus bad 
0
SECTION
2
HEADER
9
$ACADVER
1
AC1009
9
$DWGCODEPAGE
3
ISO8859-1
0
ENDSEC
0
SECTION
2
TABLES
0
TABLE
2
LAYER
70
1
0
LAYER
2
0
70
0
62
7
6
CONTINUOUS
0
ENDTAB
0
ENDSEC
0
SECTION
2
ENTITIES
0
LINE
8
0
6
CONTINUOUS
10
-19.481320
20
-40.568825
30
0.0
11
-19.161570
21
-40.568825
31
0.0
0
LINE
8
0
6
CONTINUOUS
10
41.326610
20
-37.865745
30
0.0
11
41.326600
21
-37.365275
31
0.0
0
LINE
8
0
6
CONTINUOUS
10
33.147420
20
-40.568835
30
0.0
11
37.764560
21
-40.568835
31
0.0
0
LINE
8
0
6
CONTINUOUS
10
28.239860
20
-40.568835
30
0.0
11
33.147420
21
-40.568835
31
0.0
0
LINE
8
0
6
CONTINUOUS
10
24.678360
20
-40.568835
30
0.0
11
28.239860
21
-40.568835
31
0.0
0
LINE
8
0
6
CONTINUOUS
10
37.764560
20
-40.568835
30
0.0
11
40.926040
21
-40.568835
31
0.0
0
LINE
8
0
6
CONTINUOUS
10
41.326610
20
-35.625275
30
0.0
11
41.326610
21
-34.075745
31
0.0
0
LINE
8
0
6
CONTINUOUS
10
41.326610
20
-32.307895
30
0.0
11
41.326610
21
-30.389675
31
0.0
0
LINE
8
0
6
CONTINUOUS
10
41.326610
20
-34.075745
30
0.0
11
41.326610
21
-32.307895
31
0.0
0
LINE
8
0
6
CONTINUOUS
10
41.326610
20
-30.389675
30
0.0
11
41.326610
21
-28.318865
31
0.0
0
LINE
8
0
6
CONTINUOUS
10
41.326600
20
-37.365275
30
0.0
11
41.326600
21
-36.896985
31
0.0
0
LINE
8
0
6
CONTINUOUS
10
41.326610
20
-40.568835
30
0.0
11
40.926040
21
-40.568835
31
0.0
0
LINE
8
0
6
CONTINUOUS
10
41.326600
20
-40.152165
30
0.0
11
41.326600
21
-39.023425
31
0.0
0
LINE
8
0
6
CONTINUOUS
10
41.326600
20
-39.023425
30
0.0
11
41.326610
21
-37.865745
31
0.0
0
LINE
8
0
6
CONTINUOUS
10
-19.161570
20
-40.568825
30
0.0
11
24.678360
21
-40.568835
31
0.0
0
LINE
8
0
6
CONTINUOUS
10
24.678360
20
-25.054495
30
0.0
11
28.271440
21
-22.311695
31
0.0
0
LINE
8
0
6
CONTINUOUS
10
41.326600
20
-23.957985
30
0.0
11
41.326600
21
-23.737045
31
0.0
0
LINE
8
0
6
CONTINUOUS
10
37.513210
20
-22.258905
30
0.0
11
33.104060
21
-21.541895
31
0.0
0
LINE
8
0
6
CONTINUOUS
10
22.384240
20
-28.369325
30
0.0
11
21.303800
21
-31.669745
31
0.0
0
LINE
8
0
6
CONTINUOUS
10
39.190140
20
-23.720185
30
0.0
11
37.513210
21
-22.258905
31
0.0
0
LINE
8
0
6
CONTINUOUS
10
33.104060
20
-21.541895
30
0.0
11
28.271440
21
-22.311695
31
0.0
0
LINE
8
0
6
CONTINUOUS
10
24.965410
20
-24.799855
30
0.0
11
22.384240
21
-28.369325
31
0.0
0
LINE
8
0
6
CONTINUOUS
10
41.326600
20
-23.957985
30
0.0
11
39.190140
21
-23.720185
31
0.0
0
LINE
8
0
6
CONTINUOUS
10
41.326600
20
-17.662165
30
0.0
11
41.326600
21
-14.123385
31
0.0
0
LINE
8
0
6
CONTINUOUS
10
41.326600
20
-14.123385
30
0.0
11
41.326600
21
-10.872805
31
0.0
0
LINE
8
0
6
CONTINUOUS
10
41.326600
20
-8.035375
30
0.0
11
41.326600
21
-5.720075
31
0.0
0
LINE
8
0
6
CONTINUOUS
10
41.326600
20
-10.872805
30
0.0
11
41.326600
21
-8.035375
31
0.0
0
LINE
8
0
6
CONTINUOUS
10
41.326600
20
-21.353145
30
0.0
11
41.326600
21
-17.662165
31
0.0
0
LINE
8
0
6
CONTINUOUS
10
41.326600
20
-23.737045
30
0.0
11
41.326600
21
-21.353145
31
0.0
0
LINE
8
0
6
CONTINUOUS
10
41.326610
20
-26.248045
30
0.0
11
41.326610
21
-24.329815
31
0.0
0
LINE
8
0
6
CONTINUOUS
10
41.326610
20
-28.318865
30
0.0
11
41.326610
21
-26.248045
31
0.0
0
LINE
8
0
6
CONTINUOUS
10
-19.481320
20
-2.677015
30
0.0
11
-19.161570
21
-2.677015
31
0.0
0
LINE
8
0
6
CONTINUOUS
10
33.251030
20
-2.677015
30
0.0
11
37.820990
21
-2.677015
31
0.0
0
LINE
8
0
6
CONTINUOUS
10
28.238690
20
-2.677015
30
0.0
11
33.251030
21
-2.677015
31
0.0
0
LINE
8
0
6
CONTINUOUS
10
24.678360
20
-2.677015
30
0.0
11
28.238690
21
-2.677015
31
0.0
0
LINE
8
0
6
CONTINUOUS
10
37.820990
20
-2.677015
30
0.0
11
40.926040
21
-2.677015
31
0.0
0
LINE
8
0
6
CONTINUOUS
10
41.326610
20
-2.677015
30
0.0
11
40.926040
21
-2.677015
31
0.0
0
LINE
8
0
6
CONTINUOUS
10
41.326610
20
-4.015925
30
0.0
11
41.326600
21
-2.988395
31
0.0
0
LINE
8
0
6
CONTINUOUS
10
-19.161570
20
-2.677015
30
0.0
11
-10.103190
21
-2.677015
31
0.0
0
LINE
8
0
6
CONTINUOUS
10
11.896810
20
-2.677015
30
0.0
11
24.678360
21
-2.677015
31
0.0
0
LINE
8
0
6
CONTINUOUS
10
-19.481320
20
-40.568825
30
0.0
11
-19.481320
21
-40.152165
31
0.0
0
LINE
8
0
6
CONTINUOUS
10
-19.481320
20
-40.152165
30
0.0
11
-19.481320
21
-39.023425
31
0.0
0
LINE
8
0
6
CONTINUOUS
10
-19.481320
20
-10.872825
30
0.0
11
-19.481320
21
-8.035375
31
0.0
0
LINE
8
0
6
CONTINUOUS
10
-19.481320
20
-34.828965
30
0.0
11
-19.481320
21
-31.924385
31
0.0
0
LINE
8
0
6
CONTINUOUS
10
-19.481320
20
-21.353145
30
0.0
11
-19.481320
21
-17.662165
31
0.0
0
LINE
8
0
6
CONTINUOUS
10
-19.481320
20
-4.015925
30
0.0
11
-19.481320
21
-2.988425
31
0.0
0
LINE
8
0
6
CONTINUOUS
10
-19.481320
20
-8.035375
30
0.0
11
-19.481320
21
-5.720075
31
0.0
0
LINE
8
0
6
CONTINUOUS
10
-19.481320
20
-39.023425
30
0.0
11
-19.481320
21
-37.225995
31
0.0
0
LINE
8
0
6
CONTINUOUS
10
-19.481320
20
-14.123385
30
0.0
11
-19.481320
21
-10.872825
31
0.0
0
LINE
8
0
6
CONTINUOUS
10
-19.481320
20
-5.720075
30
0.0
11
-19.481320
21
-4.015925
31
0.0
0
LINE
8
0
6
CONTINUOUS
10
-19.481320
20
-31.924385
30
0.0
11
-19.481320
21
-28.623975
31
0.0
0
LINE
8
0
6
CONTINUOUS
10
-19.481320
20
-2.988425
30
0.0
11
-19.481320
21
-2.677015
31
0.0
0
LINE
8
0
6
CONTINUOUS
10
-19.481320
20
-25.054495
30
0.0
11
-19.481320
21
-21.353145
31
0.0
0
LINE
8
0
6
CONTINUOUS
10
-19.481320
20
-37.225995
30
0.0
11
-19.481320
21
-34.828965
31
0.0
0
LINE
8
0
6
CONTINUOUS
10
-19.481320
20
-17.662165
30
0.0
11
-19.481320
21
-14.123385
31
0.0
0
LINE
8
0
6
CONTINUOUS
10
-19.481320
20
-28.623975
30
0.0
11
-19.481320
21
-25.054495
31
0.0
0
LINE
8
0
6
CONTINUOUS
10
-40.613950
20
-40.496275
30
0.0
11
-41.326600
21
-40.496275
31
0.0
0
LINE
8
0
6
CONTINUOUS
10
-41.326600
20
-2.936425
30
0.0
11
-40.613950
21
-2.749645
31
0.0
0
LINE
8
0
6
CONTINUOUS
10
-40.613950
20
-40.496275
30
0.0
11
-20.353210
21
-40.496275
31
0.0
0
LINE
8
0
6
CONTINUOUS
10
-20.353210
20
-2.749645
30
0.0
11
-40.613950
21
-2.749645
31
0.0
0
LINE
8
0
6
CONTINUOUS
10
-20.353210
20
-40.496275
30
0.0
11
-20.062580
21
-40.496275
31
0.0
0
LINE
8
0
6
CONTINUOUS
10
-20.062580
20
-2.749645
30
0.0
11
-20.353210
21
-2.749645
31
0.0
0
LINE
8
0
6
CONTINUOUS
10
-41.326600
20
-40.496275
30
0.0
11
-41.326600
21
-39.853175
31
0.0
0
LINE
8
0
6
CONTINUOUS
10
-41.326590
20
-37.967715
30
0.0
11
-41.326590
21
-34.968405
31
0.0
0
LINE
8
0
6
CONTINUOUS
10
-41.326580
20
-31.059625
30
0.0
11
-41.326580
21
-26.507735
31
0.0
0
LINE
8
0
6
CONTINUOUS
10
-41.326580
20
-26.507735
30
0.0
11
-41.326580
21
-21.622965
31
0.0
0
LINE
8
0
6
CONTINUOUS
10
-41.326580
20
-21.622965
30
0.0
11
-41.326580
21
-16.738195
31
0.0
0
LINE
8
0
6
CONTINUOUS
10
-41.326580
20
-16.738195
30
0.0
11
-41.326580
21
-12.186315
31
0.0
0
LINE
8
0
6
CONTINUOUS
10
-41.326590
20
-8.277515
30
0.0
11
-41.326590
21
-5.278185
31
0.0
0
LINE
8
0
6
CONTINUOUS
10
-41.326600
20
-3.392735
30
0.0
11
-41.326600
21
-2.936425
31
0.0
0
LINE
8
0
6
CONTINUOUS
10
-40.516930
20
-33.744965
30
0.0
11
-40.630130
21
-33.748025
31
0.0
0
LINE
8
0
6
CONTINUOUS
10
-40.516930
20
-33.744965
30
0.0
11
-24.972370
21
-33.771995
31
0.0
0
LINE
8
0
6
CONTINUOUS
10
-24.972370
20
-33.771995
30
0.0
11
-24.859950
21
-33.768675
31
0.0
0
LINE
8
0
6
CONTINUOUS
10
-40.677040
20
-33.587325
30
0.0
11
-40.630130
21
-33.748025
31
0.0
0
LINE
8
0
6
CONTINUOUS
10
-24.859950
20
-25.162455
30
0.0
11
-24.859950
21
-27.943735
31
0.0
0
LINE
8
0
6
CONTINUOUS
10
-24.859950
20
-33.726905
30
0.0
11
-24.859950
21
-33.768675
31
0.0
0
LINE
8
0
6
CONTINUOUS
10
-24.859950
20
-33.483975
30
0.0
11
-24.859950
21
-33.726905
31
0.0
0
LINE
8
0
6
CONTINUOUS
10
-24.859950
20
-33.056415
30
0.0
11
-24.859950
21
-33.483975
31
0.0
0
LINE
8
0
6
CONTINUOUS
10
-24.859950
20
-32.473405
30
0.0
11
-24.859950
21
-33.056415
31
0.0
0
LINE
8
0
6
CONTINUOUS
10
-24.859950
20
-31.774665
30
0.0
11
-24.859950
21
-32.473405
31
0.0
0
LINE
8
0
6
CONTINUOUS
10
-24.859950
20
-31.007785
30
0.0
11
-24.859950
21
-31.774665
31
0.0
0
LINE
8
0
6
CONTINUOUS
10
-24.859950
20
-30.225075
30
0.0
11
-24.859950
21
-31.007785
31
0.0
0
LINE
8
0
6
CONTINUOUS
10
-24.859950
20
-29.479825
30
0.0
11
-24.859950
21
-30.225075
31
0.0
0
LINE
8
0
6
CONTINUOUS
10
-24.859950
20
-28.822845
30
0.0
11
-24.859950
21
-29.479825
31
0.0
0
LINE
8
0
6
CONTINUOUS
10
-24.859950
20
-28.298915
30
0.0
11
-24.859950
21
-28.822845
31
0.0
0
LINE
8
0
6
CONTINUOUS
10
-24.859950
20
-27.943735
30
0.0
11
-24.859950
21
-28.298915
31
0.0
0
LINE
8
0
6
CONTINUOUS
10
-41.223990
20
-30.821705
30
0.0
11
-40.677040
21
-33.587325
31
0.0
0
LINE
8
0
6
CONTINUOUS
10
-20.062580
20
-39.853175
30
0.0
11
-20.062580
21
-40.496275
31
0.0
0
LINE
8
0
6
CONTINUOUS
10
-20.062570
20
-37.967715
30
0.0
11
-20.062580
21
-39.853175
31
0.0
0
LINE
8
0
6
CONTINUOUS
10
-20.062570
20
-34.968405
30
0.0
11
-20.062570
21
-37.967715
31
0.0
0
LINE
8
0
6
CONTINUOUS
10
-20.062560
20
-31.059625
30
0.0
11
-20.062570
21
-34.968405
31
0.0
0
LINE
8
0
6
CONTINUOUS
10
-20.062560
20
-26.507735
30
0.0
11
-20.062560
21
-31.059625
31
0.0
0
LINE
8
0
6
CONTINUOUS
10
-20.062560
20
-21.622965
30
0.0
11
-20.062560
21
-26.507735
31
0.0
0
LINE
8
0
6
CONTINUOUS
10
-20.062560
20
-16.738195
30
0.0
11
-20.062560
21
-21.622965
31
0.0
0
LINE
8
0
6
CONTINUOUS
10
-20.062560
20
-12.186315
30
0.0
11
-20.062560
21
-16.738195
31
0.0
0
LINE
8
0
6
CONTINUOUS
10
-20.062570
20
-8.277515
30
0.0
11
-20.062560
21
-12.186315
31
0.0
0
LINE
8
0
6
CONTINUOUS
10
-20.062570
20
-5.278185
30
0.0
11
-20.062570
21
-8.277515
31
0.0
0
LINE
8
0
6
CONTINUOUS
10
-20.062580
20
-2.749645
30
0.0
11
-20.062580
21
-3.392735
31
0.0
0
LINE
8
0
6
CONTINUOUS
10
-20.062580
20
-3.392735
30
0.0
11
-20.062570
21
-5.278185
31
0.0
0
LINE
8
0
6
CONTINUOUS
10
11.496810
20
-24.256595
30
0.0
11
11.896810
21
-21.456445
31
0.0
0
LINE
8
0
6
CONTINUOUS
10
10.396810
20
-26.956715
30
0.0
11
11.496810
21
-24.256595
31
0.0
0
LINE
8
0
6
CONTINUOUS
10
8.696810
20
-29.256845
30
0.0
11
10.396810
21
-26.956715
31
0.0
0
LINE
8
0
6
CONTINUOUS
10
6.396810
20
-30.956925
30
0.0
11
8.696810
21
-29.256845
31
0.0
0
LINE
8
0
6
CONTINUOUS
10
3.696810
20
-32.056975
30
0.0
11
6.396810
21
-30.956925
31
0.0
0
LINE
8
0
6
CONTINUOUS
10
0.896810
20
-32.457005
30
0.0
11
3.696810
21
-32.056975
31
0.0
0
LINE
8
0
6
CONTINUOUS
10
-10.103190
20
-21.456445
30
0.0
11
-9.703190
21
-24.256595
31
0.0
0
LINE
8
0
6
CONTINUOUS
10
-9.703190
20
-24.256595
30
0.0
11
-8.603190
21
-26.956715
31
0.0
0
LINE
8
0
6
CONTINUOUS
10
-8.603190
20
-26.956715
30
0.0
11
-6.903190
21
-29.256845
31
0.0
0
LINE
8
0
6
CONTINUOUS
10
-6.903190
20
-29.256845
30
0.0
11
-4.603190
21
-30.956925
31
0.0
0
LINE
8
0
6
CONTINUOUS
10
-4.603190
20
-30.956925
30
0.0
11
-1.903190
21
-32.056975
31
0.0
0
LINE
8
0
6
CONTINUOUS
10
-1.903190
20
-32.056975
30
0.0
11
0.896810
21
-32.457005
31
0.0
0
LINE
8
0
6
CONTINUOUS
10
11.896810
20
40.068815
30
0.0
11
11.896810
21
40.568835
31
0.0
0
LINE
8
0
6
CONTINUOUS
10
11.896810
20
-21.456445
30
0.0
11
11.896810
21
40.068815
31
0.0
0
LINE
8
0
6
CONTINUOUS
10
11.396810
20
40.568835
30
0.0
11
11.896810
21
40.568835
31
0.0
0
LINE
8
0
6
CONTINUOUS
10
-9.603190
20
40.568835
30
0.0
11
11.396810
21
40.568835
31
0.0
0
LINE
8
0
6
CONTINUOUS
10
-10.103190
20
40.068815
30
0.0
11
-10.103190
21
-21.456445
31
0.0
0
LINE
8
0
6
CONTINUOUS
10
-10.103190
20
40.568835
30
0.0
11
-10.103190
21
40.068815
31
0.0
0
LINE
8
0
6
CONTINUOUS
10
-9.603190
20
40.568835
30
0.0
11
-10.103190
21
40.568835
31
0.0
0
ENDSEC
0
EOF
