999
Erzeugt mit innoplus bad 
0
SECTION
2
HEADER
9
$ACADVER
1
AC1009
9
$DWGCODEPAGE
3
ISO8859-1
0
ENDSEC
0
SECTION
2
TABLES
0
TABLE
2
LAYER
70
1
0
LAYER
2
0
70
0
62
7
6
CONTINUOUS
0
ENDTAB
0
ENDSEC
0
SECTION
2
ENTITIES
0
LINE
8
0
6
CONTINUOUS
10
-37.370245
20
200.972550
30
0.0
11
-37.857265
21
200.945430
31
0.0
0
LINE
8
0
6
CONTINUOUS
10
-39.560135
20
197.481840
30
0.0
11
-40.152165
21
195.298080
31
0.0
0
LINE
8
0
6
CONTINUOUS
10
-39.560135
20
197.481840
30
0.0
11
-39.023425
21
198.836630
31
0.0
0
LINE
8
0
6
CONTINUOUS
10
-39.560135
20
197.481840
30
0.0
11
-39.412625
21
198.007890
31
0.0
0
LINE
8
0
6
CONTINUOUS
10
-39.023425
20
198.836630
30
0.0
11
-39.323535
21
198.170700
31
0.0
0
LINE
8
0
6
CONTINUOUS
10
-37.365275
20
200.947950
30
0.0
11
-36.896985
21
200.241930
31
0.0
0
LINE
8
0
6
CONTINUOUS
10
-36.896985
20
200.241930
30
0.0
11
-35.625275
21
198.278810
31
0.0
0
LINE
8
0
6
CONTINUOUS
10
-40.568835
20
191.607240
30
0.0
11
-40.152165
21
195.298080
31
0.0
0
LINE
8
0
6
CONTINUOUS
10
-40.257405
20
187.906030
30
0.0
11
-40.568835
21
191.607240
31
0.0
0
LINE
8
0
6
CONTINUOUS
10
-34.828945
20
204.924310
30
0.0
11
-31.924385
21
207.239380
31
0.0
0
LINE
8
0
6
CONTINUOUS
10
-37.225995
20
202.087020
30
0.0
11
-34.828945
21
204.924310
31
0.0
0
LINE
8
0
6
CONTINUOUS
10
-37.525755
20
181.036300
30
0.0
11
-39.229905
21
184.336660
31
0.0
0
LINE
8
0
6
CONTINUOUS
10
-39.229905
20
184.336660
30
0.0
11
-40.257405
21
187.906030
31
0.0
0
LINE
8
0
6
CONTINUOUS
10
-40.152165
20
195.298080
30
0.0
11
-39.023425
21
198.836630
31
0.0
0
LINE
8
0
6
CONTINUOUS
10
-23.496315
20
210.652960
30
0.0
11
-23.720185
21
210.219650
31
0.0
0
LINE
8
0
6
CONTINUOUS
10
-21.094935
20
210.854950
30
0.0
11
-17.662165
21
209.865220
31
0.0
0
LINE
8
0
6
CONTINUOUS
10
-23.957985
20
209.632110
30
0.0
11
-23.720185
21
210.219650
31
0.0
0
LINE
8
0
6
CONTINUOUS
10
-23.505105
20
208.916090
30
0.0
11
-23.957985
21
209.632110
31
0.0
0
LINE
8
0
6
CONTINUOUS
10
-17.662165
20
209.865220
30
0.0
11
-14.123385
21
208.736460
31
0.0
0
LINE
8
0
6
CONTINUOUS
10
-14.123385
20
208.736460
30
0.0
11
-10.872805
21
206.938930
31
0.0
0
LINE
8
0
6
CONTINUOUS
10
-31.924385
20
207.239380
30
0.0
11
-28.623955
21
208.943360
31
0.0
0
LINE
8
0
6
CONTINUOUS
10
-28.623955
20
208.943360
30
0.0
11
-25.054495
21
209.970700
31
0.0
0
LINE
8
0
6
CONTINUOUS
10
-8.035375
20
204.541890
30
0.0
11
-5.720075
21
201.637420
31
0.0
0
LINE
8
0
6
CONTINUOUS
10
-10.872805
20
206.938930
30
0.0
11
-8.035375
21
204.541890
31
0.0
0
LINE
8
0
6
CONTINUOUS
10
-21.353145
20
210.281980
30
0.0
11
-17.662165
21
209.865220
31
0.0
0
LINE
8
0
6
CONTINUOUS
10
-23.737045
20
210.081520
30
0.0
11
-21.353145
21
210.281980
31
0.0
0
LINE
8
0
6
CONTINUOUS
10
-23.198075
20
210.678100
30
0.0
11
-23.496315
21
210.652960
31
0.0
0
LINE
8
0
6
CONTINUOUS
10
-19.491335
20
172.593610
30
0.0
11
-19.267455
21
173.026960
31
0.0
0
LINE
8
0
6
CONTINUOUS
10
-22.508455
20
171.718400
30
0.0
11
-25.583685
21
172.808450
31
0.0
0
LINE
8
0
6
CONTINUOUS
10
-22.371815
20
171.701660
30
0.0
11
-22.508455
21
171.718400
31
0.0
0
LINE
8
0
6
CONTINUOUS
10
-28.318865
20
186.999780
30
0.0
11
-26.248045
21
183.803020
31
0.0
0
LINE
8
0
6
CONTINUOUS
10
-19.740755
20
173.757590
30
0.0
11
-19.287845
21
173.041570
31
0.0
0
LINE
8
0
6
CONTINUOUS
10
-25.583685
20
172.808450
30
0.0
11
-29.122465
21
173.937260
31
0.0
0
LINE
8
0
6
CONTINUOUS
10
-29.122465
20
173.937260
30
0.0
11
-32.373025
21
175.734750
31
0.0
0
LINE
8
0
6
CONTINUOUS
10
-21.226625
20
171.806980
30
0.0
11
-22.067575
21
171.727250
31
0.0
0
LINE
8
0
6
CONTINUOUS
10
-11.321455
20
175.434300
30
0.0
11
-14.621895
21
173.730310
31
0.0
0
LINE
8
0
6
CONTINUOUS
10
-14.621895
20
173.730310
30
0.0
11
-18.191365
21
172.702940
31
0.0
0
LINE
8
0
6
CONTINUOUS
10
-35.210465
20
178.131750
30
0.0
11
-37.525755
21
181.036300
31
0.0
0
LINE
8
0
6
CONTINUOUS
10
-32.373025
20
175.734750
30
0.0
11
-35.210465
21
178.131750
31
0.0
0
LINE
8
0
6
CONTINUOUS
10
-22.067575
20
171.727250
30
0.0
11
-20.937395
21
172.472000
31
0.0
0
LINE
8
0
6
CONTINUOUS
10
-22.371815
20
171.701660
30
0.0
11
-22.067575
21
171.727250
31
0.0
0
LINE
8
0
6
CONTINUOUS
10
-21.892695
20
172.391700
30
0.0
11
-25.583685
21
172.808450
31
0.0
0
LINE
8
0
6
CONTINUOUS
10
-19.508805
20
172.592160
30
0.0
11
-21.892695
21
172.391700
31
0.0
0
LINE
8
0
6
CONTINUOUS
10
-18.191365
20
172.702940
30
0.0
11
-21.226625
21
171.806980
31
0.0
0
LINE
8
0
6
CONTINUOUS
10
-5.380085
20
181.743580
30
0.0
11
-5.880565
21
181.725690
31
0.0
0
LINE
8
0
6
CONTINUOUS
10
-3.914065
20
184.527930
30
0.0
11
-3.964225
21
184.409980
31
0.0
0
LINE
8
0
6
CONTINUOUS
10
-3.093665
20
187.375640
30
0.0
11
-3.914065
21
184.527930
31
0.0
0
LINE
8
0
6
CONTINUOUS
10
-3.914065
20
184.527930
30
0.0
11
-3.954655
21
184.396360
31
0.0
0
LINE
8
0
6
CONTINUOUS
10
-3.964225
20
184.409980
30
0.0
11
-3.093665
21
187.375640
31
0.0
0
LINE
8
0
6
CONTINUOUS
10
-5.880565
20
181.725690
30
0.0
11
-6.348885
21
182.431750
31
0.0
0
LINE
8
0
6
CONTINUOUS
10
-2.677015
20
191.066470
30
0.0
11
-3.093665
21
187.375640
31
0.0
0
LINE
8
0
6
CONTINUOUS
10
-2.988395
20
194.767680
30
0.0
11
-2.677015
21
191.066470
31
0.0
0
LINE
8
0
6
CONTINUOUS
10
-8.416885
20
177.749400
30
0.0
11
-11.321455
21
175.434300
31
0.0
0
LINE
8
0
6
CONTINUOUS
10
-6.019855
20
180.586660
30
0.0
11
-8.416885
21
177.749400
31
0.0
0
LINE
8
0
6
CONTINUOUS
10
-5.720075
20
201.637420
30
0.0
11
-4.015925
21
198.337020
31
0.0
0
LINE
8
0
6
CONTINUOUS
10
-4.015925
20
198.337020
30
0.0
11
-2.988395
21
194.767680
31
0.0
0
LINE
8
0
6
CONTINUOUS
10
-4.102365
20
184.129180
30
0.0
11
-3.954655
21
184.396360
31
0.0
0
LINE
8
0
6
CONTINUOUS
10
-3.093665
20
187.375640
30
0.0
11
-4.222425
21
183.837050
31
0.0
0
LINE
8
0
6
CONTINUOUS
10
-21.772605
20
210.797960
30
0.0
11
-23.198075
21
210.678100
31
0.0
0
LINE
8
0
6
CONTINUOUS
10
-21.094935
20
210.854950
30
0.0
11
-21.772605
21
210.797960
31
0.0
0
LINE
8
0
6
CONTINUOUS
10
-3.964225
20
184.409980
30
0.0
11
-4.222425
21
183.837050
31
0.0
0
LINE
8
0
6
CONTINUOUS
10
-12.355975
20
-282.499960
30
0.0
11
-11.355925
21
-282.499960
31
0.0
0
LINE
8
0
6
CONTINUOUS
10
40.568835
20
-334.500010
30
0.0
11
40.568835
21
-333.945850
31
0.0
0
LINE
8
0
6
CONTINUOUS
10
-32.457005
20
-333.945850
30
0.0
11
-32.457005
21
-334.500010
31
0.0
0
LINE
8
0
6
CONTINUOUS
10
-21.456445
20
-334.500010
30
0.0
11
-24.256595
21
-334.500010
31
0.0
0
LINE
8
0
6
CONTINUOUS
10
-24.256595
20
-334.500010
30
0.0
11
-26.956715
21
-334.500010
31
0.0
0
LINE
8
0
6
CONTINUOUS
10
-26.956715
20
-334.500010
30
0.0
11
-29.256845
21
-334.500010
31
0.0
0
LINE
8
0
6
CONTINUOUS
10
-29.256845
20
-334.500010
30
0.0
11
-30.956925
21
-334.500010
31
0.0
0
LINE
8
0
6
CONTINUOUS
10
-30.956925
20
-334.500010
30
0.0
11
-32.056975
21
-334.500010
31
0.0
0
LINE
8
0
6
CONTINUOUS
10
-32.056975
20
-334.500010
30
0.0
11
-32.457005
21
-334.500010
31
0.0
0
LINE
8
0
6
CONTINUOUS
10
-24.256595
20
334.500010
30
0.0
11
-21.456445
21
334.500010
31
0.0
0
LINE
8
0
6
CONTINUOUS
10
-26.956715
20
334.500010
30
0.0
11
-24.256595
21
334.500010
31
0.0
0
LINE
8
0
6
CONTINUOUS
10
-29.256845
20
334.500010
30
0.0
11
-26.956715
21
334.500010
31
0.0
0
LINE
8
0
6
CONTINUOUS
10
-30.956925
20
334.500010
30
0.0
11
-29.256845
21
334.500010
31
0.0
0
LINE
8
0
6
CONTINUOUS
10
-32.056975
20
334.500010
30
0.0
11
-30.956925
21
334.500010
31
0.0
0
LINE
8
0
6
CONTINUOUS
10
-32.457005
20
334.500010
30
0.0
11
-32.056975
21
334.500010
31
0.0
0
LINE
8
0
6
CONTINUOUS
10
-32.457005
20
333.791690
30
0.0
11
-32.457005
21
334.500010
31
0.0
0
LINE
8
0
6
CONTINUOUS
10
-24.156585
20
-282.499960
30
0.0
11
-21.456445
21
-282.499960
31
0.0
0
LINE
8
0
6
CONTINUOUS
10
-26.656715
20
-282.499960
30
0.0
11
-24.156585
21
-282.499960
31
0.0
0
LINE
8
0
6
CONTINUOUS
10
-28.856815
20
-282.499960
30
0.0
11
-26.656715
21
-282.499960
31
0.0
0
LINE
8
0
6
CONTINUOUS
10
-30.556905
20
-282.499960
30
0.0
11
-28.856815
21
-282.499960
31
0.0
0
LINE
8
0
6
CONTINUOUS
10
-31.556955
20
-282.499960
30
0.0
11
-30.556905
21
-282.499960
31
0.0
0
LINE
8
0
6
CONTINUOUS
10
-32.457005
20
-282.000010
30
0.0
11
-31.956965
21
-282.499960
31
0.0
0
LINE
8
0
6
CONTINUOUS
10
-31.956965
20
-282.499960
30
0.0
11
-31.556955
21
-282.499960
31
0.0
0
LINE
8
0
6
CONTINUOUS
10
-32.457005
20
282.000010
30
0.0
11
-32.457005
21
281.686890
31
0.0
0
LINE
8
0
6
CONTINUOUS
10
-31.956965
20
282.500040
30
0.0
11
-32.457005
21
282.000010
31
0.0
0
LINE
8
0
6
CONTINUOUS
10
-21.456445
20
-282.499960
30
0.0
11
-18.756295
21
-282.499960
31
0.0
0
LINE
8
0
6
CONTINUOUS
10
-18.756295
20
-282.499960
30
0.0
11
-16.256175
21
-282.499960
31
0.0
0
LINE
8
0
6
CONTINUOUS
10
-16.256175
20
-282.499960
30
0.0
11
-14.056065
21
-282.499960
31
0.0
0
LINE
8
0
6
CONTINUOUS
10
-14.056065
20
-282.499960
30
0.0
11
-12.355975
21
-282.499960
31
0.0
0
LINE
8
0
6
CONTINUOUS
10
-11.355925
20
-282.499960
30
0.0
11
-10.955915
21
-282.499960
31
0.0
0
LINE
8
0
6
CONTINUOUS
10
-10.455875
20
282.000010
30
0.0
11
-10.955915
21
282.500040
31
0.0
0
LINE
8
0
6
CONTINUOUS
10
-10.455875
20
-282.000010
30
0.0
11
-10.955915
21
-282.499960
31
0.0
0
LINE
8
0
6
CONTINUOUS
10
-10.955915
20
-282.499960
30
0.0
11
-11.355925
21
-282.499960
31
0.0
0
LINE
8
0
6
CONTINUOUS
10
-10.455875
20
282.000010
30
0.0
11
-10.455875
21
281.686890
31
0.0
0
LINE
8
0
6
CONTINUOUS
10
-24.256595
20
282.500040
30
0.0
11
-21.456445
21
282.500040
31
0.0
0
LINE
8
0
6
CONTINUOUS
10
-26.956715
20
282.500040
30
0.0
11
-24.256595
21
282.500040
31
0.0
0
LINE
8
0
6
CONTINUOUS
10
-29.256845
20
282.500040
30
0.0
11
-26.956715
21
282.500040
31
0.0
0
LINE
8
0
6
CONTINUOUS
10
-30.956925
20
282.500040
30
0.0
11
-29.256845
21
282.500040
31
0.0
0
LINE
8
0
6
CONTINUOUS
10
-32.056975
20
282.500040
30
0.0
11
-30.956925
21
282.500040
31
0.0
0
LINE
8
0
6
CONTINUOUS
10
-32.457005
20
282.500040
30
0.0
11
-32.056975
21
282.500040
31
0.0
0
LINE
8
0
6
CONTINUOUS
10
-32.457005
20
282.500040
30
0.0
11
-32.457005
21
283.207740
31
0.0
0
LINE
8
0
6
CONTINUOUS
10
-32.457005
20
283.207740
30
0.0
11
-32.457005
21
333.791690
31
0.0
0
LINE
8
0
6
CONTINUOUS
10
40.068815
20
334.500010
30
0.0
11
40.568835
21
334.500010
31
0.0
0
LINE
8
0
6
CONTINUOUS
10
-21.456445
20
282.500040
30
0.0
11
40.068815
21
282.500040
31
0.0
0
LINE
8
0
6
CONTINUOUS
10
-32.457005
20
281.686890
30
0.0
11
-32.457005
21
281.145060
31
0.0
0
LINE
8
0
6
CONTINUOUS
10
-10.455875
20
281.686890
30
0.0
11
-10.455875
21
281.145060
31
0.0
0
LINE
8
0
6
CONTINUOUS
10
-24.156585
20
-282.499960
30
0.0
11
-21.456445
21
-282.499960
31
0.0
0
LINE
8
0
6
CONTINUOUS
10
-26.656715
20
-282.499960
30
0.0
11
-24.156585
21
-282.499960
31
0.0
0
LINE
8
0
6
CONTINUOUS
10
-28.856815
20
-282.499960
30
0.0
11
-26.656715
21
-282.499960
31
0.0
0
LINE
8
0
6
CONTINUOUS
10
-30.556905
20
-282.499960
30
0.0
11
-28.856815
21
-282.499960
31
0.0
0
LINE
8
0
6
CONTINUOUS
10
-31.556955
20
-282.499960
30
0.0
11
-30.556905
21
-282.499960
31
0.0
0
LINE
8
0
6
CONTINUOUS
10
-30.556905
20
-282.499960
30
0.0
11
-31.556955
21
-282.499960
31
0.0
0
LINE
8
0
6
CONTINUOUS
10
40.568835
20
-282.499960
30
0.0
11
40.068815
21
-282.499960
31
0.0
0
LINE
8
0
6
CONTINUOUS
10
40.568835
20
-283.054130
30
0.0
11
40.568835
21
-282.499960
31
0.0
0
LINE
8
0
6
CONTINUOUS
10
40.568835
20
-333.945850
30
0.0
11
40.568835
21
-283.054130
31
0.0
0
LINE
8
0
6
CONTINUOUS
10
-21.456445
20
-282.499960
30
0.0
11
-24.256595
21
-282.499960
31
0.0
0
LINE
8
0
6
CONTINUOUS
10
-24.256595
20
-282.499960
30
0.0
11
-26.956715
21
-282.499960
31
0.0
0
LINE
8
0
6
CONTINUOUS
10
-26.956715
20
-282.499960
30
0.0
11
-29.256845
21
-282.499960
31
0.0
0
LINE
8
0
6
CONTINUOUS
10
-29.256845
20
-282.499960
30
0.0
11
-30.956925
21
-282.499960
31
0.0
0
LINE
8
0
6
CONTINUOUS
10
-30.956925
20
-282.499960
30
0.0
11
-32.056975
21
-282.499960
31
0.0
0
LINE
8
0
6
CONTINUOUS
10
-32.056975
20
-282.499960
30
0.0
11
-32.457005
21
-282.499960
31
0.0
0
LINE
8
0
6
CONTINUOUS
10
-32.457005
20
-282.499960
30
0.0
11
-32.457005
21
-283.054130
31
0.0
0
LINE
8
0
6
CONTINUOUS
10
-32.457005
20
-283.054130
30
0.0
11
-32.457005
21
-333.945850
31
0.0
0
LINE
8
0
6
CONTINUOUS
10
40.068815
20
-334.500010
30
0.0
11
-21.456445
21
-334.500010
31
0.0
0
LINE
8
0
6
CONTINUOUS
10
-21.456445
20
-282.499960
30
0.0
11
40.068815
21
-282.499960
31
0.0
0
LINE
8
0
6
CONTINUOUS
10
40.568835
20
-334.500010
30
0.0
11
40.068815
21
-334.500010
31
0.0
0
LINE
8
0
6
CONTINUOUS
10
-32.457005
20
-282.000010
30
0.0
11
-32.457005
21
-281.785700
31
0.0
0
LINE
8
0
6
CONTINUOUS
10
-10.455875
20
-282.000010
30
0.0
11
-10.455875
21
-281.785700
31
0.0
0
LINE
8
0
6
CONTINUOUS
10
-32.457005
20
281.145060
30
0.0
11
-32.457005
21
206.814857
31
0.0
0
LINE
8
0
6
CONTINUOUS
10
-32.457005
20
175.805694
30
0.0
11
-32.457005
21
-281.205750
31
0.0
0
LINE
8
0
6
CONTINUOUS
10
-10.455875
20
281.145060
30
0.0
11
-10.455875
21
206.586716
31
0.0
0
LINE
8
0
6
CONTINUOUS
10
-10.455875
20
176.124220
30
0.0
11
-10.455875
21
-281.205750
31
0.0
0
LINE
8
0
6
CONTINUOUS
10
-32.457005
20
-281.205750
30
0.0
11
-32.457005
21
-281.785700
31
0.0
0
LINE
8
0
6
CONTINUOUS
10
-10.455875
20
-281.205750
30
0.0
11
-10.455875
21
-281.785700
31
0.0
0
LINE
8
0
6
CONTINUOUS
10
-21.456445
20
334.500010
30
0.0
11
40.068815
21
334.500010
31
0.0
0
LINE
8
0
6
CONTINUOUS
10
40.568835
20
283.207740
30
0.0
11
40.568835
21
282.500040
31
0.0
0
LINE
8
0
6
CONTINUOUS
10
40.568835
20
334.500010
30
0.0
11
40.568835
21
333.791690
31
0.0
0
LINE
8
0
6
CONTINUOUS
10
40.568835
20
333.791690
30
0.0
11
40.568835
21
283.207740
31
0.0
0
LINE
8
0
6
CONTINUOUS
10
40.568835
20
282.500040
30
0.0
11
40.068815
21
282.500040
31
0.0
0
ENDSEC
0
EOF
