999
Erzeugt mit innoplus bad 
0
SECTION
2
HEADER
9
$ACADVER
1
AC1009
9
$DWGCODEPAGE
3
ISO8859-1
0
ENDSEC
0
SECTION
2
TABLES
0
TABLE
2
LAYER
70
1
0
LAYER
2
0
70
0
62
7
6
CONTINUOUS
0
ENDTAB
0
ENDSEC
0
SECTION
2
ENTITIES
0
LINE
8
0
6
CONTINUOUS
10
24.678360
20
202.087020
30
0.0
11
28.272610
21
199.022480
31
0.0
0
LINE
8
0
6
CONTINUOUS
10
33.000440
20
198.318250
30
0.0
11
37.456770
21
199.689330
31
0.0
0
LINE
8
0
6
CONTINUOUS
10
21.303800
20
206.846270
30
0.0
11
22.384240
21
204.531210
31
0.0
0
LINE
8
0
6
CONTINUOUS
10
37.456770
20
199.689330
30
0.0
11
39.133700
21
200.972550
31
0.0
0
LINE
8
0
6
CONTINUOUS
10
28.272610
20
199.022480
30
0.0
11
33.000440
21
198.318250
31
0.0
0
LINE
8
0
6
CONTINUOUS
10
39.133700
20
200.972550
30
0.0
11
41.326600
21
200.947950
31
0.0
0
LINE
8
0
6
CONTINUOUS
10
41.326610
20
187.906030
30
0.0
11
41.326610
21
191.607240
31
0.0
0
LINE
8
0
6
CONTINUOUS
10
24.678360
20
202.087020
30
0.0
11
22.097180
21
204.924310
31
0.0
0
LINE
8
0
6
CONTINUOUS
10
41.326610
20
181.036300
30
0.0
11
41.326610
21
184.336660
31
0.0
0
LINE
8
0
6
CONTINUOUS
10
41.326610
20
184.336660
30
0.0
11
41.326610
21
187.906030
31
0.0
0
LINE
8
0
6
CONTINUOUS
10
41.326600
20
195.298080
30
0.0
11
41.326600
21
198.836630
31
0.0
0
LINE
8
0
6
CONTINUOUS
10
41.326600
20
198.836630
30
0.0
11
41.326610
21
200.930140
31
0.0
0
LINE
8
0
6
CONTINUOUS
10
-19.161570
20
210.281980
30
0.0
11
-19.481320
21
210.281980
31
0.0
0
LINE
8
0
6
CONTINUOUS
10
41.326600
20
209.632110
30
0.0
11
41.326600
21
210.081520
31
0.0
0
LINE
8
0
6
CONTINUOUS
10
37.820990
20
210.854950
30
0.0
11
33.252500
21
210.685800
31
0.0
0
LINE
8
0
6
CONTINUOUS
10
28.238690
20
210.735590
30
0.0
11
33.252580
21
210.702550
31
0.0
0
LINE
8
0
6
CONTINUOUS
10
28.238690
20
210.735590
30
0.0
11
24.678360
21
210.281980
31
0.0
0
LINE
8
0
6
CONTINUOUS
10
41.326600
20
204.560890
30
0.0
11
41.326600
21
206.952970
31
0.0
0
LINE
8
0
6
CONTINUOUS
10
41.326600
20
201.831850
30
0.0
11
41.326600
21
204.560890
31
0.0
0
LINE
8
0
6
CONTINUOUS
10
41.326600
20
208.916090
30
0.0
11
41.326600
21
209.632110
31
0.0
0
LINE
8
0
6
CONTINUOUS
10
41.326600
20
206.952970
30
0.0
11
41.326600
21
208.916090
31
0.0
0
LINE
8
0
6
CONTINUOUS
10
37.934030
20
210.797960
30
0.0
11
33.252580
21
210.702550
31
0.0
0
LINE
8
0
6
CONTINUOUS
10
41.326600
20
210.281980
30
0.0
11
40.926040
21
210.281980
31
0.0
0
LINE
8
0
6
CONTINUOUS
10
41.326600
20
210.081520
30
0.0
11
41.326600
21
210.281980
31
0.0
0
LINE
8
0
6
CONTINUOUS
10
41.326600
20
210.081520
30
0.0
11
39.547440
21
210.678100
31
0.0
0
LINE
8
0
6
CONTINUOUS
10
24.678360
20
210.281980
30
0.0
11
11.896810
21
210.281980
31
0.0
0
LINE
8
0
6
CONTINUOUS
10
-10.103190
20
210.281980
30
0.0
11
-19.161570
21
210.281980
31
0.0
0
LINE
8
0
6
CONTINUOUS
10
-19.161570
20
172.391660
30
0.0
11
-19.481320
21
172.391660
31
0.0
0
LINE
8
0
6
CONTINUOUS
10
37.764560
20
172.391700
30
0.0
11
33.148890
21
171.718400
31
0.0
0
LINE
8
0
6
CONTINUOUS
10
28.239860
20
171.725690
30
0.0
11
33.148960
21
171.701660
31
0.0
0
LINE
8
0
6
CONTINUOUS
10
28.239860
20
171.725690
30
0.0
11
24.678360
21
172.391660
31
0.0
0
LINE
8
0
6
CONTINUOUS
10
41.326610
20
172.808450
30
0.0
11
41.326610
21
173.937260
31
0.0
0
LINE
8
0
6
CONTINUOUS
10
41.326610
20
173.937260
30
0.0
11
41.326610
21
175.734750
31
0.0
0
LINE
8
0
6
CONTINUOUS
10
41.326610
20
178.131750
30
0.0
11
41.326610
21
181.036300
31
0.0
0
LINE
8
0
6
CONTINUOUS
10
41.326610
20
175.734750
30
0.0
11
41.326610
21
178.131750
31
0.0
0
LINE
8
0
6
CONTINUOUS
10
41.326610
20
172.391700
30
0.0
11
41.326610
21
172.808450
31
0.0
0
LINE
8
0
6
CONTINUOUS
10
41.326610
20
172.391700
30
0.0
11
40.926040
21
172.391700
31
0.0
0
LINE
8
0
6
CONTINUOUS
10
24.678360
20
172.391660
30
0.0
11
11.896810
21
172.391660
31
0.0
0
LINE
8
0
6
CONTINUOUS
10
-10.103190
20
172.391660
30
0.0
11
-19.161570
21
172.391660
31
0.0
0
LINE
8
0
6
CONTINUOUS
10
37.934030
20
210.797960
30
0.0
11
39.547440
21
210.678100
31
0.0
0
LINE
8
0
6
CONTINUOUS
10
40.926040
20
172.391700
30
0.0
11
37.764560
21
172.391700
31
0.0
0
LINE
8
0
6
CONTINUOUS
10
-19.481320
20
191.607210
30
0.0
11
-19.481320
21
195.298080
31
0.0
0
LINE
8
0
6
CONTINUOUS
10
-19.481320
20
195.298080
30
0.0
11
-19.481320
21
198.836630
31
0.0
0
LINE
8
0
6
CONTINUOUS
10
-19.481320
20
181.036300
30
0.0
11
-19.481320
21
184.336660
31
0.0
0
LINE
8
0
6
CONTINUOUS
10
-19.481320
20
187.906030
30
0.0
11
-19.481320
21
191.607210
31
0.0
0
LINE
8
0
6
CONTINUOUS
10
-19.481320
20
204.924310
30
0.0
11
-19.481320
21
207.239380
31
0.0
0
LINE
8
0
6
CONTINUOUS
10
-19.481320
20
172.808490
30
0.0
11
-19.481320
21
173.937260
31
0.0
0
LINE
8
0
6
CONTINUOUS
10
-19.481320
20
198.836630
30
0.0
11
-19.481320
21
202.087020
31
0.0
0
LINE
8
0
6
CONTINUOUS
10
-19.481320
20
184.336660
30
0.0
11
-19.481320
21
187.906030
31
0.0
0
LINE
8
0
6
CONTINUOUS
10
-19.481320
20
178.131790
30
0.0
11
-19.481320
21
181.036300
31
0.0
0
LINE
8
0
6
CONTINUOUS
10
-19.481320
20
207.239380
30
0.0
11
-19.481320
21
208.943400
31
0.0
0
LINE
8
0
6
CONTINUOUS
10
-19.481320
20
209.970700
30
0.0
11
-19.481320
21
210.281980
31
0.0
0
LINE
8
0
6
CONTINUOUS
10
-19.481320
20
202.087020
30
0.0
11
-19.481320
21
204.924310
31
0.0
0
LINE
8
0
6
CONTINUOUS
10
-19.481320
20
172.391660
30
0.0
11
-19.481320
21
172.808490
31
0.0
0
LINE
8
0
6
CONTINUOUS
10
-19.481320
20
175.734750
30
0.0
11
-19.481320
21
178.131790
31
0.0
0
LINE
8
0
6
CONTINUOUS
10
-19.481320
20
173.937260
30
0.0
11
-19.481320
21
175.734750
31
0.0
0
LINE
8
0
6
CONTINUOUS
10
-19.481320
20
208.943400
30
0.0
11
-19.481320
21
209.970700
31
0.0
0
LINE
8
0
6
CONTINUOUS
10
-40.613960
20
172.464560
30
0.0
11
-41.326610
21
172.464560
31
0.0
0
LINE
8
0
6
CONTINUOUS
10
-40.613960
20
172.464560
30
0.0
11
-20.353230
21
172.464520
31
0.0
0
LINE
8
0
6
CONTINUOUS
10
-24.859950
20
210.209279
30
0.0
11
-20.353190
21
210.209270
31
0.0
0
LINE
8
0
6
CONTINUOUS
10
-20.353230
20
172.464520
30
0.0
11
-20.062610
21
172.464520
31
0.0
0
LINE
8
0
6
CONTINUOUS
10
-20.353190
20
210.209270
30
0.0
11
-20.062560
21
210.209270
31
0.0
0
LINE
8
0
6
CONTINUOUS
10
-41.326610
20
172.464560
30
0.0
11
-41.326610
21
173.107640
31
0.0
0
LINE
8
0
6
CONTINUOUS
10
-41.326610
20
173.107640
30
0.0
11
-41.326610
21
174.992980
31
0.0
0
LINE
8
0
6
CONTINUOUS
10
-41.326610
20
174.992980
30
0.0
11
-41.326610
21
177.992170
31
0.0
0
LINE
8
0
6
CONTINUOUS
10
-41.326610
20
177.992170
30
0.0
11
-41.326610
21
181.900710
31
0.0
0
LINE
8
0
6
CONTINUOUS
10
-41.326610
20
181.900710
30
0.0
11
-41.326600
21
186.452370
31
0.0
0
LINE
8
0
6
CONTINUOUS
10
-41.326600
20
186.452370
30
0.0
11
-41.326600
21
191.336930
31
0.0
0
LINE
8
0
6
CONTINUOUS
10
-41.326600
20
191.336930
30
0.0
11
-41.326600
21
196.221430
31
0.0
0
LINE
8
0
6
CONTINUOUS
10
-41.326600
20
196.221430
30
0.0
11
-41.326590
21
200.773080
31
0.0
0
LINE
8
0
6
CONTINUOUS
10
-41.326590
20
200.773080
30
0.0
11
-41.326590
21
204.681660
31
0.0
0
LINE
8
0
6
CONTINUOUS
10
-41.326590
20
204.681660
30
0.0
11
-41.326580
21
207.680850
31
0.0
0
LINE
8
0
6
CONTINUOUS
10
-41.326580
20
207.680850
30
0.0
11
-41.326580
21
209.566230
31
0.0
0
LINE
8
0
6
CONTINUOUS
10
-41.326580
20
209.566230
30
0.0
11
-41.326580
21
210.209310
31
0.0
0
LINE
8
0
6
CONTINUOUS
10
-40.412670
20
218.504520
30
0.0
11
-40.525870
21
218.510740
31
0.0
0
LINE
8
0
6
CONTINUOUS
10
-40.412670
20
218.504520
30
0.0
11
-24.972370
21
218.518220
31
0.0
0
LINE
8
0
6
CONTINUOUS
10
-24.859950
20
206.640780
30
0.0
11
-24.859950
21
214.524230
31
0.0
0
LINE
8
0
6
CONTINUOUS
10
-24.972370
20
218.518220
30
0.0
11
-24.859950
21
218.518410
31
0.0
0
LINE
8
0
6
CONTINUOUS
10
-40.525870
20
218.510740
30
0.0
11
-40.549350
21
218.468590
31
0.0
0
LINE
8
0
6
CONTINUOUS
10
-40.549350
20
218.468590
30
0.0
11
-40.582930
21
218.225670
31
0.0
0
LINE
8
0
6
CONTINUOUS
10
-40.582930
20
218.225670
30
0.0
11
-40.624380
21
217.798230
31
0.0
0
LINE
8
0
6
CONTINUOUS
10
-40.624380
20
217.798230
30
0.0
11
-40.670840
21
217.215730
31
0.0
0
LINE
8
0
6
CONTINUOUS
10
-40.670840
20
217.215730
30
0.0
11
-40.719160
21
216.517710
31
0.0
0
LINE
8
0
6
CONTINUOUS
10
-41.266100
20
208.647310
30
0.0
11
-40.719160
21
216.517710
31
0.0
0
LINE
8
0
6
CONTINUOUS
10
-24.859950
20
215.291330
30
0.0
11
-24.859950
21
214.524230
31
0.0
0
LINE
8
0
6
CONTINUOUS
10
-24.859950
20
216.074370
30
0.0
11
-24.859950
21
215.291330
31
0.0
0
LINE
8
0
6
CONTINUOUS
10
-24.859950
20
216.819720
30
0.0
11
-24.859950
21
216.074370
31
0.0
0
LINE
8
0
6
CONTINUOUS
10
-24.859950
20
217.476920
30
0.0
11
-24.859950
21
216.819720
31
0.0
0
LINE
8
0
6
CONTINUOUS
10
-24.859950
20
218.000980
30
0.0
11
-24.859950
21
217.476920
31
0.0
0
LINE
8
0
6
CONTINUOUS
10
-24.859950
20
218.356240
30
0.0
11
-24.859950
21
218.000980
31
0.0
0
LINE
8
0
6
CONTINUOUS
10
-24.859950
20
218.518410
30
0.0
11
-24.859950
21
218.356240
31
0.0
0
LINE
8
0
6
CONTINUOUS
10
-20.062610
20
173.107560
30
0.0
11
-20.062610
21
172.464520
31
0.0
0
LINE
8
0
6
CONTINUOUS
10
-20.062610
20
174.992980
30
0.0
11
-20.062610
21
173.107560
31
0.0
0
LINE
8
0
6
CONTINUOUS
10
-20.062600
20
177.992170
30
0.0
11
-20.062610
21
174.992980
31
0.0
0
LINE
8
0
6
CONTINUOUS
10
-20.062590
20
181.900710
30
0.0
11
-20.062600
21
177.992170
31
0.0
0
LINE
8
0
6
CONTINUOUS
10
-20.062580
20
186.452330
30
0.0
11
-20.062590
21
181.900710
31
0.0
0
LINE
8
0
6
CONTINUOUS
10
-20.062580
20
191.336930
30
0.0
11
-20.062580
21
186.452330
31
0.0
0
LINE
8
0
6
CONTINUOUS
10
-20.062580
20
196.221430
30
0.0
11
-20.062580
21
191.336930
31
0.0
0
LINE
8
0
6
CONTINUOUS
10
-20.062570
20
200.773050
30
0.0
11
-20.062580
21
196.221430
31
0.0
0
LINE
8
0
6
CONTINUOUS
10
-20.062570
20
204.681660
30
0.0
11
-20.062570
21
200.773050
31
0.0
0
LINE
8
0
6
CONTINUOUS
10
-20.062560
20
209.566190
30
0.0
11
-20.062560
21
207.680850
31
0.0
0
LINE
8
0
6
CONTINUOUS
10
-20.062560
20
210.209270
30
0.0
11
-20.062560
21
209.566190
31
0.0
0
LINE
8
0
6
CONTINUOUS
10
-1.903190
20
-282.499960
30
0.0
11
0.896810
21
-282.499960
31
0.0
0
LINE
8
0
6
CONTINUOUS
10
6.096810
20
-282.499960
30
0.0
11
3.596810
21
-282.499960
31
0.0
0
LINE
8
0
6
CONTINUOUS
10
-10.103190
20
-333.945850
30
0.0
11
-10.103190
21
-334.500010
31
0.0
0
LINE
8
0
6
CONTINUOUS
10
-9.703190
20
-334.500010
30
0.0
11
-10.103190
21
-334.500010
31
0.0
0
LINE
8
0
6
CONTINUOUS
10
-8.603190
20
-334.500010
30
0.0
11
-9.703190
21
-334.500010
31
0.0
0
LINE
8
0
6
CONTINUOUS
10
-6.903190
20
-334.500010
30
0.0
11
-8.603190
21
-334.500010
31
0.0
0
LINE
8
0
6
CONTINUOUS
10
-4.603190
20
-334.500010
30
0.0
11
-6.903190
21
-334.500010
31
0.0
0
LINE
8
0
6
CONTINUOUS
10
-1.903190
20
-334.500010
30
0.0
11
-4.603190
21
-334.500010
31
0.0
0
LINE
8
0
6
CONTINUOUS
10
0.896810
20
-334.500010
30
0.0
11
-1.903190
21
-334.500010
31
0.0
0
LINE
8
0
6
CONTINUOUS
10
-1.903190
20
-282.499960
30
0.0
11
-4.603190
21
-282.499960
31
0.0
0
LINE
8
0
6
CONTINUOUS
10
-4.603190
20
-282.499960
30
0.0
11
-6.903190
21
-282.499960
31
0.0
0
LINE
8
0
6
CONTINUOUS
10
-8.603190
20
-282.499960
30
0.0
11
-9.703190
21
-282.499960
31
0.0
0
LINE
8
0
6
CONTINUOUS
10
11.896810
20
-334.500010
30
0.0
11
11.496810
21
-334.500010
31
0.0
0
LINE
8
0
6
CONTINUOUS
10
11.496810
20
-334.500010
30
0.0
11
10.396810
21
-334.500010
31
0.0
0
LINE
8
0
6
CONTINUOUS
10
10.396810
20
-334.500010
30
0.0
11
8.696810
21
-334.500010
31
0.0
0
LINE
8
0
6
CONTINUOUS
10
8.696810
20
-334.500010
30
0.0
11
6.396810
21
-334.500010
31
0.0
0
LINE
8
0
6
CONTINUOUS
10
6.396810
20
-334.500010
30
0.0
11
3.696810
21
-334.500010
31
0.0
0
LINE
8
0
6
CONTINUOUS
10
3.696810
20
-334.500010
30
0.0
11
0.896810
21
-334.500010
31
0.0
0
LINE
8
0
6
CONTINUOUS
10
-9.703190
20
-282.499960
30
0.0
11
-10.103190
21
-282.499960
31
0.0
0
LINE
8
0
6
CONTINUOUS
10
-10.103190
20
-283.054130
30
0.0
11
-10.103190
21
-282.499960
31
0.0
0
LINE
8
0
6
CONTINUOUS
10
-10.103190
20
-333.945850
30
0.0
11
-10.103190
21
-283.054130
31
0.0
0
LINE
8
0
6
CONTINUOUS
10
-6.903190
20
-282.499960
30
0.0
11
-8.603190
21
-282.499960
31
0.0
0
LINE
8
0
6
CONTINUOUS
10
11.496810
20
334.500010
30
0.0
11
11.896810
21
334.500010
31
0.0
0
LINE
8
0
6
CONTINUOUS
10
10.396810
20
334.500010
30
0.0
11
11.496810
21
334.500010
31
0.0
0
LINE
8
0
6
CONTINUOUS
10
8.696810
20
334.500010
30
0.0
11
10.396810
21
334.500010
31
0.0
0
LINE
8
0
6
CONTINUOUS
10
6.396810
20
334.500010
30
0.0
11
8.696810
21
334.500010
31
0.0
0
LINE
8
0
6
CONTINUOUS
10
3.696810
20
334.500010
30
0.0
11
6.396810
21
334.500010
31
0.0
0
LINE
8
0
6
CONTINUOUS
10
0.896810
20
334.500010
30
0.0
11
3.696810
21
334.500010
31
0.0
0
LINE
8
0
6
CONTINUOUS
10
-10.103190
20
334.500010
30
0.0
11
-10.103190
21
333.791690
31
0.0
0
LINE
8
0
6
CONTINUOUS
10
-10.103190
20
334.500010
30
0.0
11
-9.703190
21
334.500010
31
0.0
0
LINE
8
0
6
CONTINUOUS
10
-9.703190
20
334.500010
30
0.0
11
-8.603190
21
334.500010
31
0.0
0
LINE
8
0
6
CONTINUOUS
10
-8.603190
20
334.500010
30
0.0
11
-6.903190
21
334.500010
31
0.0
0
LINE
8
0
6
CONTINUOUS
10
-6.903190
20
334.500010
30
0.0
11
-4.603190
21
334.500010
31
0.0
0
LINE
8
0
6
CONTINUOUS
10
-4.603190
20
334.500010
30
0.0
11
-1.903190
21
334.500010
31
0.0
0
LINE
8
0
6
CONTINUOUS
10
-1.903190
20
334.500010
30
0.0
11
0.896810
21
334.500010
31
0.0
0
LINE
8
0
6
CONTINUOUS
10
-9.603190
20
-282.499960
30
0.0
11
-9.203190
21
-282.499960
31
0.0
0
LINE
8
0
6
CONTINUOUS
10
-9.203190
20
-282.499960
30
0.0
11
-8.203190
21
-282.499960
31
0.0
0
LINE
8
0
6
CONTINUOUS
10
-8.203190
20
-282.499960
30
0.0
11
-6.503190
21
-282.499960
31
0.0
0
LINE
8
0
6
CONTINUOUS
10
-6.503190
20
-282.499960
30
0.0
11
-4.303190
21
-282.499960
31
0.0
0
LINE
8
0
6
CONTINUOUS
10
-4.303190
20
-282.499960
30
0.0
11
-1.803190
21
-282.499960
31
0.0
0
LINE
8
0
6
CONTINUOUS
10
-1.803190
20
-282.499960
30
0.0
11
0.896810
21
-282.499960
31
0.0
0
LINE
8
0
6
CONTINUOUS
10
10.996810
20
-282.499960
30
0.0
11
11.396810
21
-282.499960
31
0.0
0
LINE
8
0
6
CONTINUOUS
10
9.996810
20
-282.499960
30
0.0
11
10.996810
21
-282.499960
31
0.0
0
LINE
8
0
6
CONTINUOUS
10
8.296810
20
-282.499960
30
0.0
11
9.996810
21
-282.499960
31
0.0
0
LINE
8
0
6
CONTINUOUS
10
6.096810
20
-282.499960
30
0.0
11
8.296810
21
-282.499960
31
0.0
0
LINE
8
0
6
CONTINUOUS
10
3.596810
20
-282.499960
30
0.0
11
6.096810
21
-282.499960
31
0.0
0
LINE
8
0
6
CONTINUOUS
10
0.896810
20
-282.499960
30
0.0
11
3.596810
21
-282.499960
31
0.0
0
LINE
8
0
6
CONTINUOUS
10
11.896810
20
-282.000010
30
0.0
11
11.396810
21
-282.499960
31
0.0
0
LINE
8
0
6
CONTINUOUS
10
11.896810
20
282.000010
30
0.0
11
11.896810
21
281.686890
31
0.0
0
LINE
8
0
6
CONTINUOUS
10
11.396810
20
282.500040
30
0.0
11
11.896810
21
282.000010
31
0.0
0
LINE
8
0
6
CONTINUOUS
10
-9.603190
20
-282.499960
30
0.0
11
-10.103190
21
-282.000010
31
0.0
0
LINE
8
0
6
CONTINUOUS
10
0.896810
20
-282.499960
30
0.0
11
-1.803190
21
-282.499960
31
0.0
0
LINE
8
0
6
CONTINUOUS
10
-10.103190
20
281.686890
30
0.0
11
-10.103190
21
282.000010
31
0.0
0
LINE
8
0
6
CONTINUOUS
10
-10.103190
20
282.000010
30
0.0
11
-9.603190
21
282.500040
31
0.0
0
LINE
8
0
6
CONTINUOUS
10
11.496810
20
282.500040
30
0.0
11
11.896810
21
282.500040
31
0.0
0
LINE
8
0
6
CONTINUOUS
10
10.396810
20
282.500040
30
0.0
11
11.496810
21
282.500040
31
0.0
0
LINE
8
0
6
CONTINUOUS
10
8.696810
20
282.500040
30
0.0
11
10.396810
21
282.500040
31
0.0
0
LINE
8
0
6
CONTINUOUS
10
6.396810
20
282.500040
30
0.0
11
8.696810
21
282.500040
31
0.0
0
LINE
8
0
6
CONTINUOUS
10
3.696810
20
282.500040
30
0.0
11
6.396810
21
282.500040
31
0.0
0
LINE
8
0
6
CONTINUOUS
10
0.896810
20
282.500040
30
0.0
11
3.696810
21
282.500040
31
0.0
0
LINE
8
0
6
CONTINUOUS
10
-10.103190
20
283.207740
30
0.0
11
-10.103190
21
282.500040
31
0.0
0
LINE
8
0
6
CONTINUOUS
10
-10.103190
20
282.500040
30
0.0
11
-9.703190
21
282.500040
31
0.0
0
LINE
8
0
6
CONTINUOUS
10
-10.103190
20
333.791690
30
0.0
11
-10.103190
21
283.207740
31
0.0
0
LINE
8
0
6
CONTINUOUS
10
-9.703190
20
282.500040
30
0.0
11
-8.603190
21
282.500040
31
0.0
0
LINE
8
0
6
CONTINUOUS
10
-8.603190
20
282.500040
30
0.0
11
-6.903190
21
282.500040
31
0.0
0
LINE
8
0
6
CONTINUOUS
10
-6.903190
20
282.500040
30
0.0
11
-4.603190
21
282.500040
31
0.0
0
LINE
8
0
6
CONTINUOUS
10
-4.603190
20
282.500040
30
0.0
11
-1.903190
21
282.500040
31
0.0
0
LINE
8
0
6
CONTINUOUS
10
-1.903190
20
282.500040
30
0.0
11
0.896810
21
282.500040
31
0.0
0
LINE
8
0
6
CONTINUOUS
10
11.896810
20
334.500010
30
0.0
11
11.896810
21
333.791690
31
0.0
0
LINE
8
0
6
CONTINUOUS
10
11.896810
20
283.207740
30
0.0
11
11.896810
21
282.500040
31
0.0
0
LINE
8
0
6
CONTINUOUS
10
11.896810
20
333.791690
30
0.0
11
11.896810
21
283.207740
31
0.0
0
LINE
8
0
6
CONTINUOUS
10
11.896810
20
281.686890
30
0.0
11
11.896810
21
281.145060
31
0.0
0
LINE
8
0
6
CONTINUOUS
10
-10.103190
20
281.145060
30
0.0
11
-10.103190
21
281.686890
31
0.0
0
LINE
8
0
6
CONTINUOUS
10
10.996810
20
-282.499960
30
0.0
11
11.396810
21
-282.499960
31
0.0
0
LINE
8
0
6
CONTINUOUS
10
8.296810
20
-282.499960
30
0.0
11
9.996810
21
-282.499960
31
0.0
0
LINE
8
0
6
CONTINUOUS
10
6.096810
20
-282.499960
30
0.0
11
8.296810
21
-282.499960
31
0.0
0
LINE
8
0
6
CONTINUOUS
10
3.596810
20
-282.499960
30
0.0
11
6.096810
21
-282.499960
31
0.0
0
LINE
8
0
6
CONTINUOUS
10
0.896810
20
-282.499960
30
0.0
11
3.596810
21
-282.499960
31
0.0
0
LINE
8
0
6
CONTINUOUS
10
-1.803190
20
-282.499960
30
0.0
11
0.896810
21
-282.499960
31
0.0
0
LINE
8
0
6
CONTINUOUS
10
-4.303190
20
-282.499960
30
0.0
11
-1.803190
21
-282.499960
31
0.0
0
LINE
8
0
6
CONTINUOUS
10
-6.503190
20
-282.499960
30
0.0
11
-4.303190
21
-282.499960
31
0.0
0
LINE
8
0
6
CONTINUOUS
10
-8.203190
20
-282.499960
30
0.0
11
-6.503190
21
-282.499960
31
0.0
0
LINE
8
0
6
CONTINUOUS
10
-9.203190
20
-282.499960
30
0.0
11
-8.203190
21
-282.499960
31
0.0
0
LINE
8
0
6
CONTINUOUS
10
11.896810
20
-282.499960
30
0.0
11
11.496810
21
-282.499960
31
0.0
0
LINE
8
0
6
CONTINUOUS
10
11.496810
20
-282.499960
30
0.0
11
10.396810
21
-282.499960
31
0.0
0
LINE
8
0
6
CONTINUOUS
10
10.396810
20
-282.499960
30
0.0
11
8.696810
21
-282.499960
31
0.0
0
LINE
8
0
6
CONTINUOUS
10
8.696810
20
-282.499960
30
0.0
11
6.396810
21
-282.499960
31
0.0
0
LINE
8
0
6
CONTINUOUS
10
6.396810
20
-282.499960
30
0.0
11
3.696810
21
-282.499960
31
0.0
0
LINE
8
0
6
CONTINUOUS
10
3.696810
20
-282.499960
30
0.0
11
0.896810
21
-282.499960
31
0.0
0
LINE
8
0
6
CONTINUOUS
10
11.896810
20
-282.499960
30
0.0
11
11.896810
21
-283.054130
31
0.0
0
LINE
8
0
6
CONTINUOUS
10
11.896810
20
-283.054130
30
0.0
11
11.896810
21
-333.945850
31
0.0
0
LINE
8
0
6
CONTINUOUS
10
11.896810
20
-333.945850
30
0.0
11
11.896810
21
-334.500010
31
0.0
0
LINE
8
0
6
CONTINUOUS
10
-10.103190
20
-281.785700
30
0.0
11
-10.103190
21
-282.000010
31
0.0
0
LINE
8
0
6
CONTINUOUS
10
11.896810
20
-281.785700
30
0.0
11
11.896810
21
-282.000010
31
0.0
0
LINE
8
0
6
CONTINUOUS
10
11.896810
20
281.145060
30
0.0
11
11.896810
21
210.281980
31
0.0
0
LINE
8
0
6
CONTINUOUS
10
11.896810
20
172.391660
30
0.0
11
11.896810
21
-281.205750
31
0.0
0
LINE
8
0
6
CONTINUOUS
10
-10.103190
20
-281.205750
30
0.0
11
-10.103190
21
172.391660
31
0.0
0
LINE
8
0
6
CONTINUOUS
10
-10.103190
20
210.281980
30
0.0
11
-10.103190
21
281.145060
31
0.0
0
LINE
8
0
6
CONTINUOUS
10
11.896810
20
-281.205750
30
0.0
11
11.896810
21
-281.785700
31
0.0
0
LINE
8
0
6
CONTINUOUS
10
-10.103190
20
-281.785700
30
0.0
11
-10.103190
21
-281.205750
31
0.0
0
LINE
8
0
6
CONTINUOUS
10
-9.378134
20
209.970700
30
0.0
11
-9.703190
21
210.037803
31
0.0
0
ENDSEC
0
EOF
