999
Erzeugt mit innoplus bad 
0
SECTION
2
HEADER
9
$ACADVER
1
AC1009
9
$DWGCODEPAGE
3
ISO8859-1
0
ENDSEC
0
SECTION
2
TABLES
0
TABLE
2
LAYER
70
1
0
LAYER
2
0
70
0
62
7
6
CONTINUOUS
0
ENDTAB
0
ENDSEC
0
SECTION
2
ENTITIES
0
LINE
8
0
6
CONTINUOUS
10
-40.613960
20
205.341450
30
0.0
11
-41.326610
21
205.341450
31
0.0
0
LINE
8
0
6
CONTINUOUS
10
-40.613960
20
205.341450
30
0.0
11
-20.353230
21
205.341450
31
0.0
0
LINE
8
0
6
CONTINUOUS
10
-24.859950
20
243.086200
30
0.0
11
-20.353180
21
243.086200
31
0.0
0
LINE
8
0
6
CONTINUOUS
10
-20.353230
20
205.341450
30
0.0
11
-20.062600
21
205.341450
31
0.0
0
LINE
8
0
6
CONTINUOUS
10
-20.353180
20
243.086200
30
0.0
11
-20.062560
21
243.086200
31
0.0
0
LINE
8
0
6
CONTINUOUS
10
-41.326610
20
205.341450
30
0.0
11
-41.326610
21
205.984530
31
0.0
0
LINE
8
0
6
CONTINUOUS
10
-41.326610
20
205.984530
30
0.0
11
-41.326610
21
207.869910
31
0.0
0
LINE
8
0
6
CONTINUOUS
10
-41.326610
20
207.869910
30
0.0
11
-41.326610
21
210.869100
31
0.0
0
LINE
8
0
6
CONTINUOUS
10
-41.326600
20
214.777640
30
0.0
11
-41.326590
21
219.329260
31
0.0
0
LINE
8
0
6
CONTINUOUS
10
-41.326590
20
219.329260
30
0.0
11
-41.326590
21
224.213830
31
0.0
0
LINE
8
0
6
CONTINUOUS
10
-41.326590
20
224.213830
30
0.0
11
-41.326590
21
229.098320
31
0.0
0
LINE
8
0
6
CONTINUOUS
10
-41.326590
20
229.098320
30
0.0
11
-41.326580
21
233.650010
31
0.0
0
LINE
8
0
6
CONTINUOUS
10
-41.326580
20
233.650010
30
0.0
11
-41.326580
21
237.558550
31
0.0
0
LINE
8
0
6
CONTINUOUS
10
-41.326580
20
237.558550
30
0.0
11
-41.326580
21
240.557740
31
0.0
0
LINE
8
0
6
CONTINUOUS
10
-41.326580
20
240.557740
30
0.0
11
-41.326580
21
242.443120
31
0.0
0
LINE
8
0
6
CONTINUOUS
10
-41.326580
20
242.443120
30
0.0
11
-41.326580
21
243.086200
31
0.0
0
LINE
8
0
6
CONTINUOUS
10
-40.412670
20
251.381410
30
0.0
11
-40.525870
21
251.387670
31
0.0
0
LINE
8
0
6
CONTINUOUS
10
-40.412670
20
251.381410
30
0.0
11
-24.972370
21
251.395150
31
0.0
0
LINE
8
0
6
CONTINUOUS
10
-24.859950
20
239.517710
30
0.0
11
-24.859950
21
247.401160
31
0.0
0
LINE
8
0
6
CONTINUOUS
10
-24.972370
20
251.395150
30
0.0
11
-24.859950
21
251.395380
31
0.0
0
LINE
8
0
6
CONTINUOUS
10
-40.525870
20
251.387670
30
0.0
11
-40.549340
21
251.345480
31
0.0
0
LINE
8
0
6
CONTINUOUS
10
-40.549340
20
251.345480
30
0.0
11
-40.582920
21
251.102560
31
0.0
0
LINE
8
0
6
CONTINUOUS
10
-40.582920
20
251.102560
30
0.0
11
-40.624380
21
250.675160
31
0.0
0
LINE
8
0
6
CONTINUOUS
10
-40.624380
20
250.675160
30
0.0
11
-40.670830
21
250.092660
31
0.0
0
LINE
8
0
6
CONTINUOUS
10
-40.670830
20
250.092660
30
0.0
11
-40.719160
21
249.394640
31
0.0
0
LINE
8
0
6
CONTINUOUS
10
-41.266100
20
241.524240
30
0.0
11
-40.719160
21
249.394640
31
0.0
0
LINE
8
0
6
CONTINUOUS
10
-24.859950
20
248.168290
30
0.0
11
-24.859950
21
247.401160
31
0.0
0
LINE
8
0
6
CONTINUOUS
10
-24.859950
20
248.951300
30
0.0
11
-24.859950
21
248.168290
31
0.0
0
LINE
8
0
6
CONTINUOUS
10
-24.859950
20
249.696690
30
0.0
11
-24.859950
21
248.951300
31
0.0
0
LINE
8
0
6
CONTINUOUS
10
-24.859950
20
250.353890
30
0.0
11
-24.859950
21
249.696690
31
0.0
0
LINE
8
0
6
CONTINUOUS
10
-24.859950
20
250.877950
30
0.0
11
-24.859950
21
250.353890
31
0.0
0
LINE
8
0
6
CONTINUOUS
10
-24.859950
20
251.233170
30
0.0
11
-24.859950
21
250.877950
31
0.0
0
LINE
8
0
6
CONTINUOUS
10
-24.859950
20
251.395380
30
0.0
11
-24.859950
21
251.233170
31
0.0
0
LINE
8
0
6
CONTINUOUS
10
-20.062600
20
205.984530
30
0.0
11
-20.062600
21
205.341450
31
0.0
0
LINE
8
0
6
CONTINUOUS
10
-20.062600
20
207.869910
30
0.0
11
-20.062600
21
205.984530
31
0.0
0
LINE
8
0
6
CONTINUOUS
10
-20.062590
20
210.869100
30
0.0
11
-20.062600
21
207.869910
31
0.0
0
LINE
8
0
6
CONTINUOUS
10
-20.062590
20
214.777640
30
0.0
11
-20.062590
21
210.869100
31
0.0
0
LINE
8
0
6
CONTINUOUS
10
-20.062580
20
219.329260
30
0.0
11
-20.062590
21
214.777640
31
0.0
0
LINE
8
0
6
CONTINUOUS
10
-20.062580
20
224.213900
30
0.0
11
-20.062580
21
219.329260
31
0.0
0
LINE
8
0
6
CONTINUOUS
10
-20.062580
20
229.098390
30
0.0
11
-20.062580
21
224.213900
31
0.0
0
LINE
8
0
6
CONTINUOUS
10
-20.062570
20
233.650010
30
0.0
11
-20.062580
21
229.098390
31
0.0
0
LINE
8
0
6
CONTINUOUS
10
-20.062560
20
240.557820
30
0.0
11
-20.062560
21
237.558630
31
0.0
0
LINE
8
0
6
CONTINUOUS
10
-20.062560
20
242.443120
30
0.0
11
-20.062560
21
240.557820
31
0.0
0
LINE
8
0
6
CONTINUOUS
10
-20.062560
20
243.086200
30
0.0
11
-20.062560
21
242.443120
31
0.0
0
LINE
8
0
6
CONTINUOUS
10
24.678360
20
234.964030
30
0.0
11
28.272610
21
231.899450
31
0.0
0
LINE
8
0
6
CONTINUOUS
10
33.000440
20
231.195260
30
0.0
11
37.456770
21
232.566340
31
0.0
0
LINE
8
0
6
CONTINUOUS
10
21.303800
20
239.723240
30
0.0
11
22.384240
21
237.408180
31
0.0
0
LINE
8
0
6
CONTINUOUS
10
37.456770
20
232.566340
30
0.0
11
39.133700
21
233.849520
31
0.0
0
LINE
8
0
6
CONTINUOUS
10
28.272610
20
231.899450
30
0.0
11
33.000440
21
231.195260
31
0.0
0
LINE
8
0
6
CONTINUOUS
10
39.133700
20
233.849520
30
0.0
11
41.326600
21
233.824960
31
0.0
0
LINE
8
0
6
CONTINUOUS
10
41.326610
20
220.782960
30
0.0
11
41.326610
21
224.484210
31
0.0
0
LINE
8
0
6
CONTINUOUS
10
24.678360
20
234.964030
30
0.0
11
22.097180
21
237.801240
31
0.0
0
LINE
8
0
6
CONTINUOUS
10
41.326610
20
213.913300
30
0.0
11
41.326610
21
217.213630
31
0.0
0
LINE
8
0
6
CONTINUOUS
10
41.326610
20
217.213630
30
0.0
11
41.326610
21
220.782960
31
0.0
0
LINE
8
0
6
CONTINUOUS
10
41.326600
20
228.175010
30
0.0
11
41.326600
21
231.713600
31
0.0
0
LINE
8
0
6
CONTINUOUS
10
41.326600
20
231.713600
30
0.0
11
41.326610
21
233.807100
31
0.0
0
LINE
8
0
6
CONTINUOUS
10
-19.161570
20
243.158990
30
0.0
11
-19.481320
21
243.158990
31
0.0
0
LINE
8
0
6
CONTINUOUS
10
41.326600
20
242.509110
30
0.0
11
41.326600
21
242.958490
31
0.0
0
LINE
8
0
6
CONTINUOUS
10
37.820990
20
243.731950
30
0.0
11
33.252500
21
243.562730
31
0.0
0
LINE
8
0
6
CONTINUOUS
10
28.238690
20
243.612550
30
0.0
11
33.252580
21
243.579520
31
0.0
0
LINE
8
0
6
CONTINUOUS
10
28.238690
20
243.612550
30
0.0
11
24.678360
21
243.158990
31
0.0
0
LINE
8
0
6
CONTINUOUS
10
41.326600
20
237.437860
30
0.0
11
41.326600
21
239.829980
31
0.0
0
LINE
8
0
6
CONTINUOUS
10
41.326600
20
234.708820
30
0.0
11
41.326600
21
237.437860
31
0.0
0
LINE
8
0
6
CONTINUOUS
10
41.326600
20
241.793100
30
0.0
11
41.326600
21
242.509110
31
0.0
0
LINE
8
0
6
CONTINUOUS
10
41.326600
20
239.829980
30
0.0
11
41.326600
21
241.793100
31
0.0
0
LINE
8
0
6
CONTINUOUS
10
37.934030
20
243.674960
30
0.0
11
33.252580
21
243.579520
31
0.0
0
LINE
8
0
6
CONTINUOUS
10
41.326600
20
243.158990
30
0.0
11
40.926040
21
243.158990
31
0.0
0
LINE
8
0
6
CONTINUOUS
10
41.326600
20
242.958490
30
0.0
11
41.326600
21
243.158990
31
0.0
0
LINE
8
0
6
CONTINUOUS
10
41.326600
20
242.958490
30
0.0
11
39.547440
21
243.555030
31
0.0
0
LINE
8
0
6
CONTINUOUS
10
24.678360
20
243.158990
30
0.0
11
11.896810
21
243.158990
31
0.0
0
LINE
8
0
6
CONTINUOUS
10
-10.103190
20
243.158990
30
0.0
11
-19.161570
21
243.158990
31
0.0
0
LINE
8
0
6
CONTINUOUS
10
-19.161570
20
205.268590
30
0.0
11
-19.481320
21
205.268590
31
0.0
0
LINE
8
0
6
CONTINUOUS
10
37.764560
20
205.268670
30
0.0
11
33.148890
21
204.595370
31
0.0
0
LINE
8
0
6
CONTINUOUS
10
28.239860
20
204.602700
30
0.0
11
33.148960
21
204.578590
31
0.0
0
LINE
8
0
6
CONTINUOUS
10
28.239860
20
204.602700
30
0.0
11
24.678360
21
205.268590
31
0.0
0
LINE
8
0
6
CONTINUOUS
10
41.326610
20
205.685380
30
0.0
11
41.326610
21
206.814230
31
0.0
0
LINE
8
0
6
CONTINUOUS
10
41.326610
20
206.814230
30
0.0
11
41.326610
21
208.611710
31
0.0
0
LINE
8
0
6
CONTINUOUS
10
41.326610
20
211.008720
30
0.0
11
41.326610
21
213.913300
31
0.0
0
LINE
8
0
6
CONTINUOUS
10
41.326610
20
208.611710
30
0.0
11
41.326610
21
211.008720
31
0.0
0
LINE
8
0
6
CONTINUOUS
10
41.326610
20
205.268670
30
0.0
11
41.326610
21
205.685380
31
0.0
0
LINE
8
0
6
CONTINUOUS
10
41.326610
20
205.268670
30
0.0
11
40.926040
21
205.268670
31
0.0
0
LINE
8
0
6
CONTINUOUS
10
24.678360
20
205.268590
30
0.0
11
11.896810
21
205.268590
31
0.0
0
LINE
8
0
6
CONTINUOUS
10
-10.103190
20
205.268590
30
0.0
11
-19.161570
21
205.268590
31
0.0
0
LINE
8
0
6
CONTINUOUS
10
37.934030
20
243.674960
30
0.0
11
39.547440
21
243.555030
31
0.0
0
LINE
8
0
6
CONTINUOUS
10
40.926040
20
205.268670
30
0.0
11
37.764560
21
205.268670
31
0.0
0
LINE
8
0
6
CONTINUOUS
10
-19.481320
20
224.484210
30
0.0
11
-19.481320
21
228.175010
31
0.0
0
LINE
8
0
6
CONTINUOUS
10
-19.481320
20
228.175010
30
0.0
11
-19.481320
21
231.713600
31
0.0
0
LINE
8
0
6
CONTINUOUS
10
-19.481320
20
213.913300
30
0.0
11
-19.481320
21
217.213630
31
0.0
0
LINE
8
0
6
CONTINUOUS
10
-19.481320
20
220.782960
30
0.0
11
-19.481320
21
224.484210
31
0.0
0
LINE
8
0
6
CONTINUOUS
10
-19.481320
20
237.801240
30
0.0
11
-19.481320
21
240.116380
31
0.0
0
LINE
8
0
6
CONTINUOUS
10
-19.481320
20
205.685460
30
0.0
11
-19.481320
21
206.814230
31
0.0
0
LINE
8
0
6
CONTINUOUS
10
-19.481320
20
231.713600
30
0.0
11
-19.481320
21
234.964030
31
0.0
0
LINE
8
0
6
CONTINUOUS
10
-19.481320
20
217.213630
30
0.0
11
-19.481320
21
220.782960
31
0.0
0
LINE
8
0
6
CONTINUOUS
10
-19.481320
20
211.008790
30
0.0
11
-19.481320
21
213.913300
31
0.0
0
LINE
8
0
6
CONTINUOUS
10
-19.481320
20
240.116380
30
0.0
11
-19.481320
21
241.820330
31
0.0
0
LINE
8
0
6
CONTINUOUS
10
-19.481320
20
242.847710
30
0.0
11
-19.481320
21
243.158990
31
0.0
0
LINE
8
0
6
CONTINUOUS
10
-19.481320
20
234.964030
30
0.0
11
-19.481320
21
237.801240
31
0.0
0
LINE
8
0
6
CONTINUOUS
10
-19.481320
20
205.268590
30
0.0
11
-19.481320
21
205.685460
31
0.0
0
LINE
8
0
6
CONTINUOUS
10
-19.481320
20
208.611710
30
0.0
11
-19.481320
21
211.008790
31
0.0
0
LINE
8
0
6
CONTINUOUS
10
-19.481320
20
206.814230
30
0.0
11
-19.481320
21
208.611710
31
0.0
0
LINE
8
0
6
CONTINUOUS
10
-19.481320
20
241.820330
30
0.0
11
-19.481320
21
242.847710
31
0.0
0
LINE
8
0
6
CONTINUOUS
10
-1.903190
20
-427.499960
30
0.0
11
0.896810
21
-427.499960
31
0.0
0
LINE
8
0
6
CONTINUOUS
10
-10.103190
20
-478.945850
30
0.0
11
-10.103190
21
-479.500010
31
0.0
0
LINE
8
0
6
CONTINUOUS
10
-9.703190
20
-479.500010
30
0.0
11
-10.103190
21
-479.500010
31
0.0
0
LINE
8
0
6
CONTINUOUS
10
-8.603190
20
-479.500010
30
0.0
11
-9.703190
21
-479.500010
31
0.0
0
LINE
8
0
6
CONTINUOUS
10
-6.903190
20
-479.500010
30
0.0
11
-8.603190
21
-479.500010
31
0.0
0
LINE
8
0
6
CONTINUOUS
10
-4.603190
20
-479.500010
30
0.0
11
-6.903190
21
-479.500010
31
0.0
0
LINE
8
0
6
CONTINUOUS
10
-1.903190
20
-479.500010
30
0.0
11
-4.603190
21
-479.500010
31
0.0
0
LINE
8
0
6
CONTINUOUS
10
0.896810
20
-479.500010
30
0.0
11
-1.903190
21
-479.500010
31
0.0
0
LINE
8
0
6
CONTINUOUS
10
-1.903190
20
-427.499960
30
0.0
11
-4.603190
21
-427.499960
31
0.0
0
LINE
8
0
6
CONTINUOUS
10
-4.603190
20
-427.499960
30
0.0
11
-6.903190
21
-427.499960
31
0.0
0
LINE
8
0
6
CONTINUOUS
10
-8.603190
20
-427.499960
30
0.0
11
-9.703190
21
-427.499960
31
0.0
0
LINE
8
0
6
CONTINUOUS
10
11.896810
20
-479.500010
30
0.0
11
11.496810
21
-479.500010
31
0.0
0
LINE
8
0
6
CONTINUOUS
10
11.496810
20
-479.500010
30
0.0
11
10.396810
21
-479.500010
31
0.0
0
LINE
8
0
6
CONTINUOUS
10
10.396810
20
-479.500010
30
0.0
11
8.696810
21
-479.500010
31
0.0
0
LINE
8
0
6
CONTINUOUS
10
8.696810
20
-479.500010
30
0.0
11
6.396810
21
-479.500010
31
0.0
0
LINE
8
0
6
CONTINUOUS
10
6.396810
20
-479.500010
30
0.0
11
3.696810
21
-479.500010
31
0.0
0
LINE
8
0
6
CONTINUOUS
10
3.696810
20
-479.500010
30
0.0
11
0.896810
21
-479.500010
31
0.0
0
LINE
8
0
6
CONTINUOUS
10
-9.703190
20
-427.499960
30
0.0
11
-10.103190
21
-427.499960
31
0.0
0
LINE
8
0
6
CONTINUOUS
10
-10.103190
20
-428.054130
30
0.0
11
-10.103190
21
-427.499960
31
0.0
0
LINE
8
0
6
CONTINUOUS
10
-10.103190
20
-478.945850
30
0.0
11
-10.103190
21
-428.054130
31
0.0
0
LINE
8
0
6
CONTINUOUS
10
-6.903190
20
-427.499960
30
0.0
11
-8.603190
21
-427.499960
31
0.0
0
LINE
8
0
6
CONTINUOUS
10
11.496810
20
479.500010
30
0.0
11
11.896810
21
479.500010
31
0.0
0
LINE
8
0
6
CONTINUOUS
10
10.396810
20
479.500010
30
0.0
11
11.496810
21
479.500010
31
0.0
0
LINE
8
0
6
CONTINUOUS
10
8.696810
20
479.500010
30
0.0
11
10.396810
21
479.500010
31
0.0
0
LINE
8
0
6
CONTINUOUS
10
6.396810
20
479.500010
30
0.0
11
8.696810
21
479.500010
31
0.0
0
LINE
8
0
6
CONTINUOUS
10
3.696810
20
479.500010
30
0.0
11
6.396810
21
479.500010
31
0.0
0
LINE
8
0
6
CONTINUOUS
10
0.896810
20
479.500010
30
0.0
11
3.696810
21
479.500010
31
0.0
0
LINE
8
0
6
CONTINUOUS
10
-10.103190
20
479.500010
30
0.0
11
-10.103190
21
478.791690
31
0.0
0
LINE
8
0
6
CONTINUOUS
10
-10.103190
20
479.500010
30
0.0
11
-9.703190
21
479.500010
31
0.0
0
LINE
8
0
6
CONTINUOUS
10
-9.703190
20
479.500010
30
0.0
11
-8.603190
21
479.500010
31
0.0
0
LINE
8
0
6
CONTINUOUS
10
-8.603190
20
479.500010
30
0.0
11
-6.903190
21
479.500010
31
0.0
0
LINE
8
0
6
CONTINUOUS
10
-6.903190
20
479.500010
30
0.0
11
-4.603190
21
479.500010
31
0.0
0
LINE
8
0
6
CONTINUOUS
10
-4.603190
20
479.500010
30
0.0
11
-1.903190
21
479.500010
31
0.0
0
LINE
8
0
6
CONTINUOUS
10
-1.903190
20
479.500010
30
0.0
11
0.896810
21
479.500010
31
0.0
0
LINE
8
0
6
CONTINUOUS
10
11.896810
20
-427.000010
30
0.0
11
11.396810
21
-427.499960
31
0.0
0
LINE
8
0
6
CONTINUOUS
10
11.896810
20
426.999930
30
0.0
11
11.896810
21
426.686820
31
0.0
0
LINE
8
0
6
CONTINUOUS
10
11.396810
20
427.499960
30
0.0
11
11.896810
21
426.999930
31
0.0
0
LINE
8
0
6
CONTINUOUS
10
-9.603190
20
-427.499960
30
0.0
11
-10.103190
21
-427.000010
31
0.0
0
LINE
8
0
6
CONTINUOUS
10
-10.103190
20
426.686820
30
0.0
11
-10.103190
21
426.999930
31
0.0
0
LINE
8
0
6
CONTINUOUS
10
-10.103190
20
426.999930
30
0.0
11
-9.603190
21
427.499960
31
0.0
0
LINE
8
0
6
CONTINUOUS
10
11.496810
20
427.499960
30
0.0
11
11.896810
21
427.499960
31
0.0
0
LINE
8
0
6
CONTINUOUS
10
10.396810
20
427.499960
30
0.0
11
11.496810
21
427.499960
31
0.0
0
LINE
8
0
6
CONTINUOUS
10
8.696810
20
427.499960
30
0.0
11
10.396810
21
427.499960
31
0.0
0
LINE
8
0
6
CONTINUOUS
10
6.396810
20
427.499960
30
0.0
11
8.696810
21
427.499960
31
0.0
0
LINE
8
0
6
CONTINUOUS
10
3.696810
20
427.499960
30
0.0
11
6.396810
21
427.499960
31
0.0
0
LINE
8
0
6
CONTINUOUS
10
0.896810
20
427.499960
30
0.0
11
3.696810
21
427.499960
31
0.0
0
LINE
8
0
6
CONTINUOUS
10
-10.103190
20
428.207660
30
0.0
11
-10.103190
21
427.499960
31
0.0
0
LINE
8
0
6
CONTINUOUS
10
-10.103190
20
427.499960
30
0.0
11
-9.703190
21
427.499960
31
0.0
0
LINE
8
0
6
CONTINUOUS
10
-10.103190
20
478.791690
30
0.0
11
-10.103190
21
428.207660
31
0.0
0
LINE
8
0
6
CONTINUOUS
10
-9.703190
20
427.499960
30
0.0
11
-8.603190
21
427.499960
31
0.0
0
LINE
8
0
6
CONTINUOUS
10
-8.603190
20
427.499960
30
0.0
11
-6.903190
21
427.499960
31
0.0
0
LINE
8
0
6
CONTINUOUS
10
-6.903190
20
427.499960
30
0.0
11
-4.603190
21
427.499960
31
0.0
0
LINE
8
0
6
CONTINUOUS
10
-4.603190
20
427.499960
30
0.0
11
-1.903190
21
427.499960
31
0.0
0
LINE
8
0
6
CONTINUOUS
10
-1.903190
20
427.499960
30
0.0
11
0.896810
21
427.499960
31
0.0
0
LINE
8
0
6
CONTINUOUS
10
11.896810
20
479.500010
30
0.0
11
11.896810
21
478.791690
31
0.0
0
LINE
8
0
6
CONTINUOUS
10
11.896810
20
428.207660
30
0.0
11
11.896810
21
427.499960
31
0.0
0
LINE
8
0
6
CONTINUOUS
10
11.896810
20
478.791690
30
0.0
11
11.896810
21
428.207660
31
0.0
0
LINE
8
0
6
CONTINUOUS
10
11.896810
20
426.686820
30
0.0
11
11.896810
21
426.144980
31
0.0
0
LINE
8
0
6
CONTINUOUS
10
-10.103190
20
426.144980
30
0.0
11
-10.103190
21
426.686820
31
0.0
0
LINE
8
0
6
CONTINUOUS
10
11.896810
20
-427.499960
30
0.0
11
11.496810
21
-427.499960
31
0.0
0
LINE
8
0
6
CONTINUOUS
10
11.496810
20
-427.499960
30
0.0
11
10.396810
21
-427.499960
31
0.0
0
LINE
8
0
6
CONTINUOUS
10
10.396810
20
-427.499960
30
0.0
11
8.696810
21
-427.499960
31
0.0
0
LINE
8
0
6
CONTINUOUS
10
8.696810
20
-427.499960
30
0.0
11
6.396810
21
-427.499960
31
0.0
0
LINE
8
0
6
CONTINUOUS
10
6.396810
20
-427.499960
30
0.0
11
3.696810
21
-427.499960
31
0.0
0
LINE
8
0
6
CONTINUOUS
10
3.696810
20
-427.499960
30
0.0
11
0.896810
21
-427.499960
31
0.0
0
LINE
8
0
6
CONTINUOUS
10
11.896810
20
-427.499960
30
0.0
11
11.896810
21
-428.054130
31
0.0
0
LINE
8
0
6
CONTINUOUS
10
11.896810
20
-428.054130
30
0.0
11
11.896810
21
-478.945850
31
0.0
0
LINE
8
0
6
CONTINUOUS
10
11.896810
20
-478.945850
30
0.0
11
11.896810
21
-479.500010
31
0.0
0
LINE
8
0
6
CONTINUOUS
10
-10.103190
20
-426.785700
30
0.0
11
-10.103190
21
-427.000010
31
0.0
0
LINE
8
0
6
CONTINUOUS
10
11.896810
20
-426.785700
30
0.0
11
11.896810
21
-427.000010
31
0.0
0
LINE
8
0
6
CONTINUOUS
10
11.896810
20
426.144980
30
0.0
11
11.896810
21
243.158990
31
0.0
0
LINE
8
0
6
CONTINUOUS
10
11.896810
20
205.268590
30
0.0
11
11.896810
21
-426.205750
31
0.0
0
LINE
8
0
6
CONTINUOUS
10
-10.103190
20
-426.205750
30
0.0
11
-10.103190
21
205.268590
31
0.0
0
LINE
8
0
6
CONTINUOUS
10
-10.103190
20
243.158990
30
0.0
11
-10.103190
21
426.144980
31
0.0
0
LINE
8
0
6
CONTINUOUS
10
11.896810
20
-426.205750
30
0.0
11
11.896810
21
-426.785700
31
0.0
0
LINE
8
0
6
CONTINUOUS
10
-10.103190
20
-426.785700
30
0.0
11
-10.103190
21
-426.205750
31
0.0
0
ENDSEC
0
EOF
