999
Erzeugt mit innoplus bad 
0
SECTION
2
HEADER
9
$ACADVER
1
AC1009
9
$DWGCODEPAGE
3
ISO8859-1
0
ENDSEC
0
SECTION
2
TABLES
0
TABLE
2
LAYER
70
1
0
LAYER
2
0
70
0
62
7
6
CONTINUOUS
0
ENDTAB
0
ENDSEC
0
SECTION
2
ENTITIES
0
LINE
8
0
6
CONTINUOUS
10
32.000005
20
-4.786920
30
0.0
11
38.000005
21
-4.786920
31
0.0
0
LINE
8
0
6
CONTINUOUS
10
39.000005
20
-3.796731
30
0.0
11
39.000005
21
84.222891
31
0.0
0
LINE
8
0
6
CONTINUOUS
10
38.000005
20
85.213080
30
0.0
11
32.000005
21
85.213080
31
0.0
0
LINE
8
0
6
CONTINUOUS
10
31.000005
20
84.222891
30
0.0
11
31.000005
21
-3.796731
31
0.0
0
LINE
8
0
6
CONTINUOUS
10
39.000005
20
-4.786920
30
0.0
11
39.000005
21
-3.796731
31
0.0
0
LINE
8
0
6
CONTINUOUS
10
38.000005
20
-4.786920
30
0.0
11
39.000005
21
-4.786920
31
0.0
0
LINE
8
0
6
CONTINUOUS
10
39.000005
20
85.213080
30
0.0
11
38.000005
21
85.213080
31
0.0
0
LINE
8
0
6
CONTINUOUS
10
39.000005
20
84.222891
30
0.0
11
39.000005
21
85.213080
31
0.0
0
LINE
8
0
6
CONTINUOUS
10
31.000005
20
85.213080
30
0.0
11
31.000005
21
84.222891
31
0.0
0
LINE
8
0
6
CONTINUOUS
10
32.000005
20
85.213080
30
0.0
11
31.000005
21
85.213080
31
0.0
0
LINE
8
0
6
CONTINUOUS
10
31.000005
20
-4.786920
30
0.0
11
32.000005
21
-4.786920
31
0.0
0
LINE
8
0
6
CONTINUOUS
10
31.000005
20
-3.796731
30
0.0
11
31.000005
21
-4.786920
31
0.0
0
LINE
8
0
6
CONTINUOUS
10
3.771715
20
-74.087560
30
0.0
11
6.530205
21
-75.830670
31
0.0
0
LINE
8
0
6
CONTINUOUS
10
3.755655
20
-83.867610
30
0.0
11
0.014645
21
-85.213080
31
0.0
0
LINE
8
0
6
CONTINUOUS
10
0.035625
20
-73.369250
30
0.0
11
3.771715
21
-74.087560
31
0.0
0
LINE
8
0
6
CONTINUOUS
10
3.771715
20
-74.087560
30
0.0
11
3.804474
21
-13.309881
31
0.0
0
LINE
8
0
6
CONTINUOUS
10
-6.415885
20
-75.844750
30
0.0
11
-3.669675
21
-74.096380
31
0.0
0
LINE
8
0
6
CONTINUOUS
10
6.530205
20
-75.830670
30
0.0
11
7.517425
21
-78.064920
31
0.0
0
LINE
8
0
6
CONTINUOUS
10
6.530205
20
-13.309660
30
0.0
11
6.530205
21
-75.830670
31
0.0
0
LINE
8
0
6
CONTINUOUS
10
-6.415885
20
-75.844750
30
0.0
11
-6.415885
21
-13.310694
31
0.0
0
LINE
8
0
6
CONTINUOUS
10
-7.431435
20
-78.082720
30
0.0
11
-6.415885
21
-75.844750
31
0.0
0
LINE
8
0
6
CONTINUOUS
10
-3.718775
20
-83.886660
30
0.0
11
-6.444225
21
-80.925000
31
0.0
0
LINE
8
0
6
CONTINUOUS
10
3.755655
20
-83.867610
30
0.0
11
3.755655
21
-74.084472
31
0.0
0
LINE
8
0
6
CONTINUOUS
10
6.501865
20
-80.902360
30
0.0
11
3.755655
21
-83.867610
31
0.0
0
LINE
8
0
6
CONTINUOUS
10
6.501865
20
-80.902360
30
0.0
11
6.501865
21
-75.812762
31
0.0
0
LINE
8
0
6
CONTINUOUS
10
7.517425
20
-78.064920
30
0.0
11
6.501865
21
-80.902360
31
0.0
0
LINE
8
0
6
CONTINUOUS
10
7.517425
20
-13.309581
30
0.0
11
7.517425
21
-78.064920
31
0.0
0
LINE
8
0
6
CONTINUOUS
10
-6.444225
20
-80.925000
30
0.0
11
-7.431435
21
-78.082720
31
0.0
0
LINE
8
0
6
CONTINUOUS
10
-6.444225
20
-75.907203
30
0.0
11
-6.444225
21
-80.925000
31
0.0
0
LINE
8
0
6
CONTINUOUS
10
-7.431435
20
-78.082720
30
0.0
11
-7.431435
21
-13.310775
31
0.0
0
LINE
8
0
6
CONTINUOUS
10
-3.718775
20
-83.886660
30
0.0
11
-3.718775
21
-74.127639
31
0.0
0
LINE
8
0
6
CONTINUOUS
10
0.014645
20
-85.213080
30
0.0
11
-3.718775
21
-83.886660
31
0.0
0
LINE
8
0
6
CONTINUOUS
10
0.014645
20
-73.373367
30
0.0
11
0.014645
21
-85.213080
31
0.0
0
LINE
8
0
6
CONTINUOUS
10
0.035625
20
-73.369250
30
0.0
11
0.071028
21
-13.310178
31
0.0
0
LINE
8
0
6
CONTINUOUS
10
-3.669675
20
-74.096380
30
0.0
11
0.035625
21
-73.369250
31
0.0
0
LINE
8
0
6
CONTINUOUS
10
-3.669675
20
-13.310474
30
0.0
11
-3.669675
21
-74.096380
31
0.0
0
LINE
8
0
6
CONTINUOUS
10
-10.269315
20
-13.310980
30
0.0
11
-10.292675
21
-12.788860
31
0.0
0
LINE
8
0
6
CONTINUOUS
10
10.364735
20
-13.309340
30
0.0
11
10.387915
21
-12.787230
31
0.0
0
LINE
8
0
6
CONTINUOUS
10
-10.292675
20
-12.788860
30
0.0
11
-11.632955
21
16.408970
31
0.0
0
LINE
8
0
6
CONTINUOUS
10
10.387915
20
-12.787230
30
0.0
11
11.718435
21
16.408970
31
0.0
0
LINE
8
0
6
CONTINUOUS
10
-3.899995
20
-13.310470
30
0.0
11
-7.247195
21
-13.310740
31
0.0
0
LINE
8
0
6
CONTINUOUS
10
-9.483795
20
-13.310920
30
0.0
11
-10.269315
21
-13.310980
31
0.0
0
LINE
8
0
6
CONTINUOUS
10
7.343295
20
-13.309580
30
0.0
11
3.996315
21
-13.309850
31
0.0
0
LINE
8
0
6
CONTINUOUS
10
10.364735
20
-13.309340
30
0.0
11
9.579585
21
-13.309400
31
0.0
0
LINE
8
0
6
CONTINUOUS
10
9.579585
20
-13.309400
30
0.0
11
7.343295
21
-13.309580
31
0.0
0
LINE
8
0
6
CONTINUOUS
10
-7.247195
20
-13.310740
30
0.0
11
-9.483795
21
-13.310920
31
0.0
0
LINE
8
0
6
CONTINUOUS
10
3.996315
20
-13.309850
30
0.0
11
0.048195
21
-13.310160
31
0.0
0
LINE
8
0
6
CONTINUOUS
10
0.048195
20
-13.310160
30
0.0
11
-3.899995
21
-13.310470
31
0.0
0
LINE
8
0
6
CONTINUOUS
10
31.000005
20
65.207920
30
0.0
11
-22.088505
21
65.207920
31
0.0
0
LINE
8
0
6
CONTINUOUS
10
-25.826395
20
65.207920
30
0.0
11
-29.528905
21
65.207920
31
0.0
0
LINE
8
0
6
CONTINUOUS
10
-22.088505
20
65.207920
30
0.0
11
-25.826395
21
65.207920
31
0.0
0
LINE
8
0
6
CONTINUOUS
10
-38.999995
20
65.207920
30
0.0
11
-39.000005
21
64.750610
31
0.0
0
LINE
8
0
6
CONTINUOUS
10
-38.745045
20
65.207920
30
0.0
11
-38.999995
21
65.207920
31
0.0
0
LINE
8
0
6
CONTINUOUS
10
-29.528905
20
65.207920
30
0.0
11
-32.837115
21
65.207920
31
0.0
0
LINE
8
0
6
CONTINUOUS
10
-32.837115
20
65.207920
30
0.0
11
-35.361385
21
65.207920
31
0.0
0
LINE
8
0
6
CONTINUOUS
10
-39.000005
20
64.750610
30
0.0
11
-39.000005
21
16.866280
31
0.0
0
LINE
8
0
6
CONTINUOUS
10
-35.361385
20
65.207920
30
0.0
11
-38.745045
21
65.207920
31
0.0
0
LINE
8
0
6
CONTINUOUS
10
-22.088505
20
16.408970
30
0.0
11
31.000005
21
16.408970
31
0.0
0
LINE
8
0
6
CONTINUOUS
10
-29.528905
20
16.408970
30
0.0
11
-25.826395
21
16.408970
31
0.0
0
LINE
8
0
6
CONTINUOUS
10
-25.826395
20
16.408970
30
0.0
11
-22.088505
21
16.408970
31
0.0
0
LINE
8
0
6
CONTINUOUS
10
-38.999995
20
16.408970
30
0.0
11
-38.745045
21
16.408970
31
0.0
0
LINE
8
0
6
CONTINUOUS
10
-39.000005
20
16.866280
30
0.0
11
-38.999995
21
16.408970
31
0.0
0
LINE
8
0
6
CONTINUOUS
10
-32.837115
20
16.408970
30
0.0
11
-29.528905
21
16.408970
31
0.0
0
LINE
8
0
6
CONTINUOUS
10
-35.361385
20
16.408970
30
0.0
11
-32.837115
21
16.408970
31
0.0
0
LINE
8
0
6
CONTINUOUS
10
-38.745045
20
16.408970
30
0.0
11
-35.361385
21
16.408970
31
0.0
0
ENDSEC
0
EOF
