999
Erzeugt mit innoplus bad 
0
SECTION
2
HEADER
9
$ACADVER
1
AC1009
9
$DWGCODEPAGE
3
ISO8859-1
0
ENDSEC
0
SECTION
2
TABLES
0
TABLE
2
LAYER
70
1
0
LAYER
2
0
70
0
62
7
6
CONTINUOUS
0
ENDTAB
0
ENDSEC
0
SECTION
2
ENTITIES
0
LINE
8
0
6
CONTINUOUS
10
0.000000
20
86.463080
30
0.0
11
-12.293940
21
84.844540
31
0.0
0
LINE
8
0
6
CONTINUOUS
10
-12.293940
20
84.844540
30
0.0
11
-23.750030
21
80.099270
31
0.0
0
LINE
8
0
6
CONTINUOUS
10
-23.750030
20
80.099270
30
0.0
11
-33.587590
21
72.550630
31
0.0
0
LINE
8
0
6
CONTINUOUS
10
-33.587590
20
72.550630
30
0.0
11
-41.136220
21
62.713050
31
0.0
0
LINE
8
0
6
CONTINUOUS
10
-45.881470
20
51.256960
30
0.0
11
-41.136220
21
62.713050
31
0.0
0
LINE
8
0
6
CONTINUOUS
10
-47.500000
20
38.963060
30
0.0
11
-45.881470
21
51.256960
31
0.0
0
LINE
8
0
6
CONTINUOUS
10
-47.500000
20
38.963060
30
0.0
11
-45.881470
21
26.669160
31
0.0
0
LINE
8
0
6
CONTINUOUS
10
-45.881470
20
26.669160
30
0.0
11
-41.136190
21
15.213070
31
0.0
0
LINE
8
0
6
CONTINUOUS
10
-41.136190
20
15.213070
30
0.0
11
-33.587560
21
5.375490
31
0.0
0
LINE
8
0
6
CONTINUOUS
10
-33.587560
20
5.375490
30
0.0
11
-23.749980
21
-2.173130
31
0.0
0
LINE
8
0
6
CONTINUOUS
10
-12.293880
20
-6.918390
30
0.0
11
-23.749980
21
-2.173130
31
0.0
0
LINE
8
0
6
CONTINUOUS
10
-10.702615
20
-7.127885
30
0.0
11
-12.293880
21
-6.918390
31
0.0
0
LINE
8
0
6
CONTINUOUS
10
12.293920
20
-6.918380
30
0.0
11
10.609515
21
-7.140139
31
0.0
0
LINE
8
0
6
CONTINUOUS
10
23.750010
20
-2.173120
30
0.0
11
12.293920
21
-6.918380
31
0.0
0
LINE
8
0
6
CONTINUOUS
10
33.587570
20
5.375520
30
0.0
11
23.750010
21
-2.173120
31
0.0
0
LINE
8
0
6
CONTINUOUS
10
41.136210
20
15.213090
30
0.0
11
33.587570
21
5.375520
31
0.0
0
LINE
8
0
6
CONTINUOUS
10
41.136210
20
15.213090
30
0.0
11
45.881470
21
26.669180
31
0.0
0
LINE
8
0
6
CONTINUOUS
10
45.881470
20
26.669180
30
0.0
11
47.500000
21
38.963080
31
0.0
0
LINE
8
0
6
CONTINUOUS
10
47.500000
20
38.963080
30
0.0
11
45.881470
21
51.256990
31
0.0
0
LINE
8
0
6
CONTINUOUS
10
45.881470
20
51.256990
30
0.0
11
41.136200
21
62.713080
31
0.0
0
LINE
8
0
6
CONTINUOUS
10
41.136200
20
62.713080
30
0.0
11
33.587570
21
72.550650
31
0.0
0
LINE
8
0
6
CONTINUOUS
10
33.587570
20
72.550650
30
0.0
11
23.750000
21
80.099280
31
0.0
0
LINE
8
0
6
CONTINUOUS
10
23.750000
20
80.099280
30
0.0
11
12.293900
21
84.844550
31
0.0
0
LINE
8
0
6
CONTINUOUS
10
12.293900
20
84.844550
30
0.0
11
0.000000
21
86.463080
31
0.0
0
LINE
8
0
6
CONTINUOUS
10
-17.890520
20
63.957920
30
0.0
11
-17.890520
21
63.500610
31
0.0
0
LINE
8
0
6
CONTINUOUS
10
-16.917140
20
63.957920
30
0.0
11
-17.890520
21
63.957920
31
0.0
0
LINE
8
0
6
CONTINUOUS
10
-17.890520
20
63.500610
30
0.0
11
-17.890520
21
15.616280
31
0.0
0
LINE
8
0
6
CONTINUOUS
10
-8.803210
20
63.957920
30
0.0
11
-10.115630
21
63.957920
31
0.0
0
LINE
8
0
6
CONTINUOUS
10
0.000050
20
63.957920
30
0.0
11
-2.965930
21
63.957920
31
0.0
0
LINE
8
0
6
CONTINUOUS
10
-2.965930
20
63.957920
30
0.0
11
-6.149920
21
63.957920
31
0.0
0
LINE
8
0
6
CONTINUOUS
10
-6.149920
20
63.957920
30
0.0
11
-8.803210
21
63.957920
31
0.0
0
LINE
8
0
6
CONTINUOUS
10
-16.354990
20
63.957920
30
0.0
11
-16.864020
21
63.957920
31
0.0
0
LINE
8
0
6
CONTINUOUS
10
-16.864020
20
63.957920
30
0.0
11
-16.917140
21
63.957920
31
0.0
0
LINE
8
0
6
CONTINUOUS
10
-9.770550
20
63.957920
30
0.0
11
-10.011690
21
63.957920
31
0.0
0
LINE
8
0
6
CONTINUOUS
10
-9.770550
20
63.500610
30
0.0
11
-9.770550
21
63.957920
31
0.0
0
LINE
8
0
6
CONTINUOUS
10
-14.773390
20
63.957920
30
0.0
11
-16.354990
21
63.957920
31
0.0
0
LINE
8
0
6
CONTINUOUS
10
-13.212010
20
63.957920
30
0.0
11
-14.773390
21
63.957920
31
0.0
0
LINE
8
0
6
CONTINUOUS
10
-9.770550
20
15.616280
30
0.0
11
-9.770550
21
63.500610
31
0.0
0
LINE
8
0
6
CONTINUOUS
10
-10.011690
20
63.957920
30
0.0
11
-13.212010
21
63.957920
31
0.0
0
LINE
8
0
6
CONTINUOUS
10
-17.890520
20
15.158970
30
0.0
11
-16.917140
21
15.158970
31
0.0
0
LINE
8
0
6
CONTINUOUS
10
-17.890520
20
15.616280
30
0.0
11
-17.890520
21
15.158970
31
0.0
0
LINE
8
0
6
CONTINUOUS
10
-10.115630
20
15.158970
30
0.0
11
-8.803210
21
15.158970
31
0.0
0
LINE
8
0
6
CONTINUOUS
10
-2.965930
20
15.158970
30
0.0
11
0.000050
21
15.158970
31
0.0
0
LINE
8
0
6
CONTINUOUS
10
-6.149920
20
15.158970
30
0.0
11
-2.965930
21
15.158970
31
0.0
0
LINE
8
0
6
CONTINUOUS
10
-8.803210
20
15.158970
30
0.0
11
-6.149920
21
15.158970
31
0.0
0
LINE
8
0
6
CONTINUOUS
10
-16.864020
20
15.158970
30
0.0
11
-16.354990
21
15.158970
31
0.0
0
LINE
8
0
6
CONTINUOUS
10
-16.917140
20
15.158970
30
0.0
11
-16.864020
21
15.158970
31
0.0
0
LINE
8
0
6
CONTINUOUS
10
-9.770550
20
15.158970
30
0.0
11
-9.770550
21
15.616280
31
0.0
0
LINE
8
0
6
CONTINUOUS
10
-10.011690
20
15.158970
30
0.0
11
-9.770550
21
15.158970
31
0.0
0
LINE
8
0
6
CONTINUOUS
10
-16.354990
20
15.158970
30
0.0
11
-14.773390
21
15.158970
31
0.0
0
LINE
8
0
6
CONTINUOUS
10
-14.773390
20
15.158970
30
0.0
11
-13.212010
21
15.158970
31
0.0
0
LINE
8
0
6
CONTINUOUS
10
-13.212010
20
15.158970
30
0.0
11
-10.011690
21
15.158970
31
0.0
0
LINE
8
0
6
CONTINUOUS
10
17.890620
20
63.957920
30
0.0
11
16.917230
21
63.957920
31
0.0
0
LINE
8
0
6
CONTINUOUS
10
17.890620
20
63.500610
30
0.0
11
17.890620
21
63.957920
31
0.0
0
LINE
8
0
6
CONTINUOUS
10
17.890620
20
15.616280
30
0.0
11
17.890620
21
63.500610
31
0.0
0
LINE
8
0
6
CONTINUOUS
10
10.115720
20
63.957920
30
0.0
11
8.803300
21
63.957920
31
0.0
0
LINE
8
0
6
CONTINUOUS
10
2.966020
20
63.957920
30
0.0
11
0.000050
21
63.957920
31
0.0
0
LINE
8
0
6
CONTINUOUS
10
6.150010
20
63.957920
30
0.0
11
2.966020
21
63.957920
31
0.0
0
LINE
8
0
6
CONTINUOUS
10
8.803300
20
63.957920
30
0.0
11
6.150010
21
63.957920
31
0.0
0
LINE
8
0
6
CONTINUOUS
10
16.864110
20
63.957920
30
0.0
11
16.355080
21
63.957920
31
0.0
0
LINE
8
0
6
CONTINUOUS
10
16.917230
20
63.957920
30
0.0
11
16.864110
21
63.957920
31
0.0
0
LINE
8
0
6
CONTINUOUS
10
9.770640
20
63.957920
30
0.0
11
9.770640
21
63.500610
31
0.0
0
LINE
8
0
6
CONTINUOUS
10
10.011780
20
63.957920
30
0.0
11
9.770640
21
63.957920
31
0.0
0
LINE
8
0
6
CONTINUOUS
10
16.355080
20
63.957920
30
0.0
11
14.773480
21
63.957920
31
0.0
0
LINE
8
0
6
CONTINUOUS
10
14.773480
20
63.957920
30
0.0
11
13.212100
21
63.957920
31
0.0
0
LINE
8
0
6
CONTINUOUS
10
9.770640
20
63.500610
30
0.0
11
9.770640
21
15.616280
31
0.0
0
LINE
8
0
6
CONTINUOUS
10
13.212100
20
63.957920
30
0.0
11
10.011780
21
63.957920
31
0.0
0
LINE
8
0
6
CONTINUOUS
10
17.890620
20
15.158970
30
0.0
11
17.890620
21
15.616280
31
0.0
0
LINE
8
0
6
CONTINUOUS
10
16.917230
20
15.158970
30
0.0
11
17.890620
21
15.158970
31
0.0
0
LINE
8
0
6
CONTINUOUS
10
8.803300
20
15.158970
30
0.0
11
10.115720
21
15.158970
31
0.0
0
LINE
8
0
6
CONTINUOUS
10
0.000050
20
15.158970
30
0.0
11
2.966020
21
15.158970
31
0.0
0
LINE
8
0
6
CONTINUOUS
10
2.966020
20
15.158970
30
0.0
11
6.150010
21
15.158970
31
0.0
0
LINE
8
0
6
CONTINUOUS
10
6.150010
20
15.158970
30
0.0
11
8.803300
21
15.158970
31
0.0
0
LINE
8
0
6
CONTINUOUS
10
16.355080
20
15.158970
30
0.0
11
16.864110
21
15.158970
31
0.0
0
LINE
8
0
6
CONTINUOUS
10
16.864110
20
15.158970
30
0.0
11
16.917230
21
15.158970
31
0.0
0
LINE
8
0
6
CONTINUOUS
10
9.770640
20
15.158970
30
0.0
11
10.011780
21
15.158970
31
0.0
0
LINE
8
0
6
CONTINUOUS
10
9.770640
20
15.616280
30
0.0
11
9.770640
21
15.158970
31
0.0
0
LINE
8
0
6
CONTINUOUS
10
14.773480
20
15.158970
30
0.0
11
16.355080
21
15.158970
31
0.0
0
LINE
8
0
6
CONTINUOUS
10
13.212100
20
15.158970
30
0.0
11
14.773480
21
15.158970
31
0.0
0
LINE
8
0
6
CONTINUOUS
10
10.011780
20
15.158970
30
0.0
11
13.212100
21
15.158970
31
0.0
0
LINE
8
0
6
CONTINUOUS
10
3.715820
20
-77.094750
30
0.0
11
6.441270
21
-75.346380
31
0.0
0
LINE
8
0
6
CONTINUOUS
10
3.715820
20
-77.094750
30
0.0
11
3.715820
21
-14.560923
31
0.0
0
LINE
8
0
6
CONTINUOUS
10
-0.017600
20
-79.332720
30
0.0
11
3.715820
21
-77.094750
31
0.0
0
LINE
8
0
6
CONTINUOUS
10
-6.504820
20
-85.136660
30
0.0
11
-3.758610
21
-82.175000
31
0.0
0
LINE
8
0
6
CONTINUOUS
10
-3.758610
20
-82.175000
30
0.0
11
-0.017600
21
-79.332720
31
0.0
0
LINE
8
0
6
CONTINUOUS
10
-3.758610
20
-14.560924
30
0.0
11
-3.758610
21
-82.175000
31
0.0
0
LINE
8
0
6
CONTINUOUS
10
-0.017600
20
-79.332720
30
0.0
11
-0.017600
21
-14.560980
31
0.0
0
LINE
8
0
6
CONTINUOUS
10
-6.504820
20
-85.136660
30
0.0
11
-6.504820
21
-14.560785
31
0.0
0
LINE
8
0
6
CONTINUOUS
10
-7.520370
20
-86.463080
30
0.0
11
-6.504820
21
-85.136660
31
0.0
0
LINE
8
0
6
CONTINUOUS
10
-7.520370
20
-14.560178
30
0.0
11
-7.520370
21
-86.463080
31
0.0
0
LINE
8
0
6
CONTINUOUS
10
7.434840
20
-74.619250
30
0.0
11
7.428535
21
-14.560718
31
0.0
0
LINE
8
0
6
CONTINUOUS
10
6.441270
20
-75.346380
30
0.0
11
7.434840
21
-74.619250
31
0.0
0
LINE
8
0
6
CONTINUOUS
10
6.441270
20
-14.560474
30
0.0
11
6.441270
21
-75.335168
31
0.0
0
LINE
8
0
6
CONTINUOUS
10
-10.363280
20
-14.560160
30
0.0
11
-10.386540
21
-14.038050
31
0.0
0
LINE
8
0
6
CONTINUOUS
10
10.294040
20
-14.038050
30
0.0
11
10.270780
21
-14.560160
31
0.0
0
LINE
8
0
6
CONTINUOUS
10
-10.386540
20
-14.038050
30
0.0
11
-11.722030
21
15.158970
31
0.0
0
LINE
8
0
6
CONTINUOUS
10
11.629360
20
15.158970
30
0.0
11
10.294040
21
-14.038050
31
0.0
0
LINE
8
0
6
CONTINUOUS
10
9.485630
20
-14.560470
30
0.0
11
7.249340
21
-14.560740
31
0.0
0
LINE
8
0
6
CONTINUOUS
10
-3.993950
20
-14.560920
30
0.0
11
-7.341150
21
-14.560740
31
0.0
0
LINE
8
0
6
CONTINUOUS
10
-7.341150
20
-14.560740
30
0.0
11
-9.577750
21
-14.560470
31
0.0
0
LINE
8
0
6
CONTINUOUS
10
-9.577750
20
-14.560470
30
0.0
11
-10.363280
21
-14.560160
31
0.0
0
LINE
8
0
6
CONTINUOUS
10
3.902360
20
-14.560920
30
0.0
11
-0.045760
21
-14.560980
31
0.0
0
LINE
8
0
6
CONTINUOUS
10
-0.045760
20
-14.560980
30
0.0
11
-3.993950
21
-14.560920
31
0.0
0
LINE
8
0
6
CONTINUOUS
10
7.249340
20
-14.560740
30
0.0
11
3.902360
21
-14.560920
31
0.0
0
LINE
8
0
6
CONTINUOUS
10
10.270780
20
-14.560160
30
0.0
11
9.485630
21
-14.560470
31
0.0
0
ENDSEC
0
EOF
