999
Erzeugt mit innoplus bad 
0
SECTION
2
HEADER
9
$ACADVER
1
AC1009
9
$DWGCODEPAGE
3
ISO8859-1
0
ENDSEC
0
SECTION
2
TABLES
0
TABLE
2
LAYER
70
1
0
LAYER
2
0
70
0
62
7
6
CONTINUOUS
0
ENDTAB
0
ENDSEC
0
SECTION
2
ENTITIES
0
LINE
8
0
6
CONTINUOUS
10
39.000005
20
29.681560
30
0.0
11
39.000005
21
40.213080
31
0.0
0
LINE
8
0
6
CONTINUOUS
10
39.000005
20
-4.786920
30
0.0
11
39.000005
21
-4.702710
31
0.0
0
LINE
8
0
6
CONTINUOUS
10
38.500005
20
-4.786920
30
0.0
11
39.000005
21
-4.786920
31
0.0
0
LINE
8
0
6
CONTINUOUS
10
39.000005
20
-4.702710
30
0.0
11
39.000005
21
-4.551360
31
0.0
0
LINE
8
0
6
CONTINUOUS
10
39.000005
20
-4.551360
30
0.0
11
39.000005
21
-4.323420
31
0.0
0
LINE
8
0
6
CONTINUOUS
10
39.000005
20
-4.323420
30
0.0
11
39.000005
21
-3.895150
31
0.0
0
LINE
8
0
6
CONTINUOUS
10
39.000005
20
-3.895150
30
0.0
11
39.000005
21
-3.133610
31
0.0
0
LINE
8
0
6
CONTINUOUS
10
39.000005
20
-3.133610
30
0.0
11
39.000005
21
-1.722630
31
0.0
0
LINE
8
0
6
CONTINUOUS
10
39.000005
20
-1.722630
30
0.0
11
39.000005
21
0.833920
31
0.0
0
LINE
8
0
6
CONTINUOUS
10
39.000005
20
0.833920
30
0.0
11
39.000005
21
4.848350
31
0.0
0
LINE
8
0
6
CONTINUOUS
10
38.500005
20
0.832080
30
0.0
11
39.000005
21
0.833920
31
0.0
0
LINE
8
0
6
CONTINUOUS
10
39.000005
20
4.848350
30
0.0
11
39.000005
21
9.630290
31
0.0
0
LINE
8
0
6
CONTINUOUS
10
39.000005
20
9.630290
30
0.0
11
39.000005
21
14.609230
31
0.0
0
LINE
8
0
6
CONTINUOUS
10
39.000005
20
14.609230
30
0.0
11
39.000005
21
19.624660
31
0.0
0
LINE
8
0
6
CONTINUOUS
10
39.000005
20
19.624660
30
0.0
11
39.000005
21
24.653740
31
0.0
0
LINE
8
0
6
CONTINUOUS
10
39.000005
20
24.653740
30
0.0
11
39.000005
21
29.681560
31
0.0
0
LINE
8
0
6
CONTINUOUS
10
31.000005
20
-4.786920
30
0.0
11
31.500005
21
-4.786920
31
0.0
0
LINE
8
0
6
CONTINUOUS
10
31.000005
20
-4.702710
30
0.0
11
31.000005
21
-4.786920
31
0.0
0
LINE
8
0
6
CONTINUOUS
10
31.000005
20
40.213080
30
0.0
11
31.000005
21
29.681560
31
0.0
0
LINE
8
0
6
CONTINUOUS
10
31.000005
20
-4.551390
30
0.0
11
31.000005
21
-4.702710
31
0.0
0
LINE
8
0
6
CONTINUOUS
10
31.000005
20
-4.323900
30
0.0
11
31.000005
21
-4.551390
31
0.0
0
LINE
8
0
6
CONTINUOUS
10
31.000005
20
-3.897600
30
0.0
11
31.000005
21
-4.323900
31
0.0
0
LINE
8
0
6
CONTINUOUS
10
31.000005
20
-3.140730
30
0.0
11
31.000005
21
-3.897600
31
0.0
0
LINE
8
0
6
CONTINUOUS
10
31.000005
20
-1.736710
30
0.0
11
31.000005
21
-3.140730
31
0.0
0
LINE
8
0
6
CONTINUOUS
10
31.000005
20
0.804360
30
0.0
11
31.000005
21
-1.736710
31
0.0
0
LINE
8
0
6
CONTINUOUS
10
31.000005
20
4.818700
30
0.0
11
31.000005
21
0.804360
31
0.0
0
LINE
8
0
6
CONTINUOUS
10
31.000005
20
0.804360
30
0.0
11
31.500005
21
0.806210
31
0.0
0
LINE
8
0
6
CONTINUOUS
10
31.000005
20
9.597440
30
0.0
11
31.000005
21
4.818700
31
0.0
0
LINE
8
0
6
CONTINUOUS
10
31.000005
20
14.580770
30
0.0
11
31.000005
21
9.597440
31
0.0
0
LINE
8
0
6
CONTINUOUS
10
31.000005
20
19.605030
30
0.0
11
31.000005
21
14.580770
31
0.0
0
LINE
8
0
6
CONTINUOUS
10
31.000005
20
24.640240
30
0.0
11
31.000005
21
19.605030
31
0.0
0
LINE
8
0
6
CONTINUOUS
10
31.000005
20
29.681560
30
0.0
11
31.000005
21
24.640240
31
0.0
0
LINE
8
0
6
CONTINUOUS
10
31.500005
20
-4.786920
30
0.0
11
38.500005
21
-4.786920
31
0.0
0
LINE
8
0
6
CONTINUOUS
10
31.500005
20
0.806210
30
0.0
11
38.500005
21
0.832080
31
0.0
0
LINE
8
0
6
CONTINUOUS
10
39.000005
20
40.213080
30
0.0
11
39.000005
21
50.744600
31
0.0
0
LINE
8
0
6
CONTINUOUS
10
39.000005
20
85.213080
30
0.0
11
38.500005
21
85.213080
31
0.0
0
LINE
8
0
6
CONTINUOUS
10
39.000005
20
85.128870
30
0.0
11
39.000005
21
85.213080
31
0.0
0
LINE
8
0
6
CONTINUOUS
10
39.000005
20
84.977520
30
0.0
11
39.000005
21
85.128870
31
0.0
0
LINE
8
0
6
CONTINUOUS
10
39.000005
20
84.749580
30
0.0
11
39.000005
21
84.977520
31
0.0
0
LINE
8
0
6
CONTINUOUS
10
39.000005
20
84.321310
30
0.0
11
39.000005
21
84.749580
31
0.0
0
LINE
8
0
6
CONTINUOUS
10
39.000005
20
83.559770
30
0.0
11
39.000005
21
84.321310
31
0.0
0
LINE
8
0
6
CONTINUOUS
10
39.000005
20
82.148790
30
0.0
11
39.000005
21
83.559770
31
0.0
0
LINE
8
0
6
CONTINUOUS
10
39.000005
20
79.592240
30
0.0
11
39.000005
21
82.148790
31
0.0
0
LINE
8
0
6
CONTINUOUS
10
39.000005
20
79.592240
30
0.0
11
38.500005
21
79.594080
31
0.0
0
LINE
8
0
6
CONTINUOUS
10
39.000005
20
75.577810
30
0.0
11
39.000005
21
79.592240
31
0.0
0
LINE
8
0
6
CONTINUOUS
10
39.000005
20
70.795870
30
0.0
11
39.000005
21
75.577810
31
0.0
0
LINE
8
0
6
CONTINUOUS
10
39.000005
20
65.816930
30
0.0
11
39.000005
21
70.795870
31
0.0
0
LINE
8
0
6
CONTINUOUS
10
39.000005
20
60.801500
30
0.0
11
39.000005
21
65.816930
31
0.0
0
LINE
8
0
6
CONTINUOUS
10
39.000005
20
55.772420
30
0.0
11
39.000005
21
60.801500
31
0.0
0
LINE
8
0
6
CONTINUOUS
10
39.000005
20
50.744600
30
0.0
11
39.000005
21
55.772420
31
0.0
0
LINE
8
0
6
CONTINUOUS
10
31.000005
20
85.213080
30
0.0
11
31.000005
21
85.128870
31
0.0
0
LINE
8
0
6
CONTINUOUS
10
31.500005
20
85.213080
30
0.0
11
31.000005
21
85.213080
31
0.0
0
LINE
8
0
6
CONTINUOUS
10
31.000005
20
50.744600
30
0.0
11
31.000005
21
40.213080
31
0.0
0
LINE
8
0
6
CONTINUOUS
10
31.000005
20
85.128870
30
0.0
11
31.000005
21
84.977550
31
0.0
0
LINE
8
0
6
CONTINUOUS
10
31.000005
20
84.977550
30
0.0
11
31.000005
21
84.750060
31
0.0
0
LINE
8
0
6
CONTINUOUS
10
31.000005
20
84.750060
30
0.0
11
31.000005
21
84.323760
31
0.0
0
LINE
8
0
6
CONTINUOUS
10
31.000005
20
84.323760
30
0.0
11
31.000005
21
83.566890
31
0.0
0
LINE
8
0
6
CONTINUOUS
10
31.000005
20
83.566890
30
0.0
11
31.000005
21
82.162870
31
0.0
0
LINE
8
0
6
CONTINUOUS
10
31.000005
20
82.162870
30
0.0
11
31.000005
21
79.621800
31
0.0
0
LINE
8
0
6
CONTINUOUS
10
31.500005
20
79.619950
30
0.0
11
31.000005
21
79.621800
31
0.0
0
LINE
8
0
6
CONTINUOUS
10
31.000005
20
79.621800
30
0.0
11
31.000005
21
75.607460
31
0.0
0
LINE
8
0
6
CONTINUOUS
10
31.000005
20
75.607460
30
0.0
11
31.000005
21
70.828720
31
0.0
0
LINE
8
0
6
CONTINUOUS
10
31.000005
20
70.828720
30
0.0
11
31.000005
21
65.845390
31
0.0
0
LINE
8
0
6
CONTINUOUS
10
31.000005
20
65.845390
30
0.0
11
31.000005
21
60.821130
31
0.0
0
LINE
8
0
6
CONTINUOUS
10
31.000005
20
60.821130
30
0.0
11
31.000005
21
55.785920
31
0.0
0
LINE
8
0
6
CONTINUOUS
10
31.000005
20
55.785920
30
0.0
11
31.000005
21
50.744600
31
0.0
0
LINE
8
0
6
CONTINUOUS
10
38.500005
20
85.213080
30
0.0
11
31.500005
21
85.213080
31
0.0
0
LINE
8
0
6
CONTINUOUS
10
38.500005
20
79.594080
30
0.0
11
31.500005
21
79.619950
31
0.0
0
LINE
8
0
6
CONTINUOUS
10
3.771715
20
-74.087560
30
0.0
11
6.530205
21
-75.830670
31
0.0
0
LINE
8
0
6
CONTINUOUS
10
3.755655
20
-83.867610
30
0.0
11
0.014645
21
-85.213080
31
0.0
0
LINE
8
0
6
CONTINUOUS
10
0.035625
20
-73.369250
30
0.0
11
3.771715
21
-74.087560
31
0.0
0
LINE
8
0
6
CONTINUOUS
10
3.771715
20
-74.087560
30
0.0
11
3.804474
21
-13.309881
31
0.0
0
LINE
8
0
6
CONTINUOUS
10
-6.415885
20
-75.844750
30
0.0
11
-3.669675
21
-74.096380
31
0.0
0
LINE
8
0
6
CONTINUOUS
10
6.530205
20
-75.830670
30
0.0
11
7.517425
21
-78.064920
31
0.0
0
LINE
8
0
6
CONTINUOUS
10
6.530205
20
-13.309660
30
0.0
11
6.530205
21
-75.830670
31
0.0
0
LINE
8
0
6
CONTINUOUS
10
-6.415885
20
-75.844750
30
0.0
11
-6.415885
21
-13.310694
31
0.0
0
LINE
8
0
6
CONTINUOUS
10
-7.431435
20
-78.082720
30
0.0
11
-6.415885
21
-75.844750
31
0.0
0
LINE
8
0
6
CONTINUOUS
10
-3.718775
20
-83.886660
30
0.0
11
-6.444225
21
-80.925000
31
0.0
0
LINE
8
0
6
CONTINUOUS
10
3.755655
20
-83.867610
30
0.0
11
3.755655
21
-74.084472
31
0.0
0
LINE
8
0
6
CONTINUOUS
10
6.501865
20
-80.902360
30
0.0
11
3.755655
21
-83.867610
31
0.0
0
LINE
8
0
6
CONTINUOUS
10
6.501865
20
-80.902360
30
0.0
11
6.501865
21
-75.812762
31
0.0
0
LINE
8
0
6
CONTINUOUS
10
7.517425
20
-78.064920
30
0.0
11
6.501865
21
-80.902360
31
0.0
0
LINE
8
0
6
CONTINUOUS
10
7.517425
20
-13.309581
30
0.0
11
7.517425
21
-78.064920
31
0.0
0
LINE
8
0
6
CONTINUOUS
10
-6.444225
20
-80.925000
30
0.0
11
-7.431435
21
-78.082720
31
0.0
0
LINE
8
0
6
CONTINUOUS
10
-6.444225
20
-75.907203
30
0.0
11
-6.444225
21
-80.925000
31
0.0
0
LINE
8
0
6
CONTINUOUS
10
-7.431435
20
-78.082720
30
0.0
11
-7.431435
21
-13.310775
31
0.0
0
LINE
8
0
6
CONTINUOUS
10
-3.718775
20
-83.886660
30
0.0
11
-3.718775
21
-74.127639
31
0.0
0
LINE
8
0
6
CONTINUOUS
10
0.014645
20
-85.213080
30
0.0
11
-3.718775
21
-83.886660
31
0.0
0
LINE
8
0
6
CONTINUOUS
10
0.014645
20
-73.373367
30
0.0
11
0.014645
21
-85.213080
31
0.0
0
LINE
8
0
6
CONTINUOUS
10
0.035625
20
-73.369250
30
0.0
11
0.071028
21
-13.310178
31
0.0
0
LINE
8
0
6
CONTINUOUS
10
-3.669675
20
-74.096380
30
0.0
11
0.035625
21
-73.369250
31
0.0
0
LINE
8
0
6
CONTINUOUS
10
-3.669675
20
-13.310474
30
0.0
11
-3.669675
21
-74.096380
31
0.0
0
LINE
8
0
6
CONTINUOUS
10
-10.269315
20
-13.310980
30
0.0
11
-10.292675
21
-12.788860
31
0.0
0
LINE
8
0
6
CONTINUOUS
10
10.364735
20
-13.309340
30
0.0
11
10.387915
21
-12.787230
31
0.0
0
LINE
8
0
6
CONTINUOUS
10
-10.292675
20
-12.788860
30
0.0
11
-11.632955
21
16.408970
31
0.0
0
LINE
8
0
6
CONTINUOUS
10
10.387915
20
-12.787230
30
0.0
11
11.718435
21
16.408970
31
0.0
0
LINE
8
0
6
CONTINUOUS
10
-3.899995
20
-13.310470
30
0.0
11
-7.247195
21
-13.310740
31
0.0
0
LINE
8
0
6
CONTINUOUS
10
-9.483795
20
-13.310920
30
0.0
11
-10.269315
21
-13.310980
31
0.0
0
LINE
8
0
6
CONTINUOUS
10
7.343295
20
-13.309580
30
0.0
11
3.996315
21
-13.309850
31
0.0
0
LINE
8
0
6
CONTINUOUS
10
10.364735
20
-13.309340
30
0.0
11
9.579585
21
-13.309400
31
0.0
0
LINE
8
0
6
CONTINUOUS
10
9.579585
20
-13.309400
30
0.0
11
7.343295
21
-13.309580
31
0.0
0
LINE
8
0
6
CONTINUOUS
10
-7.247195
20
-13.310740
30
0.0
11
-9.483795
21
-13.310920
31
0.0
0
LINE
8
0
6
CONTINUOUS
10
3.996315
20
-13.309850
30
0.0
11
0.048195
21
-13.310160
31
0.0
0
LINE
8
0
6
CONTINUOUS
10
0.048195
20
-13.310160
30
0.0
11
-3.899995
21
-13.310470
31
0.0
0
LINE
8
0
6
CONTINUOUS
10
31.000005
20
65.207920
30
0.0
11
-22.088505
21
65.207920
31
0.0
0
LINE
8
0
6
CONTINUOUS
10
-25.826395
20
65.207920
30
0.0
11
-29.528905
21
65.207920
31
0.0
0
LINE
8
0
6
CONTINUOUS
10
-22.088505
20
65.207920
30
0.0
11
-25.826395
21
65.207920
31
0.0
0
LINE
8
0
6
CONTINUOUS
10
-38.999995
20
65.207920
30
0.0
11
-39.000005
21
64.750610
31
0.0
0
LINE
8
0
6
CONTINUOUS
10
-38.745045
20
65.207920
30
0.0
11
-38.999995
21
65.207920
31
0.0
0
LINE
8
0
6
CONTINUOUS
10
-29.528905
20
65.207920
30
0.0
11
-32.837115
21
65.207920
31
0.0
0
LINE
8
0
6
CONTINUOUS
10
-32.837115
20
65.207920
30
0.0
11
-35.361385
21
65.207920
31
0.0
0
LINE
8
0
6
CONTINUOUS
10
-39.000005
20
64.750610
30
0.0
11
-39.000005
21
16.866280
31
0.0
0
LINE
8
0
6
CONTINUOUS
10
-35.361385
20
65.207920
30
0.0
11
-38.745045
21
65.207920
31
0.0
0
LINE
8
0
6
CONTINUOUS
10
-22.088505
20
16.408970
30
0.0
11
31.000005
21
16.408970
31
0.0
0
LINE
8
0
6
CONTINUOUS
10
-29.528905
20
16.408970
30
0.0
11
-25.826395
21
16.408970
31
0.0
0
LINE
8
0
6
CONTINUOUS
10
-25.826395
20
16.408970
30
0.0
11
-22.088505
21
16.408970
31
0.0
0
LINE
8
0
6
CONTINUOUS
10
-38.999995
20
16.408970
30
0.0
11
-38.745045
21
16.408970
31
0.0
0
LINE
8
0
6
CONTINUOUS
10
-39.000005
20
16.866280
30
0.0
11
-38.999995
21
16.408970
31
0.0
0
LINE
8
0
6
CONTINUOUS
10
-32.837115
20
16.408970
30
0.0
11
-29.528905
21
16.408970
31
0.0
0
LINE
8
0
6
CONTINUOUS
10
-35.361385
20
16.408970
30
0.0
11
-32.837115
21
16.408970
31
0.0
0
LINE
8
0
6
CONTINUOUS
10
-38.745045
20
16.408970
30
0.0
11
-35.361385
21
16.408970
31
0.0
0
ENDSEC
0
EOF
