999
Erzeugt mit innoplus bad 
0
SECTION
2
HEADER
9
$ACADVER
1
AC1009
9
$DWGCODEPAGE
3
ISO8859-1
0
ENDSEC
0
SECTION
2
TABLES
0
TABLE
2
LAYER
70
1
0
LAYER
2
0
70
0
62
7
6
CONTINUOUS
0
ENDTAB
0
ENDSEC
0
SECTION
2
ENTITIES
0
LINE
8
0
6
CONTINUOUS
10
38.572040
20
-34.619775
30
0.0
11
39.193930
21
-31.815085
31
0.0
0
LINE
8
0
6
CONTINUOUS
10
37.066130
20
-37.066305
30
0.0
11
38.572040
21
-34.619775
31
0.0
0
LINE
8
0
6
CONTINUOUS
10
39.521600
20
-28.960995
30
0.0
11
39.640270
21
-26.090605
31
0.0
0
LINE
8
0
6
CONTINUOUS
10
31.816610
20
-39.201415
30
0.0
11
34.610230
21
-38.568415
31
0.0
0
LINE
8
0
6
CONTINUOUS
10
39.193930
20
-31.815085
30
0.0
11
39.521600
21
-28.960995
31
0.0
0
LINE
8
0
6
CONTINUOUS
10
39.640270
20
-26.090605
30
0.0
11
40.000500
21
-0.000005
31
0.0
0
LINE
8
0
6
CONTINUOUS
10
28.960110
20
-39.525465
30
0.0
11
31.816610
21
-39.201415
31
0.0
0
LINE
8
0
6
CONTINUOUS
10
34.610230
20
-38.568415
30
0.0
11
37.066130
21
-37.066305
31
0.0
0
LINE
8
0
6
CONTINUOUS
10
26.090410
20
-39.640395
30
0.0
11
28.960110
21
-39.525465
31
0.0
0
LINE
8
0
6
CONTINUOUS
10
39.193930
20
31.815085
30
0.0
11
38.572040
21
34.619775
31
0.0
0
LINE
8
0
6
CONTINUOUS
10
28.960110
20
39.525465
30
0.0
11
26.090410
21
39.640395
31
0.0
0
LINE
8
0
6
CONTINUOUS
10
39.521600
20
28.960995
30
0.0
11
39.193930
21
31.815085
31
0.0
0
LINE
8
0
6
CONTINUOUS
10
39.640270
20
26.090605
30
0.0
11
39.521600
21
28.960995
31
0.0
0
LINE
8
0
6
CONTINUOUS
10
37.066130
20
37.066305
30
0.0
11
34.610230
21
38.568415
31
0.0
0
LINE
8
0
6
CONTINUOUS
10
38.572040
20
34.619775
30
0.0
11
37.066130
21
37.066305
31
0.0
0
LINE
8
0
6
CONTINUOUS
10
34.610230
20
38.568415
30
0.0
11
31.816610
21
39.201415
31
0.0
0
LINE
8
0
6
CONTINUOUS
10
-39.640270
20
26.090605
30
0.0
11
-40.000500
21
-0.000005
31
0.0
0
LINE
8
0
6
CONTINUOUS
10
0.000000
20
40.000545
30
0.0
11
-26.090410
21
39.640395
31
0.0
0
LINE
8
0
6
CONTINUOUS
10
-31.816610
20
39.201415
30
0.0
11
-34.610230
21
38.568415
31
0.0
0
LINE
8
0
6
CONTINUOUS
10
-37.066140
20
37.066305
30
0.0
11
-38.572040
21
34.619775
31
0.0
0
LINE
8
0
6
CONTINUOUS
10
-39.521600
20
28.960995
30
0.0
11
-39.640270
21
26.090605
31
0.0
0
LINE
8
0
6
CONTINUOUS
10
-39.193940
20
31.815085
30
0.0
11
-39.521600
21
28.960995
31
0.0
0
LINE
8
0
6
CONTINUOUS
10
-34.610230
20
38.568415
30
0.0
11
-37.066140
21
37.066305
31
0.0
0
LINE
8
0
6
CONTINUOUS
10
-38.572040
20
34.619775
30
0.0
11
-39.193940
21
31.815085
31
0.0
0
LINE
8
0
6
CONTINUOUS
10
-26.090410
20
39.640395
30
0.0
11
-28.960110
21
39.525465
31
0.0
0
LINE
8
0
6
CONTINUOUS
10
-37.066140
20
-37.066305
30
0.0
11
-34.610230
21
-38.568415
31
0.0
0
LINE
8
0
6
CONTINUOUS
10
-31.816610
20
-39.201415
30
0.0
11
-28.960110
21
-39.525465
31
0.0
0
LINE
8
0
6
CONTINUOUS
10
-28.960110
20
-39.525465
30
0.0
11
-26.090410
21
-39.640395
31
0.0
0
LINE
8
0
6
CONTINUOUS
10
-40.000500
20
-0.000005
30
0.0
11
-39.640270
21
-26.090605
31
0.0
0
LINE
8
0
6
CONTINUOUS
10
-34.610230
20
-38.568415
30
0.0
11
-31.816610
21
-39.201415
31
0.0
0
LINE
8
0
6
CONTINUOUS
10
-39.521600
20
-28.960995
30
0.0
11
-39.193940
21
-31.815085
31
0.0
0
LINE
8
0
6
CONTINUOUS
10
-39.640270
20
-26.090605
30
0.0
11
-39.521600
21
-28.960995
31
0.0
0
LINE
8
0
6
CONTINUOUS
10
-39.193940
20
-31.815085
30
0.0
11
-38.572040
21
-34.619775
31
0.0
0
LINE
8
0
6
CONTINUOUS
10
-38.572040
20
-34.619775
30
0.0
11
-37.066140
21
-37.066305
31
0.0
0
LINE
8
0
6
CONTINUOUS
10
-26.090410
20
-39.640395
30
0.0
11
0.000000
21
-40.000545
31
0.0
0
LINE
8
0
6
CONTINUOUS
10
-28.960110
20
39.525465
30
0.0
11
-31.816610
21
39.201415
31
0.0
0
LINE
8
0
6
CONTINUOUS
10
40.000500
20
-0.000005
30
0.0
11
39.640270
21
26.090605
31
0.0
0
LINE
8
0
6
CONTINUOUS
10
31.816610
20
39.201415
30
0.0
11
28.960110
21
39.525465
31
0.0
0
LINE
8
0
6
CONTINUOUS
10
0.000000
20
-40.000545
30
0.0
11
26.090410
21
-39.640395
31
0.0
0
LINE
8
0
6
CONTINUOUS
10
26.090410
20
39.640395
30
0.0
11
0.000000
21
40.000545
31
0.0
0
ENDSEC
0
EOF
